  0
SECTION
  2
HEADER
  9
$ACADVER
  1
AC1015
  9
$ACADMAINTVER
 70
     6
  9
$DWGCODEPAGE
  3
ANSI_1252
  9
$INSBASE
 10
0.0
 20
0.0
 30
0.0
  9
$EXTMIN
 10
0.0
 20
0.0
 30
0.0
  9
$EXTMAX
 10
1189.0
 20
841.0
 30
0.0
  9
$LIMMIN
 10
0.0
 20
0.0
  9
$LIMMAX
 10
1189.0
 20
841.0
  9
$ORTHOMODE
 70
     0
  9
$REGENMODE
 70
     1
  9
$FILLMODE
 70
     1
  9
$QTEXTMODE
 70
     0
  9
$MIRRTEXT
 70
     1
  9
$LTSCALE
 40
1.0
  9
$ATTMODE
 70
     1
  9
$TEXTSIZE
 40
3.5
  9
$TRACEWID
 40
1.0
  9
$TEXTSTYLE
  7
STANDARD
  9
$CLAYER
  8
0
  9
$CELTYPE
  6
ByLayer
  9
$CECOLOR
 62
   256
  9
$CELTSCALE
 40
1.0
  9
$DISPSILH
 70
     0
  9
$DIMSCALE
 40
1.0
  9
$DIMASZ
 40
3.302
  9
$DIMEXO
 40
1.0
  9
$DIMDLI
 40
3.75
  9
$DIMRND
 40
0.0
  9
$DIMDLE
 40
0.0
  9
$DIMEXE
 40
1.0
  9
$DIMTP
 40
0.0
  9
$DIMTM
 40
0.0
  9
$DIMTXT
 40
3.5
  9
$DIMCEN
 40
2.5
  9
$DIMTSZ
 40
0.0
  9
$DIMTOL
 70
     0
  9
$DIMLIM
 70
     0
  9
$DIMTIH
 70
     1
  9
$DIMTOH
 70
     1
  9
$DIMSE1
 70
     0
  9
$DIMSE2
 70
     0
  9
$DIMTAD
 70
     1
  9
$DIMZIN
 70
     1
  9
$DIMBLK
  1

  9
$DIMASO
 70
     1
  9
$DIMSHO
 70
     1
  9
$DIMPOST
  1

  9
$DIMAPOST
  1

  9
$DIMALT
 70
     0
  9
$DIMALTD
 70
     3
  9
$DIMALTF
 40
0.0393700787
  9
$DIMLFAC
 40
1.0
  9
$DIMTOFL
 70
     1
  9
$DIMTVP
 40
0.0
  9
$DIMTIX
 70
     0
  9
$DIMSOXD
 70
     0
  9
$DIMSAH
 70
     0
  9
$DIMBLK1
  1

  9
$DIMBLK2
  1

  9
$DIMSTYLE
  2
ISO-25
  9
$DIMCLRD
 70
     0
  9
$DIMCLRE
 70
     0
  9
$DIMCLRT
 70
     0
  9
$DIMTFAC
 40
1.0
  9
$DIMGAP
 40
1.524
  9
$DIMJUST
 70
     0
  9
$DIMSD1
 70
     0
  9
$DIMSD2
 70
     0
  9
$DIMTOLJ
 70
     0
  9
$DIMTZIN
 70
     1
  9
$DIMALTZ
 70
     0
  9
$DIMALTTZ
 70
     0
  9
$DIMUPT
 70
     0
  9
$DIMDEC
 70
     1
  9
$DIMTDEC
 70
     1
  9
$DIMALTU
 70
     2
  9
$DIMALTTD
 70
     3
  9
$DIMTXSTY
  7
STANDARD
  9
$DIMAUNIT
 70
     0
  9
$DIMADEC
 70
     1
  9
$DIMALTRND
 40
0.0
  9
$DIMAZIN
 70
     0
  9
$DIMDSEP
 70
    44
  9
$DIMATFIT
 70
     3
  9
$DIMFRAC
 70
     0
  9
$DIMLDRBLK
  1

  9
$DIMLUNIT
 70
     2
  9
$DIMLWD
 70
    -2
  9
$DIMLWE
 70
    -2
  9
$DIMTMOVE
 70
     0
  9
$LUNITS
 70
     2
  9
$LUPREC
 70
     1
  9
$SKETCHINC
 40
1.0
  9
$FILLETRAD
 40
10.0
  9
$AUNITS
 70
     0
  9
$AUPREC
 70
     1
  9
$MENU
  1
.
  9
$ELEVATION
 40
0.0
  9
$PELEVATION
 40
0.0
  9
$THICKNESS
 40
0.0
  9
$LIMCHECK
 70
     0
  9
$CHAMFERA
 40
10.0
  9
$CHAMFERB
 40
10.0
  9
$CHAMFERC
 40
20.0
  9
$CHAMFERD
 40
0.0
  9
$SKPOLY
 70
     0
  9
$TDCREATE
 40
2455657.666285567
  9
$TDUCREATE
 40
2455657.6246189
  9
$TDUPDATE
 40
2455657.666285579
  9
$TDUUPDATE
 40
2455657.624618912
  9
$TDINDWG
 40
0.0000000116
  9
$TDUSRTIMER
 40
0.0000000116
  9
$USRTIMER
 70
     1
  9
$ANGBASE
 50
0.0
  9
$ANGDIR
 70
     0
  9
$PDMODE
 70
     0
  9
$PDSIZE
 40
-1.0
  9
$PLINEWID
 40
0.0
  9
$SPLFRAME
 70
     0
  9
$SPLINETYPE
 70
     6
  9
$SPLINESEGS
 70
     8
  9
$HANDSEED
  5
6D0
  9
$SURFTAB1
 70
     6
  9
$SURFTAB2
 70
     6
  9
$SURFTYPE
 70
     6
  9
$SURFU
 70
     6
  9
$SURFV
 70
     6
  9
$UCSBASE
  2

  9
$UCSNAME
  2

  9
$UCSORG
 10
0.0
 20
0.0
 30
0.0
  9
$UCSXDIR
 10
1.0
 20
0.0
 30
0.0
  9
$UCSYDIR
 10
0.0
 20
1.0
 30
0.0
  9
$UCSORTHOREF
  2

  9
$UCSORTHOVIEW
 70
     0
  9
$UCSORGTOP
 10
0.0
 20
0.0
 30
0.0
  9
$UCSORGBOTTOM
 10
0.0
 20
0.0
 30
0.0
  9
$UCSORGLEFT
 10
0.0
 20
0.0
 30
0.0
  9
$UCSORGRIGHT
 10
0.0
 20
0.0
 30
0.0
  9
$UCSORGFRONT
 10
0.0
 20
0.0
 30
0.0
  9
$UCSORGBACK
 10
0.0
 20
0.0
 30
0.0
  9
$PUCSBASE
  2

  9
$PUCSNAME
  2

  9
$PUCSORG
 10
0.0
 20
0.0
 30
0.0
  9
$PUCSXDIR
 10
1.0
 20
0.0
 30
0.0
  9
$PUCSYDIR
 10
0.0
 20
1.0
 30
0.0
  9
$PUCSORTHOREF
  2

  9
$PUCSORTHOVIEW
 70
     0
  9
$PUCSORGTOP
 10
0.0
 20
0.0
 30
0.0
  9
$PUCSORGBOTTOM
 10
0.0
 20
0.0
 30
0.0
  9
$PUCSORGLEFT
 10
0.0
 20
0.0
 30
0.0
  9
$PUCSORGRIGHT
 10
0.0
 20
0.0
 30
0.0
  9
$PUCSORGFRONT
 10
0.0
 20
0.0
 30
0.0
  9
$PUCSORGBACK
 10
0.0
 20
0.0
 30
0.0
  9
$USERI1
 70
     0
  9
$USERI2
 70
     0
  9
$USERI3
 70
     0
  9
$USERI4
 70
     0
  9
$USERI5
 70
     0
  9
$USERR1
 40
0.0
  9
$USERR2
 40
0.0
  9
$USERR3
 40
0.0
  9
$USERR4
 40
0.0
  9
$USERR5
 40
0.0
  9
$WORLDVIEW
 70
     1
  9
$SHADEDGE
 70
     3
  9
$SHADEDIF
 70
    70
  9
$TILEMODE
 70
     1
  9
$MAXACTVP
 70
    64
  9
$PINSBASE
 10
0.0
 20
0.0
 30
0.0
  9
$PLIMCHECK
 70
     0
  9
$PEXTMIN
 10
1.0000000000E+20
 20
1.0000000000E+20
 30
1.0000000000E+20
  9
$PEXTMAX
 10
-1.0000000000E+20
 20
-1.0000000000E+20
 30
-1.0000000000E+20
  9
$PLIMMIN
 10
0.0
 20
0.0
  9
$PLIMMAX
 10
420.0
 20
297.0
  9
$UNITMODE
 70
     0
  9
$VISRETAIN
 70
     1
  9
$PLINEGEN
 70
     0
  9
$PSLTSCALE
 70
     1
  9
$TREEDEPTH
 70
  3020
  9
$CMLSTYLE
  2
Standard
  9
$CMLJUST
 70
     0
  9
$CMLSCALE
 40
20.0
  9
$PROXYGRAPHICS
 70
     1
  9
$MEASUREMENT
 70
     1
  9
$CELWEIGHT
370
    -1
  9
$ENDCAPS
280
     0
  9
$JOINSTYLE
280
     0
  9
$LWDISPLAY
290
     1
  9
$INSUNITS
 70
     4
  9
$HYPERLINKBASE
  1

  9
$STYLESHEET
  1

  9
$XEDIT
290
     1
  9
$CEPSNTYPE
380
     0
  9
$PSTYLEMODE
290
     1
  9
$FINGERPRINTGUID
  2
{26A8B96B-7105-445F-ABA8-6BEBF0D6BB21}
  9
$VERSIONGUID
  2
{FAEB1C32-E019-11D5-929B-00C0DF256EC4}
  9
$EXTNAMES
290
     1
  9
$PSVPSCALE
 40
0.0
  9
$OLESTARTUP
290
     0
  0
ENDSEC
  0
SECTION
  2
CLASSES
  0
CLASS
  1
ACDBDICTIONARYWDFLT
  2
AcDbDictionaryWithDefault
  3
ObjectDBX Classes
 90
        0
280
     0
281
     0
  0
CLASS
  1
VISUALSTYLE
  2
AcDbVisualStyle
  3
ObjectDBX Classes
 90
     4095
280
     0
281
     0
  0
CLASS
  1
MATERIAL
  2
AcDbMaterial
  3
ObjectDBX Classes
 90
     1153
280
     0
281
     0
  0
CLASS
  1
ACDBPLACEHOLDER
  2
AcDbPlaceHolder
  3
ObjectDBX Classes
 90
        0
280
     0
281
     0
  0
CLASS
  1
LAYOUT
  2
AcDbLayout
  3
ObjectDBX Classes
 90
        0
280
     0
281
     0
  0
ENDSEC
  0
SECTION
  2
TABLES
  0
TABLE
  2
VPORT
  5
8
330
0
100
AcDbSymbolTable
 70
     1
  0
VPORT
  5
29
330
8
100
AcDbSymbolTableRecord
100
AcDbViewportTableRecord
  2
*Active
 70
     0
 10
0.0
 20
0.0
 11
1.0
 21
1.0
 12
594.5
 22
420.5
 13
0.0
 23
0.0
 14
10.0
 24
10.0
 15
10.0
 25
10.0
 16
0.0
 26
0.0
 36
1.0
 17
0.0
 27
0.0
 37
0.0
 40
841.0
 41
1.4137931034
 42
50.0
 43
0.0
 44
0.0
 50
0.0
 51
0.0
 71
     0
 72
  2000
 73
     1
 74
     3
 75
     0
 76
     0
 77
     0
 78
     0
281
     0
 65
     1
110
0.0
120
0.0
130
0.0
111
1.0
121
0.0
131
0.0
112
0.0
122
1.0
132
0.0
 79
     0
146
0.0
  0
ENDTAB
  0
TABLE
  2
LTYPE
  5
5
330
0
100
AcDbSymbolTable
 70
     8
  0
LTYPE
  5
14
330
5
100
AcDbSymbolTableRecord
100
AcDbLinetypeTableRecord
  2
ByBlock
 70
     0
  3

 72
    65
 73
     0
 40
0.0
  0
LTYPE
  5
15
330
5
100
AcDbSymbolTableRecord
100
AcDbLinetypeTableRecord
  2
ByLayer
 70
     0
  3

 72
    65
 73
     0
 40
0.0
  0
LTYPE
  5
16
330
5
100
AcDbSymbolTableRecord
100
AcDbLinetypeTableRecord
  2
Continuous
 70
     0
  3
Solid line
 72
    65
 73
     0
 40
0.0
  0
LTYPE
  5
3F
330
5
100
AcDbSymbolTableRecord
100
AcDbLinetypeTableRecord
  2
SLD-Solid
 70
     0
  3
SolidWorks Line Style
 72
    65
 73
     0
 40
0.0
  0
LTYPE
  5
40
330
5
100
AcDbSymbolTableRecord
100
AcDbLinetypeTableRecord
  2
SLD-Dashed
 70
     0
  3
SolidWorks Line Style
 72
    65
 73
     2
 40
1.905
 49
1.27
 74
     0
 49
-0.635
 74
     0
  0
LTYPE
  5
41
330
5
100
AcDbSymbolTableRecord
100
AcDbLinetypeTableRecord
  2
SLD-Phantom
 70
     0
  3
SolidWorks Line Style
 72
    65
 73
     6
 40
12.7
 49
6.35
 74
     0
 49
-1.27
 74
     0
 49
1.27
 74
     0
 49
-1.27
 74
     0
 49
1.27
 74
     0
 49
-1.27
 74
     0
  0
LTYPE
  5
42
330
5
100
AcDbSymbolTableRecord
100
AcDbLinetypeTableRecord
  2
SLD-Chain
 70
     0
  3
SolidWorks Line Style
 72
    65
 73
     4
 40
10.16
 49
6.35
 74
     0
 49
-1.27
 74
     0
 49
1.27
 74
     0
 49
-1.27
 74
     0
  0
LTYPE
  5
43
330
5
100
AcDbSymbolTableRecord
100
AcDbLinetypeTableRecord
  2
SLD-Center
 70
     0
  3
SolidWorks Line Style
 72
    65
 73
     4
 40
19.05
 49
15.24
 74
     0
 49
-1.27
 74
     0
 49
1.27
 74
     0
 49
-1.27
 74
     0
  0
LTYPE
  5
44
330
5
100
AcDbSymbolTableRecord
100
AcDbLinetypeTableRecord
  2
SLD-Stitch
 70
     0
  3
SolidWorks Line Style
 72
    65
 73
     2
 40
0.635
 49
0.0
 74
     0
 49
-0.635
 74
     0
  0
LTYPE
  5
45
330
5
100
AcDbSymbolTableRecord
100
AcDbLinetypeTableRecord
  2
SLD-Thin-Thick-Chain
 70
     0
  3
SolidWorks Line Style
 72
    65
 73
     4
 40
10.16
 49
6.35
 74
     0
 49
-1.27
 74
     0
 49
1.27
 74
     0
 49
-1.27
 74
     0
  0
ENDTAB
  0
TABLE
  2
LAYER
  5
2
330
0
100
AcDbSymbolTable
 70
     5
  0
LAYER
  5
10
330
2
100
AcDbSymbolTableRecord
100
AcDbLayerTableRecord
  2
0
 70
     0
 62
     7
  6
Continuous
370
    -3
390
F
  0
LAYER
  5
46
330
2
100
AcDbSymbolTableRecord
100
AcDbLayerTableRecord
  2
SLD-0_0
 70
     0
 62
   179
  6
SLD-Solid
370
    -3
390
F
  0
LAYER
  5
47
330
2
100
AcDbSymbolTableRecord
100
AcDbLayerTableRecord
  2
FORMAT
 70
     0
 62
   179
  6
SLD-Solid
370
    -3
390
F
  0
LAYER
  5
48
330
2
100
AcDbSymbolTableRecord
100
AcDbLayerTableRecord
  2
SLD-0
 70
     0
 62
     1
  6
SLD-Solid
370
    -3
390
F
  0
LAYER
  5
49
330
2
100
AcDbSymbolTableRecord
100
AcDbLayerTableRecord
  2
WATERMARK
 70
     0
 62
    20
  6
SLD-Solid
370
    -3
390
F
  0
ENDTAB
  0
TABLE
  2
STYLE
  5
3
330
0
100
AcDbSymbolTable
 70
     1
  0
STYLE
  5
11
330
3
100
AcDbSymbolTableRecord
100
AcDbTextStyleTableRecord
  2
STANDARD
 70
     0
 40
0.0
 41
1.0
 50
0.0
 71
     0
 42
2.5
  3
GOTHIC.TTF
  4

1001
ACAD
1000
CENTURY GOTHIC
1071
       34
  0
ENDTAB
  0
TABLE
  2
VIEW
  5
6
330
0
100
AcDbSymbolTable
 70
     0
  0
ENDTAB
  0
TABLE
  2
UCS
  5
7
330
0
100
AcDbSymbolTable
 70
     0
  0
ENDTAB
  0
TABLE
  2
APPID
  5
9
330
0
100
AcDbSymbolTable
 70
     1
  0
APPID
  5
12
330
9
100
AcDbSymbolTableRecord
100
AcDbRegAppTableRecord
  2
ACAD
 70
     0
  0
ENDTAB
  0
TABLE
  2
DIMSTYLE
  5
A
330
0
100
AcDbSymbolTable
 70
     1
100
AcDbDimStyleTable
  0
DIMSTYLE
105
27
330
A
100
AcDbSymbolTableRecord
100
AcDbDimStyleTableRecord
  2
ISO-25
 70
     0
 41
2.5
 42
0.625
 43
3.75
 44
1.25
 73
     0
 74
     0
 77
     1
 78
     8
140
2.5
141
2.5
143
0.0393700787
147
0.625
171
     3
172
     1
271
     2
272
     2
274
     3
278
    44
283
     0
284
     8
340
11
  0
ENDTAB
  0
TABLE
  2
BLOCK_RECORD
  5
1
330
0
100
AcDbSymbolTable
 70
     1
  0
BLOCK_RECORD
  5
1F
330
1
100
AcDbSymbolTableRecord
100
AcDbBlockTableRecord
  2
*Model_Space
340
22
  0
BLOCK_RECORD
  5
1B
330
1
100
AcDbSymbolTableRecord
100
AcDbBlockTableRecord
  2
*Paper_Space
340
1E
  0
BLOCK_RECORD
  5
23
330
1
100
AcDbSymbolTableRecord
100
AcDbBlockTableRecord
  2
*Paper_Space0
340
26
  0
ENDTAB
  0
ENDSEC
  0
SECTION
  2
BLOCKS
  0
BLOCK
  5
20
330
1F
100
AcDbEntity
  8
0
100
AcDbBlockBegin
  2
*Model_Space
 70
     0
 10
0.0
 20
0.0
 30
0.0
  3
*Model_Space
  1

  0
ENDBLK
  5
21
330
1F
100
AcDbEntity
  8
0
100
AcDbBlockEnd
  0
BLOCK
  5
1C
330
1B
100
AcDbEntity
 67
     1
  8
0
100
AcDbBlockBegin
  2
*Paper_Space
 70
     0
 10
0.0
 20
0.0
 30
0.0
  3
*Paper_Space
  1

  0
ENDBLK
  5
1D
330
1B
100
AcDbEntity
 67
     1
  8
0
100
AcDbBlockEnd
  0
BLOCK
  5
24
330
23
100
AcDbEntity
  8
0
100
AcDbBlockBegin
  2
*Paper_Space0
 70
     0
 10
0.0
 20
0.0
 30
0.0
  3
*Paper_Space0
  1

  0
ENDBLK
  5
25
330
23
100
AcDbEntity
  8
0
100
AcDbBlockEnd
  0
ENDSEC
  0
SECTION
  2
ENTITIES
  0
LINE
  5
4A
330
1F
100
AcDbEntity
  8
SLD-0_0
  6
SLD-Solid
 62
   179
370
    15
100
AcDbLine
 10
368.305681965
 20
1174.4316445214
 30
0.0
 11
368.305681965
 21
1174.419127546
 31
0.0
  0
LINE
  5
4B
330
1F
100
AcDbEntity
  8
SLD-0_0
  6
SLD-Solid
 62
   179
370
    15
100
AcDbLine
 10
331.0535836431
 20
1174.3191705567
 30
0.0
 11
331.0535836431
 21
1174.2191539627
 31
0.0
  0
LINE
  5
4C
330
1F
100
AcDbEntity
  8
SLD-0_0
  6
SLD-Solid
 62
   179
370
    15
100
AcDbLine
 10
379.7771918985
 20
1174.3191705567
 30
0.0
 11
379.7771918985
 21
1174.419127546
 31
0.0
  0
LINE
  5
4D
330
1F
100
AcDbEntity
  8
SLD-0_0
  6
SLD-Solid
 62
   179
370
    15
100
AcDbLine
 10
399.463980219
 20
649.1823719364
 30
0.0
 11
399.3639934274
 21
649.1823719364
 31
0.0
  0
LINE
  5
4E
330
1F
100
AcDbEntity
  8
SLD-0_0
  6
SLD-Solid
 62
   179
370
    15
100
AcDbLine
 10
387.5615883085
 20
531.0811997873
 30
0.0
 11
387.5608432504
 21
531.0591460687
 31
0.0
  0
LINE
  5
4F
330
1F
100
AcDbEntity
  8
SLD-0_0
  6
SLD-Solid
 62
   179
370
    15
100
AcDbLine
 10
387.5608432504
 20
531.0591460687
 30
0.0
 11
387.5245142194
 21
531.0018287522
 31
0.0
  0
LINE
  5
50
330
1F
100
AcDbEntity
  8
SLD-0_0
  6
SLD-Solid
 62
   179
370
    15
100
AcDbLine
 10
387.5245142194
 20
531.0018287522
 30
0.0
 11
387.4721217367
 21
530.9641288143
 31
0.0
  0
LINE
  5
51
330
1F
100
AcDbEntity
  8
SLD-0_0
  6
SLD-Solid
 62
   179
370
    15
100
AcDbLine
 10
387.4721217367
 20
530.9641288143
 30
0.0
 11
387.4056029531
 21
530.9382902008
 31
0.0
  0
LINE
  5
52
330
1F
100
AcDbEntity
  8
SLD-0_0
  6
SLD-Solid
 62
   179
370
    15
100
AcDbLine
 10
387.4056029531
 20
530.9382902008
 30
0.0
 11
387.3234379503
 21
530.9266896468
 31
0.0
  0
LINE
  5
53
330
1F
100
AcDbEntity
  8
SLD-0_0
  6
SLD-Solid
 62
   179
370
    15
100
AcDbLine
 10
387.3234379503
 20
530.9266896468
 30
0.0
 11
387.3142886373
 21
530.927166484
 31
0.0
  0
LINE
  5
54
330
1F
100
AcDbEntity
  8
SLD-0_0
  6
SLD-Solid
 62
   179
370
    15
100
AcDbLine
 10
387.3139906141
 20
530.9265331847
 30
0.0
 11
382.2139787885
 21
530.9265331847
 31
0.0
  0
LINE
  5
55
330
1F
100
AcDbEntity
  8
SLD-0_0
  6
SLD-Solid
 62
   179
370
    15
100
AcDbLine
 10
382.2139812331
 20
525.988709052
 30
0.0
 11
387.3139906141
 21
525.9887055975
 31
0.0
  0
LINE
  5
56
330
1F
100
AcDbEntity
  8
SLD-0_0
  6
SLD-Solid
 62
   179
370
    15
100
AcDbLine
 10
387.3139906141
 20
544.8495821577
 30
0.0
 11
382.2139787885
 21
544.8495821577
 31
0.0
  0
LINE
  5
57
330
1F
100
AcDbEntity
  8
SLD-0_0
  6
SLD-Solid
 62
   179
370
    15
100
AcDbLine
 10
387.5650155755
 20
538.9752016884
 30
0.0
 11
387.5654030057
 21
538.9833079201
 31
0.0
  0
LINE
  5
58
330
1F
100
AcDbEntity
  8
SLD-0_0
  6
SLD-Solid
 62
   179
370
    15
100
AcDbLine
 10
387.5654030057
 20
538.9833079201
 30
0.0
 11
387.5841486665
 21
539.0128271204
 31
0.0
  0
LINE
  5
59
330
1F
100
AcDbEntity
  8
SLD-0_0
  6
SLD-Solid
 62
   179
370
    15
100
AcDbLine
 10
387.5841486665
 20
539.0128271204
 30
0.0
 11
387.6276898595
 21
539.0470401865
 31
0.0
  0
LINE
  5
5A
330
1F
100
AcDbEntity
  8
SLD-0_0
  6
SLD-Solid
 62
   179
370
    15
100
AcDbLine
 10
387.6276898595
 20
539.0470401865
 30
0.0
 11
387.689946911
 21
539.0746669394
 31
0.0
  0
LINE
  5
5B
330
1F
100
AcDbEntity
  8
SLD-0_0
  6
SLD-Solid
 62
   179
370
    15
100
AcDbLine
 10
387.689946911
 20
539.0746669394
 30
0.0
 11
387.7738106462
 21
539.0916691643
 31
0.0
  0
LINE
  5
5C
330
1F
100
AcDbEntity
  8
SLD-0_0
  6
SLD-Solid
 62
   179
370
    15
100
AcDbLine
 10
387.7738106462
 20
539.0916691643
 30
0.0
 11
387.8139841768
 21
539.0916691643
 31
0.0
  0
LINE
  5
5D
330
1F
100
AcDbEntity
  8
SLD-0_0
  6
SLD-Solid
 62
   179
370
    15
100
AcDbLine
 10
387.8139841768
 20
539.0935616118
 30
0.0
 11
392.9139960023
 21
539.0935616118
 31
0.0
  0
LINE
  5
5E
330
1F
100
AcDbEntity
  8
SLD-0_0
  6
SLD-Solid
 62
   179
370
    15
100
AcDbLine
 10
392.9139960023
 20
544.4197283608
 30
0.0
 11
387.8139841768
 21
544.4197283608
 31
0.0
  0
LINE
  5
5F
330
1F
100
AcDbEntity
  8
SLD-0_0
  6
SLD-Solid
 62
   179
370
    15
100
AcDbLine
 10
386.8772077772
 20
544.1191421372
 30
0.0
 11
386.6139936658
 21
544.1191421372
 31
0.0
  0
LINE
  5
60
330
1F
100
AcDbEntity
  8
SLD-0_0
  6
SLD-Solid
 62
   179
370
    15
100
AcDbLine
 10
388.3855033132
 20
526.4185742956
 30
0.0
 11
392.9139960023
 21
526.4185742956
 31
0.0
  0
LINE
  5
61
330
1F
100
AcDbEntity
  8
SLD-0_0
  6
SLD-Solid
 62
   179
370
    15
100
AcDbLine
 10
393.9639914247
 20
540.4191540104
 30
0.0
 11
393.8757765504
 21
540.571920715
 31
0.0
  0
LINE
  5
62
330
1F
100
AcDbEntity
  8
SLD-0_0
  6
SLD-Solid
 62
   179
370
    15
100
AcDbLine
 10
388.7639928075
 20
530.419148646
 30
0.0
 11
388.8521778795
 21
530.2663670403
 31
0.0
  0
LINE
  5
63
330
1F
100
AcDbEntity
  8
SLD-0_0
  6
SLD-Solid
 62
   179
370
    15
100
AcDbLine
 10
393.8757765504
 20
530.2663670403
 30
0.0
 11
393.9639914247
 21
530.419148646
 31
0.0
  0
LINE
  5
64
330
1F
100
AcDbEntity
  8
SLD-0_0
  6
SLD-Solid
 62
   179
370
    15
100
AcDbLine
 10
394.2139733049
 20
530.419148646
 30
0.0
 11
394.4103408071
 21
530.0790445429
 31
0.0
  0
LINE
  5
65
330
1F
100
AcDbEntity
  8
SLD-0_0
  6
SLD-Solid
 62
   179
370
    15
100
AcDbLine
 10
399.2176342222
 20
530.0790445429
 30
0.0
 11
399.413971922
 21
530.419148646
 31
0.0
  0
LINE
  5
66
330
1F
100
AcDbEntity
  8
SLD-0_0
  6
SLD-Solid
 62
   179
370
    15
100
AcDbLine
 10
394.4103408071
 20
540.7592432123
 30
0.0
 11
394.2139733049
 21
540.4191540104
 31
0.0
  0
LINE
  5
67
330
1F
100
AcDbEntity
  8
SLD-0_0
  6
SLD-Solid
 62
   179
370
    15
100
AcDbLine
 10
399.413971922
 20
540.4191540104
 30
0.0
 11
399.2176342222
 21
540.7592432123
 31
0.0
  0
LINE
  5
68
330
1F
100
AcDbEntity
  8
SLD-0_0
  6
SLD-Solid
 62
   179
370
    15
100
AcDbLine
 10
399.413971922
 20
529.3191449267
 30
0.0
 11
399.5639670106
 21
529.3191449267
 31
0.0
  0
LINE
  5
69
330
1F
100
AcDbEntity
  8
SLD-0_0
  6
SLD-Solid
 62
   179
370
    15
100
AcDbLine
 10
399.5639670106
 20
541.5191428286
 30
0.0
 11
399.413971922
 21
541.5191428286
 31
0.0
  0
LINE
  5
6A
330
1F
100
AcDbEntity
  8
SLD-0_0
  6
SLD-Solid
 62
   179
370
    15
100
AcDbLine
 10
394.2139733049
 20
538.4191499573
 30
0.0
 11
393.9639914247
 21
538.4191499573
 31
0.0
  0
LINE
  5
6B
330
1F
100
AcDbEntity
  8
SLD-0_0
  6
SLD-Solid
 62
   179
370
    15
100
AcDbLine
 10
393.9639914247
 20
532.4191452485
 30
0.0
 11
394.2139733049
 21
532.4191452485
 31
0.0
  0
LINE
  5
6C
330
1F
100
AcDbEntity
  8
SLD-0_0
  6
SLD-Solid
 62
   179
370
    15
100
AcDbLine
 10
500.3639745923
 20
317.3191474301
 30
0.0
 11
500.3639745923
 21
321.3191480857
 31
0.0
  0
LINE
  5
6D
330
1F
100
AcDbEntity
  8
SLD-0_0
  6
SLD-Solid
 62
   179
370
    15
100
AcDbLine
 10
443.363993189
 20
321.3191480857
 30
0.0
 11
443.363993189
 21
317.3191474301
 31
0.0
  0
LINE
  5
6E
330
1F
100
AcDbEntity
  8
SLD-0_0
  6
SLD-Solid
 62
   179
370
    15
100
AcDbLine
 10
1089.3639910432
 20
317.3191474301
 30
0.0
 11
1089.3639910432
 21
321.3191480857
 31
0.0
  0
LINE
  5
6F
330
1F
100
AcDbEntity
  8
SLD-0_0
  6
SLD-Solid
 62
   179
370
    15
100
AcDbLine
 10
1032.3639798375
 20
321.3191480857
 30
0.0
 11
1032.3639798375
 21
317.3191474301
 31
0.0
  0
LINE
  5
70
330
1F
100
AcDbEntity
  8
SLD-0_0
  6
SLD-Solid
 62
   179
370
    15
100
AcDbLine
 10
1089.1639876577
 20
321.3191480857
 30
0.0
 11
1089.1639876577
 21
389.3191480559
 31
0.0
  0
LINE
  5
71
330
1F
100
AcDbEntity
  8
SLD-0_0
  6
SLD-Solid
 62
   179
370
    15
100
AcDbLine
 10
1032.5639832231
 20
389.3191480559
 30
0.0
 11
1032.5639832231
 21
321.3191480857
 31
0.0
  0
LINE
  5
72
330
1F
100
AcDbEntity
  8
SLD-0_0
  6
SLD-Solid
 62
   179
370
    15
100
AcDbLine
 10
500.163986108
 20
321.3191480857
 30
0.0
 11
500.163986108
 21
389.3191480559
 31
0.0
  0
LINE
  5
73
330
1F
100
AcDbEntity
  8
SLD-0_0
  6
SLD-Solid
 62
   179
370
    15
100
AcDbLine
 10
443.5639667722
 20
389.3191480559
 30
0.0
 11
443.5639667722
 21
321.3191480857
 31
0.0
  0
LINE
  5
74
330
1F
100
AcDbEntity
  8
SLD-0_0
  6
SLD-Solid
 62
   179
370
    15
100
AcDbLine
 10
1092.7639889928
 20
395.3517136645
 30
0.0
 11
1092.763981232
 21
481.8191481621
 31
0.0
  0
LINE
  5
75
330
1F
100
AcDbEntity
  8
SLD-0_0
  6
SLD-Solid
 62
   179
370
    15
100
AcDbLine
 10
1028.963981232
 20
481.8191481621
 30
0.0
 11
1028.9639818879
 21
395.3517136645
 31
0.0
  0
LINE
  5
76
330
1F
100
AcDbEntity
  8
SLD-0_0
  6
SLD-Solid
 62
   179
370
    15
100
AcDbLine
 10
1029.0279078695
 20
394.5792505068
 30
0.0
 11
1029.9043345662
 21
389.3191480559
 31
0.0
  0
LINE
  5
77
330
1F
100
AcDbEntity
  8
SLD-0_0
  6
SLD-Solid
 62
   179
370
    15
100
AcDbLine
 10
1091.8236363145
 20
389.3191480559
 30
0.0
 11
1092.700068005
 21
394.5792508832
 31
0.0
  0
LINE
  5
78
330
1F
100
AcDbEntity
  8
SLD-0_0
  6
SLD-Solid
 62
   179
370
    15
100
AcDbLine
 10
503.7639812321
 20
395.3517141077
 30
0.0
 11
503.7639812321
 21
481.8191481621
 31
0.0
  0
LINE
  5
79
330
1F
100
AcDbEntity
  8
SLD-0_0
  6
SLD-Solid
 62
   179
370
    15
100
AcDbLine
 10
439.9639952394
 20
481.8191455227
 30
0.0
 11
439.9639952394
 21
395.3517136645
 31
0.0
  0
LINE
  5
7A
330
1F
100
AcDbEntity
  8
SLD-0_0
  6
SLD-Solid
 62
   179
370
    15
100
AcDbLine
 10
440.0278944591
 20
394.5792508832
 30
0.0
 11
440.9043181154
 21
389.3191480559
 31
0.0
  0
LINE
  5
7B
330
1F
100
AcDbEntity
  8
SLD-0_0
  6
SLD-Solid
 62
   179
370
    15
100
AcDbLine
 10
502.8236347648
 20
389.3191480559
 30
0.0
 11
503.7000680051
 21
394.5792508832
 31
0.0
  0
LINE
  5
7C
330
1F
100
AcDbEntity
  8
SLD-0_0
  6
SLD-Solid
 62
   179
370
    15
100
AcDbLine
 10
860.5831626269
 20
1206.6154108864
 30
0.0
 11
860.5848539087
 21
1206.6154108864
 31
0.0
  0
LINE
  5
7D
330
1F
100
AcDbEntity
  8
SLD-0_0
  6
SLD-Solid
 62
   179
370
    15
100
AcDbLine
 10
860.5848539087
 20
1206.6154108864
 30
0.0
 11
860.4758817169
 21
1206.6294775826
 31
0.0
  0
LINE
  5
7E
330
1F
100
AcDbEntity
  8
SLD-0_0
  6
SLD-Solid
 62
   179
370
    15
100
AcDbLine
 10
860.4758817169
 20
1206.6294775826
 30
0.0
 11
860.1321193787
 21
1206.7070232254
 31
0.0
  0
LINE
  5
7F
330
1F
100
AcDbEntity
  8
SLD-0_0
  6
SLD-Solid
 62
   179
370
    15
100
AcDbLine
 10
860.1321193787
 20
1206.7070232254
 30
0.0
 11
859.471923432
 21
1206.963323198
 31
0.0
  0
LINE
  5
80
330
1F
100
AcDbEntity
  8
SLD-0_0
  6
SLD-Solid
 62
   179
370
    15
100
AcDbLine
 10
859.471923432
 20
1206.963323198
 30
0.0
 11
858.6904767367
 21
1207.4606047493
 31
0.0
  0
LINE
  5
81
330
1F
100
AcDbEntity
  8
SLD-0_0
  6
SLD-Solid
 62
   179
370
    15
100
AcDbLine
 10
858.6904767367
 20
1207.4606047493
 30
0.0
 11
857.9391452881
 21
1208.2187162262
 31
0.0
  0
LINE
  5
82
330
1F
100
AcDbEntity
  8
SLD-0_0
  6
SLD-Solid
 62
   179
370
    15
100
AcDbLine
 10
857.9391452881
 20
1208.2187162262
 30
0.0
 11
857.3542225572
 21
1209.1901527268
 31
0.0
  0
LINE
  5
83
330
1F
100
AcDbEntity
  8
SLD-0_0
  6
SLD-Solid
 62
   179
370
    15
100
AcDbLine
 10
857.3542225572
 20
1209.1901527268
 30
0.0
 11
856.9993514034
 21
1210.4032264572
 31
0.0
  0
LINE
  5
84
330
1F
100
AcDbEntity
  8
SLD-0_0
  6
SLD-Solid
 62
   179
370
    15
100
AcDbLine
 10
856.9993514034
 20
1210.4032264572
 30
0.0
 11
856.9936740609
 21
1210.5897889954
 31
0.0
  0
LINE
  5
85
330
1F
100
AcDbEntity
  8
SLD-0_0
  6
SLD-Solid
 62
   179
370
    15
100
AcDbLine
 10
630.5829498383
 20
1206.6173778397
 30
0.0
 11
630.5981564733
 21
1206.6170798165
 31
0.0
  0
LINE
  5
86
330
1F
100
AcDbEntity
  8
SLD-0_0
  6
SLD-Solid
 62
   179
370
    15
100
AcDbLine
 10
630.5981564733
 20
1206.6170798165
 30
0.0
 11
630.3751158925
 21
1206.6501603943
 31
0.0
  0
LINE
  5
87
330
1F
100
AcDbEntity
  8
SLD-0_0
  6
SLD-Solid
 62
   179
370
    15
100
AcDbLine
 10
630.3751158925
 20
1206.6501603943
 30
0.0
 11
629.9155789825
 21
1206.7773567063
 31
0.0
  0
LINE
  5
88
330
1F
100
AcDbEntity
  8
SLD-0_0
  6
SLD-Solid
 62
   179
370
    15
100
AcDbLine
 10
629.9155789825
 20
1206.7773567063
 30
0.0
 11
629.2385074707
 21
1207.0886717659
 31
0.0
  0
LINE
  5
89
330
1F
100
AcDbEntity
  8
SLD-0_0
  6
SLD-Solid
 62
   179
370
    15
100
AcDbLine
 10
629.2385074707
 20
1207.0886717659
 30
0.0
 11
628.4524637672
 21
1207.6636181694
 31
0.0
  0
LINE
  5
8A
330
1F
100
AcDbEntity
  8
SLD-0_0
  6
SLD-Solid
 62
   179
370
    15
100
AcDbLine
 10
628.4524637672
 20
1207.6636181694
 30
0.0
 11
627.7296903941
 21
1208.5061298233
 31
0.0
  0
LINE
  5
8B
330
1F
100
AcDbEntity
  8
SLD-0_0
  6
SLD-Solid
 62
   179
370
    15
100
AcDbLine
 10
627.7296903941
 20
1208.5061298233
 30
0.0
 11
627.2154885742
 21
1209.5318661553
 31
0.0
  0
LINE
  5
8C
330
1F
100
AcDbEntity
  8
SLD-0_0
  6
SLD-Solid
 62
   179
370
    15
100
AcDbLine
 10
627.2154885742
 20
1209.5318661553
 30
0.0
 11
626.9872474881
 21
1210.5847226006
 31
0.0
  0
LINE
  5
8D
330
1F
100
AcDbEntity
  8
SLD-0_0
  6
SLD-Solid
 62
   179
370
    15
100
AcDbLine
 10
897.7190095397
 20
1210.4808913094
 30
0.0
 11
897.7062541457
 21
1210.2606521469
 31
0.0
  0
LINE
  5
8E
330
1F
100
AcDbEntity
  8
SLD-0_0
  6
SLD-Solid
 62
   179
370
    15
100
AcDbLine
 10
897.7062541457
 20
1210.2606521469
 30
0.0
 11
897.3647493335
 21
1209.1657148224
 31
0.0
  0
LINE
  5
8F
330
1F
100
AcDbEntity
  8
SLD-0_0
  6
SLD-Solid
 62
   179
370
    15
100
AcDbLine
 10
897.3647493335
 20
1209.1657148224
 30
0.0
 11
896.7417168828
 21
1208.1580386978
 31
0.0
  0
LINE
  5
90
330
1F
100
AcDbEntity
  8
SLD-0_0
  6
SLD-Solid
 62
   179
370
    15
100
AcDbLine
 10
896.7417168828
 20
1208.1580386978
 30
0.0
 11
896.0000264856
 21
1207.4312792641
 31
0.0
  0
LINE
  5
91
330
1F
100
AcDbEntity
  8
SLD-0_0
  6
SLD-Solid
 62
   179
370
    15
100
AcDbLine
 10
896.0000264856
 20
1207.4312792641
 30
0.0
 11
895.28594794
 21
1206.9791780335
 31
0.0
  0
LINE
  5
92
330
1F
100
AcDbEntity
  8
SLD-0_0
  6
SLD-Solid
 62
   179
370
    15
100
AcDbLine
 10
895.28594794
 20
1206.9791780335
 30
0.0
 11
894.6925538989
 21
1206.7375408036
 31
0.0
  0
LINE
  5
93
330
1F
100
AcDbEntity
  8
SLD-0_0
  6
SLD-Solid
 62
   179
370
    15
100
AcDbLine
 10
894.6925538989
 20
1206.7375408036
 30
0.0
 11
894.3015474292
 21
1206.6405044419
 31
0.0
  0
LINE
  5
94
330
1F
100
AcDbEntity
  8
SLD-0_0
  6
SLD-Solid
 62
   179
370
    15
100
AcDbLine
 10
894.3015474292
 20
1206.6405044419
 30
0.0
 11
894.1289621803
 21
1206.6169606072
 31
0.0
  0
LINE
  5
95
330
1F
100
AcDbEntity
  8
SLD-0_0
  6
SLD-Solid
 62
   179
370
    15
100
AcDbLine
 10
894.1289621803
 20
1206.6169606072
 30
0.0
 11
894.1438484403
 21
1206.617318235
 31
0.0
  0
LINE
  5
96
330
1F
100
AcDbEntity
  8
SLD-0_0
  6
SLD-Solid
 62
   179
370
    15
100
AcDbLine
 10
617.730601451
 20
1210.5137930733
 30
0.0
 11
617.7263397189
 21
1210.3870139939
 31
0.0
  0
LINE
  5
97
330
1F
100
AcDbEntity
  8
SLD-0_0
  6
SLD-Solid
 62
   179
370
    15
100
AcDbLine
 10
617.7263397189
 20
1210.3870139939
 30
0.0
 11
617.4118358108
 21
1209.2831955773
 31
0.0
  0
LINE
  5
98
330
1F
100
AcDbEntity
  8
SLD-0_0
  6
SLD-Solid
 62
   179
370
    15
100
AcDbLine
 10
617.4118358108
 20
1209.2831955773
 30
0.0
 11
616.8125111076
 21
1208.2576976639
 31
0.0
  0
LINE
  5
99
330
1F
100
AcDbEntity
  8
SLD-0_0
  6
SLD-Solid
 62
   179
370
    15
100
AcDbLine
 10
616.8125111076
 20
1208.2576976639
 30
0.0
 11
616.0832631799
 21
1207.5074540001
 31
0.0
  0
LINE
  5
9A
330
1F
100
AcDbEntity
  8
SLD-0_0
  6
SLD-Solid
 62
   179
370
    15
100
AcDbLine
 10
616.0832631799
 20
1207.5074540001
 30
0.0
 11
615.3323191615
 21
1207.0119605881
 31
0.0
  0
LINE
  5
9B
330
1F
100
AcDbEntity
  8
SLD-0_0
  6
SLD-Solid
 62
   179
370
    15
100
AcDbLine
 10
615.3323191615
 20
1207.0119605881
 30
0.0
 11
614.7156644079
 21
1206.7522035462
 31
0.0
  0
LINE
  5
9C
330
1F
100
AcDbEntity
  8
SLD-0_0
  6
SLD-Solid
 62
   179
370
    15
100
AcDbLine
 10
614.7156644079
 20
1206.7522035462
 30
0.0
 11
614.3046009752
 21
1206.6461072785
 31
0.0
  0
LINE
  5
9D
330
1F
100
AcDbEntity
  8
SLD-0_0
  6
SLD-Solid
 62
   179
370
    15
100
AcDbLine
 10
614.3046009752
 20
1206.6461072785
 30
0.0
 11
614.1128379318
 21
1206.6184507233
 31
0.0
  0
LINE
  5
9E
330
1F
100
AcDbEntity
  8
SLD-0_0
  6
SLD-Solid
 62
   179
370
    15
100
AcDbLine
 10
614.1128379318
 20
1206.6184507233
 30
0.0
 11
614.1238796922
 21
1206.6185103279
 31
0.0
  0
LINE
  5
9F
330
1F
100
AcDbEntity
  8
SLD-0_0
  6
SLD-Solid
 62
   179
370
    15
100
AcDbLine
 10
580.714492819
 20
1206.6180334908
 30
0.0
 11
580.7239401552
 21
1206.6179738861
 31
0.0
  0
LINE
  5
A0
330
1F
100
AcDbEntity
  8
SLD-0_0
  6
SLD-Solid
 62
   179
370
    15
100
AcDbLine
 10
580.7239401552
 20
1206.6179738861
 30
0.0
 11
580.5952090236
 21
1206.6323386055
 31
0.0
  0
LINE
  5
A1
330
1F
100
AcDbEntity
  8
SLD-0_0
  6
SLD-Solid
 62
   179
370
    15
100
AcDbLine
 10
580.5952090236
 20
1206.6323386055
 30
0.0
 11
580.2331108066
 21
1206.7085133415
 31
0.0
  0
LINE
  5
A2
330
1F
100
AcDbEntity
  8
SLD-0_0
  6
SLD-Solid
 62
   179
370
    15
100
AcDbLine
 10
580.2331108066
 20
1206.7085133415
 30
0.0
 11
579.5038777801
 21
1206.9851981026
 31
0.0
  0
LINE
  5
A3
330
1F
100
AcDbEntity
  8
SLD-0_0
  6
SLD-Solid
 62
   179
370
    15
100
AcDbLine
 10
579.5038777801
 20
1206.9851981026
 30
0.0
 11
578.6948490354
 21
1207.5000034195
 31
0.0
  0
LINE
  5
A4
330
1F
100
AcDbEntity
  8
SLD-0_0
  6
SLD-Solid
 62
   179
370
    15
100
AcDbLine
 10
578.6948490354
 20
1207.5000034195
 30
0.0
 11
577.9354411575
 21
1208.2688437325
 31
0.0
  0
LINE
  5
A5
330
1F
100
AcDbEntity
  8
SLD-0_0
  6
SLD-Solid
 62
   179
370
    15
100
AcDbLine
 10
577.9354411575
 20
1208.2688437325
 30
0.0
 11
577.3481416913
 21
1209.2471943718
 31
0.0
  0
LINE
  5
A6
330
1F
100
AcDbEntity
  8
SLD-0_0
  6
SLD-Solid
 62
   179
370
    15
100
AcDbLine
 10
577.3481416913
 20
1209.2471943718
 30
0.0
 11
576.9928235027
 21
1210.4620562416
 31
0.0
  0
LINE
  5
A7
330
1F
100
AcDbEntity
  8
SLD-0_0
  6
SLD-Solid
 62
   179
370
    15
100
AcDbLine
 10
576.9928235027
 20
1210.4620562416
 30
0.0
 11
576.9869524452
 21
1210.6476055008
 31
0.0
  0
LINE
  5
A8
330
1F
100
AcDbEntity
  8
SLD-0_0
  6
SLD-Solid
 62
   179
370
    15
100
AcDbLine
 10
567.6073271247
 20
1209.888480745
 30
0.0
 11
567.1202975723
 21
1208.7576018196
 31
0.0
  0
LINE
  5
A9
330
1F
100
AcDbEntity
  8
SLD-0_0
  6
SLD-Solid
 62
   179
370
    15
100
AcDbLine
 10
567.1202975723
 20
1208.7576018196
 30
0.0
 11
566.4519357892
 21
1207.888864122
 31
0.0
  0
LINE
  5
AA
330
1F
100
AcDbEntity
  8
SLD-0_0
  6
SLD-Solid
 62
   179
370
    15
100
AcDbLine
 10
566.4519357892
 20
1207.888864122
 30
0.0
 11
565.7143581125
 21
1207.2763071877
 31
0.0
  0
LINE
  5
AB
330
1F
100
AcDbEntity
  8
SLD-0_0
  6
SLD-Solid
 62
   179
370
    15
100
AcDbLine
 10
565.7143581125
 20
1207.2763071877
 30
0.0
 11
565.0023657295
 21
1206.891499601
 31
0.0
  0
LINE
  5
AC
330
1F
100
AcDbEntity
  8
SLD-0_0
  6
SLD-Solid
 62
   179
370
    15
100
AcDbLine
 10
565.0023657295
 20
1206.891499601
 30
0.0
 11
564.4198346349
 21
1206.6953407151
 31
0.0
  0
LINE
  5
AD
330
1F
100
AcDbEntity
  8
SLD-0_0
  6
SLD-Solid
 62
   179
370
    15
100
AcDbLine
 10
564.4198346349
 20
1206.6953407151
 30
0.0
 11
564.0626687023
 21
1206.6272126061
 31
0.0
  0
LINE
  5
AE
330
1F
100
AcDbEntity
  8
SLD-0_0
  6
SLD-Solid
 62
   179
370
    15
100
AcDbLine
 10
564.0626687023
 20
1206.6272126061
 30
0.0
 11
563.9666605207
 21
1206.6179142815
 31
0.0
  0
LINE
  5
AF
330
1F
100
AcDbEntity
  8
SLD-0_0
  6
SLD-Solid
 62
   179
370
    15
100
AcDbLine
 10
563.9666605207
 20
1206.6179142815
 30
0.0
 11
563.9682251426
 21
1206.6179142815
 31
0.0
  0
LINE
  5
B0
330
1F
100
AcDbEntity
  8
SLD-0_0
  6
SLD-Solid
 62
   179
370
    15
100
AcDbLine
 10
960.7336509439
 20
1206.6189871651
 30
0.0
 11
960.7443797799
 21
1206.6190467697
 31
0.0
  0
LINE
  5
B1
330
1F
100
AcDbEntity
  8
SLD-0_0
  6
SLD-Solid
 62
   179
370
    15
100
AcDbLine
 10
960.7443797799
 20
1206.6190467697
 30
0.0
 11
960.5590242359
 21
1206.642829023
 31
0.0
  0
LINE
  5
B2
330
1F
100
AcDbEntity
  8
SLD-0_0
  6
SLD-Solid
 62
   179
370
    15
100
AcDbLine
 10
960.5590242359
 20
1206.642829023
 30
0.0
 11
960.059015772
 21
1206.7668066841
 31
0.0
  0
LINE
  5
B3
330
1F
100
AcDbEntity
  8
SLD-0_0
  6
SLD-Solid
 62
   179
370
    15
100
AcDbLine
 10
960.059015772
 20
1206.7668066841
 30
0.0
 11
959.3346852275
 21
1207.0815192086
 31
0.0
  0
LINE
  5
B4
330
1F
100
AcDbEntity
  8
SLD-0_0
  6
SLD-Solid
 62
   179
370
    15
100
AcDbLine
 10
959.3346852275
 20
1207.0815192086
 30
0.0
 11
958.5263568374
 21
1207.6508627754
 31
0.0
  0
LINE
  5
B5
330
1F
100
AcDbEntity
  8
SLD-0_0
  6
SLD-Solid
 62
   179
370
    15
100
AcDbLine
 10
958.5263568374
 20
1207.6508627754
 30
0.0
 11
957.7941435787
 21
1208.469949804
 31
0.0
  0
LINE
  5
B6
330
1F
100
AcDbEntity
  8
SLD-0_0
  6
SLD-Solid
 62
   179
370
    15
100
AcDbLine
 10
957.7941435787
 20
1208.469949804
 30
0.0
 11
957.2538572761
 21
1209.4841824395
 31
0.0
  0
LINE
  5
B7
330
1F
100
AcDbEntity
  8
SLD-0_0
  6
SLD-Solid
 62
   179
370
    15
100
AcDbLine
 10
957.2538572761
 20
1209.4841824395
 30
0.0
 11
956.9652664872
 21
1210.6836067063
 31
0.0
  0
LINE
  5
B8
330
1F
100
AcDbEntity
  8
SLD-0_0
  6
SLD-Solid
 62
   179
370
    15
100
AcDbLine
 10
493.0110562059
 20
1206.6799031121
 30
0.0
 11
493.4440541478
 21
1206.6939698082
 31
0.0
  0
LINE
  5
B9
330
1F
100
AcDbEntity
  8
SLD-0_0
  6
SLD-Solid
 62
   179
370
    15
100
AcDbLine
 10
493.4440541478
 20
1206.6939698082
 30
0.0
 11
495.7580256673
 21
1206.6620813233
 31
0.0
  0
LINE
  5
BA
330
1F
100
AcDbEntity
  8
SLD-0_0
  6
SLD-Solid
 62
   179
370
    15
100
AcDbLine
 10
1028.9683032247
 20
1206.6635714394
 30
0.0
 11
1030.8233487817
 21
1206.6977845055
 31
0.0
  0
LINE
  5
BB
330
1F
100
AcDbEntity
  8
SLD-0_0
  6
SLD-Solid
 62
   179
370
    15
100
AcDbLine
 10
1030.8233487817
 20
1206.6977845055
 30
0.0
 11
1031.5351772519
 21
1206.6788302285
 31
0.0
  0
LINE
  5
BC
330
1F
100
AcDbEntity
  8
SLD-0_0
  6
SLD-Solid
 62
   179
370
    15
100
AcDbLine
 10
518.7944907161
 20
1229.1191445214
 30
0.0
 11
517.4515384647
 21
1229.0706263405
 31
0.0
  0
LINE
  5
BD
330
1F
100
AcDbEntity
  8
SLD-0_0
  6
SLD-Solid
 62
   179
370
    15
100
AcDbLine
 10
517.4515384647
 20
1229.0706263405
 30
0.0
 11
515.0344807121
 21
1228.7404166085
 31
0.0
  0
LINE
  5
BE
330
1F
100
AcDbEntity
  8
SLD-0_0
  6
SLD-Solid
 62
   179
370
    15
100
AcDbLine
 10
515.0344807121
 20
1228.7404166085
 30
0.0
 11
512.6307743999
 21
1228.1012760025
 31
0.0
  0
LINE
  5
BF
330
1F
100
AcDbEntity
  8
SLD-0_0
  6
SLD-Solid
 62
   179
370
    15
100
AcDbLine
 10
512.6307743999
 20
1228.1012760025
 30
0.0
 11
510.257689974
 21
1227.1573172432
 31
0.0
  0
LINE
  5
C0
330
1F
100
AcDbEntity
  8
SLD-0_0
  6
SLD-Solid
 62
   179
370
    15
100
AcDbLine
 10
510.257689974
 20
1227.1573172432
 30
0.0
 11
507.9352694961
 21
1225.9152160507
 31
0.0
  0
LINE
  5
C1
330
1F
100
AcDbEntity
  8
SLD-0_0
  6
SLD-Solid
 62
   179
370
    15
100
AcDbLine
 10
507.9352694961
 20
1225.9152160507
 30
0.0
 11
505.6844043943
 21
1224.384389959
 31
0.0
  0
LINE
  5
C2
330
1F
100
AcDbEntity
  8
SLD-0_0
  6
SLD-Solid
 62
   179
370
    15
100
AcDbLine
 10
505.6844043943
 20
1224.384389959
 30
0.0
 11
503.5261798116
 21
1222.5777731758
 31
0.0
  0
LINE
  5
C3
330
1F
100
AcDbEntity
  8
SLD-0_0
  6
SLD-Solid
 62
   179
370
    15
100
AcDbLine
 10
503.5261798116
 20
1222.5777731758
 30
0.0
 11
501.4811295482
 21
1220.5116377693
 31
0.0
  0
LINE
  5
C4
330
1F
100
AcDbEntity
  8
SLD-0_0
  6
SLD-Solid
 62
   179
370
    15
100
AcDbLine
 10
501.4811295482
 20
1220.5116377693
 30
0.0
 11
499.5685208055
 21
1218.2052956444
 31
0.0
  0
LINE
  5
C5
330
1F
100
AcDbEntity
  8
SLD-0_0
  6
SLD-Solid
 62
   179
370
    15
100
AcDbLine
 10
499.5685208055
 20
1218.2052956444
 30
0.0
 11
497.8060710641
 21
1215.6802044731
 31
0.0
  0
LINE
  5
C6
330
1F
100
AcDbEntity
  8
SLD-0_0
  6
SLD-Solid
 62
   179
370
    15
100
AcDbLine
 10
497.8060710641
 20
1215.6802044731
 30
0.0
 11
496.2096798631
 21
1212.9600869042
 31
0.0
  0
LINE
  5
C7
330
1F
100
AcDbEntity
  8
SLD-0_0
  6
SLD-Solid
 62
   179
370
    15
100
AcDbLine
 10
496.2096798631
 20
1212.9600869042
 30
0.0
 11
494.7935033056
 21
1210.069857679
 31
0.0
  0
LINE
  5
C8
330
1F
100
AcDbEntity
  8
SLD-0_0
  6
SLD-Solid
 62
   179
370
    15
100
AcDbLine
 10
494.7935033056
 20
1210.069857679
 30
0.0
 11
494.605420849
 21
1209.6337304932
 31
0.0
  0
LINE
  5
C9
330
1F
100
AcDbEntity
  8
SLD-0_0
  6
SLD-Solid
 62
   179
370
    15
100
AcDbLine
 10
1030.1180470201
 20
1209.6331344467
 30
0.0
 11
1029.6707439634
 21
1210.6505857331
 31
0.0
  0
LINE
  5
CA
330
1F
100
AcDbEntity
  8
SLD-0_0
  6
SLD-Solid
 62
   179
370
    15
100
AcDbLine
 10
1029.6707439634
 20
1210.6505857331
 30
0.0
 11
1028.216033003
 21
1213.5130987984
 31
0.0
  0
LINE
  5
CB
330
1F
100
AcDbEntity
  8
SLD-0_0
  6
SLD-Solid
 62
   179
370
    15
100
AcDbLine
 10
1028.216033003
 20
1213.5130987984
 30
0.0
 11
1026.581286213
 21
1216.2030564171
 31
0.0
  0
LINE
  5
CC
330
1F
100
AcDbEntity
  8
SLD-0_0
  6
SLD-Solid
 62
   179
370
    15
100
AcDbLine
 10
1026.581286213
 20
1216.2030564171
 30
0.0
 11
1024.7806298944
 21
1218.6945901734
 31
0.0
  0
LINE
  5
CD
330
1F
100
AcDbEntity
  8
SLD-0_0
  6
SLD-Solid
 62
   179
370
    15
100
AcDbLine
 10
1024.7806298944
 20
1218.6945901734
 30
0.0
 11
1022.8292334291
 21
1220.964573465
 31
0.0
  0
LINE
  5
CE
330
1F
100
AcDbEntity
  8
SLD-0_0
  6
SLD-Solid
 62
   179
370
    15
100
AcDbLine
 10
1022.8292334291
 20
1220.964573465
 30
0.0
 11
1020.74381592
 21
1222.991190992
 31
0.0
  0
LINE
  5
CF
330
1F
100
AcDbEntity
  8
SLD-0_0
  6
SLD-Solid
 62
   179
370
    15
100
AcDbLine
 10
1020.74381592
 20
1222.991190992
 30
0.0
 11
1018.542854807
 21
1224.7544751984
 31
0.0
  0
LINE
  5
D0
330
1F
100
AcDbEntity
  8
SLD-0_0
  6
SLD-Solid
 62
   179
370
    15
100
AcDbLine
 10
1018.542854807
 20
1224.7544751984
 30
0.0
 11
1016.2468242856
 21
1226.2367235047
 31
0.0
  0
LINE
  5
D1
330
1F
100
AcDbEntity
  8
SLD-0_0
  6
SLD-Solid
 62
   179
370
    15
100
AcDbLine
 10
1016.2468242856
 20
1226.2367235047
 30
0.0
 11
1013.8780760976
 21
1227.4227963311
 31
0.0
  0
LINE
  5
D2
330
1F
100
AcDbEntity
  8
SLD-0_0
  6
SLD-Solid
 62
   179
370
    15
100
AcDbLine
 10
1013.8780760976
 20
1227.4227963311
 30
0.0
 11
1011.4606905195
 21
1228.3010111672
 31
0.0
  0
LINE
  5
D3
330
1F
100
AcDbEntity
  8
SLD-0_0
  6
SLD-Solid
 62
   179
370
    15
100
AcDbLine
 10
1011.4606905195
 20
1228.3010111672
 30
0.0
 11
1009.019701502
 21
1228.8637982231
 31
0.0
  0
LINE
  5
D4
330
1F
100
AcDbEntity
  8
SLD-0_0
  6
SLD-Solid
 62
   179
370
    15
100
AcDbLine
 10
1009.019701502
 20
1228.8637982231
 30
0.0
 11
1006.5800833913
 21
1229.1078792435
 31
0.0
  0
LINE
  5
D5
330
1F
100
AcDbEntity
  8
SLD-0_0
  6
SLD-Solid
 62
   179
370
    15
100
AcDbLine
 10
1006.5800833913
 20
1229.1078792435
 30
0.0
 11
1005.9334624025
 21
1229.1191445214
 31
0.0
  0
LINE
  5
D6
330
1F
100
AcDbEntity
  8
SLD-0_0
  6
SLD-Solid
 62
   179
370
    15
100
AcDbLine
 10
749.0491351277
 20
1209.6519099098
 30
0.0
 11
748.6090214738
 21
1210.6529103142
 31
0.0
  0
LINE
  5
D7
330
1F
100
AcDbEntity
  8
SLD-0_0
  6
SLD-Solid
 62
   179
370
    15
100
AcDbLine
 10
748.6090214738
 20
1210.6529103142
 30
0.0
 11
747.1541471827
 21
1213.5153041703
 31
0.0
  0
LINE
  5
D8
330
1F
100
AcDbEntity
  8
SLD-0_0
  6
SLD-Solid
 62
   179
370
    15
100
AcDbLine
 10
747.1541471827
 20
1213.5153041703
 30
0.0
 11
745.5192708808
 21
1216.205082975
 31
0.0
  0
LINE
  5
D9
330
1F
100
AcDbEntity
  8
SLD-0_0
  6
SLD-Solid
 62
   179
370
    15
100
AcDbLine
 10
745.5192708808
 20
1216.205082975
 30
0.0
 11
743.718506063
 21
1218.696497522
 31
0.0
  0
LINE
  5
DA
330
1F
100
AcDbEntity
  8
SLD-0_0
  6
SLD-Solid
 62
   179
370
    15
100
AcDbLine
 10
743.718506063
 20
1218.696497522
 30
0.0
 11
741.7669871288
 21
1220.966242395
 31
0.0
  0
LINE
  5
DB
330
1F
100
AcDbEntity
  8
SLD-0_0
  6
SLD-Solid
 62
   179
370
    15
100
AcDbLine
 10
741.7669871288
 20
1220.966242395
 30
0.0
 11
739.6814634489
 21
1222.9926811081
 31
0.0
  0
LINE
  5
DC
330
1F
100
AcDbEntity
  8
SLD-0_0
  6
SLD-Solid
 62
   179
370
    15
100
AcDbLine
 10
739.6814634489
 20
1222.9926811081
 30
0.0
 11
737.4804418
 21
1224.7557865006
 31
0.0
  0
LINE
  5
DD
330
1F
100
AcDbEntity
  8
SLD-0_0
  6
SLD-Solid
 62
   179
370
    15
100
AcDbLine
 10
737.4804418
 20
1224.7557865006
 30
0.0
 11
735.184346086
 21
1226.2377963883
 31
0.0
  0
LINE
  5
DE
330
1F
100
AcDbEntity
  8
SLD-0_0
  6
SLD-Solid
 62
   179
370
    15
100
AcDbLine
 10
735.184346086
 20
1226.2377963883
 30
0.0
 11
732.8155494692
 21
1227.4236307961
 31
0.0
  0
LINE
  5
DF
330
1F
100
AcDbEntity
  8
SLD-0_0
  6
SLD-Solid
 62
   179
370
    15
100
AcDbLine
 10
732.8155494692
 20
1227.4236307961
 30
0.0
 11
730.3981210502
 21
1228.3016072136
 31
0.0
  0
LINE
  5
E0
330
1F
100
AcDbEntity
  8
SLD-0_0
  6
SLD-Solid
 62
   179
370
    15
100
AcDbLine
 10
730.3981210502
 20
1228.3016072136
 30
0.0
 11
727.9571227195
 21
1228.8640962464
 31
0.0
  0
LINE
  5
E1
330
1F
100
AcDbEntity
  8
SLD-0_0
  6
SLD-Solid
 62
   179
370
    15
100
AcDbLine
 10
727.9571227195
 20
1228.8640962464
 30
0.0
 11
725.5175064715
 21
1229.1079388481
 31
0.0
  0
LINE
  5
E2
330
1F
100
AcDbEntity
  8
SLD-0_0
  6
SLD-Solid
 62
   179
370
    15
100
AcDbLine
 10
725.5175064715
 20
1229.1079388481
 30
0.0
 11
724.8728077325
 21
1229.1191445214
 31
0.0
  0
LINE
  5
E3
330
1F
100
AcDbEntity
  8
SLD-0_0
  6
SLD-Solid
 62
   179
370
    15
100
AcDbLine
 10
799.8551528367
 20
1229.1191445214
 30
0.0
 11
798.5122005853
 21
1229.0706263405
 31
0.0
  0
LINE
  5
E4
330
1F
100
AcDbEntity
  8
SLD-0_0
  6
SLD-Solid
 62
   179
370
    15
100
AcDbLine
 10
798.5122005853
 20
1229.0706263405
 30
0.0
 11
796.0951428326
 21
1228.7404166085
 31
0.0
  0
LINE
  5
E5
330
1F
100
AcDbEntity
  8
SLD-0_0
  6
SLD-Solid
 62
   179
370
    15
100
AcDbLine
 10
796.0951428326
 20
1228.7404166085
 30
0.0
 11
793.6914290699
 21
1228.1012760025
 31
0.0
  0
LINE
  5
E6
330
1F
100
AcDbEntity
  8
SLD-0_0
  6
SLD-Solid
 62
   179
370
    15
100
AcDbLine
 10
793.6914290699
 20
1228.1012760025
 30
0.0
 11
791.3183483692
 21
1227.1573172432
 31
0.0
  0
LINE
  5
E7
330
1F
100
AcDbEntity
  8
SLD-0_0
  6
SLD-Solid
 62
   179
370
    15
100
AcDbLine
 10
791.3183483692
 20
1227.1573172432
 30
0.0
 11
788.9959316167
 21
1225.9152160507
 31
0.0
  0
LINE
  5
E8
330
1F
100
AcDbEntity
  8
SLD-0_0
  6
SLD-Solid
 62
   179
370
    15
100
AcDbLine
 10
788.9959316167
 20
1225.9152160507
 30
0.0
 11
786.7450627896
 21
1224.384389959
 31
0.0
  0
LINE
  5
E9
330
1F
100
AcDbEntity
  8
SLD-0_0
  6
SLD-Solid
 62
   179
370
    15
100
AcDbLine
 10
786.7450627896
 20
1224.384389959
 30
0.0
 11
784.5868419322
 21
1222.5777731758
 31
0.0
  0
LINE
  5
EA
330
1F
100
AcDbEntity
  8
SLD-0_0
  6
SLD-Solid
 62
   179
370
    15
100
AcDbLine
 10
784.5868419322
 20
1222.5777731758
 30
0.0
 11
782.5417842182
 21
1220.5116377693
 31
0.0
  0
LINE
  5
EB
330
1F
100
AcDbEntity
  8
SLD-0_0
  6
SLD-Solid
 62
   179
370
    15
100
AcDbLine
 10
782.5417842182
 20
1220.5116377693
 30
0.0
 11
780.6291829261
 21
1218.2052956444
 31
0.0
  0
LINE
  5
EC
330
1F
100
AcDbEntity
  8
SLD-0_0
  6
SLD-Solid
 62
   179
370
    15
100
AcDbLine
 10
780.6291829261
 20
1218.2052956444
 30
0.0
 11
778.8667238715
 21
1215.6802044731
 31
0.0
  0
LINE
  5
ED
330
1F
100
AcDbEntity
  8
SLD-0_0
  6
SLD-Solid
 62
   179
370
    15
100
AcDbLine
 10
778.8667238715
 20
1215.6802044731
 30
0.0
 11
777.2703326705
 21
1212.9600869042
 31
0.0
  0
LINE
  5
EE
330
1F
100
AcDbEntity
  8
SLD-0_0
  6
SLD-Solid
 62
   179
370
    15
100
AcDbLine
 10
777.2703326705
 20
1212.9600869042
 30
0.0
 11
775.8541542503
 21
1210.069857679
 31
0.0
  0
LINE
  5
EF
330
1F
100
AcDbEntity
  8
SLD-0_0
  6
SLD-Solid
 62
   179
370
    15
100
AcDbLine
 10
775.8541542503
 20
1210.069857679
 30
0.0
 11
775.6739396068
 21
1209.6519695145
 31
0.0
  0
LINE
  5
F0
330
1F
100
AcDbEntity
  8
SLD-0_0
  6
SLD-Solid
 62
   179
370
    15
100
AcDbLine
 10
552.8198319885
 20
1218.8874111992
 30
0.0
 11
552.5204080554
 21
1223.1440173012
 31
0.0
  0
LINE
  5
F1
330
1F
100
AcDbEntity
  8
SLD-0_0
  6
SLD-Solid
 62
   179
370
    15
100
AcDbLine
 10
552.5204080554
 20
1223.1440173012
 30
0.0
 11
552.2243219825
 21
1227.401159845
 31
0.0
  0
LINE
  5
F2
330
1F
100
AcDbEntity
  8
SLD-0_0
  6
SLD-Solid
 62
   179
370
    15
100
AcDbLine
 10
972.5036311361
 20
1227.401159845
 30
0.0
 11
972.2075450631
 21
1223.1440173012
 31
0.0
  0
LINE
  5
F3
330
1F
100
AcDbEntity
  8
SLD-0_0
  6
SLD-Solid
 62
   179
370
    15
100
AcDbLine
 10
972.2075450631
 20
1223.1440173012
 30
0.0
 11
971.9081360313
 21
1218.8874111992
 31
0.0
  0
LINE
  5
F4
330
1F
100
AcDbEntity
  8
SLD-0_0
  6
SLD-Solid
 62
   179
370
    15
100
AcDbLine
 10
691.8849970611
 20
1227.401159845
 30
0.0
 11
691.5899838718
 21
1223.1756673676
 31
0.0
  0
LINE
  5
F5
330
1F
100
AcDbEntity
  8
SLD-0_0
  6
SLD-Solid
 62
   179
370
    15
100
AcDbLine
 10
691.5899838718
 20
1223.1756673676
 30
0.0
 11
691.2983383449
 21
1218.949698053
 31
0.0
  0
LINE
  5
F6
330
1F
100
AcDbEntity
  8
SLD-0_0
  6
SLD-Solid
 62
   179
370
    15
100
AcDbLine
 10
833.4296259495
 20
1218.949698053
 30
0.0
 11
833.1379804226
 21
1223.1756673676
 31
0.0
  0
LINE
  5
F7
330
1F
100
AcDbEntity
  8
SLD-0_0
  6
SLD-Solid
 62
   179
370
    15
100
AcDbLine
 10
833.1379804226
 20
1223.1756673676
 30
0.0
 11
832.8429672333
 21
1227.401159845
 31
0.0
  0
LINE
  5
F8
330
1F
100
AcDbEntity
  8
SLD-0_0
  6
SLD-Solid
 62
   179
370
    15
100
AcDbLine
 10
506.5350222799
 20
1224.9628530365
 30
0.0
 11
506.3108045074
 21
1227.3105607849
 31
0.0
  0
LINE
  5
F9
330
1F
100
AcDbEntity
  8
SLD-0_0
  6
SLD-Solid
 62
   179
370
    15
100
AcDbLine
 10
1018.4243607732
 20
1227.3099051338
 30
0.0
 11
1018.2002473089
 21
1224.9756680352
 31
0.0
  0
LINE
  5
FA
330
1F
100
AcDbEntity
  8
SLD-0_0
  6
SLD-Solid
 62
   179
370
    15
100
AcDbLine
 10
738.372168264
 20
1227.6705728394
 30
0.0
 11
738.0499483484
 21
1224.2995725495
 31
0.0
  0
LINE
  5
FB
330
1F
100
AcDbEntity
  8
SLD-0_0
  6
SLD-Solid
 62
   179
370
    15
100
AcDbLine
 10
786.6775791558
 20
1224.3278847557
 30
0.0
 11
786.3571483108
 21
1227.6706920487
 31
0.0
  0
LINE
  5
FC
330
1F
100
AcDbEntity
  8
SLD-0_0
  6
SLD-Solid
 62
   179
370
    15
100
AcDbLine
 10
1028.3639717313
 20
1196.6191755158
 30
0.0
 11
1029.6520579072
 21
1187.3364077431
 31
0.0
  0
LINE
  5
FD
330
1F
100
AcDbEntity
  8
SLD-0_0
  6
SLD-Solid
 62
   179
370
    15
100
AcDbLine
 10
1037.075905821
 20
1187.3364077431
 30
0.0
 11
1038.2180500242
 21
1195.5674515587
 31
0.0
  0
LINE
  5
FE
330
1F
100
AcDbEntity
  8
SLD-0_0
  6
SLD-Solid
 62
   179
370
    15
100
AcDbLine
 10
486.5099179956
 20
1195.5674515587
 30
0.0
 11
487.6520621988
 21
1187.3364077431
 31
0.0
  0
LINE
  5
FF
330
1F
100
AcDbEntity
  8
SLD-0_0
  6
SLD-Solid
 62
   179
370
    15
100
AcDbLine
 10
495.0758803102
 20
1187.3364077431
 30
0.0
 11
496.3639664861
 21
1196.6191755158
 31
0.0
  0
LINE
  5
100
330
1F
100
AcDbEntity
  8
SLD-0_0
  6
SLD-Solid
 62
   179
370
    15
100
AcDbLine
 10
786.6775791558
 20
1224.3278847557
 30
0.0
 11
786.3571483108
 21
1227.6706920487
 31
0.0
  0
LINE
  5
101
330
1F
100
AcDbEntity
  8
SLD-0_0
  6
SLD-Solid
 62
   179
370
    15
100
AcDbLine
 10
567.5667363616
 20
1209.7974644524
 30
0.0
 11
567.3201817485
 21
1209.2217431885
 31
0.0
  0
LINE
  5
102
330
1F
100
AcDbEntity
  8
SLD-0_0
  6
SLD-Solid
 62
   179
370
    15
100
AcDbLine
 10
857.065460405
 20
1210.1772056443
 30
0.0
 11
857.0128071519
 21
1210.5765567642
 31
0.0
  0
LINE
  5
103
330
1F
100
AcDbEntity
  8
SLD-0_0
  6
SLD-Solid
 62
   179
370
    15
100
AcDbLine
 10
1161.6276192876
 20
1080.454014383
 30
0.0
 11
1163.4094107362
 21
1081.9385872704
 31
0.0
  0
LINE
  5
104
330
1F
100
AcDbEntity
  8
SLD-0_0
  6
SLD-Solid
 62
   179
370
    15
100
AcDbLine
 10
1164.4795525285
 20
1082.8302727562
 30
0.0
 11
1169.9021148893
 21
1087.3483644348
 31
0.0
  0
LINE
  5
105
330
1F
100
AcDbEntity
  8
SLD-0_0
  6
SLD-Solid
 62
   179
370
    15
100
AcDbLine
 10
1169.9021148893
 20
1087.3483644348
 30
0.0
 11
1185.6633115026
 21
1101.6536579949
 31
0.0
  0
LINE
  5
106
330
1F
100
AcDbEntity
  8
SLD-0_0
  6
SLD-Solid
 62
   179
370
    15
100
AcDbLine
 10
1151.8801140996
 20
1103.9815770012
 30
0.0
 11
1152.0779121133
 21
1104.042016111
 31
0.0
  0
LINE
  5
107
330
1F
100
AcDbEntity
  8
SLD-0_0
  6
SLD-Solid
 62
   179
370
    15
100
AcDbLine
 10
1148.8926995012
 20
1106.2828527314
 30
0.0
 11
1149.2130744668
 21
1106.3869224411
 31
0.0
  0
LINE
  5
108
330
1F
100
AcDbEntity
  8
SLD-0_0
  6
SLD-Solid
 62
   179
370
    15
100
AcDbLine
 10
1148.4463799211
 20
1114.5495401245
 30
0.0
 11
1146.7409420225
 21
1113.9953957421
 31
0.0
  0
LINE
  5
109
330
1F
100
AcDbEntity
  8
SLD-0_0
  6
SLD-Solid
 62
   179
370
    15
100
AcDbLine
 10
1142.2174263212
 20
1118.8343988282
 30
0.0
 11
1137.4621379587
 21
1117.2893272263
 31
0.0
  0
LINE
  5
10A
330
1F
100
AcDbEntity
  8
SLD-0_0
  6
SLD-Solid
 62
   179
370
    15
100
AcDbLine
 10
1143.6424839708
 20
1098.2681737763
 30
0.0
 11
1148.3977723333
 21
1099.8132453781
 31
0.0
  0
LINE
  5
10B
330
1F
100
AcDbEntity
  8
SLD-0_0
  6
SLD-Solid
 62
   179
370
    15
100
AcDbLine
 10
1147.7797317716
 20
1101.7153488022
 30
0.0
 11
1148.4946596834
 21
1101.9476877075
 31
0.0
  0
LINE
  5
10C
330
1F
100
AcDbEntity
  8
SLD-0_0
  6
SLD-Solid
 62
   179
370
    15
100
AcDbLine
 10
1143.5504019341
 20
1117.1645692012
 30
0.0
 11
1142.8354668828
 21
1116.9322954041
 31
0.0
  0
LINE
  5
10D
330
1F
100
AcDbEntity
  8
SLD-0_0
  6
SLD-Solid
 62
   179
370
    15
100
AcDbLine
 10
1159.6632886144
 20
1080.6966052872
 30
0.0
 11
1167.9377842161
 21
1087.5910149437
 31
0.0
  0
LINE
  5
10E
330
1F
100
AcDbEntity
  8
SLD-0_0
  6
SLD-Solid
 62
   179
370
    15
100
AcDbLine
 10
1142.0718419763
 20
1142.3495040756
 30
0.0
 11
1139.5771789762
 21
1142.5152645928
 31
0.0
  0
LINE
  5
10F
330
1F
100
AcDbEntity
  8
SLD-0_0
  6
SLD-Solid
 62
   179
370
    15
100
AcDbLine
 10
1150.3238070222
 20
1141.8012009484
 30
0.0
 11
1147.0606911393
 21
1142.0180426461
 31
0.0
  0
LINE
  5
110
330
1F
100
AcDbEntity
  8
SLD-0_0
  6
SLD-Solid
 62
   179
370
    15
100
AcDbLine
 10
1167.9377842161
 20
1087.5910149437
 30
0.0
 11
1183.6989808294
 21
1101.8963085038
 31
0.0
  0
LINE
  5
111
330
1F
100
AcDbEntity
  8
SLD-0_0
  6
SLD-Solid
 62
   179
370
    15
100
AcDbLine
 10
1150.8208799573
 20
1141.7469607216
 30
0.0
 11
1150.3238070222
 21
1141.8012009484
 31
0.0
  0
LINE
  5
112
330
1F
100
AcDbEntity
  8
SLD-0_0
  6
SLD-Solid
 62
   179
370
    15
100
AcDbLine
 10
1149.9157834264
 20
1104.2241679055
 30
0.0
 11
1151.8287050935
 21
1104.80900868
 31
0.0
  0
LINE
  5
113
330
1F
100
AcDbEntity
  8
SLD-0_0
  6
SLD-Solid
 62
   179
370
    15
100
AcDbLine
 10
1147.0641780111
 20
1142.0278178078
 30
0.0
 11
1142.0697260114
 21
1142.3596964699
 31
0.0
  0
LINE
  5
114
330
1F
100
AcDbEntity
  8
SLD-0_0
  6
SLD-Solid
 62
   179
370
    15
100
AcDbLine
 10
393.8639748308
 20
1104.9191580635
 30
0.0
 11
399.5639670106
 21
1104.9191580635
 31
0.0
  0
LINE
  5
115
330
1F
100
AcDbEntity
  8
SLD-0_0
  6
SLD-Solid
 62
   179
370
    15
100
AcDbLine
 10
399.5639670106
 20
1129.9191342217
 30
0.0
 11
393.8639748308
 21
1129.9191342217
 31
0.0
  0
LINE
  5
116
330
1F
100
AcDbEntity
  8
SLD-0_0
  6
SLD-Solid
 62
   179
370
    15
100
AcDbLine
 10
390.8639836522
 20
1095.9191547257
 30
0.0
 11
392.4139726373
 21
1095.9191547257
 31
0.0
  0
LINE
  5
117
330
1F
100
AcDbEntity
  8
SLD-0_0
  6
SLD-Solid
 62
   179
370
    15
100
AcDbLine
 10
392.4139726373
 20
1098.9191757065
 30
0.0
 11
390.8639836522
 21
1098.9191757065
 31
0.0
  0
LINE
  5
118
330
1F
100
AcDbEntity
  8
SLD-0_0
  6
SLD-Solid
 62
   179
370
    15
100
AcDbLine
 10
399.5639670106
 20
1160.4191289765
 30
0.0
 11
390.8639836522
 21
1160.4191289765
 31
0.0
  0
LINE
  5
119
330
1F
100
AcDbEntity
  8
SLD-0_0
  6
SLD-Solid
 62
   179
370
    15
100
AcDbLine
 10
390.8639836522
 20
1150.4191385132
 30
0.0
 11
399.5639670106
 21
1150.4191385132
 31
0.0
  0
LINE
  5
11A
330
1F
100
AcDbEntity
  8
SLD-0_0
  6
SLD-Solid
 62
   179
370
    15
100
AcDbLine
 10
399.5639670106
 20
1072.4191294533
 30
0.0
 11
390.8639836522
 21
1072.4191294533
 31
0.0
  0
LINE
  5
11B
330
1F
100
AcDbEntity
  8
SLD-0_0
  6
SLD-Solid
 62
   179
370
    15
100
AcDbLine
 10
390.8639836522
 20
1062.41913899
 30
0.0
 11
399.5639670106
 21
1062.41913899
 31
0.0
  0
LINE
  5
11C
330
1F
100
AcDbEntity
  8
SLD-0_0
  6
SLD-Solid
 62
   179
370
    15
100
AcDbLine
 10
1146.4820492479
 20
1114.7921310288
 30
0.0
 11
1139.0573668691
 21
1112.3796926361
 31
0.0
  0
LINE
  5
11D
330
1F
100
AcDbEntity
  8
SLD-0_0
  6
SLD-Solid
 62
   179
370
    15
100
AcDbLine
 10
1141.5294993135
 20
1104.7712193352
 30
0.0
 11
1148.9541816923
 21
1107.1836577278
 31
0.0
  0
LINE
  5
11E
330
1F
100
AcDbEntity
  8
SLD-0_0
  6
SLD-Solid
 62
   179
370
    15
100
AcDbLine
 10
399.5639670106
 20
1138.3691655022
 30
0.0
 11
398.6639666768
 21
1138.3691655022
 31
0.0
  0
LINE
  5
11F
330
1F
100
AcDbEntity
  8
SLD-0_0
  6
SLD-Solid
 62
   179
370
    15
100
AcDbLine
 10
674.8494196149
 20
1189.8635850769
 30
0.0
 11
674.8494214244
 21
1191.0385669716
 31
0.0
  0
LINE
  5
120
330
1F
100
AcDbEntity
  8
SLD-0_0
  6
SLD-Solid
 62
   179
370
    15
100
AcDbLine
 10
569.878541037
 20
1191.0385669716
 30
0.0
 11
569.8785472127
 21
1189.8635850769
 31
0.0
  0
LINE
  5
121
330
1F
100
AcDbEntity
  8
SLD-0_0
  6
SLD-Solid
 62
   179
370
    15
100
AcDbLine
 10
570.2227044317
 20
1189.3707738739
 30
0.0
 11
570.8785492393
 21
1189.1302691323
 31
0.0
  0
LINE
  5
122
330
1F
100
AcDbEntity
  8
SLD-0_0
  6
SLD-Solid
 62
   179
370
    15
100
AcDbLine
 10
673.8494175884
 20
1189.1302691323
 30
0.0
 11
674.5052549454
 21
1189.3707738739
 31
0.0
  0
LINE
  5
123
330
1F
100
AcDbEntity
  8
SLD-0_0
  6
SLD-Solid
 62
   179
370
    15
100
AcDbLine
 10
672.8593993398
 20
1193.1352840287
 30
0.0
 11
622.3639834138
 21
1195.7743392807
 31
0.0
  0
LINE
  5
124
330
1F
100
AcDbEntity
  8
SLD-0_0
  6
SLD-Solid
 62
   179
370
    15
100
AcDbLine
 10
622.3639834138
 20
1195.7743392807
 30
0.0
 11
571.8685525867
 21
1193.1352840287
 31
0.0
  0
LINE
  5
125
330
1F
100
AcDbEntity
  8
SLD-0_0
  6
SLD-Solid
 62
   179
370
    15
100
AcDbLine
 10
671.3607001516
 20
1188.0345569474
 30
0.0
 11
671.3607001516
 21
1188.6053310257
 31
0.0
  0
LINE
  5
126
330
1F
100
AcDbEntity
  8
SLD-0_0
  6
SLD-Solid
 62
   179
370
    15
100
AcDbLine
 10
573.3672666761
 20
1188.6053310257
 30
0.0
 11
573.3672666761
 21
1188.0345569474
 31
0.0
  0
LINE
  5
127
330
1F
100
AcDbEntity
  8
SLD-0_0
  6
SLD-Solid
 62
   179
370
    15
100
AcDbLine
 10
573.6440259429
 20
1187.639795385
 30
0.0
 11
573.7130332204
 21
1187.6147614342
 31
0.0
  0
LINE
  5
128
330
1F
100
AcDbEntity
  8
SLD-0_0
  6
SLD-Solid
 62
   179
370
    15
100
AcDbLine
 10
671.0149336072
 20
1187.6147614342
 30
0.0
 11
671.0839408847
 21
1187.639795385
 31
0.0
  0
LINE
  5
129
330
1F
100
AcDbEntity
  8
SLD-0_0
  6
SLD-Solid
 62
   179
370
    15
100
AcDbLine
 10
954.8494214245
 20
1189.8635881502
 30
0.0
 11
954.8494214245
 21
1191.0385669716
 31
0.0
  0
LINE
  5
12A
330
1F
100
AcDbEntity
  8
SLD-0_0
  6
SLD-Solid
 62
   179
370
    15
100
AcDbLine
 10
849.8785410371
 20
1191.0385669716
 30
0.0
 11
849.8785410371
 21
1189.8635881502
 31
0.0
  0
LINE
  5
12B
330
1F
100
AcDbEntity
  8
SLD-0_0
  6
SLD-Solid
 62
   179
370
    15
100
AcDbLine
 10
850.2227056238
 20
1189.3707738739
 30
0.0
 11
850.8785504314
 21
1189.1302691323
 31
0.0
  0
LINE
  5
12C
330
1F
100
AcDbEntity
  8
SLD-0_0
  6
SLD-Solid
 62
   179
370
    15
100
AcDbLine
 10
953.8494187805
 20
1189.1302691323
 30
0.0
 11
954.5052486869
 21
1189.3707738739
 31
0.0
  0
LINE
  5
12D
330
1F
100
AcDbEntity
  8
SLD-0_0
  6
SLD-Solid
 62
   179
370
    15
100
AcDbLine
 10
952.8594005319
 20
1193.1352840287
 30
0.0
 11
902.3639846059
 21
1195.7743392807
 31
0.0
  0
LINE
  5
12E
330
1F
100
AcDbEntity
  8
SLD-0_0
  6
SLD-Solid
 62
   179
370
    15
100
AcDbLine
 10
902.3639846059
 20
1195.7743392807
 30
0.0
 11
851.8685612294
 21
1193.1352840287
 31
0.0
  0
LINE
  5
12F
330
1F
100
AcDbEntity
  8
SLD-0_0
  6
SLD-Solid
 62
   179
370
    15
100
AcDbLine
 10
951.3607013437
 20
1188.0345569474
 30
0.0
 11
951.3607013437
 21
1188.6053310257
 31
0.0
  0
LINE
  5
130
330
1F
100
AcDbEntity
  8
SLD-0_0
  6
SLD-Solid
 62
   179
370
    15
100
AcDbLine
 10
853.3672604176
 20
1188.6053310257
 30
0.0
 11
853.3672604176
 21
1188.0345569474
 31
0.0
  0
LINE
  5
131
330
1F
100
AcDbEntity
  8
SLD-0_0
  6
SLD-Solid
 62
   179
370
    15
100
AcDbLine
 10
853.6440196844
 20
1187.639795385
 30
0.0
 11
853.7130269619
 21
1187.6147614342
 31
0.0
  0
LINE
  5
132
330
1F
100
AcDbEntity
  8
SLD-0_0
  6
SLD-Solid
 62
   179
370
    15
100
AcDbLine
 10
951.0149347993
 20
1187.6147614342
 30
0.0
 11
951.0839420768
 21
1187.639795385
 31
0.0
  0
LINE
  5
133
330
1F
100
AcDbEntity
  8
SLD-0_0
  6
SLD-Solid
 62
   179
370
    15
100
AcDbLine
 10
671.098022482
 20
1187.6147614342
 30
0.0
 11
573.6299443456
 21
1187.6147614342
 31
0.0
  0
LINE
  5
134
330
1F
100
AcDbEntity
  8
SLD-0_0
  6
SLD-Solid
 62
   179
370
    15
100
AcDbLine
 10
573.3299372307
 20
1187.3147790783
 30
0.0
 11
573.3299392673
 21
1185.6191383225
 31
0.0
  0
LINE
  5
135
330
1F
100
AcDbEntity
  8
SLD-0_0
  6
SLD-Solid
 62
   179
370
    15
100
AcDbLine
 10
671.3980275604
 20
1185.6191383225
 30
0.0
 11
671.3980252307
 21
1187.3147790783
 31
0.0
  0
LINE
  5
136
330
1F
100
AcDbEntity
  8
SLD-0_0
  6
SLD-Solid
 62
   179
370
    15
100
AcDbLine
 10
951.0980236741
 20
1187.6147614342
 30
0.0
 11
853.6299380871
 21
1187.6147614342
 31
0.0
  0
LINE
  5
137
330
1F
100
AcDbEntity
  8
SLD-0_0
  6
SLD-Solid
 62
   179
370
    15
100
AcDbLine
 10
853.3299372308
 20
1187.3147790782
 30
0.0
 11
853.3299404594
 21
1185.6191383225
 31
0.0
  0
LINE
  5
138
330
1F
100
AcDbEntity
  8
SLD-0_0
  6
SLD-Solid
 62
   179
370
    15
100
AcDbLine
 10
951.3980287525
 20
1185.6191383225
 30
0.0
 11
951.3980252308
 21
1187.3147790782
 31
0.0
  0
LINE
  5
139
330
1F
100
AcDbEntity
  8
SLD-0_0
  6
SLD-Solid
 62
   179
370
    15
100
AcDbLine
 10
1110.563992283
 20
558.7191508633
 30
0.0
 11
1107.1639943334
 21
558.7191508633
 31
0.0
  0
LINE
  5
13A
330
1F
100
AcDbEntity
  8
SLD-0_0
  6
SLD-Solid
 62
   179
370
    15
100
AcDbLine
 10
1107.1639943334
 20
546.7191414458
 30
0.0
 11
1110.563992283
 21
546.7191414458
 31
0.0
  0
LINE
  5
13B
330
1F
100
AcDbEntity
  8
SLD-0_0
  6
SLD-Solid
 62
   179
370
    15
100
AcDbLine
 10
1164.6639692994
 20
1014.8191676956
 30
0.0
 11
1164.6639692994
 21
1016.3191185814
 31
0.0
  0
LINE
  5
13C
330
1F
100
AcDbEntity
  8
SLD-0_0
  6
SLD-Solid
 62
   179
370
    15
100
AcDbLine
 10
1147.6639795514
 20
1016.3191185814
 30
0.0
 11
1147.6639795514
 21
1014.8191676956
 31
0.0
  0
LINE
  5
13D
330
1F
100
AcDbEntity
  8
SLD-0_0
  6
SLD-Solid
 62
   179
370
    15
100
AcDbLine
 10
1147.6639795514
 20
1014.8191676956
 30
0.0
 11
1148.1639731141
 21
1014.3191443306
 31
0.0
  0
LINE
  5
13E
330
1F
100
AcDbEntity
  8
SLD-0_0
  6
SLD-Solid
 62
   179
370
    15
100
AcDbLine
 10
1164.1639757367
 20
1014.3191443306
 30
0.0
 11
1164.6639692994
 21
1014.8191676956
 31
0.0
  0
LINE
  5
13F
330
1F
100
AcDbEntity
  8
SLD-0_0
  6
SLD-Solid
 62
   179
370
    15
100
AcDbLine
 10
1164.6639692994
 20
1016.3191185814
 30
0.0
 11
1164.1639757367
 21
1016.8191419464
 31
0.0
  0
LINE
  5
140
330
1F
100
AcDbEntity
  8
SLD-0_0
  6
SLD-Solid
 62
   179
370
    15
100
AcDbLine
 10
1148.1639731141
 20
1016.8191419464
 30
0.0
 11
1147.6639795514
 21
1016.3191185814
 31
0.0
  0
LINE
  5
141
330
1F
100
AcDbEntity
  8
SLD-0_0
  6
SLD-Solid
 62
   179
370
    15
100
AcDbLine
 10
1162.6639950487
 20
1013.4484396797
 30
0.0
 11
1162.6639950487
 21
1013.5191307884
 31
0.0
  0
LINE
  5
142
330
1F
100
AcDbEntity
  8
SLD-0_0
  6
SLD-Solid
 62
   179
370
    15
100
AcDbLine
 10
1149.6639836046
 20
1013.5191307884
 30
0.0
 11
1149.6639836046
 21
1013.4484396797
 31
0.0
  0
LINE
  5
143
330
1F
100
AcDbEntity
  8
SLD-0_0
  6
SLD-Solid
 62
   179
370
    15
100
AcDbLine
 10
1164.6639692994
 20
489.819146834
 30
0.0
 11
1164.1639757367
 21
490.3191478473
 31
0.0
  0
LINE
  5
144
330
1F
100
AcDbEntity
  8
SLD-0_0
  6
SLD-Solid
 62
   179
370
    15
100
AcDbLine
 10
1148.1639731141
 20
490.3191478473
 30
0.0
 11
1147.6639795514
 21
489.819146834
 31
0.0
  0
LINE
  5
145
330
1F
100
AcDbEntity
  8
SLD-0_0
  6
SLD-Solid
 62
   179
370
    15
100
AcDbLine
 10
1147.6639795514
 20
488.3191512448
 30
0.0
 11
1148.1639731141
 21
487.8191502315
 31
0.0
  0
LINE
  5
146
330
1F
100
AcDbEntity
  8
SLD-0_0
  6
SLD-Solid
 62
   179
370
    15
100
AcDbLine
 10
1164.1639757367
 20
487.8191502315
 30
0.0
 11
1164.6639692994
 21
488.3191512448
 31
0.0
  0
LINE
  5
147
330
1F
100
AcDbEntity
  8
SLD-0_0
  6
SLD-Solid
 62
   179
370
    15
100
AcDbLine
 10
1147.6639795514
 20
489.819146834
 30
0.0
 11
1147.6639795514
 21
488.3191512448
 31
0.0
  0
LINE
  5
148
330
1F
100
AcDbEntity
  8
SLD-0_0
  6
SLD-Solid
 62
   179
370
    15
100
AcDbLine
 10
1164.6639692994
 20
488.3191512448
 30
0.0
 11
1164.6639692994
 21
489.819146834
 31
0.0
  0
LINE
  5
149
330
1F
100
AcDbEntity
  8
SLD-0_0
  6
SLD-Solid
 62
   179
370
    15
100
AcDbLine
 10
1149.6639836046
 20
491.1898599488
 30
0.0
 11
1149.6639836046
 21
491.1191464883
 31
0.0
  0
LINE
  5
14A
330
1F
100
AcDbEntity
  8
SLD-0_0
  6
SLD-Solid
 62
   179
370
    15
100
AcDbLine
 10
1162.6639950487
 20
491.1191464883
 30
0.0
 11
1162.6639950487
 21
491.1898599488
 31
0.0
  0
LINE
  5
14B
330
1F
100
AcDbEntity
  8
SLD-0_0
  6
SLD-Solid
 62
   179
370
    15
100
AcDbLine
 10
1166.1651718828
 20
949.7537241799
 30
0.0
 11
1170.3689384672
 21
949.754201017
 31
0.0
  0
LINE
  5
14C
330
1F
100
AcDbEntity
  8
SLD-0_0
  6
SLD-Solid
 62
   179
370
    15
100
AcDbLine
 10
1170.3689384672
 20
949.754201017
 30
0.0
 11
1185.8178365442
 21
949.8552308899
 31
0.0
  0
LINE
  5
14D
330
1F
100
AcDbEntity
  8
SLD-0_0
  6
SLD-Solid
 62
   179
370
    15
100
AcDbLine
 10
1185.8178365442
 20
949.8552308899
 30
0.0
 11
1195.352344534
 21
949.7808442932
 31
0.0
  0
LINE
  5
14E
330
1F
100
AcDbEntity
  8
SLD-0_0
  6
SLD-Solid
 62
   179
370
    15
100
AcDbLine
 10
1195.352344534
 20
949.7808442932
 30
0.0
 11
1200.7479059907
 21
949.5874868256
 31
0.0
  0
LINE
  5
14F
330
1F
100
AcDbEntity
  8
SLD-0_0
  6
SLD-Solid
 62
   179
370
    15
100
AcDbLine
 10
1200.7440018865
 20
979.0500627381
 30
0.0
 11
1194.4993424627
 21
978.8570628983
 31
0.0
  0
LINE
  5
150
330
1F
100
AcDbEntity
  8
SLD-0_0
  6
SLD-Solid
 62
   179
370
    15
100
AcDbLine
 10
1194.4993424627
 20
978.8570628983
 30
0.0
 11
1185.1876664373
 21
978.8009749275
 31
0.0
  0
LINE
  5
151
330
1F
100
AcDbEntity
  8
SLD-0_0
  6
SLD-Solid
 62
   179
370
    15
100
AcDbLine
 10
1185.1876664373
 20
978.8009749275
 30
0.0
 11
1174.1682577344
 21
978.878758989
 31
0.0
  0
LINE
  5
152
330
1F
100
AcDbEntity
  8
SLD-0_0
  6
SLD-Solid
 62
   179
370
    15
100
AcDbLine
 10
1174.1682577344
 20
978.878758989
 30
0.0
 11
1166.1639797899
 21
978.8897262436
 31
0.0
  0
LINE
  5
153
330
1F
100
AcDbEntity
  8
SLD-0_0
  6
SLD-Solid
 62
   179
370
    15
100
AcDbLine
 10
1202.2847223493
 20
949.7731552941
 30
0.0
 11
1202.2687185022
 21
949.7720824105
 31
0.0
  0
LINE
  5
154
330
1F
100
AcDbEntity
  8
SLD-0_0
  6
SLD-Solid
 62
   179
370
    15
100
AcDbLine
 10
1202.2687185022
 20
949.7720824105
 30
0.0
 11
1202.4599302026
 21
949.7676120621
 31
0.0
  0
LINE
  5
155
330
1F
100
AcDbEntity
  8
SLD-0_0
  6
SLD-Solid
 62
   179
370
    15
100
AcDbLine
 10
1202.4599302026
 20
949.7676120621
 30
0.0
 11
1202.9793548795
 21
949.7479425293
 31
0.0
  0
LINE
  5
156
330
1F
100
AcDbEntity
  8
SLD-0_0
  6
SLD-Solid
 62
   179
370
    15
100
AcDbLine
 10
1202.9793548795
 20
949.7479425293
 30
0.0
 11
1203.4728217336
 21
949.7382269722
 31
0.0
  0
LINE
  5
157
330
1F
100
AcDbEntity
  8
SLD-0_0
  6
SLD-Solid
 62
   179
370
    15
100
AcDbLine
 10
1203.4728217336
 20
949.7382269722
 30
0.0
 11
1203.742234728
 21
949.7378693444
 31
0.0
  0
LINE
  5
158
330
1F
100
AcDbEntity
  8
SLD-0_0
  6
SLD-Solid
 62
   179
370
    15
100
AcDbLine
 10
1203.742234728
 20
949.7378693444
 30
0.0
 11
1203.9709079477
 21
949.7377501351
 31
0.0
  0
LINE
  5
159
330
1F
100
AcDbEntity
  8
SLD-0_0
  6
SLD-Solid
 62
   179
370
    15
100
AcDbLine
 10
1203.9709079477
 20
949.7377501351
 30
0.0
 11
1206.7894923898
 21
949.7359619957
 31
0.0
  0
LINE
  5
15A
330
1F
100
AcDbEntity
  8
SLD-0_0
  6
SLD-Solid
 62
   179
370
    15
100
AcDbLine
 10
1206.7894923898
 20
949.7359619957
 30
0.0
 11
1209.293960354
 21
949.7342930657
 31
0.0
  0
LINE
  5
15B
330
1F
100
AcDbEntity
  8
SLD-0_0
  6
SLD-Solid
 62
   179
370
    15
100
AcDbLine
 10
1209.293960354
 20
949.7342930657
 30
0.0
 11
1211.4835965844
 21
949.7327433449
 31
0.0
  0
LINE
  5
15C
330
1F
100
AcDbEntity
  8
SLD-0_0
  6
SLD-Solid
 62
   179
370
    15
100
AcDbLine
 10
1211.4835965844
 20
949.7327433449
 30
0.0
 11
1213.3586991044
 21
949.7313128334
 31
0.0
  0
LINE
  5
15D
330
1F
100
AcDbEntity
  8
SLD-0_0
  6
SLD-Solid
 62
   179
370
    15
100
AcDbLine
 10
1213.3586991044
 20
949.7313128334
 30
0.0
 11
1214.9189102861
 21
949.7300611359
 31
0.0
  0
LINE
  5
15E
330
1F
100
AcDbEntity
  8
SLD-0_0
  6
SLD-Solid
 62
   179
370
    15
100
AcDbLine
 10
1214.9189102861
 20
949.7300611359
 30
0.0
 11
1215.0966513368
 21
949.7299419266
 31
0.0
  0
LINE
  5
15F
330
1F
100
AcDbEntity
  8
SLD-0_0
  6
SLD-Solid
 62
   179
370
    15
100
AcDbLine
 10
1215.0966513368
 20
949.7299419266
 30
0.0
 11
1215.2755546781
 21
949.7313128334
 31
0.0
  0
LINE
  5
160
330
1F
100
AcDbEntity
  8
SLD-0_0
  6
SLD-Solid
 62
   179
370
    15
100
AcDbLine
 10
1215.2755546781
 20
949.7313128334
 30
0.0
 11
1215.2596998426
 21
949.7311936241
 31
0.0
  0
LINE
  5
161
330
1F
100
AcDbEntity
  8
SLD-0_0
  6
SLD-Solid
 62
   179
370
    15
100
AcDbLine
 10
1215.4673922273
 20
978.857956968
 30
0.0
 11
1215.4848265859
 21
978.8566456658
 31
0.0
  0
LINE
  5
162
330
1F
100
AcDbEntity
  8
SLD-0_0
  6
SLD-Solid
 62
   179
370
    15
100
AcDbLine
 10
1215.4848265859
 20
978.8566456658
 30
0.0
 11
1215.2709353181
 21
978.8763748032
 31
0.0
  0
LINE
  5
163
330
1F
100
AcDbEntity
  8
SLD-0_0
  6
SLD-Solid
 62
   179
370
    15
100
AcDbLine
 10
1215.2709353181
 20
978.8763748032
 30
0.0
 11
1214.7440302583
 21
978.9066539627
 31
0.0
  0
LINE
  5
164
330
1F
100
AcDbEntity
  8
SLD-0_0
  6
SLD-Solid
 62
   179
370
    15
100
AcDbLine
 10
1214.7440302583
 20
978.9066539627
 30
0.0
 11
1214.5303774091
 21
978.9102302414
 31
0.0
  0
LINE
  5
165
330
1F
100
AcDbEntity
  8
SLD-0_0
  6
SLD-Solid
 62
   179
370
    15
100
AcDbLine
 10
1214.5303774091
 20
978.9102302414
 30
0.0
 11
1214.4634711953
 21
978.9102898461
 31
0.0
  0
LINE
  5
166
330
1F
100
AcDbEntity
  8
SLD-0_0
  6
SLD-Solid
 62
   179
370
    15
100
AcDbLine
 10
1214.4634711953
 20
978.9102898461
 30
0.0
 11
1214.4205856534
 21
978.9103494507
 31
0.0
  0
LINE
  5
167
330
1F
100
AcDbEntity
  8
SLD-0_0
  6
SLD-Solid
 62
   179
370
    15
100
AcDbLine
 10
1214.4205856534
 20
978.9103494507
 30
0.0
 11
1212.7451288911
 21
978.9114223343
 31
0.0
  0
LINE
  5
168
330
1F
100
AcDbEntity
  8
SLD-0_0
  6
SLD-Solid
 62
   179
370
    15
100
AcDbLine
 10
1212.7451288911
 20
978.9114223343
 30
0.0
 11
1210.7551384183
 21
978.9123760086
 31
0.0
  0
LINE
  5
169
330
1F
100
AcDbEntity
  8
SLD-0_0
  6
SLD-Solid
 62
   179
370
    15
100
AcDbLine
 10
1210.7551384183
 20
978.9123760086
 30
0.0
 11
1208.4510910722
 21
978.913150869
 31
0.0
  0
LINE
  5
16A
330
1F
100
AcDbEntity
  8
SLD-0_0
  6
SLD-Solid
 62
   179
370
    15
100
AcDbLine
 10
1208.4510910722
 20
978.913150869
 30
0.0
 11
1205.8338809224
 21
978.9138661248
 31
0.0
  0
LINE
  5
16B
330
1F
100
AcDbEntity
  8
SLD-0_0
  6
SLD-Solid
 62
   179
370
    15
100
AcDbLine
 10
1205.8338809224
 20
978.9138661248
 30
0.0
 11
1202.9023158761
 21
978.9144025666
 31
0.0
  0
LINE
  5
16C
330
1F
100
AcDbEntity
  8
SLD-0_0
  6
SLD-Solid
 62
   179
370
    15
100
AcDbLine
 10
1202.9023158761
 20
978.9144025666
 30
0.0
 11
1201.9095409128
 21
978.911481939
 31
0.0
  0
LINE
  5
16D
330
1F
100
AcDbEntity
  8
SLD-0_0
  6
SLD-Solid
 62
   179
370
    15
100
AcDbLine
 10
1201.9095409128
 20
978.911481939
 30
0.0
 11
1201.8376279088
 21
978.9101706368
 31
0.0
  0
LINE
  5
16E
330
1F
100
AcDbEntity
  8
SLD-0_0
  6
SLD-Solid
 62
   179
370
    15
100
AcDbLine
 10
1201.8376279088
 20
978.9101706368
 30
0.0
 11
1202.0603704664
 21
978.9030180794
 31
0.0
  0
LINE
  5
16F
330
1F
100
AcDbEntity
  8
SLD-0_0
  6
SLD-Solid
 62
   179
370
    15
100
AcDbLine
 10
1202.0603704664
 20
978.9030180794
 30
0.0
 11
1202.5984811994
 21
978.8415656906
 31
0.0
  0
LINE
  5
170
330
1F
100
AcDbEntity
  8
SLD-0_0
  6
SLD-Solid
 62
   179
370
    15
100
AcDbLine
 10
1202.5984811994
 20
978.8415656906
 30
0.0
 11
1202.9364097329
 21
978.7710533959
 31
0.0
  0
LINE
  5
171
330
1F
100
AcDbEntity
  8
SLD-0_0
  6
SLD-Solid
 62
   179
370
    15
100
AcDbLine
 10
1202.9364097329
 20
978.7710533959
 30
0.0
 11
1203.0387807103
 21
978.7429796082
 31
0.0
  0
LINE
  5
172
330
1F
100
AcDbEntity
  8
SLD-0_0
  6
SLD-Solid
 62
   179
370
    15
100
AcDbLine
 10
1206.1618852826
 20
951.0029183251
 30
0.0
 11
1206.1380732271
 21
951.0084019524
 31
0.0
  0
LINE
  5
173
330
1F
100
AcDbEntity
  8
SLD-0_0
  6
SLD-Solid
 62
   179
370
    15
100
AcDbLine
 10
1166.1638903829
 20
949.7221933228
 30
0.0
 11
1189.8795056554
 21
949.7227297646
 31
0.0
  0
LINE
  5
174
330
1F
100
AcDbEntity
  8
SLD-0_0
  6
SLD-Solid
 62
   179
370
    15
100
AcDbLine
 10
1189.8795056554
 20
949.7227297646
 30
0.0
 11
1197.0195162507
 21
949.7211204392
 31
0.0
  0
LINE
  5
175
330
1F
100
AcDbEntity
  8
SLD-0_0
  6
SLD-Solid
 62
   179
370
    15
100
AcDbLine
 10
1201.4073121759
 20
949.7201071602
 30
0.0
 11
1207.2142052862
 21
949.718795858
 31
0.0
  0
LINE
  5
176
330
1F
100
AcDbEntity
  8
SLD-0_0
  6
SLD-Solid
 62
   179
370
    15
100
AcDbLine
 10
1207.2142052862
 20
949.718795858
 30
0.0
 11
1215.4277551385
 21
949.5628701073
 31
0.0
  0
LINE
  5
177
330
1F
100
AcDbEntity
  8
SLD-0_0
  6
SLD-Solid
 62
   179
370
    15
100
AcDbLine
 10
1215.4277551385
 20
949.5628701073
 30
0.0
 11
1215.51349642
 21
949.560068689
 31
0.0
  0
LINE
  5
178
330
1F
100
AcDbEntity
  8
SLD-0_0
  6
SLD-Solid
 62
   179
370
    15
100
AcDbLine
 10
1196.391670725
 20
978.9155350548
 30
0.0
 11
1182.8692841741
 21
978.9155946595
 31
0.0
  0
LINE
  5
179
330
1F
100
AcDbEntity
  8
SLD-0_0
  6
SLD-Solid
 62
   179
370
    15
100
AcDbLine
 10
1182.8692841741
 20
978.9155946595
 30
0.0
 11
1166.1652314874
 21
978.9156542641
 31
0.0
  0
LINE
  5
17A
330
1F
100
AcDbEntity
  8
SLD-0_0
  6
SLD-Solid
 62
   179
370
    15
100
AcDbLine
 10
1164.1639757367
 20
485.3191451651
 30
0.0
 11
1164.1639757367
 21
487.8191502315
 31
0.0
  0
LINE
  5
17B
330
1F
100
AcDbEntity
  8
SLD-0_0
  6
SLD-Solid
 62
   179
370
    15
100
AcDbLine
 10
1164.1639757367
 20
1017.6191554886
 30
0.0
 11
1164.1639757367
 21
1020.1191531044
 31
0.0
  0
LINE
  5
17C
330
1F
100
AcDbEntity
  8
SLD-0_0
  6
SLD-Solid
 62
   179
370
    15
100
AcDbLine
 10
1160.0639808389
 20
484.8191516024
 30
0.0
 11
1160.0639808389
 21
485.3191451651
 31
0.0
  0
LINE
  5
17D
330
1F
100
AcDbEntity
  8
SLD-0_0
  6
SLD-Solid
 62
   179
370
    15
100
AcDbLine
 10
1152.263968012
 20
485.3191451651
 30
0.0
 11
1152.263968012
 21
484.8191516024
 31
0.0
  0
LINE
  5
17E
330
1F
100
AcDbEntity
  8
SLD-0_0
  6
SLD-Solid
 62
   179
370
    15
100
AcDbLine
 10
1151.163994095
 20
1017.6191554886
 30
0.0
 11
1151.163994095
 21
1016.8191419464
 31
0.0
  0
LINE
  5
17F
330
1F
100
AcDbEntity
  8
SLD-0_0
  6
SLD-Solid
 62
   179
370
    15
100
AcDbLine
 10
1161.1639845582
 20
1016.8191419464
 30
0.0
 11
1161.1639845582
 21
1017.6191554886
 31
0.0
  0
LINE
  5
180
330
1F
100
AcDbEntity
  8
SLD-0_0
  6
SLD-Solid
 62
   179
370
    15
100
AcDbLine
 10
1152.263968012
 20
1020.6191764694
 30
0.0
 11
1152.263968012
 21
1020.1191531044
 31
0.0
  0
LINE
  5
181
330
1F
100
AcDbEntity
  8
SLD-0_0
  6
SLD-Solid
 62
   179
370
    15
100
AcDbLine
 10
1160.0639808389
 20
1020.1191531044
 30
0.0
 11
1160.0639808389
 21
1020.6191764694
 31
0.0
  0
LINE
  5
182
330
1F
100
AcDbEntity
  8
SLD-0_0
  6
SLD-Solid
 62
   179
370
    15
100
AcDbLine
 10
391.1139953348
 20
1077.7191744667
 30
0.0
 11
391.6139888975
 21
1077.7191744667
 31
0.0
  0
LINE
  5
183
330
1F
100
AcDbEntity
  8
SLD-0_0
  6
SLD-Solid
 62
   179
370
    15
100
AcDbLine
 10
391.6139888975
 20
1085.1191507202
 30
0.0
 11
391.1139953348
 21
1085.1191507202
 31
0.0
  0
LINE
  5
184
330
1F
100
AcDbEntity
  8
SLD-0_0
  6
SLD-Solid
 62
   179
370
    15
100
AcDbLine
 10
392.113981232
 20
1078.3191481621
 30
0.0
 11
396.263985655
 21
1078.319154821
 31
0.0
  0
LINE
  5
185
330
1F
100
AcDbEntity
  8
SLD-0_0
  6
SLD-Solid
 62
   179
370
    15
100
AcDbLine
 10
396.263985655
 20
1084.5191703659
 30
0.0
 11
392.1139824601
 21
1084.5191703659
 31
0.0
  0
LINE
  5
186
330
1F
100
AcDbEntity
  8
SLD-0_0
  6
SLD-Solid
 62
   179
370
    15
100
AcDbLine
 10
396.263985655
 20
1078.319154821
 30
0.0
 11
396.8639958116
 21
1078.5691367012
 31
0.0
  0
LINE
  5
187
330
1F
100
AcDbEntity
  8
SLD-0_0
  6
SLD-Solid
 62
   179
370
    15
100
AcDbLine
 10
396.8639958116
 20
1084.2691288811
 30
0.0
 11
396.263985655
 21
1084.5191703659
 31
0.0
  0
LINE
  5
188
330
1F
100
AcDbEntity
  8
SLD-0_0
  6
SLD-Solid
 62
   179
370
    15
100
AcDbLine
 10
391.1139953348
 20
1124.3191586357
 30
0.0
 11
391.6139888975
 21
1124.3191586357
 31
0.0
  0
LINE
  5
189
330
1F
100
AcDbEntity
  8
SLD-0_0
  6
SLD-Solid
 62
   179
370
    15
100
AcDbLine
 10
391.6139888975
 20
1130.5191741806
 30
0.0
 11
391.1139953348
 21
1130.5191741806
 31
0.0
  0
LINE
  5
18A
330
1F
100
AcDbEntity
  8
SLD-0_0
  6
SLD-Solid
 62
   179
370
    15
100
AcDbLine
 10
392.113981232
 20
1125.0191481621
 30
0.0
 11
396.1139905664
 21
1125.019155584
 31
0.0
  0
LINE
  5
18B
330
1F
100
AcDbEntity
  8
SLD-0_0
  6
SLD-Solid
 62
   179
370
    15
100
AcDbLine
 10
396.1139905664
 20
1129.8191772324
 30
0.0
 11
392.1139824601
 21
1129.8191772324
 31
0.0
  0
LINE
  5
18C
330
1F
100
AcDbEntity
  8
SLD-0_0
  6
SLD-Solid
 62
   179
370
    15
100
AcDbLine
 10
396.1139905664
 20
1125.019155584
 30
0.0
 11
396.7139709207
 21
1125.2691374642
 31
0.0
  0
LINE
  5
18D
330
1F
100
AcDbEntity
  8
SLD-0_0
  6
SLD-Solid
 62
   179
370
    15
100
AcDbLine
 10
396.7139709207
 20
1129.5691357476
 30
0.0
 11
396.1139905664
 21
1129.8191772324
 31
0.0
  0
LINE
  5
18E
330
1F
100
AcDbEntity
  8
SLD-0_0
  6
SLD-Solid
 62
   179
370
    15
100
AcDbLine
 10
391.1139953348
 20
1094.3191276413
 30
0.0
 11
391.6139888975
 21
1094.3191276413
 31
0.0
  0
LINE
  5
18F
330
1F
100
AcDbEntity
  8
SLD-0_0
  6
SLD-Solid
 62
   179
370
    15
100
AcDbLine
 10
391.613981232
 20
1100.5191481621
 30
0.0
 11
391.1139953348
 21
1100.5191431862
 31
0.0
  0
LINE
  5
190
330
1F
100
AcDbEntity
  8
SLD-0_0
  6
SLD-Solid
 62
   179
370
    15
100
AcDbLine
 10
392.1139824601
 20
1095.0191245896
 30
0.0
 11
396.1139905664
 21
1095.0191245896
 31
0.0
  0
LINE
  5
191
330
1F
100
AcDbEntity
  8
SLD-0_0
  6
SLD-Solid
 62
   179
370
    15
100
AcDbLine
 10
396.1139905664
 20
1099.819146238
 30
0.0
 11
392.113981232
 21
1099.8191481621
 31
0.0
  0
LINE
  5
192
330
1F
100
AcDbEntity
  8
SLD-0_0
  6
SLD-Solid
 62
   179
370
    15
100
AcDbLine
 10
396.1139905664
 20
1095.0191245896
 30
0.0
 11
396.7139709207
 21
1095.2691660744
 31
0.0
  0
LINE
  5
193
330
1F
100
AcDbEntity
  8
SLD-0_0
  6
SLD-Solid
 62
   179
370
    15
100
AcDbLine
 10
396.7139709207
 20
1099.5691643578
 30
0.0
 11
396.1139905664
 21
1099.819146238
 31
0.0
  0
LINE
  5
194
330
1F
100
AcDbEntity
  8
SLD-0_0
  6
SLD-Solid
 62
   179
370
    15
100
AcDbLine
 10
391.1139953348
 20
1064.3191562516
 30
0.0
 11
391.613981232
 21
1064.3191481621
 31
0.0
  0
LINE
  5
195
330
1F
100
AcDbEntity
  8
SLD-0_0
  6
SLD-Solid
 62
   179
370
    15
100
AcDbLine
 10
391.6139888975
 20
1070.5191717964
 30
0.0
 11
391.1139953348
 21
1070.5191717964
 31
0.0
  0
LINE
  5
196
330
1F
100
AcDbEntity
  8
SLD-0_0
  6
SLD-Solid
 62
   179
370
    15
100
AcDbLine
 10
392.113981232
 20
1065.0191481621
 30
0.0
 11
396.1139905664
 21
1065.0191531998
 31
0.0
  0
LINE
  5
197
330
1F
100
AcDbEntity
  8
SLD-0_0
  6
SLD-Solid
 62
   179
370
    15
100
AcDbLine
 10
396.1139905664
 20
1069.8191748482
 30
0.0
 11
392.1139824601
 21
1069.8191748482
 31
0.0
  0
LINE
  5
198
330
1F
100
AcDbEntity
  8
SLD-0_0
  6
SLD-Solid
 62
   179
370
    15
100
AcDbLine
 10
396.1139905664
 20
1065.0191531998
 30
0.0
 11
396.7139709207
 21
1065.26913508
 31
0.0
  0
LINE
  5
199
330
1F
100
AcDbEntity
  8
SLD-0_0
  6
SLD-Solid
 62
   179
370
    15
100
AcDbLine
 10
396.7139709207
 20
1069.5691333634
 30
0.0
 11
396.1139905664
 21
1069.8191748482
 31
0.0
  0
LINE
  5
19A
330
1F
100
AcDbEntity
  8
SLD-0_0
  6
SLD-Solid
 62
   179
370
    15
100
AcDbLine
 10
400.1639771673
 20
1167.6191316468
 30
0.0
 11
400.1639771673
 21
1166.7484269959
 31
0.0
  0
LINE
  5
19B
330
1F
100
AcDbEntity
  8
SLD-0_0
  6
SLD-Solid
 62
   179
370
    15
100
AcDbLine
 10
335.4639697286
 20
1174.3191705567
 30
0.0
 11
335.4639697286
 21
1174.2191539627
 31
0.0
  0
LINE
  5
19C
330
1F
100
AcDbEntity
  8
SLD-0_0
  6
SLD-Solid
 62
   179
370
    15
100
AcDbLine
 10
335.4639697286
 20
1174.3191705567
 30
0.0
 11
385.4639816495
 21
1174.3191705567
 31
0.0
  0
LINE
  5
19D
330
1F
100
AcDbEntity
  8
SLD-0_0
  6
SLD-Solid
 62
   179
370
    15
100
AcDbLine
 10
385.4639816495
 20
1174.3191705567
 30
0.0
 11
385.4639816495
 21
1174.2191539627
 31
0.0
  0
LINE
  5
19E
330
1F
100
AcDbEntity
  8
SLD-0_0
  6
SLD-Solid
 62
   179
370
    15
100
AcDbLine
 10
380.1306176397
 20
1174.419127546
 30
0.0
 11
380.1306176397
 21
1174.3191705567
 31
0.0
  0
LINE
  5
19F
330
1F
100
AcDbEntity
  8
SLD-0_0
  6
SLD-Solid
 62
   179
370
    15
100
AcDbLine
 10
381.1826992246
 20
1174.419127546
 30
0.0
 11
381.1826992246
 21
1174.3191705567
 31
0.0
  0
LINE
  5
1A0
330
1F
100
AcDbEntity
  8
SLD-0_0
  6
SLD-Solid
 62
   179
370
    15
100
AcDbLine
 10
382.2331714841
 20
1174.419127546
 30
0.0
 11
382.2331714841
 21
1174.3191705567
 31
0.0
  0
LINE
  5
1A1
330
1F
100
AcDbEntity
  8
SLD-0_0
  6
SLD-Solid
 62
   179
370
    15
100
AcDbLine
 10
349.9014365884
 20
1174.419127546
 30
0.0
 11
349.9014365884
 21
1174.3191705567
 31
0.0
  0
LINE
  5
1A2
330
1F
100
AcDbEntity
  8
SLD-0_0
  6
SLD-Solid
 62
   179
370
    15
100
AcDbLine
 10
350.9535181733
 20
1174.419127546
 30
0.0
 11
350.9535181733
 21
1174.3191705567
 31
0.0
  0
LINE
  5
1A3
330
1F
100
AcDbEntity
  8
SLD-0_0
  6
SLD-Solid
 62
   179
370
    15
100
AcDbLine
 10
352.0040202352
 20
1174.419127546
 30
0.0
 11
352.0040202352
 21
1174.3191705567
 31
0.0
  0
LINE
  5
1A4
330
1F
100
AcDbEntity
  8
SLD-0_0
  6
SLD-Solid
 62
   179
370
    15
100
AcDbLine
 10
345.5681193086
 20
1174.419127546
 30
0.0
 11
345.5681193086
 21
1174.3191705567
 31
0.0
  0
LINE
  5
1A5
330
1F
100
AcDbEntity
  8
SLD-0_0
  6
SLD-Solid
 62
   179
370
    15
100
AcDbLine
 10
346.6202008935
 20
1174.419127546
 30
0.0
 11
346.6202008935
 21
1174.3191705567
 31
0.0
  0
LINE
  5
1A6
330
1F
100
AcDbEntity
  8
SLD-0_0
  6
SLD-Solid
 62
   179
370
    15
100
AcDbLine
 10
347.6706731531
 20
1174.419127546
 30
0.0
 11
347.6706731531
 21
1174.3191705567
 31
0.0
  0
LINE
  5
1A7
330
1F
100
AcDbEntity
  8
SLD-0_0
  6
SLD-Solid
 62
   179
370
    15
100
AcDbLine
 10
371.4639532777
 20
1174.419127546
 30
0.0
 11
371.4639532777
 21
1174.3191705567
 31
0.0
  0
LINE
  5
1A8
330
1F
100
AcDbEntity
  8
SLD-0_0
  6
SLD-Solid
 62
   179
370
    15
100
AcDbLine
 10
372.5160348626
 20
1174.419127546
 30
0.0
 11
372.5160348626
 21
1174.3191705567
 31
0.0
  0
LINE
  5
1A9
330
1F
100
AcDbEntity
  8
SLD-0_0
  6
SLD-Solid
 62
   179
370
    15
100
AcDbLine
 10
373.5665071222
 20
1174.419127546
 30
0.0
 11
373.5665071222
 21
1174.3191705567
 31
0.0
  0
LINE
  5
1AA
330
1F
100
AcDbEntity
  8
SLD-0_0
  6
SLD-Solid
 62
   179
370
    15
100
AcDbLine
 10
377.6434350225
 20
1174.419127546
 30
0.0
 11
377.6434350225
 21
1174.3191705567
 31
0.0
  0
LINE
  5
1AB
330
1F
100
AcDbEntity
  8
SLD-0_0
  6
SLD-Solid
 62
   179
370
    15
100
AcDbLine
 10
377.8485644075
 20
1174.419127546
 30
0.0
 11
377.6434350225
 21
1174.419127546
 31
0.0
  0
LINE
  5
1AC
330
1F
100
AcDbEntity
  8
SLD-0_0
  6
SLD-Solid
 62
   179
370
    15
100
AcDbLine
 10
377.8485644075
 20
1174.419127546
 30
0.0
 11
377.8485644075
 21
1174.3191705567
 31
0.0
  0
LINE
  5
1AD
330
1F
100
AcDbEntity
  8
SLD-0_0
  6
SLD-Solid
 62
   179
370
    15
100
AcDbLine
 10
375.8485603544
 20
1174.419127546
 30
0.0
 11
375.8485603544
 21
1174.3191705567
 31
0.0
  0
LINE
  5
1AE
330
1F
100
AcDbEntity
  8
SLD-0_0
  6
SLD-Solid
 62
   179
370
    15
100
AcDbLine
 10
376.0536897394
 20
1174.419127546
 30
0.0
 11
376.0536897394
 21
1174.3191705567
 31
0.0
  0
LINE
  5
1AF
330
1F
100
AcDbEntity
  8
SLD-0_0
  6
SLD-Solid
 62
   179
370
    15
100
AcDbLine
 10
376.0536897394
 20
1174.419127546
 30
0.0
 11
375.8485603544
 21
1174.419127546
 31
0.0
  0
LINE
  5
1B0
330
1F
100
AcDbEntity
  8
SLD-0_0
  6
SLD-Solid
 62
   179
370
    15
100
AcDbLine
 10
376.8229174825
 20
1174.419127546
 30
0.0
 11
376.8229174825
 21
1174.3191705567
 31
0.0
  0
LINE
  5
1B1
330
1F
100
AcDbEntity
  8
SLD-0_0
  6
SLD-Solid
 62
   179
370
    15
100
AcDbLine
 10
377.0280468675
 20
1174.419127546
 30
0.0
 11
377.0280468675
 21
1174.3191705567
 31
0.0
  0
LINE
  5
1B2
330
1F
100
AcDbEntity
  8
SLD-0_0
  6
SLD-Solid
 62
   179
370
    15
100
AcDbLine
 10
377.0280468675
 20
1174.419127546
 30
0.0
 11
376.8229174825
 21
1174.419127546
 31
0.0
  0
LINE
  5
1B3
330
1F
100
AcDbEntity
  8
SLD-0_0
  6
SLD-Solid
 62
   179
370
    15
100
AcDbLine
 10
356.2860477182
 20
1174.419127546
 30
0.0
 11
356.0809183332
 21
1174.419127546
 31
0.0
  0
LINE
  5
1B4
330
1F
100
AcDbEntity
  8
SLD-0_0
  6
SLD-Solid
 62
   179
370
    15
100
AcDbLine
 10
356.2860477182
 20
1174.419127546
 30
0.0
 11
356.2860477182
 21
1174.3191705567
 31
0.0
  0
LINE
  5
1B5
330
1F
100
AcDbEntity
  8
SLD-0_0
  6
SLD-Solid
 62
   179
370
    15
100
AcDbLine
 10
356.0809183332
 20
1174.419127546
 30
0.0
 11
356.0809183332
 21
1174.3191705567
 31
0.0
  0
LINE
  5
1B6
330
1F
100
AcDbEntity
  8
SLD-0_0
  6
SLD-Solid
 62
   179
370
    15
100
AcDbLine
 10
354.2860734674
 20
1174.419127546
 30
0.0
 11
354.2860734674
 21
1174.3191705567
 31
0.0
  0
LINE
  5
1B7
330
1F
100
AcDbEntity
  8
SLD-0_0
  6
SLD-Solid
 62
   179
370
    15
100
AcDbLine
 10
354.4912028524
 20
1174.419127546
 30
0.0
 11
354.4912028524
 21
1174.3191705567
 31
0.0
  0
LINE
  5
1B8
330
1F
100
AcDbEntity
  8
SLD-0_0
  6
SLD-Solid
 62
   179
370
    15
100
AcDbLine
 10
354.4912028524
 20
1174.419127546
 30
0.0
 11
354.2860734674
 21
1174.419127546
 31
0.0
  0
LINE
  5
1B9
330
1F
100
AcDbEntity
  8
SLD-0_0
  6
SLD-Solid
 62
   179
370
    15
100
AcDbLine
 10
355.2604305955
 20
1174.419127546
 30
0.0
 11
355.2604305955
 21
1174.3191705567
 31
0.0
  0
LINE
  5
1BA
330
1F
100
AcDbEntity
  8
SLD-0_0
  6
SLD-Solid
 62
   179
370
    15
100
AcDbLine
 10
355.4655599805
 20
1174.419127546
 30
0.0
 11
355.4655599805
 21
1174.3191705567
 31
0.0
  0
LINE
  5
1BB
330
1F
100
AcDbEntity
  8
SLD-0_0
  6
SLD-Solid
 62
   179
370
    15
100
AcDbLine
 10
355.4655599805
 20
1174.419127546
 30
0.0
 11
355.2604305955
 21
1174.419127546
 31
0.0
  0
LINE
  5
1BC
330
1F
100
AcDbEntity
  8
SLD-0_0
  6
SLD-Solid
 62
   179
370
    15
100
AcDbLine
 10
376.8229174825
 20
1174.419127546
 30
0.0
 11
376.0536897394
 21
1174.419127546
 31
0.0
  0
LINE
  5
1BD
330
1F
100
AcDbEntity
  8
SLD-0_0
  6
SLD-Solid
 62
   179
370
    15
100
AcDbLine
 10
377.6434350225
 20
1174.419127546
 30
0.0
 11
377.0280468675
 21
1174.419127546
 31
0.0
  0
LINE
  5
1BE
330
1F
100
AcDbEntity
  8
SLD-0_0
  6
SLD-Solid
 62
   179
370
    15
100
AcDbLine
 10
355.2604305955
 20
1174.419127546
 30
0.0
 11
354.4912028524
 21
1174.419127546
 31
0.0
  0
LINE
  5
1BF
330
1F
100
AcDbEntity
  8
SLD-0_0
  6
SLD-Solid
 62
   179
370
    15
100
AcDbLine
 10
356.0809183332
 20
1174.419127546
 30
0.0
 11
355.4655599805
 21
1174.419127546
 31
0.0
  0
LINE
  5
1C0
330
1F
100
AcDbEntity
  8
SLD-0_0
  6
SLD-Solid
 62
   179
370
    15
100
AcDbLine
 10
341.4270866128
 20
1174.419127546
 30
0.0
 11
341.4270866128
 21
1174.3191705567
 31
0.0
  0
LINE
  5
1C1
330
1F
100
AcDbEntity
  8
SLD-0_0
  6
SLD-Solid
 62
   179
370
    15
100
AcDbLine
 10
341.5937411996
 20
1174.419127546
 30
0.0
 11
341.5937411996
 21
1174.3191705567
 31
0.0
  0
LINE
  5
1C2
330
1F
100
AcDbEntity
  8
SLD-0_0
  6
SLD-Solid
 62
   179
370
    15
100
AcDbLine
 10
341.5937411996
 20
1174.419127546
 30
0.0
 11
341.4270866128
 21
1174.419127546
 31
0.0
  0
LINE
  5
1C3
330
1F
100
AcDbEntity
  8
SLD-0_0
  6
SLD-Solid
 62
   179
370
    15
100
AcDbLine
 10
341.260432026
 20
1174.419127546
 30
0.0
 11
341.260432026
 21
1174.3191705567
 31
0.0
  0
LINE
  5
1C4
330
1F
100
AcDbEntity
  8
SLD-0_0
  6
SLD-Solid
 62
   179
370
    15
100
AcDbLine
 10
341.4270866128
 20
1174.419127546
 30
0.0
 11
341.260432026
 21
1174.419127546
 31
0.0
  0
LINE
  5
1C5
330
1F
100
AcDbEntity
  8
SLD-0_0
  6
SLD-Solid
 62
   179
370
    15
100
AcDbLine
 10
343.0809366914
 20
1174.419127546
 30
0.0
 11
343.0809366914
 21
1174.3191705567
 31
0.0
  0
LINE
  5
1C6
330
1F
100
AcDbEntity
  8
SLD-0_0
  6
SLD-Solid
 62
   179
370
    15
100
AcDbLine
 10
343.2860660764
 20
1174.419127546
 30
0.0
 11
343.0809366914
 21
1174.419127546
 31
0.0
  0
LINE
  5
1C7
330
1F
100
AcDbEntity
  8
SLD-0_0
  6
SLD-Solid
 62
   179
370
    15
100
AcDbLine
 10
343.2860660764
 20
1174.419127546
 30
0.0
 11
343.2860660764
 21
1174.3191705567
 31
0.0
  0
LINE
  5
1C8
330
1F
100
AcDbEntity
  8
SLD-0_0
  6
SLD-Solid
 62
   179
370
    15
100
AcDbLine
 10
342.2604191514
 20
1174.419127546
 30
0.0
 11
342.2604191514
 21
1174.3191705567
 31
0.0
  0
LINE
  5
1C9
330
1F
100
AcDbEntity
  8
SLD-0_0
  6
SLD-Solid
 62
   179
370
    15
100
AcDbLine
 10
342.4655485364
 20
1174.419127546
 30
0.0
 11
342.4655485364
 21
1174.3191705567
 31
0.0
  0
LINE
  5
1CA
330
1F
100
AcDbEntity
  8
SLD-0_0
  6
SLD-Solid
 62
   179
370
    15
100
AcDbLine
 10
342.4655485364
 20
1174.419127546
 30
0.0
 11
342.2604191514
 21
1174.419127546
 31
0.0
  0
LINE
  5
1CB
330
1F
100
AcDbEntity
  8
SLD-0_0
  6
SLD-Solid
 62
   179
370
    15
100
AcDbLine
 10
341.4911914083
 20
1174.419127546
 30
0.0
 11
341.4497065755
 21
1174.419127546
 31
0.0
  0
LINE
  5
1CC
330
1F
100
AcDbEntity
  8
SLD-0_0
  6
SLD-Solid
 62
   179
370
    15
100
AcDbLine
 10
375.5921709749
 20
1174.419127546
 30
0.0
 11
375.5921709749
 21
1174.3191705567
 31
0.0
  0
LINE
  5
1CD
330
1F
100
AcDbEntity
  8
SLD-0_0
  6
SLD-Solid
 62
   179
370
    15
100
AcDbLine
 10
375.8485603544
 20
1174.419127546
 30
0.0
 11
375.5921709749
 21
1174.419127546
 31
0.0
  0
LINE
  5
1CE
330
1F
100
AcDbEntity
  8
SLD-0_0
  6
SLD-Solid
 62
   179
370
    15
100
AcDbLine
 10
377.8998542043
 20
1174.419127546
 30
0.0
 11
377.8998542043
 21
1174.3191705567
 31
0.0
  0
LINE
  5
1CF
330
1F
100
AcDbEntity
  8
SLD-0_0
  6
SLD-Solid
 62
   179
370
    15
100
AcDbLine
 10
377.8998542043
 20
1174.419127546
 30
0.0
 11
377.8898108217
 21
1174.419127546
 31
0.0
  0
LINE
  5
1D0
330
1F
100
AcDbEntity
  8
SLD-0_0
  6
SLD-Solid
 62
   179
370
    15
100
AcDbLine
 10
343.0809366914
 20
1174.419127546
 30
0.0
 11
342.4655485364
 21
1174.419127546
 31
0.0
  0
LINE
  5
1D1
330
1F
100
AcDbEntity
  8
SLD-0_0
  6
SLD-Solid
 62
   179
370
    15
100
AcDbLine
 10
342.2604191514
 20
1174.419127546
 30
0.0
 11
341.6163909646
 21
1174.419127546
 31
0.0
  0
LINE
  5
1D2
330
1F
100
AcDbEntity
  8
SLD-0_0
  6
SLD-Solid
 62
   179
370
    15
100
AcDbLine
 10
343.3373558732
 20
1174.419127546
 30
0.0
 11
343.3373558732
 21
1174.3191705567
 31
0.0
  0
LINE
  5
1D3
330
1F
100
AcDbEntity
  8
SLD-0_0
  6
SLD-Solid
 62
   179
370
    15
100
AcDbLine
 10
341.2347722265
 20
1174.419127546
 30
0.0
 11
341.2347722265
 21
1174.3191705567
 31
0.0
  0
LINE
  5
1D4
330
1F
100
AcDbEntity
  8
SLD-0_0
  6
SLD-Solid
 62
   179
370
    15
100
AcDbLine
 10
349.6963072034
 20
1174.419127546
 30
0.0
 11
349.6963072034
 21
1174.3191705567
 31
0.0
  0
LINE
  5
1D5
330
1F
100
AcDbEntity
  8
SLD-0_0
  6
SLD-Solid
 62
   179
370
    15
100
AcDbLine
 10
349.9527263852
 20
1174.419127546
 30
0.0
 11
349.6963072034
 21
1174.419127546
 31
0.0
  0
LINE
  5
1D6
330
1F
100
AcDbEntity
  8
SLD-0_0
  6
SLD-Solid
 62
   179
370
    15
100
AcDbLine
 10
362.822918913
 20
1174.419127546
 30
0.0
 11
362.822918913
 21
1174.3191705567
 31
0.0
  0
LINE
  5
1D7
330
1F
100
AcDbEntity
  8
SLD-0_0
  6
SLD-Solid
 62
   179
370
    15
100
AcDbLine
 10
362.9896033021
 20
1174.419127546
 30
0.0
 11
362.822918913
 21
1174.419127546
 31
0.0
  0
LINE
  5
1D8
330
1F
100
AcDbEntity
  8
SLD-0_0
  6
SLD-Solid
 62
   179
370
    15
100
AcDbLine
 10
362.9896033021
 20
1174.419127546
 30
0.0
 11
362.9896033021
 21
1174.3191705567
 31
0.0
  0
LINE
  5
1D9
330
1F
100
AcDbEntity
  8
SLD-0_0
  6
SLD-Solid
 62
   179
370
    15
100
AcDbLine
 10
363.1562578889
 20
1174.419127546
 30
0.0
 11
362.9896033021
 21
1174.419127546
 31
0.0
  0
LINE
  5
1DA
330
1F
100
AcDbEntity
  8
SLD-0_0
  6
SLD-Solid
 62
   179
370
    15
100
AcDbLine
 10
363.1562578889
 20
1174.419127546
 30
0.0
 11
363.1562578889
 21
1174.3191705567
 31
0.0
  0
LINE
  5
1DB
330
1F
100
AcDbEntity
  8
SLD-0_0
  6
SLD-Solid
 62
   179
370
    15
100
AcDbLine
 10
367.1562659952
 20
1174.419127546
 30
0.0
 11
367.1562659952
 21
1174.3191705567
 31
0.0
  0
LINE
  5
1DC
330
1F
100
AcDbEntity
  8
SLD-0_0
  6
SLD-Solid
 62
   179
370
    15
100
AcDbLine
 10
367.3229205819
 20
1174.419127546
 30
0.0
 11
367.3229205819
 21
1174.3191705567
 31
0.0
  0
LINE
  5
1DD
330
1F
100
AcDbEntity
  8
SLD-0_0
  6
SLD-Solid
 62
   179
370
    15
100
AcDbLine
 10
367.3229205819
 20
1174.419127546
 30
0.0
 11
367.1562659952
 21
1174.419127546
 31
0.0
  0
LINE
  5
1DE
330
1F
100
AcDbEntity
  8
SLD-0_0
  6
SLD-Solid
 62
   179
370
    15
100
AcDbLine
 10
367.4896049711
 20
1174.419127546
 30
0.0
 11
367.4896049711
 21
1174.3191705567
 31
0.0
  0
LINE
  5
1DF
330
1F
100
AcDbEntity
  8
SLD-0_0
  6
SLD-Solid
 62
   179
370
    15
100
AcDbLine
 10
367.4896049711
 20
1174.419127546
 30
0.0
 11
367.3229205819
 21
1174.419127546
 31
0.0
  0
LINE
  5
1E0
330
1F
100
AcDbEntity
  8
SLD-0_0
  6
SLD-Solid
 62
   179
370
    15
100
AcDbLine
 10
362.2844505521
 20
1174.419127546
 30
0.0
 11
362.2844505521
 21
1174.3191705567
 31
0.0
  0
LINE
  5
1E1
330
1F
100
AcDbEntity
  8
SLD-0_0
  6
SLD-Solid
 62
   179
370
    15
100
AcDbLine
 10
363.684295437
 20
1174.419127546
 30
0.0
 11
363.684295437
 21
1174.3191705567
 31
0.0
  0
LINE
  5
1E2
330
1F
100
AcDbEntity
  8
SLD-0_0
  6
SLD-Solid
 62
   179
370
    15
100
AcDbLine
 10
364.9255025598
 20
1174.419127546
 30
0.0
 11
364.9255025598
 21
1174.3191705567
 31
0.0
  0
LINE
  5
1E3
330
1F
100
AcDbEntity
  8
SLD-0_0
  6
SLD-Solid
 62
   179
370
    15
100
AcDbLine
 10
367.3870253774
 20
1174.419127546
 30
0.0
 11
367.3455405446
 21
1174.419127546
 31
0.0
  0
LINE
  5
1E4
330
1F
100
AcDbEntity
  8
SLD-0_0
  6
SLD-Solid
 62
   179
370
    15
100
AcDbLine
 10
369.1819000455
 20
1174.419127546
 30
0.0
 11
369.1819000455
 21
1174.3191705567
 31
0.0
  0
LINE
  5
1E5
330
1F
100
AcDbEntity
  8
SLD-0_0
  6
SLD-Solid
 62
   179
370
    15
100
AcDbLine
 10
369.1819000455
 20
1174.419127546
 30
0.0
 11
367.5122249338
 21
1174.419127546
 31
0.0
  0
LINE
  5
1E6
330
1F
100
AcDbEntity
  8
SLD-0_0
  6
SLD-Solid
 62
   179
370
    15
100
AcDbLine
 10
356.337337515
 20
1174.419127546
 30
0.0
 11
356.337337515
 21
1174.3191705567
 31
0.0
  0
LINE
  5
1E7
330
1F
100
AcDbEntity
  8
SLD-0_0
  6
SLD-Solid
 62
   179
370
    15
100
AcDbLine
 10
354.2347836706
 20
1174.419127546
 30
0.0
 11
354.2347836706
 21
1174.3191705567
 31
0.0
  0
LINE
  5
1E8
330
1F
100
AcDbEntity
  8
SLD-0_0
  6
SLD-Solid
 62
   179
370
    15
100
AcDbLine
 10
367.1306061956
 20
1174.419127546
 30
0.0
 11
367.1306061956
 21
1174.3191705567
 31
0.0
  0
LINE
  5
1E9
330
1F
100
AcDbEntity
  8
SLD-0_0
  6
SLD-Solid
 62
   179
370
    15
100
AcDbLine
 10
369.2331898424
 20
1174.419127546
 30
0.0
 11
369.2331898424
 21
1174.3191705567
 31
0.0
  0
LINE
  5
1EA
330
1F
100
AcDbEntity
  8
SLD-0_0
  6
SLD-Solid
 62
   179
370
    15
100
AcDbLine
 10
354.0296542856
 20
1174.419127546
 30
0.0
 11
354.0296542856
 21
1174.3191705567
 31
0.0
  0
LINE
  5
1EB
330
1F
100
AcDbEntity
  8
SLD-0_0
  6
SLD-Solid
 62
   179
370
    15
100
AcDbLine
 10
354.0597546312
 20
1174.419127546
 30
0.0
 11
354.0296542856
 21
1174.419127546
 31
0.0
  0
LINE
  5
1EC
330
1F
100
AcDbEntity
  8
SLD-0_0
  6
SLD-Solid
 62
   179
370
    15
100
AcDbLine
 10
341.1322224351
 20
1174.419127546
 30
0.0
 11
341.1322224351
 21
1174.3191705567
 31
0.0
  0
LINE
  5
1ED
330
1F
100
AcDbEntity
  8
SLD-0_0
  6
SLD-Solid
 62
   179
370
    15
100
AcDbLine
 10
331.0535836431
 20
1174.3191705567
 30
0.0
 11
335.4639697286
 21
1174.3191705567
 31
0.0
  0
LINE
  5
1EE
330
1F
100
AcDbEntity
  8
SLD-0_0
  6
SLD-Solid
 62
   179
370
    15
100
AcDbLine
 10
338.2838058683
 20
1174.419127546
 30
0.0
 11
338.2838058683
 21
1174.3191705567
 31
0.0
  0
LINE
  5
1EF
330
1F
100
AcDbEntity
  8
SLD-0_0
  6
SLD-Solid
 62
   179
370
    15
100
AcDbLine
 10
339.7135126802
 20
1174.419127546
 30
0.0
 11
339.7135126802
 21
1174.3191705567
 31
0.0
  0
LINE
  5
1F0
330
1F
100
AcDbEntity
  8
SLD-0_0
  6
SLD-Solid
 62
   179
370
    15
100
AcDbLine
 10
336.8216741296
 20
1174.419127546
 30
0.0
 11
336.8216741296
 21
1174.3191705567
 31
0.0
  0
LINE
  5
1F1
330
1F
100
AcDbEntity
  8
SLD-0_0
  6
SLD-Solid
 62
   179
370
    15
100
AcDbLine
 10
339.8216653081
 20
1174.419127546
 30
0.0
 11
339.8216653081
 21
1174.3191705567
 31
0.0
  0
LINE
  5
1F2
330
1F
100
AcDbEntity
  8
SLD-0_0
  6
SLD-Solid
 62
   179
370
    15
100
AcDbLine
 10
343.3739531251
 20
1174.419127546
 30
0.0
 11
343.3739531251
 21
1174.3191705567
 31
0.0
  0
LINE
  5
1F3
330
1F
100
AcDbEntity
  8
SLD-0_0
  6
SLD-Solid
 62
   179
370
    15
100
AcDbLine
 10
345.0908947202
 20
1174.419127546
 30
0.0
 11
345.0908947202
 21
1174.3191705567
 31
0.0
  0
LINE
  5
1F4
330
1F
100
AcDbEntity
  8
SLD-0_0
  6
SLD-Solid
 62
   179
370
    15
100
AcDbLine
 10
345.2711987707
 20
1174.419127546
 30
0.0
 11
345.0908947202
 21
1174.419127546
 31
0.0
  0
LINE
  5
1F5
330
1F
100
AcDbEntity
  8
SLD-0_0
  6
SLD-Solid
 62
   179
370
    15
100
AcDbLine
 10
345.2711987707
 20
1174.419127546
 30
0.0
 11
345.2711987707
 21
1174.3191705567
 31
0.0
  0
LINE
  5
1F6
330
1F
100
AcDbEntity
  8
SLD-0_0
  6
SLD-Solid
 62
   179
370
    15
100
AcDbLine
 10
343.5524392339
 20
1174.419127546
 30
0.0
 11
343.5524392339
 21
1174.3191705567
 31
0.0
  0
LINE
  5
1F7
330
1F
100
AcDbEntity
  8
SLD-0_0
  6
SLD-Solid
 62
   179
370
    15
100
AcDbLine
 10
343.5524392339
 20
1174.419127546
 30
0.0
 11
343.3739531251
 21
1174.419127546
 31
0.0
  0
LINE
  5
1F8
330
1F
100
AcDbEntity
  8
SLD-0_0
  6
SLD-Solid
 62
   179
370
    15
100
AcDbLine
 10
344.3186569425
 20
1174.419127546
 30
0.0
 11
344.3186569425
 21
1174.3191705567
 31
0.0
  0
LINE
  5
1F9
330
1F
100
AcDbEntity
  8
SLD-0_0
  6
SLD-Solid
 62
   179
370
    15
100
AcDbLine
 10
336.7447543355
 20
1174.419127546
 30
0.0
 11
336.7447543355
 21
1174.3191705567
 31
0.0
  0
LINE
  5
1FA
330
1F
100
AcDbEntity
  8
SLD-0_0
  6
SLD-Solid
 62
   179
370
    15
100
AcDbLine
 10
339.8985851022
 20
1174.419127546
 30
0.0
 11
339.8985851022
 21
1174.3191705567
 31
0.0
  0
LINE
  5
1FB
330
1F
100
AcDbEntity
  8
SLD-0_0
  6
SLD-Solid
 62
   179
370
    15
100
AcDbLine
 10
359.2771876069
 20
1174.419127546
 30
0.0
 11
359.2771876069
 21
1174.3191705567
 31
0.0
  0
LINE
  5
1FC
330
1F
100
AcDbEntity
  8
SLD-0_0
  6
SLD-Solid
 62
   179
370
    15
100
AcDbLine
 10
359.2771876069
 20
1174.419127546
 30
0.0
 11
360.0271928521
 21
1174.419127546
 31
0.0
  0
LINE
  5
1FD
330
1F
100
AcDbEntity
  8
SLD-0_0
  6
SLD-Solid
 62
   179
370
    15
100
AcDbLine
 10
360.0271928521
 20
1174.419127546
 30
0.0
 11
362.1094513151
 21
1174.419127546
 31
0.0
  0
LINE
  5
1FE
330
1F
100
AcDbEntity
  8
SLD-0_0
  6
SLD-Solid
 62
   179
370
    15
100
AcDbLine
 10
365.1005017968
 20
1174.419127546
 30
0.0
 11
366.9556069585
 21
1174.419127546
 31
0.0
  0
LINE
  5
1FF
330
1F
100
AcDbEntity
  8
SLD-0_0
  6
SLD-Solid
 62
   179
370
    15
100
AcDbLine
 10
369.4081890794
 20
1174.419127546
 30
0.0
 11
371.2889540407
 21
1174.419127546
 31
0.0
  0
LINE
  5
200
330
1F
100
AcDbEntity
  8
SLD-0_0
  6
SLD-Solid
 62
   179
370
    15
100
AcDbLine
 10
373.7415361615
 20
1174.419127546
 30
0.0
 11
375.5921709749
 21
1174.419127546
 31
0.0
  0
LINE
  5
201
330
1F
100
AcDbEntity
  8
SLD-0_0
  6
SLD-Solid
 62
   179
370
    15
100
AcDbLine
 10
378.0748534414
 20
1174.419127546
 30
0.0
 11
379.5272100183
 21
1174.419127546
 31
0.0
  0
LINE
  5
202
330
1F
100
AcDbEntity
  8
SLD-0_0
  6
SLD-Solid
 62
   179
370
    15
100
AcDbLine
 10
379.5272100183
 20
1174.419127546
 30
0.0
 11
379.7771918985
 21
1174.419127546
 31
0.0
  0
LINE
  5
203
330
1F
100
AcDbEntity
  8
SLD-0_0
  6
SLD-Solid
 62
   179
370
    15
100
AcDbLine
 10
399.463980219
 20
626.9191430432
 30
0.0
 11
399.463980219
 21
650.9191469771
 31
0.0
  0
LINE
  5
204
330
1F
100
AcDbEntity
  8
SLD-0_0
  6
SLD-Solid
 62
   179
370
    15
100
AcDbLine
 10
399.463980219
 20
626.9191430432
 30
0.0
 11
399.5639670106
 21
626.9191430432
 31
0.0
  0
LINE
  5
205
330
1F
100
AcDbEntity
  8
SLD-0_0
  6
SLD-Solid
 62
   179
370
    15
100
AcDbLine
 10
399.463980219
 20
650.9191469771
 30
0.0
 11
399.5639670106
 21
650.9191469771
 31
0.0
  0
LINE
  5
206
330
1F
100
AcDbEntity
  8
SLD-0_0
  6
SLD-Solid
 62
   179
370
    15
100
AcDbLine
 10
399.3639934274
 20
628.6823676449
 30
0.0
 11
399.463980219
 21
628.6823676449
 31
0.0
  0
LINE
  5
207
330
1F
100
AcDbEntity
  8
SLD-0_0
  6
SLD-Solid
 62
   179
370
    15
100
AcDbLine
 10
399.3639934274
 20
628.6823676449
 30
0.0
 11
399.3639934274
 21
629.4323728901
 31
0.0
  0
LINE
  5
208
330
1F
100
AcDbEntity
  8
SLD-0_0
  6
SLD-Solid
 62
   179
370
    15
100
AcDbLine
 10
399.3639934274
 20
629.4323728901
 30
0.0
 11
399.3639934274
 21
648.9323602539
 31
0.0
  0
LINE
  5
209
330
1F
100
AcDbEntity
  8
SLD-0_0
  6
SLD-Solid
 62
   179
370
    15
100
AcDbLine
 10
399.3639934274
 20
648.9323602539
 30
0.0
 11
399.3639934274
 21
649.1823719364
 31
0.0
  0
LINE
  5
20A
330
1F
100
AcDbEntity
  8
SLD-0_0
  6
SLD-Solid
 62
   179
370
    15
100
AcDbLine
 10
388.7639928075
 20
539.0935616118
 30
0.0
 11
388.7639928075
 21
531.3258247
 31
0.0
  0
LINE
  5
20B
330
1F
100
AcDbEntity
  8
SLD-0_0
  6
SLD-Solid
 62
   179
370
    15
100
AcDbLine
 10
387.5639724943
 20
531.3258247
 30
0.0
 11
387.5639724943
 21
538.8158933741
 31
0.0
  0
LINE
  5
20C
330
1F
100
AcDbEntity
  8
SLD-0_0
  6
SLD-Solid
 62
   179
370
    15
100
AcDbLine
 10
387.8139841768
 20
531.357020281
 30
0.0
 11
388.513981125
 21
531.357020281
 31
0.0
  0
LINE
  5
20D
330
1F
100
AcDbEntity
  8
SLD-0_0
  6
SLD-Solid
 62
   179
370
    15
100
AcDbLine
 10
388.7639928075
 20
531.0814307553
 30
0.0
 11
388.7639928075
 21
527.2062496763
 31
0.0
  0
LINE
  5
20E
330
1F
100
AcDbEntity
  8
SLD-0_0
  6
SLD-Solid
 62
   179
370
    15
100
AcDbLine
 10
381.963967106
 20
526.2387098295
 30
0.0
 11
381.963967106
 21
530.1138909084
 31
0.0
  0
LINE
  5
20F
330
1F
100
AcDbEntity
  8
SLD-0_0
  6
SLD-Solid
 62
   179
370
    15
100
AcDbLine
 10
381.963967106
 20
530.1138909084
 30
0.0
 11
381.963967106
 21
530.6765289527
 31
0.0
  0
LINE
  5
210
330
1F
100
AcDbEntity
  8
SLD-0_0
  6
SLD-Solid
 62
   179
370
    15
100
AcDbLine
 10
387.5639724943
 20
531.0814307553
 30
0.0
 11
387.5639724943
 21
531.3258247
 31
0.0
  0
LINE
  5
211
330
1F
100
AcDbEntity
  8
SLD-0_0
  6
SLD-Solid
 62
   179
370
    15
100
AcDbLine
 10
388.7639928075
 20
531.3258247
 30
0.0
 11
388.7639928075
 21
531.0814307553
 31
0.0
  0
LINE
  5
212
330
1F
100
AcDbEntity
  8
SLD-0_0
  6
SLD-Solid
 62
   179
370
    15
100
AcDbLine
 10
387.3139906141
 20
525.9887055975
 30
0.0
 11
387.313990614
 21
526.0080473047
 31
0.0
  0
LINE
  5
213
330
1F
100
AcDbEntity
  8
SLD-0_0
  6
SLD-Solid
 62
   179
370
    15
100
AcDbLine
 10
388.7639928075
 20
527.2062496763
 30
0.0
 11
388.7639928075
 21
526.96914985
 31
0.0
  0
LINE
  5
214
330
1F
100
AcDbEntity
  8
SLD-0_0
  6
SLD-Solid
 62
   179
370
    15
100
AcDbLine
 10
381.963967106
 20
544.036947332
 30
0.0
 11
381.963967106
 21
544.5995853764
 31
0.0
  0
LINE
  5
215
330
1F
100
AcDbEntity
  8
SLD-0_0
  6
SLD-Solid
 62
   179
370
    15
100
AcDbLine
 10
381.963967106
 20
540.7358483893
 30
0.0
 11
381.963967106
 21
544.036947332
 31
0.0
  0
LINE
  5
216
330
1F
100
AcDbEntity
  8
SLD-0_0
  6
SLD-Solid
 62
   179
370
    15
100
AcDbLine
 10
386.3639819833
 20
538.7524591309
 30
0.0
 11
386.3639819833
 21
538.751818381
 31
0.0
  0
LINE
  5
217
330
1F
100
AcDbEntity
  8
SLD-0_0
  6
SLD-Solid
 62
   179
370
    15
100
AcDbLine
 10
386.3639819833
 20
538.751818381
 30
0.0
 11
386.3831150743
 21
538.7293027264
 31
0.0
  0
LINE
  5
218
330
1F
100
AcDbEntity
  8
SLD-0_0
  6
SLD-Solid
 62
   179
370
    15
100
AcDbLine
 10
386.3831150743
 20
538.7293027264
 30
0.0
 11
386.4241826745
 21
538.7129412514
 31
0.0
  0
LINE
  5
219
330
1F
100
AcDbEntity
  8
SLD-0_0
  6
SLD-Solid
 62
   179
370
    15
100
AcDbLine
 10
386.4241826745
 20
538.7129412514
 30
0.0
 11
386.4777374479
 21
538.7013630492
 31
0.0
  0
LINE
  5
21A
330
1F
100
AcDbEntity
  8
SLD-0_0
  6
SLD-Solid
 62
   179
370
    15
100
AcDbLine
 10
386.4777374479
 20
538.7013630492
 30
0.0
 11
386.5416336271
 21
538.6939720732
 31
0.0
  0
LINE
  5
21B
330
1F
100
AcDbEntity
  8
SLD-0_0
  6
SLD-Solid
 62
   179
370
    15
100
AcDbLine
 10
386.5416336271
 20
538.6939720732
 30
0.0
 11
386.6139936658
 21
538.6913047653
 31
0.0
  0
LINE
  5
21C
330
1F
100
AcDbEntity
  8
SLD-0_0
  6
SLD-Solid
 62
   179
370
    15
100
AcDbLine
 10
386.3639819833
 20
530.9265331847
 30
0.0
 11
386.3639819833
 21
538.7524591309
 31
0.0
  0
LINE
  5
21D
330
1F
100
AcDbEntity
  8
SLD-0_0
  6
SLD-Solid
 62
   179
370
    15
100
AcDbLine
 10
387.3139906141
 20
538.6913047653
 30
0.0
 11
387.3863208505
 21
538.6939720732
 31
0.0
  0
LINE
  5
21E
330
1F
100
AcDbEntity
  8
SLD-0_0
  6
SLD-Solid
 62
   179
370
    15
100
AcDbLine
 10
387.3863208505
 20
538.6939720732
 30
0.0
 11
387.450246832
 21
538.7013630492
 31
0.0
  0
LINE
  5
21F
330
1F
100
AcDbEntity
  8
SLD-0_0
  6
SLD-Solid
 62
   179
370
    15
100
AcDbLine
 10
387.450246832
 20
538.7013630492
 30
0.0
 11
387.503771803
 21
538.7129412514
 31
0.0
  0
LINE
  5
220
330
1F
100
AcDbEntity
  8
SLD-0_0
  6
SLD-Solid
 62
   179
370
    15
100
AcDbLine
 10
387.503771803
 20
538.7129412514
 30
0.0
 11
387.5448394033
 21
538.7293027264
 31
0.0
  0
LINE
  5
221
330
1F
100
AcDbEntity
  8
SLD-0_0
  6
SLD-Solid
 62
   179
370
    15
100
AcDbLine
 10
387.5448394033
 20
538.7293027264
 30
0.0
 11
387.5639724943
 21
538.751818381
 31
0.0
  0
LINE
  5
222
330
1F
100
AcDbEntity
  8
SLD-0_0
  6
SLD-Solid
 62
   179
370
    15
100
AcDbLine
 10
387.5639724943
 20
538.751818381
 30
0.0
 11
387.5639724943
 21
538.7524591309
 31
0.0
  0
LINE
  5
223
330
1F
100
AcDbEntity
  8
SLD-0_0
  6
SLD-Solid
 62
   179
370
    15
100
AcDbLine
 10
387.5639724943
 20
538.7524591309
 30
0.0
 11
387.5639724943
 21
531.3258247
 31
0.0
  0
LINE
  5
224
330
1F
100
AcDbEntity
  8
SLD-0_0
  6
SLD-Solid
 62
   179
370
    15
100
AcDbLine
 10
387.3139906141
 20
538.6913047653
 30
0.0
 11
386.6139936658
 21
538.6913047653
 31
0.0
  0
LINE
  5
225
330
1F
100
AcDbEntity
  8
SLD-0_0
  6
SLD-Solid
 62
   179
370
    15
100
AcDbLine
 10
386.3639819833
 20
538.9749483687
 30
0.0
 11
386.4531207296
 21
539.3169002157
 31
0.0
  0
LINE
  5
226
330
1F
100
AcDbEntity
  8
SLD-0_0
  6
SLD-Solid
 62
   179
370
    15
100
AcDbLine
 10
386.4531207296
 20
539.3169002157
 30
0.0
 11
386.7157685968
 21
539.6222995144
 31
0.0
  0
LINE
  5
227
330
1F
100
AcDbEntity
  8
SLD-0_0
  6
SLD-Solid
 62
   179
370
    15
100
AcDbLine
 10
386.7157685968
 20
539.6222995144
 30
0.0
 11
387.1101427289
 21
539.8422108513
 31
0.0
  0
LINE
  5
228
330
1F
100
AcDbEntity
  8
SLD-0_0
  6
SLD-Solid
 62
   179
370
    15
100
AcDbLine
 10
387.1101427289
 20
539.8422108513
 30
0.0
 11
387.5713932725
 21
539.953209601
 31
0.0
  0
LINE
  5
229
330
1F
100
AcDbEntity
  8
SLD-0_0
  6
SLD-Solid
 62
   179
370
    15
100
AcDbLine
 10
387.5713932725
 20
539.953209601
 30
0.0
 11
387.8139841768
 21
539.9672315937
 31
0.0
  0
LINE
  5
22A
330
1F
100
AcDbEntity
  8
SLD-0_0
  6
SLD-Solid
 62
   179
370
    15
100
AcDbLine
 10
386.3639819833
 20
538.9749483687
 30
0.0
 11
386.3639819833
 21
543.2889090401
 31
0.0
  0
LINE
  5
22B
330
1F
100
AcDbEntity
  8
SLD-0_0
  6
SLD-Solid
 62
   179
370
    15
100
AcDbLine
 10
393.1639812331
 20
544.1697244702
 30
0.0
 11
393.1639778825
 21
539.8557560068
 31
0.0
  0
LINE
  5
22C
330
1F
100
AcDbEntity
  8
SLD-0_0
  6
SLD-Solid
 62
   179
370
    15
100
AcDbLine
 10
393.1639778825
 20
539.8557560068
 30
0.0
 11
393.1639812331
 21
539.343557498
 31
0.0
  0
LINE
  5
22D
330
1F
100
AcDbEntity
  8
SLD-0_0
  6
SLD-Solid
 62
   179
370
    15
100
AcDbLine
 10
387.5639724943
 20
538.9749483687
 30
0.0
 11
387.5639724943
 21
538.7524591309
 31
0.0
  0
LINE
  5
22E
330
1F
100
AcDbEntity
  8
SLD-0_0
  6
SLD-Solid
 62
   179
370
    15
100
AcDbLine
 10
386.3639819833
 20
538.7524591309
 30
0.0
 11
386.3639819833
 21
538.9749483687
 31
0.0
  0
LINE
  5
22F
330
1F
100
AcDbEntity
  8
SLD-0_0
  6
SLD-Solid
 62
   179
370
    15
100
AcDbLine
 10
387.8139841768
 20
544.4197283608
 30
0.0
 11
387.8139841767
 21
544.3895833117
 31
0.0
  0
LINE
  5
230
330
1F
100
AcDbEntity
  8
SLD-0_0
  6
SLD-Solid
 62
   179
370
    15
100
AcDbLine
 10
386.3639819833
 20
543.2889090401
 30
0.0
 11
386.3639812331
 21
543.8691481621
 31
0.0
  0
LINE
  5
231
330
1F
100
AcDbEntity
  8
SLD-0_0
  6
SLD-Solid
 62
   179
370
    15
100
AcDbLine
 10
393.1639778825
 20
527.1807761413
 30
0.0
 11
393.1639812331
 21
526.668571854
 31
0.0
  0
LINE
  5
232
330
1F
100
AcDbEntity
  8
SLD-0_0
  6
SLD-Solid
 62
   179
370
    15
100
AcDbLine
 10
393.1639778825
 20
529.91782888
 30
0.0
 11
393.1639778825
 21
527.1807761413
 31
0.0
  0
LINE
  5
233
330
1F
100
AcDbEntity
  8
SLD-0_0
  6
SLD-Solid
 62
   179
370
    15
100
AcDbLine
 10
393.5174036237
 20
540.9204737765
 30
0.0
 11
393.9639914247
 21
538.78658279
 31
0.0
  0
LINE
  5
234
330
1F
100
AcDbEntity
  8
SLD-0_0
  6
SLD-Solid
 62
   179
370
    15
100
AcDbLine
 10
393.9639914247
 20
538.78658279
 30
0.0
 11
393.9615476343
 21
538.6348889691
 31
0.0
  0
LINE
  5
235
330
1F
100
AcDbEntity
  8
SLD-0_0
  6
SLD-Solid
 62
   179
370
    15
100
AcDbLine
 10
393.9615476343
 20
538.6348889691
 30
0.0
 11
393.5174036237
 21
536.6526918036
 31
0.0
  0
LINE
  5
236
330
1F
100
AcDbEntity
  8
SLD-0_0
  6
SLD-Solid
 62
   179
370
    15
100
AcDbLine
 10
393.5174036237
 20
536.6526918036
 30
0.0
 11
389.2105508062
 21
536.6526918036
 31
0.0
  0
LINE
  5
237
330
1F
100
AcDbEntity
  8
SLD-0_0
  6
SLD-Solid
 62
   179
370
    15
100
AcDbLine
 10
388.7639928075
 20
538.78658279
 30
0.0
 11
388.7664067956
 21
538.6348889691
 31
0.0
  0
LINE
  5
238
330
1F
100
AcDbEntity
  8
SLD-0_0
  6
SLD-Solid
 62
   179
370
    15
100
AcDbLine
 10
388.7664067956
 20
538.6348889691
 30
0.0
 11
389.2105508062
 21
536.6526918036
 31
0.0
  0
LINE
  5
239
330
1F
100
AcDbEntity
  8
SLD-0_0
  6
SLD-Solid
 62
   179
370
    15
100
AcDbLine
 10
388.8282168123
 20
539.0935616118
 30
0.0
 11
388.7639928075
 21
538.78658279
 31
0.0
  0
LINE
  5
23A
330
1F
100
AcDbEntity
  8
SLD-0_0
  6
SLD-Solid
 62
   179
370
    15
100
AcDbLine
 10
393.5174036237
 20
540.9204737765
 30
0.0
 11
393.1639778825
 21
540.9204737765
 31
0.0
  0
LINE
  5
23B
330
1F
100
AcDbEntity
  8
SLD-0_0
  6
SLD-Solid
 62
   179
370
    15
100
AcDbLine
 10
388.7639928075
 20
533.9020417553
 30
0.0
 11
388.7993979665
 21
534.6506015879
 31
0.0
  0
LINE
  5
23C
330
1F
100
AcDbEntity
  8
SLD-0_0
  6
SLD-Solid
 62
   179
370
    15
100
AcDbLine
 10
388.7993979665
 20
534.6506015879
 30
0.0
 11
389.2105508062
 21
536.6526918036
 31
0.0
  0
LINE
  5
23D
330
1F
100
AcDbEntity
  8
SLD-0_0
  6
SLD-Solid
 62
   179
370
    15
100
AcDbLine
 10
393.9639914247
 20
533.9020417553
 30
0.0
 11
393.9285564634
 21
534.6506015879
 31
0.0
  0
LINE
  5
23E
330
1F
100
AcDbEntity
  8
SLD-0_0
  6
SLD-Solid
 62
   179
370
    15
100
AcDbLine
 10
393.9285564634
 20
534.6506015879
 30
0.0
 11
393.5174036237
 21
536.6526918036
 31
0.0
  0
LINE
  5
23F
330
1F
100
AcDbEntity
  8
SLD-0_0
  6
SLD-Solid
 62
   179
370
    15
100
AcDbLine
 10
393.9639914247
 20
533.9020417553
 30
0.0
 11
393.9639914247
 21
538.78658279
 31
0.0
  0
LINE
  5
240
330
1F
100
AcDbEntity
  8
SLD-0_0
  6
SLD-Solid
 62
   179
370
    15
100
AcDbLine
 10
393.5174036237
 20
531.1513768059
 30
0.0
 11
393.7067377778
 21
531.8464638215
 31
0.0
  0
LINE
  5
241
330
1F
100
AcDbEntity
  8
SLD-0_0
  6
SLD-Solid
 62
   179
370
    15
100
AcDbLine
 10
393.7067377778
 20
531.8464638215
 30
0.0
 11
393.9639914247
 21
533.9020417553
 31
0.0
  0
LINE
  5
242
330
1F
100
AcDbEntity
  8
SLD-0_0
  6
SLD-Solid
 62
   179
370
    15
100
AcDbLine
 10
393.5174036237
 20
531.1513768059
 30
0.0
 11
389.2105508062
 21
531.1513768059
 31
0.0
  0
LINE
  5
243
330
1F
100
AcDbEntity
  8
SLD-0_0
  6
SLD-Solid
 62
   179
370
    15
100
AcDbLine
 10
389.2105508062
 20
531.1513768059
 30
0.0
 11
389.021216652
 21
531.8464638215
 31
0.0
  0
LINE
  5
244
330
1F
100
AcDbEntity
  8
SLD-0_0
  6
SLD-Solid
 62
   179
370
    15
100
AcDbLine
 10
389.021216652
 20
531.8464638215
 30
0.0
 11
388.7639928075
 21
533.9020417553
 31
0.0
  0
LINE
  5
245
330
1F
100
AcDbEntity
  8
SLD-0_0
  6
SLD-Solid
 62
   179
370
    15
100
AcDbLine
 10
389.2105508062
 20
531.1513768059
 30
0.0
 11
388.7639928075
 21
530.5346028429
 31
0.0
  0
LINE
  5
246
330
1F
100
AcDbEntity
  8
SLD-0_0
  6
SLD-Solid
 62
   179
370
    15
100
AcDbLine
 10
393.5174036237
 20
531.1513768059
 30
0.0
 11
393.9639914247
 21
530.5346028429
 31
0.0
  0
LINE
  5
247
330
1F
100
AcDbEntity
  8
SLD-0_0
  6
SLD-Solid
 62
   179
370
    15
100
AcDbLine
 10
393.9639914247
 20
533.9020417553
 30
0.0
 11
393.9639914247
 21
530.5346028429
 31
0.0
  0
LINE
  5
248
330
1F
100
AcDbEntity
  8
SLD-0_0
  6
SLD-Solid
 62
   179
370
    15
100
AcDbLine
 10
393.8148606035
 20
540.5367539746
 30
0.0
 11
393.5174036237
 21
540.9204737765
 31
0.0
  0
LINE
  5
249
330
1F
100
AcDbEntity
  8
SLD-0_0
  6
SLD-Solid
 62
   179
370
    15
100
AcDbLine
 10
393.9639914247
 20
540.4191540104
 30
0.0
 11
393.9639914247
 21
538.78658279
 31
0.0
  0
LINE
  5
24A
330
1F
100
AcDbEntity
  8
SLD-0_0
  6
SLD-Solid
 62
   179
370
    15
100
AcDbLine
 10
393.9639914247
 20
530.5346028429
 30
0.0
 11
393.9615476343
 21
530.4907636267
 31
0.0
  0
LINE
  5
24B
330
1F
100
AcDbEntity
  8
SLD-0_0
  6
SLD-Solid
 62
   179
370
    15
100
AcDbLine
 10
393.9615476343
 20
530.4907636267
 30
0.0
 11
393.5174036237
 21
529.91782888
 31
0.0
  0
LINE
  5
24C
330
1F
100
AcDbEntity
  8
SLD-0_0
  6
SLD-Solid
 62
   179
370
    15
100
AcDbLine
 10
393.5174036237
 20
529.91782888
 30
0.0
 11
389.2105508062
 21
529.91782888
 31
0.0
  0
LINE
  5
24D
330
1F
100
AcDbEntity
  8
SLD-0_0
  6
SLD-Solid
 62
   179
370
    15
100
AcDbLine
 10
388.9130938264
 20
530.3015412313
 30
0.0
 11
389.2105508062
 21
529.91782888
 31
0.0
  0
LINE
  5
24E
330
1F
100
AcDbEntity
  8
SLD-0_0
  6
SLD-Solid
 62
   179
370
    15
100
AcDbLine
 10
393.9639914247
 20
530.5346028429
 30
0.0
 11
393.9639914247
 21
530.419148646
 31
0.0
  0
LINE
  5
24F
330
1F
100
AcDbEntity
  8
SLD-0_0
  6
SLD-Solid
 62
   179
370
    15
100
AcDbLine
 10
385.9173941823
 20
540.0267319304
 30
0.0
 11
386.3639819833
 21
537.3683796746
 31
0.0
  0
LINE
  5
250
330
1F
100
AcDbEntity
  8
SLD-0_0
  6
SLD-Solid
 62
   179
370
    15
100
AcDbLine
 10
386.3639819833
 20
537.3683796746
 30
0.0
 11
386.3615381929
 21
537.1794031483
 31
0.0
  0
LINE
  5
251
330
1F
100
AcDbEntity
  8
SLD-0_0
  6
SLD-Solid
 62
   179
370
    15
100
AcDbLine
 10
386.3615381929
 20
537.1794031483
 30
0.0
 11
385.9173941823
 21
534.7100274187
 31
0.0
  0
LINE
  5
252
330
1F
100
AcDbEntity
  8
SLD-0_0
  6
SLD-Solid
 62
   179
370
    15
100
AcDbLine
 10
385.9173941823
 20
534.7100274187
 30
0.0
 11
381.6105711671
 21
534.7100274187
 31
0.0
  0
LINE
  5
253
330
1F
100
AcDbEntity
  8
SLD-0_0
  6
SLD-Solid
 62
   179
370
    15
100
AcDbLine
 10
381.1639833661
 20
537.3683796746
 30
0.0
 11
381.1663973543
 21
537.1794031483
 31
0.0
  0
LINE
  5
254
330
1F
100
AcDbEntity
  8
SLD-0_0
  6
SLD-Solid
 62
   179
370
    15
100
AcDbLine
 10
381.1663973543
 20
537.1794031483
 30
0.0
 11
381.6105711671
 21
534.7100274187
 31
0.0
  0
LINE
  5
255
330
1F
100
AcDbEntity
  8
SLD-0_0
  6
SLD-Solid
 62
   179
370
    15
100
AcDbLine
 10
381.6105711671
 20
540.0267319304
 30
0.0
 11
381.1639833661
 21
537.3683796746
 31
0.0
  0
LINE
  5
256
330
1F
100
AcDbEntity
  8
SLD-0_0
  6
SLD-Solid
 62
   179
370
    15
100
AcDbLine
 10
385.9173941823
 20
540.0267319304
 30
0.0
 11
381.6105711671
 21
540.0267319304
 31
0.0
  0
LINE
  5
257
330
1F
100
AcDbEntity
  8
SLD-0_0
  6
SLD-Solid
 62
   179
370
    15
100
AcDbLine
 10
381.1639833661
 20
532.4062333924
 30
0.0
 11
381.1993885251
 21
533.0331848484
 31
0.0
  0
LINE
  5
258
330
1F
100
AcDbEntity
  8
SLD-0_0
  6
SLD-Solid
 62
   179
370
    15
100
AcDbLine
 10
381.1993885251
 20
533.0331848484
 30
0.0
 11
381.6105711671
 21
534.7100274187
 31
0.0
  0
LINE
  5
259
330
1F
100
AcDbEntity
  8
SLD-0_0
  6
SLD-Solid
 62
   179
370
    15
100
AcDbLine
 10
381.1639833661
 20
532.4062333924
 30
0.0
 11
381.1639833661
 21
537.3683796746
 31
0.0
  0
LINE
  5
25A
330
1F
100
AcDbEntity
  8
SLD-0_0
  6
SLD-Solid
 62
   179
370
    15
100
AcDbLine
 10
386.3639819833
 20
532.4062333924
 30
0.0
 11
386.3285768243
 21
533.0331848484
 31
0.0
  0
LINE
  5
25B
330
1F
100
AcDbEntity
  8
SLD-0_0
  6
SLD-Solid
 62
   179
370
    15
100
AcDbLine
 10
386.3285768243
 20
533.0331848484
 30
0.0
 11
385.9173941823
 21
534.7100274187
 31
0.0
  0
LINE
  5
25C
330
1F
100
AcDbEntity
  8
SLD-0_0
  6
SLD-Solid
 62
   179
370
    15
100
AcDbLine
 10
386.1429083558
 20
530.9265331847
 30
0.0
 11
386.3639819833
 21
532.4062333924
 31
0.0
  0
LINE
  5
25D
330
1F
100
AcDbEntity
  8
SLD-0_0
  6
SLD-Solid
 62
   179
370
    15
100
AcDbLine
 10
381.963967106
 20
530.102439366
 30
0.0
 11
381.6105711671
 21
530.102439366
 31
0.0
  0
LINE
  5
25E
330
1F
100
AcDbEntity
  8
SLD-0_0
  6
SLD-Solid
 62
   179
370
    15
100
AcDbLine
 10
381.6105711671
 20
530.102439366
 30
0.0
 11
381.4212072107
 21
530.6846053821
 31
0.0
  0
LINE
  5
25F
330
1F
100
AcDbEntity
  8
SLD-0_0
  6
SLD-Solid
 62
   179
370
    15
100
AcDbLine
 10
381.4212072107
 20
530.6846053821
 30
0.0
 11
381.1639833661
 21
532.4062333924
 31
0.0
  0
LINE
  5
260
330
1F
100
AcDbEntity
  8
SLD-0_0
  6
SLD-Solid
 62
   179
370
    15
100
AcDbLine
 10
386.3639819833
 20
540.3812901598
 30
0.0
 11
386.3615381929
 21
540.3560922962
 31
0.0
  0
LINE
  5
261
330
1F
100
AcDbEntity
  8
SLD-0_0
  6
SLD-Solid
 62
   179
370
    15
100
AcDbLine
 10
386.3615381929
 20
540.3560922962
 30
0.0
 11
385.9173941823
 21
540.0267319304
 31
0.0
  0
LINE
  5
262
330
1F
100
AcDbEntity
  8
SLD-0_0
  6
SLD-Solid
 62
   179
370
    15
100
AcDbLine
 10
381.1639833661
 20
540.3812901598
 30
0.0
 11
381.1663973543
 21
540.3560922962
 31
0.0
  0
LINE
  5
263
330
1F
100
AcDbEntity
  8
SLD-0_0
  6
SLD-Solid
 62
   179
370
    15
100
AcDbLine
 10
381.1663973543
 20
540.3560922962
 30
0.0
 11
381.6105711671
 21
540.0267319304
 31
0.0
  0
LINE
  5
264
330
1F
100
AcDbEntity
  8
SLD-0_0
  6
SLD-Solid
 62
   179
370
    15
100
AcDbLine
 10
381.1639833661
 20
537.3683796746
 30
0.0
 11
381.1639833661
 21
540.3812901598
 31
0.0
  0
LINE
  5
265
330
1F
100
AcDbEntity
  8
SLD-0_0
  6
SLD-Solid
 62
   179
370
    15
100
AcDbLine
 10
381.6105711671
 20
530.102439366
 30
0.0
 11
381.1639833661
 21
530.457005046
 31
0.0
  0
LINE
  5
266
330
1F
100
AcDbEntity
  8
SLD-0_0
  6
SLD-Solid
 62
   179
370
    15
100
AcDbLine
 10
381.1639833661
 20
532.4062333924
 30
0.0
 11
381.1639833661
 21
530.4192976576
 31
0.0
  0
LINE
  5
267
330
1F
100
AcDbEntity
  8
SLD-0_0
  6
SLD-Solid
 62
   179
370
    15
100
AcDbLine
 10
385.9173941823
 20
540.7358483893
 30
0.0
 11
386.3639819833
 21
540.3812901598
 31
0.0
  0
LINE
  5
268
330
1F
100
AcDbEntity
  8
SLD-0_0
  6
SLD-Solid
 62
   179
370
    15
100
AcDbLine
 10
381.6105711671
 20
540.7358483893
 30
0.0
 11
381.1639833661
 21
540.3812901598
 31
0.0
  0
LINE
  5
269
330
1F
100
AcDbEntity
  8
SLD-0_0
  6
SLD-Solid
 62
   179
370
    15
100
AcDbLine
 10
385.9173941823
 20
540.7358483893
 30
0.0
 11
381.6105711671
 21
540.7358483893
 31
0.0
  0
LINE
  5
26A
330
1F
100
AcDbEntity
  8
SLD-0_0
  6
SLD-Solid
 62
   179
370
    15
100
AcDbLine
 10
398.9674139234
 20
533.5153119189
 30
0.0
 11
399.413971922
 21
531.6311047894
 31
0.0
  0
LINE
  5
26B
330
1F
100
AcDbEntity
  8
SLD-0_0
  6
SLD-Solid
 62
   179
370
    15
100
AcDbLine
 10
399.413971922
 20
531.6311047894
 30
0.0
 11
399.4115579339
 21
531.497165702
 31
0.0
  0
LINE
  5
26C
330
1F
100
AcDbEntity
  8
SLD-0_0
  6
SLD-Solid
 62
   179
370
    15
100
AcDbLine
 10
399.4115579339
 20
531.497165702
 30
0.0
 11
398.9674139234
 21
529.7468976599
 31
0.0
  0
LINE
  5
26D
330
1F
100
AcDbEntity
  8
SLD-0_0
  6
SLD-Solid
 62
   179
370
    15
100
AcDbLine
 10
398.9674139234
 20
529.7468976599
 30
0.0
 11
394.6605611059
 21
529.7468976599
 31
0.0
  0
LINE
  5
26E
330
1F
100
AcDbEntity
  8
SLD-0_0
  6
SLD-Solid
 62
   179
370
    15
100
AcDbLine
 10
394.2139733049
 20
531.6311047894
 30
0.0
 11
394.2164170953
 21
531.497165702
 31
0.0
  0
LINE
  5
26F
330
1F
100
AcDbEntity
  8
SLD-0_0
  6
SLD-Solid
 62
   179
370
    15
100
AcDbLine
 10
394.2164170953
 20
531.497165702
 30
0.0
 11
394.6605611059
 21
529.7468976599
 31
0.0
  0
LINE
  5
270
330
1F
100
AcDbEntity
  8
SLD-0_0
  6
SLD-Solid
 62
   179
370
    15
100
AcDbLine
 10
394.6605611059
 20
533.5153119189
 30
0.0
 11
394.2139733049
 21
531.6311047894
 31
0.0
  0
LINE
  5
271
330
1F
100
AcDbEntity
  8
SLD-0_0
  6
SLD-Solid
 62
   179
370
    15
100
AcDbLine
 10
398.9674139234
 20
533.5153119189
 30
0.0
 11
394.6605611059
 21
533.5153119189
 31
0.0
  0
LINE
  5
272
330
1F
100
AcDbEntity
  8
SLD-0_0
  6
SLD-Solid
 62
   179
370
    15
100
AcDbLine
 10
394.6605611059
 20
533.5153119189
 30
0.0
 11
394.4711971494
 21
534.2319981676
 31
0.0
  0
LINE
  5
273
330
1F
100
AcDbEntity
  8
SLD-0_0
  6
SLD-Solid
 62
   179
370
    15
100
AcDbLine
 10
394.4711971494
 20
534.2319981676
 30
0.0
 11
394.2139733049
 21
536.3514350277
 31
0.0
  0
LINE
  5
274
330
1F
100
AcDbEntity
  8
SLD-0_0
  6
SLD-Solid
 62
   179
370
    15
100
AcDbLine
 10
394.2139733049
 20
531.6311047894
 30
0.0
 11
394.2139733049
 21
536.3514350277
 31
0.0
  0
LINE
  5
275
330
1F
100
AcDbEntity
  8
SLD-0_0
  6
SLD-Solid
 62
   179
370
    15
100
AcDbLine
 10
398.9674139234
 20
533.5153119189
 30
0.0
 11
399.1567480775
 21
534.2319981676
 31
0.0
  0
LINE
  5
276
330
1F
100
AcDbEntity
  8
SLD-0_0
  6
SLD-Solid
 62
   179
370
    15
100
AcDbLine
 10
399.1567480775
 20
534.2319981676
 30
0.0
 11
399.413971922
 21
536.3514350277
 31
0.0
  0
LINE
  5
277
330
1F
100
AcDbEntity
  8
SLD-0_0
  6
SLD-Solid
 62
   179
370
    15
100
AcDbLine
 10
394.2139733049
 20
536.3514350277
 30
0.0
 11
394.2494082662
 21
537.1232704741
 31
0.0
  0
LINE
  5
278
330
1F
100
AcDbEntity
  8
SLD-0_0
  6
SLD-Solid
 62
   179
370
    15
100
AcDbLine
 10
394.2494082662
 20
537.1232704741
 30
0.0
 11
394.6605611059
 21
539.1875730377
 31
0.0
  0
LINE
  5
279
330
1F
100
AcDbEntity
  8
SLD-0_0
  6
SLD-Solid
 62
   179
370
    15
100
AcDbLine
 10
398.9674139234
 20
539.1875730377
 30
0.0
 11
394.6605611059
 21
539.1875730377
 31
0.0
  0
LINE
  5
27A
330
1F
100
AcDbEntity
  8
SLD-0_0
  6
SLD-Solid
 62
   179
370
    15
100
AcDbLine
 10
399.413971922
 20
536.3514350277
 30
0.0
 11
399.3785667631
 21
537.1232704741
 31
0.0
  0
LINE
  5
27B
330
1F
100
AcDbEntity
  8
SLD-0_0
  6
SLD-Solid
 62
   179
370
    15
100
AcDbLine
 10
399.3785667631
 20
537.1232704741
 30
0.0
 11
398.9674139234
 21
539.1875730377
 31
0.0
  0
LINE
  5
27C
330
1F
100
AcDbEntity
  8
SLD-0_0
  6
SLD-Solid
 62
   179
370
    15
100
AcDbLine
 10
394.2139733049
 20
540.1394890171
 30
0.0
 11
394.2164170953
 21
540.0718228442
 31
0.0
  0
LINE
  5
27D
330
1F
100
AcDbEntity
  8
SLD-0_0
  6
SLD-Solid
 62
   179
370
    15
100
AcDbLine
 10
394.2164170953
 20
540.0718228442
 30
0.0
 11
394.6605611059
 21
539.1875730377
 31
0.0
  0
LINE
  5
27E
330
1F
100
AcDbEntity
  8
SLD-0_0
  6
SLD-Solid
 62
   179
370
    15
100
AcDbLine
 10
394.2139733049
 20
536.3514350277
 30
0.0
 11
394.2139733049
 21
540.1394890171
 31
0.0
  0
LINE
  5
27F
330
1F
100
AcDbEntity
  8
SLD-0_0
  6
SLD-Solid
 62
   179
370
    15
100
AcDbLine
 10
399.413971922
 20
540.1394890171
 30
0.0
 11
399.4115579339
 21
540.0718228442
 31
0.0
  0
LINE
  5
280
330
1F
100
AcDbEntity
  8
SLD-0_0
  6
SLD-Solid
 62
   179
370
    15
100
AcDbLine
 10
399.4115579339
 20
540.0718228442
 30
0.0
 11
398.9674139234
 21
539.1875730377
 31
0.0
  0
LINE
  5
281
330
1F
100
AcDbEntity
  8
SLD-0_0
  6
SLD-Solid
 62
   179
370
    15
100
AcDbLine
 10
398.9674139234
 20
541.0914049965
 30
0.0
 11
399.1433370324
 21
540.7163576704
 31
0.0
  0
LINE
  5
282
330
1F
100
AcDbEntity
  8
SLD-0_0
  6
SLD-Solid
 62
   179
370
    15
100
AcDbLine
 10
394.6605611059
 20
541.0914049965
 30
0.0
 11
394.2139733049
 21
540.1394890171
 31
0.0
  0
LINE
  5
283
330
1F
100
AcDbEntity
  8
SLD-0_0
  6
SLD-Solid
 62
   179
370
    15
100
AcDbLine
 10
398.9674139234
 20
541.0914049965
 30
0.0
 11
394.6605611059
 21
541.0914049965
 31
0.0
  0
LINE
  5
284
330
1F
100
AcDbEntity
  8
SLD-0_0
  6
SLD-Solid
 62
   179
370
    15
100
AcDbLine
 10
394.6605611059
 20
529.7468976599
 30
0.0
 11
394.4846081945
 21
530.1219300848
 31
0.0
  0
LINE
  5
285
330
1F
100
AcDbEntity
  8
SLD-0_0
  6
SLD-Solid
 62
   179
370
    15
100
AcDbLine
 10
394.2139733049
 20
530.419148646
 30
0.0
 11
394.2139733049
 21
531.6311047894
 31
0.0
  0
LINE
  5
286
330
1F
100
AcDbEntity
  8
SLD-0_0
  6
SLD-Solid
 62
   179
370
    15
100
AcDbLine
 10
398.9674139234
 20
529.7468976599
 30
0.0
 11
399.1433370324
 21
530.1219300848
 31
0.0
  0
LINE
  5
287
330
1F
100
AcDbEntity
  8
SLD-0_0
  6
SLD-Solid
 62
   179
370
    15
100
AcDbLine
 10
394.2139733049
 20
540.1394890171
 30
0.0
 11
394.2139733049
 21
540.4191540104
 31
0.0
  0
LINE
  5
288
330
1F
100
AcDbEntity
  8
SLD-0_0
  6
SLD-Solid
 62
   179
370
    15
100
AcDbLine
 10
399.413971922
 20
541.5191428286
 30
0.0
 11
399.413971922
 21
529.3191449267
 31
0.0
  0
LINE
  5
289
330
1F
100
AcDbEntity
  8
SLD-0_0
  6
SLD-Solid
 62
   179
370
    15
100
AcDbLine
 10
500.3639745923
 20
321.3191480857
 30
0.0
 11
443.363993189
 21
321.3191480857
 31
0.0
  0
LINE
  5
28A
330
1F
100
AcDbEntity
  8
SLD-0_0
  6
SLD-Solid
 62
   179
370
    15
100
AcDbLine
 10
498.3639812321
 20
315.3191481621
 30
0.0
 11
445.3639674398
 21
315.3191508275
 31
0.0
  0
LINE
  5
28B
330
1F
100
AcDbEntity
  8
SLD-0_0
  6
SLD-Solid
 62
   179
370
    15
100
AcDbLine
 10
1089.3639910432
 20
321.3191480857
 30
0.0
 11
1032.3639798375
 21
321.3191480857
 31
0.0
  0
LINE
  5
28C
330
1F
100
AcDbEntity
  8
SLD-0_0
  6
SLD-Solid
 62
   179
370
    15
100
AcDbLine
 10
1087.363981232
 20
315.3191481621
 30
0.0
 11
1034.363981232
 21
315.3191481621
 31
0.0
  0
LINE
  5
28D
330
1F
100
AcDbEntity
  8
SLD-0_0
  6
SLD-Solid
 62
   179
370
    15
100
AcDbLine
 10
1095.8639669629
 20
483.3191485626
 30
0.0
 11
1095.8639669629
 21
484.5191465241
 31
0.0
  0
LINE
  5
28E
330
1F
100
AcDbEntity
  8
SLD-0_0
  6
SLD-Solid
 62
   179
370
    15
100
AcDbLine
 10
1025.8639741155
 20
483.3191485626
 30
0.0
 11
1025.8639741155
 21
484.5191465241
 31
0.0
  0
LINE
  5
28F
330
1F
100
AcDbEntity
  8
SLD-0_0
  6
SLD-Solid
 62
   179
370
    15
100
AcDbLine
 10
1025.8639741155
 20
483.3191485626
 30
0.0
 11
1095.8639669629
 21
483.3191485626
 31
0.0
  0
LINE
  5
290
330
1F
100
AcDbEntity
  8
SLD-0_0
  6
SLD-Solid
 62
   179
370
    15
100
AcDbLine
 10
1091.8236363145
 20
389.3191480559
 30
0.0
 11
1029.9043345662
 21
389.3191480559
 31
0.0
  0
LINE
  5
291
330
1F
100
AcDbEntity
  8
SLD-0_0
  6
SLD-Solid
 62
   179
370
    15
100
AcDbLine
 10
506.8639803144
 20
483.3191485626
 30
0.0
 11
506.8639803144
 21
484.5191465241
 31
0.0
  0
LINE
  5
292
330
1F
100
AcDbEntity
  8
SLD-0_0
  6
SLD-Solid
 62
   179
370
    15
100
AcDbLine
 10
436.8639874669
 20
483.3191485626
 30
0.0
 11
506.8639803144
 21
483.3191485626
 31
0.0
  0
LINE
  5
293
330
1F
100
AcDbEntity
  8
SLD-0_0
  6
SLD-Solid
 62
   179
370
    15
100
AcDbLine
 10
436.8639874669
 20
483.3191485626
 30
0.0
 11
436.8639874669
 21
484.5191465241
 31
0.0
  0
LINE
  5
294
330
1F
100
AcDbEntity
  8
SLD-0_0
  6
SLD-Solid
 62
   179
370
    15
100
AcDbLine
 10
502.8236347648
 20
389.3191480559
 30
0.0
 11
440.9043181154
 21
389.3191480559
 31
0.0
  0
LINE
  5
295
330
1F
100
AcDbEntity
  8
SLD-0_0
  6
SLD-Solid
 62
   179
370
    15
100
AcDbLine
 10
398.6639666768
 20
1168.6191187722
 30
0.0
 11
398.6639666768
 21
1204.0191517693
 31
0.0
  0
LINE
  5
296
330
1F
100
AcDbEntity
  8
SLD-0_0
  6
SLD-Solid
 62
   179
370
    15
100
AcDbLine
 10
501.0639864417
 20
1167.6191316468
 30
0.0
 11
399.6639836046
 21
1167.6191316468
 31
0.0
  0
LINE
  5
297
330
1F
100
AcDbEntity
  8
SLD-0_0
  6
SLD-Solid
 62
   179
370
    15
100
AcDbLine
 10
452.0639765474
 20
1220.9533081871
 30
0.0
 11
452.0639765474
 21
1220.9359632355
 31
0.0
  0
LINE
  5
298
330
1F
100
AcDbEntity
  8
SLD-0_0
  6
SLD-Solid
 62
   179
370
    15
100
AcDbLine
 10
502.0639884683
 20
1174.0191207749
 30
0.0
 11
502.0639884683
 21
1168.6191187722
 31
0.0
  0
LINE
  5
299
330
1F
100
AcDbEntity
  8
SLD-0_0
  6
SLD-Solid
 62
   179
370
    15
100
AcDbLine
 10
398.6639666768
 20
1204.0191517693
 30
0.0
 11
398.6639666768
 21
1252.7985797745
 31
0.0
  0
LINE
  5
29A
330
1F
100
AcDbEntity
  8
SLD-0_0
  6
SLD-Solid
 62
   179
370
    15
100
AcDbLine
 10
397.863982937
 20
1204.0191517693
 30
0.0
 11
397.863982937
 21
1252.7985797745
 31
0.0
  0
LINE
  5
29B
330
1F
100
AcDbEntity
  8
SLD-0_0
  6
SLD-Solid
 62
   179
370
    15
100
AcDbLine
 10
397.863982937
 20
1204.0191517693
 30
0.0
 11
398.6639666768
 21
1204.0191517693
 31
0.0
  0
LINE
  5
29C
330
1F
100
AcDbEntity
  8
SLD-0_0
  6
SLD-Solid
 62
   179
370
    15
100
AcDbLine
 10
400.2374994966
 20
1254.0059910637
 30
0.0
 11
433.5344720098
 21
1245.0841294152
 31
0.0
  0
LINE
  5
29D
330
1F
100
AcDbEntity
  8
SLD-0_0
  6
SLD-Solid
 62
   179
370
    15
100
AcDbLine
 10
400.4445660325
 20
1254.7787652832
 30
0.0
 11
433.7415087434
 21
1245.85684403
 31
0.0
  0
LINE
  5
29E
330
1F
100
AcDbEntity
  8
SLD-0_0
  6
SLD-Solid
 62
   179
370
    15
100
AcDbLine
 10
454.1139888975
 20
1204.8191653115
 30
0.0
 11
475.3139901372
 21
1204.8191653115
 31
0.0
  0
LINE
  5
29F
330
1F
100
AcDbEntity
  8
SLD-0_0
  6
SLD-Solid
 62
   179
370
    15
100
AcDbLine
 10
454.1139888975
 20
1204.0191517693
 30
0.0
 11
475.3139901372
 21
1204.0191517693
 31
0.0
  0
LINE
  5
2A0
330
1F
100
AcDbEntity
  8
SLD-0_0
  6
SLD-Solid
 62
   179
370
    15
100
AcDbLine
 10
477.363972685
 20
1202.7691231591
 30
0.0
 11
477.3639812321
 21
1186.0691481612
 31
0.0
  0
LINE
  5
2A1
330
1F
100
AcDbEntity
  8
SLD-0_0
  6
SLD-Solid
 62
   179
370
    15
100
AcDbLine
 10
476.5639889451
 20
1202.7691231591
 30
0.0
 11
476.5639812321
 21
1186.0691481612
 31
0.0
  0
LINE
  5
2A2
330
1F
100
AcDbEntity
  8
SLD-0_0
  6
SLD-Solid
 62
   179
370
    15
100
AcDbLine
 10
452.0639765474
 20
1220.9359632355
 30
0.0
 11
452.0639765474
 21
1206.069134317
 31
0.0
  0
LINE
  5
2A3
330
1F
100
AcDbEntity
  8
SLD-0_0
  6
SLD-Solid
 62
   179
370
    15
100
AcDbLine
 10
452.8639900895
 20
1220.9359632355
 30
0.0
 11
452.8639900895
 21
1206.069134317
 31
0.0
  0
LINE
  5
2A4
330
1F
100
AcDbEntity
  8
SLD-0_0
  6
SLD-Solid
 62
   179
370
    15
100
AcDbLine
 10
502.0639884683
 20
1174.0191207749
 30
0.0
 11
502.8639871093
 21
1174.0191207749
 31
0.0
  0
LINE
  5
2A5
330
1F
100
AcDbEntity
  8
SLD-0_0
  6
SLD-Solid
 62
   179
370
    15
100
AcDbLine
 10
502.0639884683
 20
1182.7691422325
 30
0.0
 11
502.0639884683
 21
1174.0191207749
 31
0.0
  0
LINE
  5
2A6
330
1F
100
AcDbEntity
  8
SLD-0_0
  6
SLD-Solid
 62
   179
370
    15
100
AcDbLine
 10
502.8639871093
 20
1182.7691422325
 30
0.0
 11
502.8639871093
 21
1174.0191207749
 31
0.0
  0
LINE
  5
2A7
330
1F
100
AcDbEntity
  8
SLD-0_0
  6
SLD-Solid
 62
   179
370
    15
100
AcDbLine
 10
478.6139714929
 20
1184.8191247803
 30
0.0
 11
500.8139747592
 21
1184.8191247803
 31
0.0
  0
LINE
  5
2A8
330
1F
100
AcDbEntity
  8
SLD-0_0
  6
SLD-Solid
 62
   179
370
    15
100
AcDbLine
 10
478.6139714929
 20
1184.0191708428
 30
0.0
 11
500.8139747592
 21
1184.0191708428
 31
0.0
  0
LINE
  5
2A9
330
1F
100
AcDbEntity
  8
SLD-0_0
  6
SLD-Solid
 62
   179
370
    15
100
AcDbLine
 10
1106.9139826509
 20
1169.6691737992
 30
0.0
 11
1106.9139826509
 21
1167.2191248757
 31
0.0
  0
LINE
  5
2AA
330
1F
100
AcDbEntity
  8
SLD-0_0
  6
SLD-Solid
 62
   179
370
    15
100
AcDbLine
 10
1106.9139826509
 20
1167.2191248757
 30
0.0
 11
1106.2932598802
 21
1167.2191248757
 31
0.0
  0
LINE
  5
2AB
330
1F
100
AcDbEntity
  8
SLD-0_0
  6
SLD-Solid
 62
   179
370
    15
100
AcDbLine
 10
1024.2739904138
 20
1167.4891935211
 30
0.0
 11
1024.2739904138
 21
1169.6691737992
 31
0.0
  0
LINE
  5
2AC
330
1F
100
AcDbEntity
  8
SLD-0_0
  6
SLD-Solid
 62
   179
370
    15
100
AcDbLine
 10
1051.0139751645
 20
1202.3191676956
 30
0.0
 11
1049.773989937
 21
1202.3191676956
 31
0.0
  0
LINE
  5
2AD
330
1F
100
AcDbEntity
  8
SLD-0_0
  6
SLD-Solid
 62
   179
370
    15
100
AcDbLine
 10
1051.0139751645
 20
1202.3691759926
 30
0.0
 11
1051.0139751645
 21
1202.3191676956
 31
0.0
  0
LINE
  5
2AE
330
1F
100
AcDbEntity
  8
SLD-0_0
  6
SLD-Solid
 62
   179
370
    15
100
AcDbLine
 10
1142.3307943555
 20
1202.3191676956
 30
0.0
 11
1142.3307943555
 21
1202.3691759926
 31
0.0
  0
LINE
  5
2AF
330
1F
100
AcDbEntity
  8
SLD-0_0
  6
SLD-Solid
 62
   179
370
    15
100
AcDbLine
 10
1142.8307879182
 20
1202.3191676956
 30
0.0
 11
1142.3307943555
 21
1202.3191676956
 31
0.0
  0
LINE
  5
2B0
330
1F
100
AcDbEntity
  8
SLD-0_0
  6
SLD-Solid
 62
   179
370
    15
100
AcDbLine
 10
1142.8307879182
 20
1203.513465963
 30
0.0
 11
1142.8307879182
 21
1202.3191676956
 31
0.0
  0
LINE
  5
2B1
330
1F
100
AcDbEntity
  8
SLD-0_0
  6
SLD-Solid
 62
   179
370
    15
100
AcDbLine
 10
1127.6081490728
 20
1151.1278377396
 30
0.0
 11
1151.1032569619
 21
1161.3438354355
 31
0.0
  0
LINE
  5
2B2
330
1F
100
AcDbEntity
  8
SLD-0_0
  6
SLD-Solid
 62
   179
370
    15
100
AcDbLine
 10
1127.6081490728
 20
1151.1278377396
 30
0.0
 11
1127.6081490728
 21
1152.2691474777
 31
0.0
  0
LINE
  5
2B3
330
1F
100
AcDbEntity
  8
SLD-0_0
  6
SLD-Solid
 62
   179
370
    15
100
AcDbLine
 10
1107.1639943334
 20
1169.7191224915
 30
0.0
 11
1107.1639943334
 21
1152.2691474777
 31
0.0
  0
LINE
  5
2B4
330
1F
100
AcDbEntity
  8
SLD-0_0
  6
SLD-Solid
 62
   179
370
    15
100
AcDbLine
 10
1107.1535337182
 20
1169.7191224915
 30
0.0
 11
1107.1639943334
 21
1169.7191224915
 31
0.0
  0
LINE
  5
2B5
330
1F
100
AcDbEntity
  8
SLD-0_0
  6
SLD-Solid
 62
   179
370
    15
100
AcDbLine
 10
1106.9139826509
 20
1169.7191224915
 30
0.0
 11
1106.9244134637
 21
1169.7191224915
 31
0.0
  0
LINE
  5
2B6
330
1F
100
AcDbEntity
  8
SLD-0_0
  6
SLD-Solid
 62
   179
370
    15
100
AcDbLine
 10
1106.9139826509
 20
1169.6691737992
 30
0.0
 11
1106.9139826509
 21
1169.7191224915
 31
0.0
  0
LINE
  5
2B7
330
1F
100
AcDbEntity
  8
SLD-0_0
  6
SLD-Solid
 62
   179
370
    15
100
AcDbLine
 10
1049.773989937
 20
1202.3191676956
 30
0.0
 11
1049.773989937
 21
1186.0691533905
 31
0.0
  0
LINE
  5
2B8
330
1F
100
AcDbEntity
  8
SLD-0_0
  6
SLD-Solid
 62
   179
370
    15
100
AcDbLine
 10
1047.3139870378
 20
1183.6091504914
 30
0.0
 11
1025.5139756414
 21
1183.6091504914
 31
0.0
  0
LINE
  5
2B9
330
1F
100
AcDbEntity
  8
SLD-0_0
  6
SLD-Solid
 62
   179
370
    15
100
AcDbLine
 10
1024.2739904138
 20
1182.3691354615
 30
0.0
 11
1024.2739904138
 21
1169.6691737992
 31
0.0
  0
LINE
  5
2BA
330
1F
100
AcDbEntity
  8
SLD-0_0
  6
SLD-Solid
 62
   179
370
    15
100
AcDbLine
 10
1142.3307943555
 20
1204.8191653115
 30
0.0
 11
1142.3307943555
 21
1202.3691759926
 31
0.0
  0
LINE
  5
2BB
330
1F
100
AcDbEntity
  8
SLD-0_0
  6
SLD-Solid
 62
   179
370
    15
100
AcDbLine
 10
1051.0139751645
 20
1202.3691759926
 30
0.0
 11
1051.0139751645
 21
1204.8191653115
 31
0.0
  0
LINE
  5
2BC
330
1F
100
AcDbEntity
  8
SLD-0_0
  6
SLD-Solid
 62
   179
370
    15
100
AcDbLine
 10
1051.0139751645
 20
1204.8191653115
 30
0.0
 11
1142.3307943555
 21
1204.8191653115
 31
0.0
  0
LINE
  5
2BD
330
1F
100
AcDbEntity
  8
SLD-0_0
  6
SLD-Solid
 62
   179
370
    15
100
AcDbLine
 10
1127.35813466
 20
1152.2691481612
 30
0.0
 11
1127.3581373903
 21
1149.8191581589
 31
0.0
  0
LINE
  5
2BE
330
1F
100
AcDbEntity
  8
SLD-0_0
  6
SLD-Solid
 62
   179
370
    15
100
AcDbLine
 10
1125.403134844
 20
1149.8191581589
 30
0.0
 11
1127.3581373903
 21
1149.8191581589
 31
0.0
  0
LINE
  5
2BF
330
1F
100
AcDbEntity
  8
SLD-0_0
  6
SLD-Solid
 62
   179
370
    15
100
AcDbLine
 10
1107.1639943334
 20
1149.8520003182
 30
0.0
 11
1107.1639943334
 21
1152.2691474777
 31
0.0
  0
LINE
  5
2C0
330
1F
100
AcDbEntity
  8
SLD-0_0
  6
SLD-Solid
 62
   179
370
    15
100
AcDbLine
 10
1049.7639763566
 20
1202.3691759926
 30
0.0
 11
1048.5639858457
 21
1202.3691759926
 31
0.0
  0
LINE
  5
2C1
330
1F
100
AcDbEntity
  8
SLD-0_0
  6
SLD-Solid
 62
   179
370
    15
100
AcDbLine
 10
1049.7639763566
 20
1202.3691759926
 30
0.0
 11
1049.7639763566
 21
1186.0691533905
 31
0.0
  0
LINE
  5
2C2
330
1F
100
AcDbEntity
  8
SLD-0_0
  6
SLD-Solid
 62
   179
370
    15
100
AcDbLine
 10
1048.5639858457
 20
1202.3691759926
 30
0.0
 11
1048.5639858457
 21
1186.0691533905
 31
0.0
  0
LINE
  5
2C3
330
1F
100
AcDbEntity
  8
SLD-0_0
  6
SLD-Solid
 62
   179
370
    15
100
AcDbLine
 10
1047.3139870378
 20
1183.6191640717
 30
0.0
 11
1025.5139756414
 21
1183.6191640717
 31
0.0
  0
LINE
  5
2C4
330
1F
100
AcDbEntity
  8
SLD-0_0
  6
SLD-Solid
 62
   179
370
    15
100
AcDbLine
 10
1047.3139870378
 20
1184.8191247803
 30
0.0
 11
1041.2641453954
 21
1184.8191247803
 31
0.0
  0
LINE
  5
2C5
330
1F
100
AcDbEntity
  8
SLD-0_0
  6
SLD-Solid
 62
   179
370
    15
100
AcDbLine
 10
1024.2639768335
 20
1182.3691354615
 30
0.0
 11
1024.2639768335
 21
1175.8191214424
 31
0.0
  0
LINE
  5
2C6
330
1F
100
AcDbEntity
  8
SLD-0_0
  6
SLD-Solid
 62
   179
370
    15
100
AcDbLine
 10
1023.0639863225
 20
1182.3691354615
 30
0.0
 11
1023.0639863225
 21
1175.8191214424
 31
0.0
  0
LINE
  5
2C7
330
1F
100
AcDbEntity
  8
SLD-0_0
  6
SLD-Solid
 62
   179
370
    15
100
AcDbLine
 10
1024.2639768335
 20
1174.819134317
 30
0.0
 11
1023.0639863225
 21
1174.819134317
 31
0.0
  0
LINE
  5
2C8
330
1F
100
AcDbEntity
  8
SLD-0_0
  6
SLD-Solid
 62
   179
370
    15
100
AcDbLine
 10
1024.2639768335
 20
1175.8191214424
 30
0.0
 11
1024.2639768335
 21
1174.819134317
 31
0.0
  0
LINE
  5
2C9
330
1F
100
AcDbEntity
  8
SLD-0_0
  6
SLD-Solid
 62
   179
370
    15
100
AcDbLine
 10
1023.0639863225
 20
1174.819134317
 30
0.0
 11
1023.0639863225
 21
1175.8191214424
 31
0.0
  0
LINE
  5
2CA
330
1F
100
AcDbEntity
  8
SLD-0_0
  6
SLD-Solid
 62
   179
370
    15
100
AcDbLine
 10
1129.3675887796
 20
1150.4752860886
 30
0.0
 11
1151.6216385576
 21
1160.1516233307
 31
0.0
  0
LINE
  5
2CB
330
1F
100
AcDbEntity
  8
SLD-0_0
  6
SLD-Solid
 62
   179
370
    15
100
AcDbLine
 10
1128.8891124936
 20
1151.5757666451
 30
0.0
 11
1151.1431324693
 21
1161.2521038872
 31
0.0
  0
LINE
  5
2CC
330
1F
100
AcDbEntity
  8
SLD-0_0
  6
SLD-Solid
 62
   179
370
    15
100
AcDbLine
 10
1142.8307897306
 20
1203.6134913286
 30
0.0
 11
1142.8307879182
 21
1204.8138008934
 31
0.0
  0
LINE
  5
2CD
330
1F
100
AcDbEntity
  8
SLD-0_0
  6
SLD-Solid
 62
   179
370
    15
100
AcDbLine
 10
1128.4505415174
 20
1150.0765906197
 30
0.0
 11
1127.9720354291
 21
1151.1770115715
 31
0.0
  0
LINE
  5
2CE
330
1F
100
AcDbEntity
  8
SLD-0_0
  6
SLD-Solid
 62
   179
370
    15
100
AcDbLine
 10
1129.3675887796
 20
1150.4752860886
 30
0.0
 11
1129.1886854383
 21
1150.3975020272
 31
0.0
  0
LINE
  5
2CF
330
1F
100
AcDbEntity
  8
SLD-0_0
  6
SLD-Solid
 62
   179
370
    15
100
AcDbLine
 10
1129.1886854383
 20
1150.3975020272
 30
0.0
 11
1129.0166664335
 21
1150.322698198
 31
0.0
  0
LINE
  5
2D0
330
1F
100
AcDbEntity
  8
SLD-0_0
  6
SLD-Solid
 62
   179
370
    15
100
AcDbLine
 10
1129.0166664335
 20
1150.322698198
 30
0.0
 11
1128.8581180784
 21
1150.2537952286
 31
0.0
  0
LINE
  5
2D1
330
1F
100
AcDbEntity
  8
SLD-0_0
  6
SLD-Solid
 62
   179
370
    15
100
AcDbLine
 10
1128.8581180784
 20
1150.2537952286
 30
0.0
 11
1128.7191498491
 21
1150.1933561188
 31
0.0
  0
LINE
  5
2D2
330
1F
100
AcDbEntity
  8
SLD-0_0
  6
SLD-Solid
 62
   179
370
    15
100
AcDbLine
 10
1128.7191498491
 20
1150.1933561188
 30
0.0
 11
1128.6050963613
 21
1150.1437650543
 31
0.0
  0
LINE
  5
2D3
330
1F
100
AcDbEntity
  8
SLD-0_0
  6
SLD-Solid
 62
   179
370
    15
100
AcDbLine
 10
1128.6050963613
 20
1150.1437650543
 30
0.0
 11
1128.5203385564
 21
1150.1069293839
 31
0.0
  0
LINE
  5
2D4
330
1F
100
AcDbEntity
  8
SLD-0_0
  6
SLD-Solid
 62
   179
370
    15
100
AcDbLine
 10
1128.5203385564
 20
1150.1069293839
 30
0.0
 11
1128.4681546899
 21
1150.0842200142
 31
0.0
  0
LINE
  5
2D5
330
1F
100
AcDbEntity
  8
SLD-0_0
  6
SLD-Solid
 62
   179
370
    15
100
AcDbLine
 10
1128.4681546899
 20
1150.0842200142
 30
0.0
 11
1128.4505415174
 21
1150.0765906197
 31
0.0
  0
LINE
  5
2D6
330
1F
100
AcDbEntity
  8
SLD-0_0
  6
SLD-Solid
 62
   179
370
    15
100
AcDbLine
 10
1127.9720354291
 20
1151.1770115715
 30
0.0
 11
1127.9896486017
 21
1151.1847005707
 31
0.0
  0
LINE
  5
2D7
330
1F
100
AcDbEntity
  8
SLD-0_0
  6
SLD-Solid
 62
   179
370
    15
100
AcDbLine
 10
1127.9896486017
 20
1151.1847005707
 30
0.0
 11
1128.0418622705
 21
1151.2074099404
 31
0.0
  0
LINE
  5
2D8
330
1F
100
AcDbEntity
  8
SLD-0_0
  6
SLD-Solid
 62
   179
370
    15
100
AcDbLine
 10
1128.0418622705
 20
1151.2074099404
 30
0.0
 11
1128.126590273
 21
1151.2442456108
 31
0.0
  0
LINE
  5
2D9
330
1F
100
AcDbEntity
  8
SLD-0_0
  6
SLD-Solid
 62
   179
370
    15
100
AcDbLine
 10
1128.126590273
 20
1151.2442456108
 30
0.0
 11
1128.2406437608
 21
1151.2938366753
 31
0.0
  0
LINE
  5
2DA
330
1F
100
AcDbEntity
  8
SLD-0_0
  6
SLD-Solid
 62
   179
370
    15
100
AcDbLine
 10
1128.2406437608
 20
1151.2938366753
 30
0.0
 11
1128.3796119901
 21
1151.3542757851
 31
0.0
  0
LINE
  5
2DB
330
1F
100
AcDbEntity
  8
SLD-0_0
  6
SLD-Solid
 62
   179
370
    15
100
AcDbLine
 10
1128.3796119901
 20
1151.3542757851
 30
0.0
 11
1128.5381603452
 21
1151.4231787545
 31
0.0
  0
LINE
  5
2DC
330
1F
100
AcDbEntity
  8
SLD-0_0
  6
SLD-Solid
 62
   179
370
    15
100
AcDbLine
 10
1128.5381603452
 20
1151.4231787545
 30
0.0
 11
1128.71017935
 21
1151.4979825836
 31
0.0
  0
LINE
  5
2DD
330
1F
100
AcDbEntity
  8
SLD-0_0
  6
SLD-Solid
 62
   179
370
    15
100
AcDbLine
 10
1128.71017935
 20
1151.4979825836
 30
0.0
 11
1128.8891124936
 21
1151.5757666451
 31
0.0
  0
LINE
  5
2DE
330
1F
100
AcDbEntity
  8
SLD-0_0
  6
SLD-Solid
 62
   179
370
    15
100
AcDbLine
 10
482.3639679166
 20
1196.6191755158
 30
0.0
 11
482.999264023
 21
1203.8806305748
 31
0.0
  0
LINE
  5
2DF
330
1F
100
AcDbEntity
  8
SLD-0_0
  6
SLD-Solid
 62
   179
370
    15
100
AcDbLine
 10
485.352574608
 20
1196.6191755158
 30
0.0
 11
482.3639679166
 21
1196.6191755158
 31
0.0
  0
LINE
  5
2E0
330
1F
100
AcDbEntity
  8
SLD-0_0
  6
SLD-Solid
 62
   179
370
    15
100
AcDbLine
 10
485.352574608
 20
1196.6191755158
 30
0.0
 11
1039.3753934118
 21
1196.6191755158
 31
0.0
  0
LINE
  5
2E1
330
1F
100
AcDbEntity
  8
SLD-0_0
  6
SLD-Solid
 62
   179
370
    15
100
AcDbLine
 10
1042.3639703008
 20
1196.6191755158
 30
0.0
 11
1041.7286741945
 21
1203.8806305748
 31
0.0
  0
LINE
  5
2E2
330
1F
100
AcDbEntity
  8
SLD-0_0
  6
SLD-Solid
 62
   179
370
    15
100
AcDbLine
 10
1039.3753934118
 20
1196.6191755158
 30
0.0
 11
1042.3639703008
 21
1196.6191755158
 31
0.0
  0
LINE
  5
2E3
330
1F
100
AcDbEntity
  8
SLD-0_0
  6
SLD-Solid
 62
   179
370
    15
100
AcDbLine
 10
485.9878707143
 20
1206.619165979
 30
0.0
 11
1038.7400973054
 21
1206.619165979
 31
0.0
  0
LINE
  5
2E4
330
1F
100
AcDbEntity
  8
SLD-0_0
  6
SLD-Solid
 62
   179
370
    15
100
AcDbLine
 10
494.3936753484
 20
1196.4544878823
 30
0.0
 11
494.447528145
 21
1196.6065989357
 31
0.0
  0
LINE
  5
2E5
330
1F
100
AcDbEntity
  8
SLD-0_0
  6
SLD-Solid
 62
   179
370
    15
100
AcDbLine
 10
494.447528145
 20
1196.6065989357
 30
0.0
 11
494.4823074552
 21
1196.6191755158
 31
0.0
  0
LINE
  5
2E6
330
1F
100
AcDbEntity
  8
SLD-0_0
  6
SLD-Solid
 62
   179
370
    15
100
AcDbLine
 10
1030.2456605645
 20
1196.6191755158
 30
0.0
 11
1030.324279091
 21
1196.5201125962
 31
0.0
  0
LINE
  5
2E7
330
1F
100
AcDbEntity
  8
SLD-0_0
  6
SLD-Solid
 62
   179
370
    15
100
AcDbLine
 10
1030.324279091
 20
1196.5201125962
 30
0.0
 11
1030.3342926713
 21
1196.4544878823
 31
0.0
  0
LINE
  5
2E8
330
1F
100
AcDbEntity
  8
SLD-0_0
  6
SLD-Solid
 62
   179
370
    15
100
AcDbLine
 10
494.3936753484
 20
1196.4544878823
 30
0.0
 11
494.3713236066
 21
1196.1989031655
 31
0.0
  0
LINE
  5
2E9
330
1F
100
AcDbEntity
  8
SLD-0_0
  6
SLD-Solid
 62
   179
370
    15
100
AcDbLine
 10
494.3713236066
 20
1196.1989031655
 30
0.0
 11
494.3286168786
 21
1195.7108007294
 31
0.0
  0
LINE
  5
2EA
330
1F
100
AcDbEntity
  8
SLD-0_0
  6
SLD-Solid
 62
   179
370
    15
100
AcDbLine
 10
494.3286168786
 20
1195.7108007294
 30
0.0
 11
494.3282294484
 21
1195.706330381
 31
0.0
  0
LINE
  5
2EB
330
1F
100
AcDbEntity
  8
SLD-0_0
  6
SLD-Solid
 62
   179
370
    15
100
AcDbLine
 10
1030.3997385713
 20
1195.706330381
 30
0.0
 11
1030.3993511411
 21
1195.7108007294
 31
0.0
  0
LINE
  5
2EC
330
1F
100
AcDbEntity
  8
SLD-0_0
  6
SLD-Solid
 62
   179
370
    15
100
AcDbLine
 10
1030.3993511411
 20
1195.7108007294
 30
0.0
 11
1030.3566444131
 21
1196.1989031655
 31
0.0
  0
LINE
  5
2ED
330
1F
100
AcDbEntity
  8
SLD-0_0
  6
SLD-Solid
 62
   179
370
    15
100
AcDbLine
 10
1030.3566444131
 20
1196.1989031655
 30
0.0
 11
1030.3342926713
 21
1196.4544878823
 31
0.0
  0
LINE
  5
2EE
330
1F
100
AcDbEntity
  8
SLD-0_0
  6
SLD-Solid
 62
   179
370
    15
100
AcDbLine
 10
489.8385691854
 20
1185.6191383225
 30
0.0
 11
486.3864469739
 21
1195.9364639145
 31
0.0
  0
LINE
  5
2EF
330
1F
100
AcDbEntity
  8
SLD-0_0
  6
SLD-Solid
 62
   179
370
    15
100
AcDbLine
 10
1038.3415210458
 20
1195.9364639145
 30
0.0
 11
1034.8893988344
 21
1185.6191383225
 31
0.0
  0
LINE
  5
2F0
330
1F
100
AcDbEntity
  8
SLD-0_0
  6
SLD-Solid
 62
   179
370
    15
100
AcDbLine
 10
494.3282294484
 20
1195.706330381
 30
0.0
 11
493.4456932756
 21
1185.6191383225
 31
0.0
  0
LINE
  5
2F1
330
1F
100
AcDbEntity
  8
SLD-0_0
  6
SLD-Solid
 62
   179
370
    15
100
AcDbLine
 10
1031.2822449418
 20
1185.6191383225
 30
0.0
 11
1030.3997385713
 21
1195.706330381
 31
0.0
  0
LINE
  5
2F2
330
1F
100
AcDbEntity
  8
SLD-0_0
  6
SLD-Solid
 62
   179
370
    15
100
AcDbLine
 10
752.3464930641
 20
1186.5319834572
 30
0.0
 11
751.5438448104
 21
1195.706330381
 31
0.0
  0
LINE
  5
2F3
330
1F
100
AcDbEntity
  8
SLD-0_0
  6
SLD-Solid
 62
   179
370
    15
100
AcDbLine
 10
773.1841176214
 20
1195.706330381
 30
0.0
 11
772.381470299
 21
1186.5319834572
 31
0.0
  0
LINE
  5
2F4
330
1F
100
AcDbEntity
  8
SLD-0_0
  6
SLD-Solid
 62
   179
370
    15
100
AcDbLine
 10
567.6063734504
 20
1209.8746524674
 30
0.0
 11
567.7593189689
 21
1210.6467710358
 31
0.0
  0
LINE
  5
2F5
330
1F
100
AcDbEntity
  8
SLD-0_0
  6
SLD-Solid
 62
   179
370
    15
100
AcDbLine
 10
617.7510756465
 20
1210.5743513924
 30
0.0
 11
618.086038849
 21
1213.5144101006
 31
0.0
  0
LINE
  5
2F6
330
1F
100
AcDbEntity
  8
SLD-0_0
  6
SLD-Solid
 62
   179
370
    15
100
AcDbLine
 10
618.086038849
 20
1213.5144101006
 30
0.0
 11
618.3966535541
 21
1216.2406073433
 31
0.0
  0
LINE
  5
2F7
330
1F
100
AcDbEntity
  8
SLD-0_0
  6
SLD-Solid
 62
   179
370
    15
100
AcDbLine
 10
618.3966535541
 20
1216.2406073433
 30
0.0
 11
618.6794328901
 21
1218.7225447518
 31
0.0
  0
LINE
  5
2F8
330
1F
100
AcDbEntity
  8
SLD-0_0
  6
SLD-Solid
 62
   179
370
    15
100
AcDbLine
 10
618.6794328901
 20
1218.7225447518
 30
0.0
 11
618.9312327119
 21
1220.9325657707
 31
0.0
  0
LINE
  5
2F9
330
1F
100
AcDbEntity
  8
SLD-0_0
  6
SLD-Solid
 62
   179
370
    15
100
AcDbLine
 10
618.9312327119
 20
1220.9325657707
 30
0.0
 11
619.1492516013
 21
1222.8459940773
 31
0.0
  0
LINE
  5
2FA
330
1F
100
AcDbEntity
  8
SLD-0_0
  6
SLD-Solid
 62
   179
370
    15
100
AcDbLine
 10
619.1492516013
 20
1222.8459940773
 30
0.0
 11
619.3310308668
 21
1224.4415508133
 31
0.0
  0
LINE
  5
2FB
330
1F
100
AcDbEntity
  8
SLD-0_0
  6
SLD-Solid
 62
   179
370
    15
100
AcDbLine
 10
619.3310308668
 20
1224.4415508133
 30
0.0
 11
619.4745737525
 21
1225.7013545853
 31
0.0
  0
LINE
  5
2FC
330
1F
100
AcDbEntity
  8
SLD-0_0
  6
SLD-Solid
 62
   179
370
    15
100
AcDbLine
 10
619.4745737525
 20
1225.7013545853
 30
0.0
 11
619.5782560321
 21
1226.6113983017
 31
0.0
  0
LINE
  5
2FD
330
1F
100
AcDbEntity
  8
SLD-0_0
  6
SLD-Solid
 62
   179
370
    15
100
AcDbLine
 10
619.5782560321
 20
1226.6113983017
 30
0.0
 11
619.6409303161
 21
1227.1614895684
 31
0.0
  0
LINE
  5
2FE
330
1F
100
AcDbEntity
  8
SLD-0_0
  6
SLD-Solid
 62
   179
370
    15
100
AcDbLine
 10
619.6409303161
 20
1227.1614895684
 30
0.0
 11
619.6619057693
 21
1227.3455545887
 31
0.0
  0
LINE
  5
2FF
330
1F
100
AcDbEntity
  8
SLD-0_0
  6
SLD-Solid
 62
   179
370
    15
100
AcDbLine
 10
906.9768923732
 20
1210.5743513924
 30
0.0
 11
906.6419142696
 21
1213.5144101006
 31
0.0
  0
LINE
  5
300
330
1F
100
AcDbEntity
  8
SLD-0_0
  6
SLD-Solid
 62
   179
370
    15
100
AcDbLine
 10
906.6419142696
 20
1213.5144101006
 30
0.0
 11
906.3313144656
 21
1216.2406073433
 31
0.0
  0
LINE
  5
301
330
1F
100
AcDbEntity
  8
SLD-0_0
  6
SLD-Solid
 62
   179
370
    15
100
AcDbLine
 10
906.3313144656
 20
1216.2406073433
 30
0.0
 11
906.0485202285
 21
1218.7225447518
 31
0.0
  0
LINE
  5
302
330
1F
100
AcDbEntity
  8
SLD-0_0
  6
SLD-Solid
 62
   179
370
    15
100
AcDbLine
 10
906.0485202285
 20
1218.7225447518
 30
0.0
 11
905.7967204067
 21
1220.9325657707
 31
0.0
  0
LINE
  5
303
330
1F
100
AcDbEntity
  8
SLD-0_0
  6
SLD-Solid
 62
   179
370
    15
100
AcDbLine
 10
905.7967204067
 20
1220.9325657707
 30
0.0
 11
905.5787164184
 21
1222.8459940773
 31
0.0
  0
LINE
  5
304
330
1F
100
AcDbEntity
  8
SLD-0_0
  6
SLD-Solid
 62
   179
370
    15
100
AcDbLine
 10
905.5787164184
 20
1222.8459940773
 30
0.0
 11
905.3969222518
 21
1224.4415508133
 31
0.0
  0
LINE
  5
305
330
1F
100
AcDbEntity
  8
SLD-0_0
  6
SLD-Solid
 62
   179
370
    15
100
AcDbLine
 10
905.3969222518
 20
1224.4415508133
 30
0.0
 11
905.2533942672
 21
1225.7013545853
 31
0.0
  0
LINE
  5
306
330
1F
100
AcDbEntity
  8
SLD-0_0
  6
SLD-Solid
 62
   179
370
    15
100
AcDbLine
 10
905.2533942672
 20
1225.7013545853
 30
0.0
 11
905.1497119876
 21
1226.6113983017
 31
0.0
  0
LINE
  5
307
330
1F
100
AcDbEntity
  8
SLD-0_0
  6
SLD-Solid
 62
   179
370
    15
100
AcDbLine
 10
905.1497119876
 20
1226.6113983017
 30
0.0
 11
905.0870228025
 21
1227.1614895684
 31
0.0
  0
LINE
  5
308
330
1F
100
AcDbEntity
  8
SLD-0_0
  6
SLD-Solid
 62
   179
370
    15
100
AcDbLine
 10
905.0870228025
 20
1227.1614895684
 30
0.0
 11
905.0660566945
 21
1227.3455545887
 31
0.0
  0
LINE
  5
309
330
1F
100
AcDbEntity
  8
SLD-0_0
  6
SLD-Solid
 62
   179
370
    15
100
AcDbLine
 10
625.0660566945
 20
1227.3455545887
 30
0.0
 11
625.0870514127
 21
1227.1613107544
 31
0.0
  0
LINE
  5
30A
330
1F
100
AcDbEntity
  8
SLD-0_0
  6
SLD-Solid
 62
   179
370
    15
100
AcDbLine
 10
625.0870514127
 20
1227.1613107544
 30
0.0
 11
625.1497927519
 21
1226.6106234413
 31
0.0
  0
LINE
  5
30B
330
1F
100
AcDbEntity
  8
SLD-0_0
  6
SLD-Solid
 62
   179
370
    15
100
AcDbLine
 10
625.1497927519
 20
1226.6106234413
 30
0.0
 11
625.2535793396
 21
1225.6996856552
 31
0.0
  0
LINE
  5
30C
330
1F
100
AcDbEntity
  8
SLD-0_0
  6
SLD-Solid
 62
   179
370
    15
100
AcDbLine
 10
625.2535793396
 20
1225.6996856552
 30
0.0
 11
625.3972563359
 21
1224.4386301857
 31
0.0
  0
LINE
  5
30D
330
1F
100
AcDbEntity
  8
SLD-0_0
  6
SLD-Solid
 62
   179
370
    15
100
AcDbLine
 10
625.3972563359
 20
1224.4386301857
 30
0.0
 11
625.5792218658
 21
1222.8415833336
 31
0.0
  0
LINE
  5
30E
330
1F
100
AcDbEntity
  8
SLD-0_0
  6
SLD-Solid
 62
   179
370
    15
100
AcDbLine
 10
625.5792218658
 20
1222.8415833336
 30
0.0
 11
625.7974419209
 21
1220.926307283
 31
0.0
  0
LINE
  5
30F
330
1F
100
AcDbEntity
  8
SLD-0_0
  6
SLD-Solid
 62
   179
370
    15
100
AcDbLine
 10
625.7974419209
 20
1220.926307283
 30
0.0
 11
626.0494727107
 21
1218.7142001015
 31
0.0
  0
LINE
  5
310
330
1F
100
AcDbEntity
  8
SLD-0_0
  6
SLD-Solid
 62
   179
370
    15
100
AcDbLine
 10
626.0494727107
 20
1218.7142001015
 30
0.0
 11
626.332512817
 21
1216.2299977165
 31
0.0
  0
LINE
  5
311
330
1F
100
AcDbEntity
  8
SLD-0_0
  6
SLD-Solid
 62
   179
370
    15
100
AcDbLine
 10
626.332512817
 20
1216.2299977165
 30
0.0
 11
626.6433882924
 21
1213.5014758927
 31
0.0
  0
LINE
  5
312
330
1F
100
AcDbEntity
  8
SLD-0_0
  6
SLD-Solid
 62
   179
370
    15
100
AcDbLine
 10
626.6433882924
 20
1213.5014758927
 30
0.0
 11
626.9786420676
 21
1210.5590329987
 31
0.0
  0
LINE
  5
313
330
1F
100
AcDbEntity
  8
SLD-0_0
  6
SLD-Solid
 62
   179
370
    15
100
AcDbLine
 10
899.6619123432
 20
1227.3455487114
 30
0.0
 11
899.640916607
 21
1227.1613107544
 31
0.0
  0
LINE
  5
314
330
1F
100
AcDbEntity
  8
SLD-0_0
  6
SLD-Solid
 62
   179
370
    15
100
AcDbLine
 10
899.640916607
 20
1227.1613107544
 30
0.0
 11
899.5781678172
 21
1226.6106234413
 31
0.0
  0
LINE
  5
315
330
1F
100
AcDbEntity
  8
SLD-0_0
  6
SLD-Solid
 62
   179
370
    15
100
AcDbLine
 10
899.5781678172
 20
1226.6106234413
 30
0.0
 11
899.4743812295
 21
1225.6996856552
 31
0.0
  0
LINE
  5
316
330
1F
100
AcDbEntity
  8
SLD-0_0
  6
SLD-Solid
 62
   179
370
    15
100
AcDbLine
 10
899.4743812295
 20
1225.6996856552
 30
0.0
 11
899.3307042333
 21
1224.4386301857
 31
0.0
  0
LINE
  5
317
330
1F
100
AcDbEntity
  8
SLD-0_0
  6
SLD-Solid
 62
   179
370
    15
100
AcDbLine
 10
899.3307042333
 20
1224.4386301857
 30
0.0
 11
899.148746154
 21
1222.8415833336
 31
0.0
  0
LINE
  5
318
330
1F
100
AcDbEntity
  8
SLD-0_0
  6
SLD-Solid
 62
   179
370
    15
100
AcDbLine
 10
899.148746154
 20
1222.8415833336
 30
0.0
 11
898.9305186483
 21
1220.926307283
 31
0.0
  0
LINE
  5
319
330
1F
100
AcDbEntity
  8
SLD-0_0
  6
SLD-Solid
 62
   179
370
    15
100
AcDbLine
 10
898.9305186483
 20
1220.926307283
 30
0.0
 11
898.6784804078
 21
1218.7142001015
 31
0.0
  0
LINE
  5
31A
330
1F
100
AcDbEntity
  8
SLD-0_0
  6
SLD-Solid
 62
   179
370
    15
100
AcDbLine
 10
898.6784804078
 20
1218.7142001015
 30
0.0
 11
898.3954477521
 21
1216.2299977165
 31
0.0
  0
LINE
  5
31B
330
1F
100
AcDbEntity
  8
SLD-0_0
  6
SLD-Solid
 62
   179
370
    15
100
AcDbLine
 10
898.3954477521
 20
1216.2299977165
 30
0.0
 11
898.0845648261
 21
1213.5014758927
 31
0.0
  0
LINE
  5
31C
330
1F
100
AcDbEntity
  8
SLD-0_0
  6
SLD-Solid
 62
   179
370
    15
100
AcDbLine
 10
898.0845648261
 20
1213.5014758927
 30
0.0
 11
897.7493185016
 21
1210.5590329987
 31
0.0
  0
LINE
  5
31D
330
1F
100
AcDbEntity
  8
SLD-0_0
  6
SLD-Solid
 62
   179
370
    15
100
AcDbLine
 10
623.0789129831
 20
1229.1191481612
 30
0.0
 11
621.6490494807
 21
1229.1191481612
 31
0.0
  0
LINE
  5
31E
330
1F
100
AcDbEntity
  8
SLD-0_0
  6
SLD-Solid
 62
   179
370
    15
100
AcDbLine
 10
901.6490494807
 20
1229.1191481612
 30
0.0
 11
903.0789129831
 21
1229.1191481612
 31
0.0
  0
LINE
  5
31F
330
1F
100
AcDbEntity
  8
SLD-0_0
  6
SLD-Solid
 62
   179
370
    15
100
AcDbLine
 10
567.7593189689
 20
1210.6467710358
 30
0.0
 11
569.6618992301
 21
1227.3455487114
 31
0.0
  0
LINE
  5
320
330
1F
100
AcDbEntity
  8
SLD-0_0
  6
SLD-Solid
 62
   179
370
    15
100
AcDbLine
 10
575.0660586568
 20
1227.3455487114
 30
0.0
 11
576.9703525516
 21
1210.6316910607
 31
0.0
  0
LINE
  5
321
330
1F
100
AcDbEntity
  8
SLD-0_0
  6
SLD-Solid
 62
   179
370
    15
100
AcDbLine
 10
667.750260553
 20
1210.5672584397
 30
0.0
 11
669.6619081708
 21
1227.3455487114
 31
0.0
  0
LINE
  5
322
330
1F
100
AcDbEntity
  8
SLD-0_0
  6
SLD-Solid
 62
   179
370
    15
100
AcDbLine
 10
675.0660601469
 20
1227.3455487114
 30
0.0
 11
676.9795108053
 21
1210.5514036042
 31
0.0
  0
LINE
  5
323
330
1F
100
AcDbEntity
  8
SLD-0_0
  6
SLD-Solid
 62
   179
370
    15
100
AcDbLine
 10
856.9777000161
 20
1210.5672584397
 30
0.0
 11
855.0660598489
 21
1227.3455487114
 31
0.0
  0
LINE
  5
324
330
1F
100
AcDbEntity
  8
SLD-0_0
  6
SLD-Solid
 62
   179
370
    15
100
AcDbLine
 10
849.6619078728
 20
1227.3455487114
 30
0.0
 11
847.7484572145
 21
1210.5514036042
 31
0.0
  0
LINE
  5
325
330
1F
100
AcDbEntity
  8
SLD-0_0
  6
SLD-Solid
 62
   179
370
    15
100
AcDbLine
 10
956.9686490508
 20
1210.6467710358
 30
0.0
 11
955.0660538884
 21
1227.3455487114
 31
0.0
  0
LINE
  5
326
330
1F
100
AcDbEntity
  8
SLD-0_0
  6
SLD-Solid
 62
   179
370
    15
100
AcDbLine
 10
949.6619093629
 20
1227.3455487114
 30
0.0
 11
947.757600567
 21
1210.6316910607
 31
0.0
  0
LINE
  5
327
330
1F
100
AcDbEntity
  8
SLD-0_0
  6
SLD-Solid
 62
   179
370
    15
100
AcDbLine
 10
571.6490435811
 20
1229.1191445214
 30
0.0
 11
573.0789143058
 21
1229.1191445214
 31
0.0
  0
LINE
  5
328
330
1F
100
AcDbEntity
  8
SLD-0_0
  6
SLD-Solid
 62
   179
370
    15
100
AcDbLine
 10
671.6490525218
 20
1229.1191445214
 30
0.0
 11
673.0789129831
 21
1229.1191481612
 31
0.0
  0
LINE
  5
329
330
1F
100
AcDbEntity
  8
SLD-0_0
  6
SLD-Solid
 62
   179
370
    15
100
AcDbLine
 10
853.0789154979
 20
1229.1191445214
 30
0.0
 11
851.6490522238
 21
1229.1191445214
 31
0.0
  0
LINE
  5
32A
330
1F
100
AcDbEntity
  8
SLD-0_0
  6
SLD-Solid
 62
   179
370
    15
100
AcDbLine
 10
953.0789095374
 20
1229.1191445214
 30
0.0
 11
951.6490537139
 21
1229.1191445214
 31
0.0
  0
LINE
  5
32B
330
1F
100
AcDbEntity
  8
SLD-0_0
  6
SLD-Solid
 62
   179
370
    15
100
AcDbLine
 10
519.8055643054
 20
1229.1191445214
 30
0.0
 11
518.7944907161
 21
1229.1191445214
 31
0.0
  0
LINE
  5
32C
330
1F
100
AcDbEntity
  8
SLD-0_0
  6
SLD-Solid
 62
   179
370
    15
100
AcDbLine
 10
1004.9223888131
 20
1229.1191445214
 30
0.0
 11
1005.9334624025
 21
1229.1191445214
 31
0.0
  0
LINE
  5
32D
330
1F
100
AcDbEntity
  8
SLD-0_0
  6
SLD-Solid
 62
   179
370
    15
100
AcDbLine
 10
723.8617415937
 20
1229.1191445214
 30
0.0
 11
724.8728077325
 21
1229.1191445214
 31
0.0
  0
LINE
  5
32E
330
1F
100
AcDbEntity
  8
SLD-0_0
  6
SLD-Solid
 62
   179
370
    15
100
AcDbLine
 10
800.8662189754
 20
1229.1191445214
 30
0.0
 11
799.8551528367
 21
1229.1191445214
 31
0.0
  0
LINE
  5
32F
330
1F
100
AcDbEntity
  8
SLD-0_0
  6
SLD-Solid
 62
   179
370
    15
100
AcDbLine
 10
519.8055643054
 20
1229.1191445214
 30
0.0
 11
550.2443099562
 21
1229.1191481612
 31
0.0
  0
LINE
  5
330
330
1F
100
AcDbEntity
  8
SLD-0_0
  6
SLD-Solid
 62
   179
370
    15
100
AcDbLine
 10
1004.9223888131
 20
1229.1191445214
 30
0.0
 11
974.4836525077
 21
1229.1191481612
 31
0.0
  0
LINE
  5
331
330
1F
100
AcDbEntity
  8
SLD-0_0
  6
SLD-Solid
 62
   179
370
    15
100
AcDbLine
 10
693.8650142352
 20
1229.1191481612
 30
0.0
 11
723.8617415937
 21
1229.1191445214
 31
0.0
  0
LINE
  5
332
330
1F
100
AcDbEntity
  8
SLD-0_0
  6
SLD-Solid
 62
   179
370
    15
100
AcDbLine
 10
830.8629482287
 20
1229.1191481612
 30
0.0
 11
800.8662189754
 21
1229.1191445214
 31
0.0
  0
LINE
  5
333
330
1F
100
AcDbEntity
  8
SLD-0_0
  6
SLD-Solid
 62
   179
370
    15
100
AcDbLine
 10
692.3112485024
 20
1218.9023123604
 30
0.0
 11
691.7187671574
 21
1218.9893351418
 31
0.0
  0
LINE
  5
334
330
1F
100
AcDbEntity
  8
SLD-0_0
  6
SLD-Solid
 62
   179
370
    15
100
AcDbLine
 10
691.7187671574
 20
1218.9893351418
 30
0.0
 11
691.3544486674
 21
1219.0593109947
 31
0.0
  0
LINE
  5
335
330
1F
100
AcDbEntity
  8
SLD-0_0
  6
SLD-Solid
 62
   179
370
    15
100
AcDbLine
 10
691.3544486674
 20
1219.0593109947
 30
0.0
 11
691.3653674933
 21
1219.0770731789
 31
0.0
  0
LINE
  5
336
330
1F
100
AcDbEntity
  8
SLD-0_0
  6
SLD-Solid
 62
   179
370
    15
100
AcDbLine
 10
832.4167120668
 20
1218.9023123604
 30
0.0
 11
833.009197137
 21
1218.9893351418
 31
0.0
  0
LINE
  5
337
330
1F
100
AcDbEntity
  8
SLD-0_0
  6
SLD-Solid
 62
   179
370
    15
100
AcDbLine
 10
833.009197137
 20
1218.9893351418
 30
0.0
 11
833.373515627
 21
1219.0593109947
 31
0.0
  0
LINE
  5
338
330
1F
100
AcDbEntity
  8
SLD-0_0
  6
SLD-Solid
 62
   179
370
    15
100
AcDbLine
 10
833.373515627
 20
1219.0593109947
 30
0.0
 11
833.3625930759
 21
1219.0770731789
 31
0.0
  0
LINE
  5
339
330
1F
100
AcDbEntity
  8
SLD-0_0
  6
SLD-Solid
 62
   179
370
    15
100
AcDbLine
 10
741.7993021595
 20
1228.1396613938
 30
0.0
 11
746.4152893449
 21
1217.7537308556
 31
0.0
  0
LINE
  5
33A
330
1F
100
AcDbEntity
  8
SLD-0_0
  6
SLD-Solid
 62
   179
370
    15
100
AcDbLine
 10
746.4152893449
 20
1217.7537308556
 30
0.0
 11
750.0442890382
 21
1209.5884309632
 31
0.0
  0
LINE
  5
33B
330
1F
100
AcDbEntity
  8
SLD-0_0
  6
SLD-Solid
 62
   179
370
    15
100
AcDbLine
 10
782.928659341
 20
1228.1396613938
 30
0.0
 11
778.3126726213
 21
1217.7537308556
 31
0.0
  0
LINE
  5
33C
330
1F
100
AcDbEntity
  8
SLD-0_0
  6
SLD-Solid
 62
   179
370
    15
100
AcDbLine
 10
778.3126726213
 20
1217.7537308556
 30
0.0
 11
774.6836736264
 21
1209.5884309632
 31
0.0
  0
LINE
  5
33D
330
1F
100
AcDbEntity
  8
SLD-0_0
  6
SLD-Solid
 62
   179
370
    15
100
AcDbLine
 10
493.6836648198
 20
1209.5884309632
 30
0.0
 11
501.8361050102
 21
1227.9314027649
 31
0.0
  0
LINE
  5
33E
330
1F
100
AcDbEntity
  8
SLD-0_0
  6
SLD-Solid
 62
   179
370
    15
100
AcDbLine
 10
1031.0443031999
 20
1209.5884309632
 30
0.0
 11
1022.8918481084
 21
1227.9314027649
 31
0.0
  0
LINE
  5
33F
330
1F
100
AcDbEntity
  8
SLD-0_0
  6
SLD-Solid
 62
   179
370
    15
100
AcDbLine
 10
503.6637324306
 20
1229.1191445214
 30
0.0
 11
504.3056531919
 21
1229.1191481612
 31
0.0
  0
LINE
  5
340
330
1F
100
AcDbEntity
  8
SLD-0_0
  6
SLD-Solid
 62
   179
370
    15
100
AcDbLine
 10
1021.064220688
 20
1229.1191445214
 30
0.0
 11
1020.422309272
 21
1229.1191481612
 31
0.0
  0
LINE
  5
341
330
1F
100
AcDbEntity
  8
SLD-0_0
  6
SLD-Solid
 62
   179
370
    15
100
AcDbLine
 10
738.3792491096
 20
1227.7002559525
 30
0.0
 11
738.3771229001
 21
1227.7121172768
 31
0.0
  0
LINE
  5
342
330
1F
100
AcDbEntity
  8
SLD-0_0
  6
SLD-Solid
 62
   179
370
    15
100
AcDbLine
 10
739.9725129294
 20
1229.1191445213
 30
0.0
 11
740.3241840589
 21
1229.1191445214
 31
0.0
  0
LINE
  5
343
330
1F
100
AcDbEntity
  8
SLD-0_0
  6
SLD-Solid
 62
   179
370
    15
100
AcDbLine
 10
786.3487142536
 20
1227.7002559525
 30
0.0
 11
786.3508413943
 21
1227.7121172768
 31
0.0
  0
LINE
  5
344
330
1F
100
AcDbEntity
  8
SLD-0_0
  6
SLD-Solid
 62
   179
370
    15
100
AcDbLine
 10
784.7554485711
 20
1229.1191445214
 30
0.0
 11
784.4037774416
 21
1229.1191445214
 31
0.0
  0
LINE
  5
345
330
1F
100
AcDbEntity
  8
SLD-0_0
  6
SLD-Solid
 62
   179
370
    15
100
AcDbLine
 10
741.7862827356
 20
1228.168986879
 30
0.0
 11
741.7993021595
 21
1228.1396613938
 31
0.0
  0
LINE
  5
346
330
1F
100
AcDbEntity
  8
SLD-0_0
  6
SLD-Solid
 62
   179
370
    15
100
AcDbLine
 10
782.9416792306
 20
1228.168986879
 30
0.0
 11
782.928659341
 21
1228.1396613938
 31
0.0
  0
LINE
  5
347
330
1F
100
AcDbEntity
  8
SLD-0_0
  6
SLD-Solid
 62
   179
370
    15
100
AcDbLine
 10
662.3639825198
 20
1219.1191540581
 30
0.0
 11
662.5634718152
 21
1221.399329744
 31
0.0
  0
LINE
  5
348
330
1F
100
AcDbEntity
  8
SLD-0_0
  6
SLD-Solid
 62
   179
370
    15
100
AcDbLine
 10
662.5634718152
 20
1221.399329744
 30
0.0
 11
662.765300593
 21
1223.7062083107
 31
0.0
  0
LINE
  5
349
330
1F
100
AcDbEntity
  8
SLD-0_0
  6
SLD-Solid
 62
   179
370
    15
100
AcDbLine
 10
662.765300593
 20
1223.7062083107
 30
0.0
 11
662.9233423086
 21
1225.5126462799
 31
0.0
  0
LINE
  5
34A
330
1F
100
AcDbEntity
  8
SLD-0_0
  6
SLD-Solid
 62
   179
370
    15
100
AcDbLine
 10
662.9233423086
 20
1225.5126462799
 30
0.0
 11
663.0791413995
 21
1227.2934542519
 31
0.0
  0
LINE
  5
34B
330
1F
100
AcDbEntity
  8
SLD-0_0
  6
SLD-Solid
 62
   179
370
    15
100
AcDbLine
 10
862.3639780494
 20
1219.1191540581
 30
0.0
 11
862.1644887539
 21
1221.399329744
 31
0.0
  0
LINE
  5
34C
330
1F
100
AcDbEntity
  8
SLD-0_0
  6
SLD-Solid
 62
   179
370
    15
100
AcDbLine
 10
862.1644887539
 20
1221.399329744
 30
0.0
 11
861.9626599761
 21
1223.7062083107
 31
0.0
  0
LINE
  5
34D
330
1F
100
AcDbEntity
  8
SLD-0_0
  6
SLD-Solid
 62
   179
370
    15
100
AcDbLine
 10
861.9626599761
 20
1223.7062083107
 30
0.0
 11
861.8046257111
 21
1225.5126462799
 31
0.0
  0
LINE
  5
34E
330
1F
100
AcDbEntity
  8
SLD-0_0
  6
SLD-Solid
 62
   179
370
    15
100
AcDbLine
 10
861.8046257111
 20
1225.5126462799
 30
0.0
 11
861.6488191696
 21
1227.2934542519
 31
0.0
  0
LINE
  5
34F
330
1F
100
AcDbEntity
  8
SLD-0_0
  6
SLD-Solid
 62
   179
370
    15
100
AcDbLine
 10
581.6488254281
 20
1227.2934542519
 30
0.0
 11
581.8475771161
 21
1225.0217424256
 31
0.0
  0
LINE
  5
350
330
1F
100
AcDbEntity
  8
SLD-0_0
  6
SLD-Solid
 62
   179
370
    15
100
AcDbLine
 10
581.8475771161
 20
1225.0217424256
 30
0.0
 11
582.0492345306
 21
1222.7167712075
 31
0.0
  0
LINE
  5
351
330
1F
100
AcDbEntity
  8
SLD-0_0
  6
SLD-Solid
 62
   179
370
    15
100
AcDbLine
 10
582.0492345306
 20
1222.7167712075
 30
0.0
 11
582.2075444671
 21
1220.9071741921
 31
0.0
  0
LINE
  5
352
330
1F
100
AcDbEntity
  8
SLD-0_0
  6
SLD-Solid
 62
   179
370
    15
100
AcDbLine
 10
582.2075444671
 20
1220.9071741921
 30
0.0
 11
582.3639768573
 21
1219.1191540581
 31
0.0
  0
LINE
  5
353
330
1F
100
AcDbEntity
  8
SLD-0_0
  6
SLD-Solid
 62
   179
370
    15
100
AcDbLine
 10
943.0791425916
 20
1227.2934542519
 30
0.0
 11
942.8803909036
 21
1225.0217424256
 31
0.0
  0
LINE
  5
354
330
1F
100
AcDbEntity
  8
SLD-0_0
  6
SLD-Solid
 62
   179
370
    15
100
AcDbLine
 10
942.8803909036
 20
1225.0217424256
 30
0.0
 11
942.6787334892
 21
1222.7167712075
 31
0.0
  0
LINE
  5
355
330
1F
100
AcDbEntity
  8
SLD-0_0
  6
SLD-Solid
 62
   179
370
    15
100
AcDbLine
 10
942.6787334892
 20
1222.7167712075
 30
0.0
 11
942.5204086515
 21
1220.9071741921
 31
0.0
  0
LINE
  5
356
330
1F
100
AcDbEntity
  8
SLD-0_0
  6
SLD-Solid
 62
   179
370
    15
100
AcDbLine
 10
942.5204086515
 20
1220.9071741921
 30
0.0
 11
942.3639762613
 21
1219.1191540581
 31
0.0
  0
LINE
  5
357
330
1F
100
AcDbEntity
  8
SLD-0_0
  6
SLD-Solid
 62
   179
370
    15
100
AcDbLine
 10
550.2443099562
 20
1229.1191481612
 30
0.0
 11
571.6490435811
 21
1229.1191445214
 31
0.0
  0
LINE
  5
358
330
1F
100
AcDbEntity
  8
SLD-0_0
  6
SLD-Solid
 62
   179
370
    15
100
AcDbLine
 10
573.0789143058
 20
1229.1191445214
 30
0.0
 11
579.6564358684
 21
1229.1191445214
 31
0.0
  0
LINE
  5
359
330
1F
100
AcDbEntity
  8
SLD-0_0
  6
SLD-Solid
 62
   179
370
    15
100
AcDbLine
 10
665.0715302152
 20
1229.1191481612
 30
0.0
 11
671.6490525218
 21
1229.1191445214
 31
0.0
  0
LINE
  5
35A
330
1F
100
AcDbEntity
  8
SLD-0_0
  6
SLD-Solid
 62
   179
370
    15
100
AcDbLine
 10
673.0789129831
 20
1229.1191481612
 30
0.0
 11
693.8650142352
 21
1229.1191481612
 31
0.0
  0
LINE
  5
35B
330
1F
100
AcDbEntity
  8
SLD-0_0
  6
SLD-Solid
 62
   179
370
    15
100
AcDbLine
 10
859.6564296099
 20
1229.1191445214
 30
0.0
 11
853.0789154979
 21
1229.1191445214
 31
0.0
  0
LINE
  5
35C
330
1F
100
AcDbEntity
  8
SLD-0_0
  6
SLD-Solid
 62
   179
370
    15
100
AcDbLine
 10
851.6490522238
 20
1229.1191445214
 30
0.0
 11
830.8629482287
 21
1229.1191481612
 31
0.0
  0
LINE
  5
35D
330
1F
100
AcDbEntity
  8
SLD-0_0
  6
SLD-Solid
 62
   179
370
    15
100
AcDbLine
 10
974.4836525077
 20
1229.1191481612
 30
0.0
 11
953.0789095374
 21
1229.1191445214
 31
0.0
  0
LINE
  5
35E
330
1F
100
AcDbEntity
  8
SLD-0_0
  6
SLD-Solid
 62
   179
370
    15
100
AcDbLine
 10
951.6490537139
 20
1229.1191445214
 30
0.0
 11
945.0715321513
 21
1229.1191445214
 31
0.0
  0
LINE
  5
35F
330
1F
100
AcDbEntity
  8
SLD-0_0
  6
SLD-Solid
 62
   179
370
    15
100
AcDbLine
 10
667.6986801835
 20
1210.1145611626
 30
0.0
 11
667.8068402621
 21
1211.0638843399
 31
0.0
  0
LINE
  5
360
330
1F
100
AcDbEntity
  8
SLD-0_0
  6
SLD-Solid
 62
   179
370
    15
100
AcDbLine
 10
856.9777000161
 20
1210.5672584397
 30
0.0
 11
856.9211203071
 21
1211.0638843399
 31
0.0
  0
LINE
  5
361
330
1F
100
AcDbEntity
  8
SLD-0_0
  6
SLD-Solid
 62
   179
370
    15
100
AcDbLine
 10
897.7493185016
 20
1210.5590329987
 30
0.0
 11
897.7369058343
 21
1210.4594336373
 31
0.0
  0
LINE
  5
362
330
1F
100
AcDbEntity
  8
SLD-0_0
  6
SLD-Solid
 62
   179
370
    15
100
AcDbLine
 10
567.7593189689
 20
1210.6467710358
 30
0.0
 11
567.5779122325
 21
1209.7786293846
 31
0.0
  0
LINE
  5
363
330
1F
100
AcDbEntity
  8
SLD-0_0
  6
SLD-Solid
 62
   179
370
    15
100
AcDbLine
 10
497.2657251569
 20
1186.0678420883
 30
0.0
 11
493.4849727365
 21
1186.0678420883
 31
0.0
  0
LINE
  5
364
330
1F
100
AcDbEntity
  8
SLD-0_0
  6
SLD-Solid
 62
   179
370
    15
100
AcDbLine
 10
489.6884548875
 20
1186.0678420883
 30
0.0
 11
485.4622471544
 21
1186.0678420883
 31
0.0
  0
LINE
  5
365
330
1F
100
AcDbEntity
  8
SLD-0_0
  6
SLD-Solid
 62
   179
370
    15
100
AcDbLine
 10
496.4796591016
 20
1186.6191254479
 30
0.0
 11
496.2150144788
 21
1186.7873297554
 31
0.0
  0
LINE
  5
366
330
1F
100
AcDbEntity
  8
SLD-0_0
  6
SLD-Solid
 62
   179
370
    15
100
AcDbLine
 10
496.2150144788
 20
1186.7873297554
 30
0.0
 11
493.6379778596
 21
1187.8167615753
 31
0.0
  0
LINE
  5
367
330
1F
100
AcDbEntity
  8
SLD-0_0
  6
SLD-Solid
 62
   179
370
    15
100
AcDbLine
 10
489.1232538434
 20
1187.7570377213
 30
0.0
 11
488.0157995435
 21
1187.5221954209
 31
0.0
  0
LINE
  5
368
330
1F
100
AcDbEntity
  8
SLD-0_0
  6
SLD-Solid
 62
   179
370
    15
100
AcDbLine
 10
488.0157995435
 20
1187.5221954209
 30
0.0
 11
486.2483132097
 21
1186.6191254479
 31
0.0
  0
LINE
  5
369
330
1F
100
AcDbEntity
  8
SLD-0_0
  6
SLD-Solid
 62
   179
370
    15
100
AcDbLine
 10
496.523975155
 20
1186.6191254479
 30
0.0
 11
496.4796591016
 21
1186.6191254479
 31
0.0
  0
LINE
  5
36A
330
1F
100
AcDbEntity
  8
SLD-0_0
  6
SLD-Solid
 62
   179
370
    15
100
AcDbLine
 10
486.2483132097
 20
1186.6191254479
 30
0.0
 11
486.2039673539
 21
1186.6191254479
 31
0.0
  0
LINE
  5
36B
330
1F
100
AcDbEntity
  8
SLD-0_0
  6
SLD-Solid
 62
   179
370
    15
100
AcDbLine
 10
1039.2657208654
 20
1186.0678420883
 30
0.0
 11
1035.0395131322
 21
1186.0678420883
 31
0.0
  0
LINE
  5
36C
330
1F
100
AcDbEntity
  8
SLD-0_0
  6
SLD-Solid
 62
   179
370
    15
100
AcDbLine
 10
1031.2429952833
 20
1186.0678420883
 30
0.0
 11
1027.4622428628
 21
1186.0678420883
 31
0.0
  0
LINE
  5
36D
330
1F
100
AcDbEntity
  8
SLD-0_0
  6
SLD-Solid
 62
   179
370
    15
100
AcDbLine
 10
1038.4796548101
 20
1186.6191254479
 30
0.0
 11
1038.2150101873
 21
1186.7873297554
 31
0.0
  0
LINE
  5
36E
330
1F
100
AcDbEntity
  8
SLD-0_0
  6
SLD-Solid
 62
   179
370
    15
100
AcDbLine
 10
1038.2150101873
 20
1186.7873297554
 30
0.0
 11
1035.6262612554
 21
1187.8214703423
 31
0.0
  0
LINE
  5
36F
330
1F
100
AcDbEntity
  8
SLD-0_0
  6
SLD-Solid
 62
   179
370
    15
100
AcDbLine
 10
1031.095712206
 20
1187.7511964661
 30
0.0
 11
1030.015795252
 21
1187.5221954209
 31
0.0
  0
LINE
  5
370
330
1F
100
AcDbEntity
  8
SLD-0_0
  6
SLD-Solid
 62
   179
370
    15
100
AcDbLine
 10
1030.015795252
 20
1187.5221954209
 30
0.0
 11
1028.2483089181
 21
1186.6191254479
 31
0.0
  0
LINE
  5
371
330
1F
100
AcDbEntity
  8
SLD-0_0
  6
SLD-Solid
 62
   179
370
    15
100
AcDbLine
 10
1038.5240006658
 20
1186.6191254479
 30
0.0
 11
1038.4796548101
 21
1186.6191254479
 31
0.0
  0
LINE
  5
372
330
1F
100
AcDbEntity
  8
SLD-0_0
  6
SLD-Solid
 62
   179
370
    15
100
AcDbLine
 10
1028.2483089181
 20
1186.6191254479
 30
0.0
 11
1028.2039630624
 21
1186.6191254479
 31
0.0
  0
LINE
  5
373
330
1F
100
AcDbEntity
  8
SLD-0_0
  6
SLD-Solid
 62
   179
370
    15
100
AcDbLine
 10
504.863826736
 20
1173.8191481612
 30
0.0
 11
504.8638272497
 21
1183.3191738945
 31
0.0
  0
LINE
  5
374
330
1F
100
AcDbEntity
  8
SLD-0_0
  6
SLD-Solid
 62
   179
370
    15
100
AcDbLine
 10
1019.8638129445
 20
1183.3191738945
 30
0.0
 11
1019.8638129445
 21
1173.8191471916
 31
0.0
  0
LINE
  5
375
330
1F
100
AcDbEntity
  8
SLD-0_0
  6
SLD-Solid
 62
   179
370
    15
100
AcDbLine
 10
1014.863826736
 20
1168.8191481612
 30
0.0
 11
509.863826736
 21
1168.8191481612
 31
0.0
  0
LINE
  5
376
330
1F
100
AcDbEntity
  8
SLD-0_0
  6
SLD-Solid
 62
   179
370
    15
100
AcDbLine
 10
481.2702822896
 20
1186.4274965149
 30
0.0
 11
480.6988823625
 21
1188.2397161347
 31
0.0
  0
LINE
  5
377
330
1F
100
AcDbEntity
  8
SLD-0_0
  6
SLD-Solid
 62
   179
370
    15
100
AcDbLine
 10
482.0332515451
 20
1186.6680608612
 30
0.0
 11
481.4618516179
 21
1188.480280481
 31
0.0
  0
LINE
  5
378
330
1F
100
AcDbEntity
  8
SLD-0_0
  6
SLD-Solid
 62
   179
370
    15
100
AcDbLine
 10
1019.8638129445
 20
1185.6191383225
 30
0.0
 11
1019.8638129445
 21
1183.3191738945
 31
0.0
  0
LINE
  5
379
330
1F
100
AcDbEntity
  8
SLD-0_0
  6
SLD-Solid
 62
   179
370
    15
100
AcDbLine
 10
504.8638272497
 20
1185.6191383225
 30
0.0
 11
1019.8638129445
 21
1185.6191383225
 31
0.0
  0
LINE
  5
37A
330
1F
100
AcDbEntity
  8
SLD-0_0
  6
SLD-Solid
 62
   179
370
    15
100
AcDbLine
 10
504.8638272497
 20
1183.3191738945
 30
0.0
 11
504.8638272497
 21
1185.6191383225
 31
0.0
  0
LINE
  5
37B
330
1F
100
AcDbEntity
  8
SLD-0_0
  6
SLD-Solid
 62
   179
370
    15
100
AcDbLine
 10
504.4638204786
 20
1184.8191247803
 30
0.0
 11
504.4638204786
 21
1185.6191383225
 31
0.0
  0
LINE
  5
37C
330
1F
100
AcDbEntity
  8
SLD-0_0
  6
SLD-Solid
 62
   179
370
    15
100
AcDbLine
 10
483.4638226243
 20
1185.6191383225
 30
0.0
 11
504.4638204786
 21
1185.6191383225
 31
0.0
  0
LINE
  5
37D
330
1F
100
AcDbEntity
  8
SLD-0_0
  6
SLD-Solid
 62
   179
370
    15
100
AcDbLine
 10
483.4638226243
 20
1184.8191247803
 30
0.0
 11
504.4638204786
 21
1184.8191247803
 31
0.0
  0
LINE
  5
37E
330
1F
100
AcDbEntity
  8
SLD-0_0
  6
SLD-Solid
 62
   179
370
    15
100
AcDbLine
 10
479.195355198
 20
1193.0083261353
 30
0.0
 11
479.9583244535
 21
1193.2488904816
 31
0.0
  0
LINE
  5
37F
330
1F
100
AcDbEntity
  8
SLD-0_0
  6
SLD-Solid
 62
   179
370
    15
100
AcDbLine
 10
480.6988823625
 20
1188.2397161347
 30
0.0
 11
480.4055679056
 21
1189.1700254303
 31
0.0
  0
LINE
  5
380
330
1F
100
AcDbEntity
  8
SLD-0_0
  6
SLD-Solid
 62
   179
370
    15
100
AcDbLine
 10
480.4055679056
 20
1189.1700254303
 30
0.0
 11
480.1235187265
 21
1190.0645719391
 31
0.0
  0
LINE
  5
381
330
1F
100
AcDbEntity
  8
SLD-0_0
  6
SLD-Solid
 62
   179
370
    15
100
AcDbLine
 10
480.1235187265
 20
1190.0645719391
 30
0.0
 11
479.8635828706
 21
1190.8890233856
 31
0.0
  0
LINE
  5
382
330
1F
100
AcDbEntity
  8
SLD-0_0
  6
SLD-Solid
 62
   179
370
    15
100
AcDbLine
 10
479.8635828706
 20
1190.8890233856
 30
0.0
 11
479.635744116
 21
1191.6116104943
 31
0.0
  0
LINE
  5
383
330
1F
100
AcDbEntity
  8
SLD-0_0
  6
SLD-Solid
 62
   179
370
    15
100
AcDbLine
 10
479.635744116
 20
1191.6116104943
 30
0.0
 11
479.4487643453
 21
1192.2046767098
 31
0.0
  0
LINE
  5
384
330
1F
100
AcDbEntity
  8
SLD-0_0
  6
SLD-Solid
 62
   179
370
    15
100
AcDbLine
 10
479.4487643453
 20
1192.2046767098
 30
0.0
 11
479.309796116
 21
1192.6453338486
 31
0.0
  0
LINE
  5
385
330
1F
100
AcDbEntity
  8
SLD-0_0
  6
SLD-Solid
 62
   179
370
    15
100
AcDbLine
 10
479.309796116
 20
1192.6453338486
 30
0.0
 11
479.2242634507
 21
1192.9167137963
 31
0.0
  0
LINE
  5
386
330
1F
100
AcDbEntity
  8
SLD-0_0
  6
SLD-Solid
 62
   179
370
    15
100
AcDbLine
 10
479.2242634507
 20
1192.9167137963
 30
0.0
 11
479.195355198
 21
1193.0083261353
 31
0.0
  0
LINE
  5
387
330
1F
100
AcDbEntity
  8
SLD-0_0
  6
SLD-Solid
 62
   179
370
    15
100
AcDbLine
 10
479.9583244535
 20
1193.2488904816
 30
0.0
 11
479.9872327062
 21
1193.1572781426
 31
0.0
  0
LINE
  5
388
330
1F
100
AcDbEntity
  8
SLD-0_0
  6
SLD-Solid
 62
   179
370
    15
100
AcDbLine
 10
479.9872327062
 20
1193.1572781426
 30
0.0
 11
480.0727951738
 21
1192.8858981949
 31
0.0
  0
LINE
  5
389
330
1F
100
AcDbEntity
  8
SLD-0_0
  6
SLD-Solid
 62
   179
370
    15
100
AcDbLine
 10
480.0727951738
 20
1192.8858981949
 30
0.0
 11
480.2117336007
 21
1192.4452410561
 31
0.0
  0
LINE
  5
38A
330
1F
100
AcDbEntity
  8
SLD-0_0
  6
SLD-Solid
 62
   179
370
    15
100
AcDbLine
 10
480.2117336007
 20
1192.4452410561
 30
0.0
 11
480.3987133714
 21
1191.8521748406
 31
0.0
  0
LINE
  5
38B
330
1F
100
AcDbEntity
  8
SLD-0_0
  6
SLD-Solid
 62
   179
370
    15
100
AcDbLine
 10
480.3987133714
 20
1191.8521748406
 30
0.0
 11
480.6265521261
 21
1191.129587732
 31
0.0
  0
LINE
  5
38C
330
1F
100
AcDbEntity
  8
SLD-0_0
  6
SLD-Solid
 62
   179
370
    15
100
AcDbLine
 10
480.6265521261
 20
1191.129587732
 30
0.0
 11
480.8864879819
 21
1190.3051362854
 31
0.0
  0
LINE
  5
38D
330
1F
100
AcDbEntity
  8
SLD-0_0
  6
SLD-Solid
 62
   179
370
    15
100
AcDbLine
 10
480.8864879819
 20
1190.3051362854
 30
0.0
 11
481.168537161
 21
1189.4105897766
 31
0.0
  0
LINE
  5
38E
330
1F
100
AcDbEntity
  8
SLD-0_0
  6
SLD-Solid
 62
   179
370
    15
100
AcDbLine
 10
481.168537161
 20
1189.4105897766
 30
0.0
 11
481.4618516179
 21
1188.480280481
 31
0.0
  0
LINE
  5
38F
330
1F
100
AcDbEntity
  8
SLD-0_0
  6
SLD-Solid
 62
   179
370
    15
100
AcDbLine
 10
1043.2660865995
 20
1188.480280481
 30
0.0
 11
1042.6947164747
 21
1186.6680608612
 31
0.0
  0
LINE
  5
390
330
1F
100
AcDbEntity
  8
SLD-0_0
  6
SLD-Solid
 62
   179
370
    15
100
AcDbLine
 10
1044.0290856572
 20
1188.2397161347
 30
0.0
 11
1043.4576857301
 21
1186.4274965149
 31
0.0
  0
LINE
  5
391
330
1F
100
AcDbEntity
  8
SLD-0_0
  6
SLD-Solid
 62
   179
370
    15
100
AcDbLine
 10
1020.2638197156
 20
1184.8191247803
 30
0.0
 11
1020.2638197156
 21
1185.6191383225
 31
0.0
  0
LINE
  5
392
330
1F
100
AcDbEntity
  8
SLD-0_0
  6
SLD-Solid
 62
   179
370
    15
100
AcDbLine
 10
1020.2638197156
 20
1185.6191383225
 30
0.0
 11
1041.2641453954
 21
1185.6191383225
 31
0.0
  0
LINE
  5
393
330
1F
100
AcDbEntity
  8
SLD-0_0
  6
SLD-Solid
 62
   179
370
    15
100
AcDbLine
 10
1020.2638197156
 20
1184.8191247803
 30
0.0
 11
1041.2641453954
 21
1184.8191247803
 31
0.0
  0
LINE
  5
394
330
1F
100
AcDbEntity
  8
SLD-0_0
  6
SLD-Solid
 62
   179
370
    15
100
AcDbLine
 10
1043.2660865995
 20
1188.480280481
 30
0.0
 11
1043.5594308587
 21
1189.4105897766
 31
0.0
  0
LINE
  5
395
330
1F
100
AcDbEntity
  8
SLD-0_0
  6
SLD-Solid
 62
   179
370
    15
100
AcDbLine
 10
1043.5594308587
 20
1189.4105897766
 30
0.0
 11
1043.8414800378
 21
1190.3051362854
 31
0.0
  0
LINE
  5
396
330
1F
100
AcDbEntity
  8
SLD-0_0
  6
SLD-Solid
 62
   179
370
    15
100
AcDbLine
 10
1043.8414800378
 20
1190.3051362854
 30
0.0
 11
1044.1014158937
 21
1191.129587732
 31
0.0
  0
LINE
  5
397
330
1F
100
AcDbEntity
  8
SLD-0_0
  6
SLD-Solid
 62
   179
370
    15
100
AcDbLine
 10
1044.1014158937
 20
1191.129587732
 30
0.0
 11
1044.3292546483
 21
1191.8521748406
 31
0.0
  0
LINE
  5
398
330
1F
100
AcDbEntity
  8
SLD-0_0
  6
SLD-Solid
 62
   179
370
    15
100
AcDbLine
 10
1044.3292546483
 20
1191.8521748406
 30
0.0
 11
1044.516234419
 21
1192.4452410561
 31
0.0
  0
LINE
  5
399
330
1F
100
AcDbEntity
  8
SLD-0_0
  6
SLD-Solid
 62
   179
370
    15
100
AcDbLine
 10
1044.516234419
 20
1192.4452410561
 30
0.0
 11
1044.655172846
 21
1192.8858981949
 31
0.0
  0
LINE
  5
39A
330
1F
100
AcDbEntity
  8
SLD-0_0
  6
SLD-Solid
 62
   179
370
    15
100
AcDbLine
 10
1044.655172846
 20
1192.8858981949
 30
0.0
 11
1044.7407353135
 21
1193.1572781426
 31
0.0
  0
LINE
  5
39B
330
1F
100
AcDbEntity
  8
SLD-0_0
  6
SLD-Solid
 62
   179
370
    15
100
AcDbLine
 10
1044.7407353135
 20
1193.1572781426
 30
0.0
 11
1044.7696137639
 21
1193.2488904816
 31
0.0
  0
LINE
  5
39C
330
1F
100
AcDbEntity
  8
SLD-0_0
  6
SLD-Solid
 62
   179
370
    15
100
AcDbLine
 10
1044.7696137639
 20
1193.2488904816
 30
0.0
 11
1045.5326128217
 21
1193.0083261353
 31
0.0
  0
LINE
  5
39D
330
1F
100
AcDbEntity
  8
SLD-0_0
  6
SLD-Solid
 62
   179
370
    15
100
AcDbLine
 10
1045.5326128217
 20
1193.0083261353
 30
0.0
 11
1045.503704569
 21
1192.9167137963
 31
0.0
  0
LINE
  5
39E
330
1F
100
AcDbEntity
  8
SLD-0_0
  6
SLD-Solid
 62
   179
370
    15
100
AcDbLine
 10
1045.503704569
 20
1192.9167137963
 30
0.0
 11
1045.4181421014
 21
1192.6453338486
 31
0.0
  0
LINE
  5
39F
330
1F
100
AcDbEntity
  8
SLD-0_0
  6
SLD-Solid
 62
   179
370
    15
100
AcDbLine
 10
1045.4181421014
 20
1192.6453338486
 30
0.0
 11
1045.2792036744
 21
1192.2046767098
 31
0.0
  0
LINE
  5
3A0
330
1F
100
AcDbEntity
  8
SLD-0_0
  6
SLD-Solid
 62
   179
370
    15
100
AcDbLine
 10
1045.2792036744
 20
1192.2046767098
 30
0.0
 11
1045.0922239038
 21
1191.6116104943
 31
0.0
  0
LINE
  5
3A1
330
1F
100
AcDbEntity
  8
SLD-0_0
  6
SLD-Solid
 62
   179
370
    15
100
AcDbLine
 10
1045.0922239038
 20
1191.6116104943
 30
0.0
 11
1044.8643851491
 21
1190.8890233856
 31
0.0
  0
LINE
  5
3A2
330
1F
100
AcDbEntity
  8
SLD-0_0
  6
SLD-Solid
 62
   179
370
    15
100
AcDbLine
 10
1044.8643851491
 20
1190.8890233856
 30
0.0
 11
1044.6044492933
 21
1190.0645719391
 31
0.0
  0
LINE
  5
3A3
330
1F
100
AcDbEntity
  8
SLD-0_0
  6
SLD-Solid
 62
   179
370
    15
100
AcDbLine
 10
1044.6044492933
 20
1190.0645719391
 30
0.0
 11
1044.3224001142
 21
1189.1700254303
 31
0.0
  0
LINE
  5
3A4
330
1F
100
AcDbEntity
  8
SLD-0_0
  6
SLD-Solid
 62
   179
370
    15
100
AcDbLine
 10
1044.3224001142
 20
1189.1700254303
 30
0.0
 11
1044.0290856572
 21
1188.2397161347
 31
0.0
  0
LINE
  5
3A5
330
1F
100
AcDbEntity
  8
SLD-0_0
  6
SLD-Solid
 62
   179
370
    15
100
AcDbLine
 10
504.4638204786
 20
1185.6191383225
 30
0.0
 11
504.8638272497
 21
1185.6191383225
 31
0.0
  0
LINE
  5
3A6
330
1F
100
AcDbEntity
  8
SLD-0_0
  6
SLD-Solid
 62
   179
370
    15
100
AcDbLine
 10
504.4638204786
 20
1184.8191247803
 30
0.0
 11
504.8638272497
 21
1184.8191247803
 31
0.0
  0
LINE
  5
3A7
330
1F
100
AcDbEntity
  8
SLD-0_0
  6
SLD-Solid
 62
   179
370
    15
100
AcDbLine
 10
1019.8638129445
 20
1185.6191383225
 30
0.0
 11
1020.2638197156
 21
1185.6191383225
 31
0.0
  0
LINE
  5
3A8
330
1F
100
AcDbEntity
  8
SLD-0_0
  6
SLD-Solid
 62
   179
370
    15
100
AcDbLine
 10
1019.8638129445
 20
1184.8191247803
 30
0.0
 11
1020.2638197156
 21
1184.8191247803
 31
0.0
  0
LINE
  5
3A9
330
1F
100
AcDbEntity
  8
SLD-0_0
  6
SLD-Solid
 62
   179
370
    15
100
AcDbLine
 10
513.5278690072
 20
1168.81915196
 30
0.0
 11
513.9556962463
 21
1168.2818160874
 31
0.0
  0
LINE
  5
3AA
330
1F
100
AcDbEntity
  8
SLD-0_0
  6
SLD-Solid
 62
   179
370
    15
100
AcDbLine
 10
513.9556962463
 20
1168.2818160874
 30
0.0
 11
514.5167249652
 21
1167.6191316468
 31
0.0
  0
LINE
  5
3AB
330
1F
100
AcDbEntity
  8
SLD-0_0
  6
SLD-Solid
 62
   179
370
    15
100
AcDbLine
 10
1011.2000990125
 20
1168.81915196
 30
0.0
 11
1010.7722568723
 21
1168.2818160874
 31
0.0
  0
LINE
  5
3AC
330
1F
100
AcDbEntity
  8
SLD-0_0
  6
SLD-Solid
 62
   179
370
    15
100
AcDbLine
 10
1010.7722568723
 20
1168.2818160874
 30
0.0
 11
1010.2112281534
 21
1167.6191316468
 31
0.0
  0
LINE
  5
3AD
330
1F
100
AcDbEntity
  8
SLD-0_0
  6
SLD-Solid
 62
   179
370
    15
100
AcDbLine
 10
1019.8641407701
 20
1183.3191738945
 30
0.0
 11
1019.8641357272
 21
1184.4458889457
 31
0.0
  0
LINE
  5
3AE
330
1F
100
AcDbEntity
  8
SLD-0_0
  6
SLD-Solid
 62
   179
370
    15
100
AcDbLine
 10
1019.8641407701
 20
1173.8191471916
 30
0.0
 11
1019.8641407701
 21
1183.3191738945
 31
0.0
  0
LINE
  5
3AF
330
1F
100
AcDbEntity
  8
SLD-0_0
  6
SLD-Solid
 62
   179
370
    15
100
AcDbLine
 10
1169.9021148893
 20
1087.3483644348
 30
0.0
 11
1169.8411095353
 21
1087.5361786705
 31
0.0
  0
LINE
  5
3B0
330
1F
100
AcDbEntity
  8
SLD-0_0
  6
SLD-Solid
 62
   179
370
    15
100
AcDbLine
 10
1169.8411095353
 20
1087.5361786705
 30
0.0
 11
1169.6589279386
 21
1088.0968199593
 31
0.0
  0
LINE
  5
3B1
330
1F
100
AcDbEntity
  8
SLD-0_0
  6
SLD-Solid
 62
   179
370
    15
100
AcDbLine
 10
1169.6589279386
 20
1088.0968199593
 30
0.0
 11
1169.3938958856
 21
1088.9125691277
 31
0.0
  0
LINE
  5
3B2
330
1F
100
AcDbEntity
  8
SLD-0_0
  6
SLD-Solid
 62
   179
370
    15
100
AcDbLine
 10
1164.0320706579
 20
1083.1246004921
 30
0.0
 11
1164.1978907796
 21
1083.3026991707
 31
0.0
  0
LINE
  5
3B3
330
1F
100
AcDbEntity
  8
SLD-0_0
  6
SLD-Solid
 62
   179
370
    15
100
AcDbLine
 10
1164.1978907796
 20
1083.3026991707
 30
0.0
 11
1164.291201851
 21
1083.4402070862
 31
0.0
  0
LINE
  5
3B4
330
1F
100
AcDbEntity
  8
SLD-0_0
  6
SLD-Solid
 62
   179
370
    15
100
AcDbLine
 10
1164.2969238969
 20
1083.5150109154
 30
0.0
 11
1164.2970729085
 21
1083.5170374733
 31
0.0
  0
LINE
  5
3B5
330
1F
100
AcDbEntity
  8
SLD-0_0
  6
SLD-Solid
 62
   179
370
    15
100
AcDbLine
 10
1164.2970729085
 20
1083.5170374733
 30
0.0
 11
1164.2144012662
 21
1083.5217462403
 31
0.0
  0
LINE
  5
3B6
330
1F
100
AcDbEntity
  8
SLD-0_0
  6
SLD-Solid
 62
   179
370
    15
100
AcDbLine
 10
1164.2144012662
 20
1083.5217462403
 30
0.0
 11
1164.0562701436
 21
1083.4530816895
 31
0.0
  0
LINE
  5
3B7
330
1F
100
AcDbEntity
  8
SLD-0_0
  6
SLD-Solid
 62
   179
370
    15
100
AcDbLine
 10
1164.0562701436
 20
1083.4530816895
 30
0.0
 11
1163.8476240846
 21
1083.3204017502
 31
0.0
  0
LINE
  5
3B8
330
1F
100
AcDbEntity
  8
SLD-0_0
  6
SLD-Solid
 62
   179
370
    15
100
AcDbLine
 10
1163.8476240846
 20
1083.3204017502
 30
0.0
 11
1163.6209178182
 21
1083.143077932
 31
0.0
  0
LINE
  5
3B9
330
1F
100
AcDbEntity
  8
SLD-0_0
  6
SLD-Solid
 62
   179
370
    15
100
AcDbLine
 10
1163.6209178182
 20
1083.143077932
 30
0.0
 11
1163.4109008523
 21
1082.9478727204
 31
0.0
  0
LINE
  5
3BA
330
1F
100
AcDbEntity
  8
SLD-0_0
  6
SLD-Solid
 62
   179
370
    15
100
AcDbLine
 10
1163.4109008523
 20
1082.9478727204
 30
0.0
 11
1163.2490146371
 21
1082.7651248795
 31
0.0
  0
LINE
  5
3BB
330
1F
100
AcDbEntity
  8
SLD-0_0
  6
SLD-Solid
 62
   179
370
    15
100
AcDbLine
 10
1163.2490146371
 20
1082.7651248795
 30
0.0
 11
1163.1591010305
 21
1082.6236234528
 31
0.0
  0
LINE
  5
3BC
330
1F
100
AcDbEntity
  8
SLD-0_0
  6
SLD-Solid
 62
   179
370
    15
100
AcDbLine
 10
1163.1591010305
 20
1082.6236234528
 30
0.0
 11
1163.1540942403
 21
1082.5457797867
 31
0.0
  0
LINE
  5
3BD
330
1F
100
AcDbEntity
  8
SLD-0_0
  6
SLD-Solid
 62
   179
370
    15
100
AcDbLine
 10
1164.507238886
 20
1082.8764067513
 30
0.0
 11
1164.5082819673
 21
1082.8775988442
 31
0.0
  0
LINE
  5
3BE
330
1F
100
AcDbEntity
  8
SLD-0_0
  6
SLD-Solid
 62
   179
370
    15
100
AcDbLine
 10
1164.5082819673
 20
1082.8775988442
 30
0.0
 11
1164.4551742288
 21
1082.847081266
 31
0.0
  0
LINE
  5
3BF
330
1F
100
AcDbEntity
  8
SLD-0_0
  6
SLD-Solid
 62
   179
370
    15
100
AcDbLine
 10
1164.4551742288
 20
1082.847081266
 30
0.0
 11
1164.3212723943
 21
1082.7495084626
 31
0.0
  0
LINE
  5
3C0
330
1F
100
AcDbEntity
  8
SLD-0_0
  6
SLD-Solid
 62
   179
370
    15
100
AcDbLine
 10
1164.3212723943
 20
1082.7495084626
 30
0.0
 11
1164.1278255197
 21
1082.5987087113
 31
0.0
  0
LINE
  5
3C1
330
1F
100
AcDbEntity
  8
SLD-0_0
  6
SLD-Solid
 62
   179
370
    15
100
AcDbLine
 10
1164.1278255197
 20
1082.5987087113
 30
0.0
 11
1163.9050829622
 21
1082.4166761261
 31
0.0
  0
LINE
  5
3C2
330
1F
100
AcDbEntity
  8
SLD-0_0
  6
SLD-Solid
 62
   179
370
    15
100
AcDbLine
 10
1163.9050829622
 20
1082.4166761261
 30
0.0
 11
1163.6872577878
 21
1082.2307692391
 31
0.0
  0
LINE
  5
3C3
330
1F
100
AcDbEntity
  8
SLD-0_0
  6
SLD-Solid
 62
   179
370
    15
100
AcDbLine
 10
1163.6872577878
 20
1082.2307692391
 30
0.0
 11
1163.5071325513
 21
1082.0697770935
 31
0.0
  0
LINE
  5
3C4
330
1F
100
AcDbEntity
  8
SLD-0_0
  6
SLD-Solid
 62
   179
370
    15
100
AcDbLine
 10
1163.5071325513
 20
1082.0697770935
 30
0.0
 11
1163.3912611219
 21
1081.9592104775
 31
0.0
  0
LINE
  5
3C5
330
1F
100
AcDbEntity
  8
SLD-0_0
  6
SLD-Solid
 62
   179
370
    15
100
AcDbLine
 10
1163.3912611219
 20
1081.9592104775
 30
0.0
 11
1163.356511614
 21
1081.9167719704
 31
0.0
  0
LINE
  5
3C6
330
1F
100
AcDbEntity
  8
SLD-0_0
  6
SLD-Solid
 62
   179
370
    15
100
AcDbLine
 10
1161.6276192876
 20
1080.454014383
 30
0.0
 11
1161.5726042005
 21
1080.6232915741
 31
0.0
  0
LINE
  5
3C7
330
1F
100
AcDbEntity
  8
SLD-0_0
  6
SLD-Solid
 62
   179
370
    15
100
AcDbLine
 10
1161.5726042005
 20
1080.6232915741
 30
0.0
 11
1161.4081549856
 21
1081.1294542176
 31
0.0
  0
LINE
  5
3C8
330
1F
100
AcDbEntity
  8
SLD-0_0
  6
SLD-Solid
 62
   179
370
    15
100
AcDbLine
 10
1161.4081549856
 20
1081.1294542176
 30
0.0
 11
1161.1470866414
 21
1081.9329248291
 31
0.0
  0
LINE
  5
3C9
330
1F
100
AcDbEntity
  8
SLD-0_0
  6
SLD-Solid
 62
   179
370
    15
100
AcDbLine
 10
1171.9954300138
 20
1139.3573509079
 30
0.0
 11
1173.4652805539
 21
1139.1953454834
 31
0.0
  0
LINE
  5
3CA
330
1F
100
AcDbEntity
  8
SLD-0_0
  6
SLD-Solid
 62
   179
370
    15
100
AcDbLine
 10
1175.3056037637
 20
1135.4395972115
 30
0.0
 11
1176.4914977762
 21
1131.7897067887
 31
0.0
  0
LINE
  5
3CB
330
1F
100
AcDbEntity
  8
SLD-0_0
  6
SLD-Solid
 62
   179
370
    15
100
AcDbLine
 10
1176.4914977762
 20
1131.7897067887
 30
0.0
 11
1177.691756508
 21
1128.0956493241
 31
0.0
  0
LINE
  5
3CC
330
1F
100
AcDbEntity
  8
SLD-0_0
  6
SLD-Solid
 62
   179
370
    15
100
AcDbLine
 10
1177.691756508
 20
1128.0956493241
 30
0.0
 11
1178.9016115877
 21
1124.3721471649
 31
0.0
  0
LINE
  5
3CD
330
1F
100
AcDbEntity
  8
SLD-0_0
  6
SLD-Solid
 62
   179
370
    15
100
AcDbLine
 10
1178.9016115877
 20
1124.3721471649
 30
0.0
 11
1180.1162648412
 21
1120.6338630539
 31
0.0
  0
LINE
  5
3CE
330
1F
100
AcDbEntity
  8
SLD-0_0
  6
SLD-Solid
 62
   179
370
    15
100
AcDbLine
 10
1180.1162648412
 20
1120.6338630539
 30
0.0
 11
1181.3309180948
 21
1116.8955193383
 31
0.0
  0
LINE
  5
3CF
330
1F
100
AcDbEntity
  8
SLD-0_0
  6
SLD-Solid
 62
   179
370
    15
100
AcDbLine
 10
1181.3309180948
 20
1116.8955193383
 30
0.0
 11
1182.5407731744
 21
1113.1720171791
 31
0.0
  0
LINE
  5
3D0
330
1F
100
AcDbEntity
  8
SLD-0_0
  6
SLD-Solid
 62
   179
370
    15
100
AcDbLine
 10
1182.5407731744
 20
1113.1720171791
 30
0.0
 11
1183.7410319063
 21
1109.4780193192
 31
0.0
  0
LINE
  5
3D1
330
1F
100
AcDbEntity
  8
SLD-0_0
  6
SLD-Solid
 62
   179
370
    15
100
AcDbLine
 10
1183.7410319063
 20
1109.4780193192
 30
0.0
 11
1184.9269259187
 21
1105.8281288964
 31
0.0
  0
LINE
  5
3D2
330
1F
100
AcDbEntity
  8
SLD-0_0
  6
SLD-Solid
 62
   179
370
    15
100
AcDbLine
 10
1174.3087160798
 20
1138.5076866967
 30
0.0
 11
1174.3510353776
 21
1138.3773313385
 31
0.0
  0
LINE
  5
3D3
330
1F
100
AcDbEntity
  8
SLD-0_0
  6
SLD-Solid
 62
   179
370
    15
100
AcDbLine
 10
1174.3510353776
 20
1138.3773313385
 30
0.0
 11
1174.4177031728
 21
1138.1722317559
 31
0.0
  0
LINE
  5
3D4
330
1F
100
AcDbEntity
  8
SLD-0_0
  6
SLD-Solid
 62
   179
370
    15
100
AcDbLine
 10
1174.4177031728
 20
1138.1722317559
 30
0.0
 11
1174.5083916398
 21
1137.8931032044
 31
0.0
  0
LINE
  5
3D5
330
1F
100
AcDbEntity
  8
SLD-0_0
  6
SLD-Solid
 62
   179
370
    15
100
AcDbLine
 10
1174.5083916398
 20
1137.8931032044
 30
0.0
 11
1174.6227431508
 21
1137.541137777
 31
0.0
  0
LINE
  5
3D6
330
1F
100
AcDbEntity
  8
SLD-0_0
  6
SLD-Solid
 62
   179
370
    15
100
AcDbLine
 10
1174.6227431508
 20
1137.541137777
 30
0.0
 11
1174.7602510663
 21
1137.1178851944
 31
0.0
  0
LINE
  5
3D7
330
1F
100
AcDbEntity
  8
SLD-0_0
  6
SLD-Solid
 62
   179
370
    15
100
AcDbLine
 10
1174.7602510663
 20
1137.1178851944
 30
0.0
 11
1174.9203789445
 21
1136.6251335961
 31
0.0
  0
LINE
  5
3D8
330
1F
100
AcDbEntity
  8
SLD-0_0
  6
SLD-Solid
 62
   179
370
    15
100
AcDbLine
 10
1174.9203789445
 20
1136.6251335961
 30
0.0
 11
1175.1024115297
 21
1136.0649095398
 31
0.0
  0
LINE
  5
3D9
330
1F
100
AcDbEntity
  8
SLD-0_0
  6
SLD-Solid
 62
   179
370
    15
100
AcDbLine
 10
1175.1024115297
 20
1136.0649095398
 30
0.0
 11
1175.3056037637
 21
1135.4395972115
 31
0.0
  0
LINE
  5
3DA
330
1F
100
AcDbEntity
  8
SLD-0_0
  6
SLD-Solid
 62
   179
370
    15
100
AcDbLine
 10
1184.9269259187
 20
1105.8281288964
 30
0.0
 11
1185.3635895463
 21
1104.4842229706
 31
0.0
  0
LINE
  5
3DB
330
1F
100
AcDbEntity
  8
SLD-0_0
  6
SLD-Solid
 62
   179
370
    15
100
AcDbLine
 10
1185.3635895463
 20
1104.4842229706
 30
0.0
 11
1185.6826532098
 21
1103.5022364479
 31
0.0
  0
LINE
  5
3DC
330
1F
100
AcDbEntity
  8
SLD-0_0
  6
SLD-Solid
 62
   179
370
    15
100
AcDbLine
 10
1185.6826532098
 20
1103.5022364479
 30
0.0
 11
1185.8770239564
 21
1102.904044233
 31
0.0
  0
LINE
  5
3DD
330
1F
100
AcDbEntity
  8
SLD-0_0
  6
SLD-Solid
 62
   179
370
    15
100
AcDbLine
 10
1185.8770239564
 20
1102.904044233
 30
0.0
 11
1185.9422895898
 21
1102.7031776389
 31
0.0
  0
LINE
  5
3DE
330
1F
100
AcDbEntity
  8
SLD-0_0
  6
SLD-Solid
 62
   179
370
    15
100
AcDbLine
 10
1164.0384185525
 20
1083.1170903069
 30
0.0
 11
1164.2042386743
 21
1083.2951889855
 31
0.0
  0
LINE
  5
3DF
330
1F
100
AcDbEntity
  8
SLD-0_0
  6
SLD-Solid
 62
   179
370
    15
100
AcDbLine
 10
1164.2042386743
 20
1083.2951889855
 30
0.0
 11
1164.2975497457
 21
1083.432696901
 31
0.0
  0
LINE
  5
3E0
330
1F
100
AcDbEntity
  8
SLD-0_0
  6
SLD-Solid
 62
   179
370
    15
100
AcDbLine
 10
1164.2975497457
 20
1083.432696901
 30
0.0
 11
1164.3034208032
 21
1083.5095272881
 31
0.0
  0
LINE
  5
3E1
330
1F
100
AcDbEntity
  8
SLD-0_0
  6
SLD-Solid
 62
   179
370
    15
100
AcDbLine
 10
1164.3034208032
 20
1083.5095272881
 30
0.0
 11
1164.2207491609
 21
1083.5142956597
 31
0.0
  0
LINE
  5
3E2
330
1F
100
AcDbEntity
  8
SLD-0_0
  6
SLD-Solid
 62
   179
370
    15
100
AcDbLine
 10
1164.2207491609
 20
1083.5142956597
 30
0.0
 11
1164.0626180383
 21
1083.4455715042
 31
0.0
  0
LINE
  5
3E3
330
1F
100
AcDbEntity
  8
SLD-0_0
  6
SLD-Solid
 62
   179
370
    15
100
AcDbLine
 10
1164.0626180383
 20
1083.4455715042
 30
0.0
 11
1163.8539421769
 21
1083.3129511696
 31
0.0
  0
LINE
  5
3E4
330
1F
100
AcDbEntity
  8
SLD-0_0
  6
SLD-Solid
 62
   179
370
    15
100
AcDbLine
 10
1163.8539421769
 20
1083.3129511696
 30
0.0
 11
1163.6272657129
 21
1083.1356273514
 31
0.0
  0
LINE
  5
3E5
330
1F
100
AcDbEntity
  8
SLD-0_0
  6
SLD-Solid
 62
   179
370
    15
100
AcDbLine
 10
1163.6272657129
 20
1083.1356273514
 30
0.0
 11
1163.4172189447
 21
1082.9404221398
 31
0.0
  0
LINE
  5
3E6
330
1F
100
AcDbEntity
  8
SLD-0_0
  6
SLD-Solid
 62
   179
370
    15
100
AcDbLine
 10
1163.4172189447
 20
1082.9404221398
 30
0.0
 11
1163.2553625318
 21
1082.7576742989
 31
0.0
  0
LINE
  5
3E7
330
1F
100
AcDbEntity
  8
SLD-0_0
  6
SLD-Solid
 62
   179
370
    15
100
AcDbLine
 10
1163.2553625318
 20
1082.7576742989
 30
0.0
 11
1163.1654191228
 21
1082.6161728722
 31
0.0
  0
LINE
  5
3E8
330
1F
100
AcDbEntity
  8
SLD-0_0
  6
SLD-Solid
 62
   179
370
    15
100
AcDbLine
 10
1163.1654191228
 20
1082.6161728722
 30
0.0
 11
1163.160442135
 21
1082.5382696015
 31
0.0
  0
LINE
  5
3E9
330
1F
100
AcDbEntity
  8
SLD-0_0
  6
SLD-Solid
 62
   179
370
    15
100
AcDbLine
 10
1163.160442135
 20
1082.5382696015
 30
0.0
 11
1163.2409084054
 21
1082.5361238343
 31
0.0
  0
LINE
  5
3EA
330
1F
100
AcDbEntity
  8
SLD-0_0
  6
SLD-Solid
 62
   179
370
    15
100
AcDbLine
 10
1163.2409084054
 20
1082.5361238343
 30
0.0
 11
1163.3951056215
 21
1082.609497152
 31
0.0
  0
LINE
  5
3EB
330
1F
100
AcDbEntity
  8
SLD-0_0
  6
SLD-Solid
 62
   179
370
    15
100
AcDbLine
 10
1163.3951056215
 20
1082.609497152
 30
0.0
 11
1163.6003840181
 21
1082.7461706024
 31
0.0
  0
LINE
  5
3EC
330
1F
100
AcDbEntity
  8
SLD-0_0
  6
SLD-Solid
 62
   179
370
    15
100
AcDbLine
 10
1163.6003840181
 20
1082.7461706024
 30
0.0
 11
1163.8262260171
 21
1082.9245076996
 31
0.0
  0
LINE
  5
3ED
330
1F
100
AcDbEntity
  8
SLD-0_0
  6
SLD-Solid
 62
   179
370
    15
100
AcDbLine
 10
1163.8262260171
 20
1082.9245076996
 30
0.0
 11
1164.0384185525
 21
1083.1170903069
 31
0.0
  0
LINE
  5
3EE
330
1F
100
AcDbEntity
  8
SLD-0_0
  6
SLD-Solid
 62
   179
370
    15
100
AcDbLine
 10
1151.6309368821
 20
1104.7485099655
 30
0.0
 11
1151.6596961233
 21
1104.6599374634
 31
0.0
  0
LINE
  5
3EF
330
1F
100
AcDbEntity
  8
SLD-0_0
  6
SLD-Solid
 62
   179
370
    15
100
AcDbLine
 10
1151.6596961233
 20
1104.6599374634
 30
0.0
 11
1151.7011511537
 21
1104.5323835236
 31
0.0
  0
LINE
  5
3F0
330
1F
100
AcDbEntity
  8
SLD-0_0
  6
SLD-Solid
 62
   179
370
    15
100
AcDbLine
 10
1151.7011511537
 20
1104.5323835236
 30
0.0
 11
1151.7412948819
 21
1104.408823095
 31
0.0
  0
LINE
  5
3F1
330
1F
100
AcDbEntity
  8
SLD-0_0
  6
SLD-Solid
 62
   179
370
    15
100
AcDbLine
 10
1151.7412948819
 20
1104.408823095
 30
0.0
 11
1151.7800975057
 21
1104.2893753868
 31
0.0
  0
LINE
  5
3F2
330
1F
100
AcDbEntity
  8
SLD-0_0
  6
SLD-Solid
 62
   179
370
    15
100
AcDbLine
 10
1151.7800975057
 20
1104.2893753868
 30
0.0
 11
1151.8175590249
 21
1104.1741000038
 31
0.0
  0
LINE
  5
3F3
330
1F
100
AcDbEntity
  8
SLD-0_0
  6
SLD-Solid
 62
   179
370
    15
100
AcDbLine
 10
1151.8175590249
 20
1104.1741000038
 30
0.0
 11
1151.853619835
 21
1104.0631161553
 31
0.0
  0
LINE
  5
3F4
330
1F
100
AcDbEntity
  8
SLD-0_0
  6
SLD-Solid
 62
   179
370
    15
100
AcDbLine
 10
1151.853619835
 20
1104.0631161553
 30
0.0
 11
1151.8685806009
 21
1104.0171013695
 31
0.0
  0
LINE
  5
3F5
330
1F
100
AcDbEntity
  8
SLD-0_0
  6
SLD-Solid
 62
   179
370
    15
100
AcDbLine
 10
1151.8685806009
 20
1104.0171013695
 30
0.0
 11
1151.8775212976
 21
1103.9895640236
 31
0.0
  0
LINE
  5
3F6
330
1F
100
AcDbEntity
  8
SLD-0_0
  6
SLD-Solid
 62
   179
370
    15
100
AcDbLine
 10
1151.8775212976
 20
1103.9895640236
 30
0.0
 11
1151.8801140996
 21
1103.9815770012
 31
0.0
  0
LINE
  5
3F7
330
1F
100
AcDbEntity
  8
SLD-0_0
  6
SLD-Solid
 62
   179
370
    15
100
AcDbLine
 10
1164.1750323984
 20
1082.5665818077
 30
0.0
 11
1164.3590319368
 21
1082.7229843956
 31
0.0
  0
LINE
  5
3F8
330
1F
100
AcDbEntity
  8
SLD-0_0
  6
SLD-Solid
 62
   179
370
    15
100
AcDbLine
 10
1164.3590319368
 20
1082.7229843956
 30
0.0
 11
1164.4785690519
 21
1082.829140268
 31
0.0
  0
LINE
  5
3F9
330
1F
100
AcDbEntity
  8
SLD-0_0
  6
SLD-Solid
 62
   179
370
    15
100
AcDbLine
 10
1164.4785690519
 20
1082.829140268
 30
0.0
 11
1164.5146894666
 21
1082.869909845
 31
0.0
  0
LINE
  5
3FA
330
1F
100
AcDbEntity
  8
SLD-0_0
  6
SLD-Solid
 62
   179
370
    15
100
AcDbLine
 10
1164.5146894666
 20
1082.869909845
 30
0.0
 11
1164.4615519258
 21
1082.8393922669
 31
0.0
  0
LINE
  5
3FB
330
1F
100
AcDbEntity
  8
SLD-0_0
  6
SLD-Solid
 62
   179
370
    15
100
AcDbLine
 10
1164.4615519258
 20
1082.8393922669
 30
0.0
 11
1164.3276500913
 21
1082.7418194634
 31
0.0
  0
LINE
  5
3FC
330
1F
100
AcDbEntity
  8
SLD-0_0
  6
SLD-Solid
 62
   179
370
    15
100
AcDbLine
 10
1164.3276500913
 20
1082.7418194634
 30
0.0
 11
1164.134233019
 21
1082.5910197121
 31
0.0
  0
LINE
  5
3FD
330
1F
100
AcDbEntity
  8
SLD-0_0
  6
SLD-Solid
 62
   179
370
    15
100
AcDbLine
 10
1164.134233019
 20
1082.5910197121
 30
0.0
 11
1163.9114904615
 21
1082.408987127
 31
0.0
  0
LINE
  5
3FE
330
1F
100
AcDbEntity
  8
SLD-0_0
  6
SLD-Solid
 62
   179
370
    15
100
AcDbLine
 10
1163.9114904615
 20
1082.408987127
 30
0.0
 11
1163.6936652871
 21
1082.2230802399
 31
0.0
  0
LINE
  5
3FF
330
1F
100
AcDbEntity
  8
SLD-0_0
  6
SLD-Solid
 62
   179
370
    15
100
AcDbLine
 10
1163.6936652871
 20
1082.2230802399
 30
0.0
 11
1163.5135102483
 21
1082.0620880944
 31
0.0
  0
LINE
  5
400
330
1F
100
AcDbEntity
  8
SLD-0_0
  6
SLD-Solid
 62
   179
370
    15
100
AcDbLine
 10
1163.5135102483
 20
1082.0620880944
 30
0.0
 11
1163.3976388189
 21
1081.9515214783
 31
0.0
  0
LINE
  5
401
330
1F
100
AcDbEntity
  8
SLD-0_0
  6
SLD-Solid
 62
   179
370
    15
100
AcDbLine
 10
1163.3976388189
 20
1081.9515214783
 30
0.0
 11
1163.3629191133
 21
1081.9091425759
 31
0.0
  0
LINE
  5
402
330
1F
100
AcDbEntity
  8
SLD-0_0
  6
SLD-Solid
 62
   179
370
    15
100
AcDbLine
 10
1163.3629191133
 20
1081.9091425759
 30
0.0
 11
1163.4142983171
 21
1081.9416867119
 31
0.0
  0
LINE
  5
403
330
1F
100
AcDbEntity
  8
SLD-0_0
  6
SLD-Solid
 62
   179
370
    15
100
AcDbLine
 10
1163.4142983171
 20
1081.9416867119
 30
0.0
 11
1163.5443854543
 21
1082.0438490731
 31
0.0
  0
LINE
  5
404
330
1F
100
AcDbEntity
  8
SLD-0_0
  6
SLD-Solid
 62
   179
370
    15
100
AcDbLine
 10
1163.5443854543
 20
1082.0438490731
 30
0.0
 11
1163.7341368409
 21
1082.1991191727
 31
0.0
  0
LINE
  5
405
330
1F
100
AcDbEntity
  8
SLD-0_0
  6
SLD-Solid
 62
   179
370
    15
100
AcDbLine
 10
1163.7341368409
 20
1082.1991191727
 30
0.0
 11
1163.9554786893
 21
1082.3827610832
 31
0.0
  0
LINE
  5
406
330
1F
100
AcDbEntity
  8
SLD-0_0
  6
SLD-Solid
 62
   179
370
    15
100
AcDbLine
 10
1163.9554786893
 20
1082.3827610832
 30
0.0
 11
1164.1750323984
 21
1082.5665818077
 31
0.0
  0
LINE
  5
407
330
1F
100
AcDbEntity
  8
SLD-0_0
  6
SLD-Solid
 62
   179
370
    15
100
AcDbLine
 10
1148.4463799211
 20
1114.5495401245
 30
0.0
 11
1148.4773743364
 21
1114.4541130883
 31
0.0
  0
LINE
  5
408
330
1F
100
AcDbEntity
  8
SLD-0_0
  6
SLD-Solid
 62
   179
370
    15
100
AcDbLine
 10
1148.4773743364
 20
1114.4541130883
 30
0.0
 11
1148.6119914266
 21
1114.0398608071
 31
0.0
  0
LINE
  5
409
330
1F
100
AcDbEntity
  8
SLD-0_0
  6
SLD-Solid
 62
   179
370
    15
100
AcDbLine
 10
1148.6119914266
 20
1114.0398608071
 30
0.0
 11
1148.8417077276
 21
1113.3328305107
 31
0.0
  0
LINE
  5
40A
330
1F
100
AcDbEntity
  8
SLD-0_0
  6
SLD-Solid
 62
   179
370
    15
100
AcDbLine
 10
1148.8417077276
 20
1113.3328305107
 30
0.0
 11
1148.8828051301
 21
1113.2064090592
 31
0.0
  0
LINE
  5
40B
330
1F
100
AcDbEntity
  8
SLD-0_0
  6
SLD-Solid
 62
   179
370
    15
100
AcDbLine
 10
1142.2174263212
 20
1118.8343988282
 30
0.0
 11
1142.2488677713
 21
1118.737600885
 31
0.0
  0
LINE
  5
40C
330
1F
100
AcDbEntity
  8
SLD-0_0
  6
SLD-Solid
 62
   179
370
    15
100
AcDbLine
 10
1142.2488677713
 20
1118.737600885
 30
0.0
 11
1142.3873889657
 21
1118.3113084656
 31
0.0
  0
LINE
  5
40D
330
1F
100
AcDbEntity
  8
SLD-0_0
  6
SLD-Solid
 62
   179
370
    15
100
AcDbLine
 10
1142.3873889657
 20
1118.3113084656
 30
0.0
 11
1142.6314401838
 21
1117.5602303368
 31
0.0
  0
LINE
  5
40E
330
1F
100
AcDbEntity
  8
SLD-0_0
  6
SLD-Solid
 62
   179
370
    15
100
AcDbLine
 10
1142.6314401838
 20
1117.5602303368
 30
0.0
 11
1142.9721999379
 21
1116.5114270073
 31
0.0
  0
LINE
  5
40F
330
1F
100
AcDbEntity
  8
SLD-0_0
  6
SLD-Solid
 62
   179
370
    15
100
AcDbLine
 10
1142.9721999379
 20
1116.5114270073
 30
0.0
 11
1143.3973896715
 21
1115.2028666359
 31
0.0
  0
LINE
  5
410
330
1F
100
AcDbEntity
  8
SLD-0_0
  6
SLD-Solid
 62
   179
370
    15
100
AcDbLine
 10
1143.3973896715
 20
1115.2028666359
 30
0.0
 11
1143.8126552316
 21
1113.924764238
 31
0.0
  0
LINE
  5
411
330
1F
100
AcDbEntity
  8
SLD-0_0
  6
SLD-Solid
 62
   179
370
    15
100
AcDbLine
 10
1146.284787676
 20
1106.3163505417
 30
0.0
 11
1146.7235970708
 21
1104.9658285004
 31
0.0
  0
LINE
  5
412
330
1F
100
AcDbEntity
  8
SLD-0_0
  6
SLD-Solid
 62
   179
370
    15
100
AcDbLine
 10
1146.7235970708
 20
1104.9658285004
 30
0.0
 11
1147.217808983
 21
1103.4447775704
 31
0.0
  0
LINE
  5
413
330
1F
100
AcDbEntity
  8
SLD-0_0
  6
SLD-Solid
 62
   179
370
    15
100
AcDbLine
 10
1147.217808983
 20
1103.4447775704
 30
0.0
 11
1147.6429987165
 21
1102.136217199
 31
0.0
  0
LINE
  5
414
330
1F
100
AcDbEntity
  8
SLD-0_0
  6
SLD-Solid
 62
   179
370
    15
100
AcDbLine
 10
1147.6429987165
 20
1102.136217199
 30
0.0
 11
1147.9837584707
 21
1101.0874138695
 31
0.0
  0
LINE
  5
415
330
1F
100
AcDbEntity
  8
SLD-0_0
  6
SLD-Solid
 62
   179
370
    15
100
AcDbLine
 10
1147.9837584707
 20
1101.0874138695
 30
0.0
 11
1148.2278096887
 21
1100.3363357407
 31
0.0
  0
LINE
  5
416
330
1F
100
AcDbEntity
  8
SLD-0_0
  6
SLD-Solid
 62
   179
370
    15
100
AcDbLine
 10
1148.2278096887
 20
1100.3363357407
 30
0.0
 11
1148.3663010808
 21
1099.9100433213
 31
0.0
  0
LINE
  5
417
330
1F
100
AcDbEntity
  8
SLD-0_0
  6
SLD-Solid
 62
   179
370
    15
100
AcDbLine
 10
1148.3663010808
 20
1099.9100433213
 30
0.0
 11
1148.3977723333
 21
1099.8132453781
 31
0.0
  0
LINE
  5
418
330
1F
100
AcDbEntity
  8
SLD-0_0
  6
SLD-Solid
 62
   179
370
    15
100
AcDbLine
 10
1144.5275831434
 20
1114.1571031433
 30
0.0
 11
1144.5264506551
 21
1114.1605602127
 31
0.0
  0
LINE
  5
419
330
1F
100
AcDbEntity
  8
SLD-0_0
  6
SLD-Solid
 62
   179
370
    15
100
AcDbLine
 10
1144.5264506551
 20
1114.1605602127
 30
0.0
 11
1144.138364813
 21
1115.3549776894
 31
0.0
  0
LINE
  5
41A
330
1F
100
AcDbEntity
  8
SLD-0_0
  6
SLD-Solid
 62
   179
370
    15
100
AcDbLine
 10
1144.138364813
 20
1115.3549776894
 30
0.0
 11
1143.8383746358
 21
1116.278253637
 31
0.0
  0
LINE
  5
41B
330
1F
100
AcDbEntity
  8
SLD-0_0
  6
SLD-Solid
 62
   179
370
    15
100
AcDbLine
 10
1143.8383746358
 20
1116.278253637
 30
0.0
 11
1143.6405170175
 21
1116.8872342926
 31
0.0
  0
LINE
  5
41C
330
1F
100
AcDbEntity
  8
SLD-0_0
  6
SLD-Solid
 62
   179
370
    15
100
AcDbLine
 10
1143.6405170175
 20
1116.8872342926
 30
0.0
 11
1143.5540306779
 21
1117.1534286362
 31
0.0
  0
LINE
  5
41D
330
1F
100
AcDbEntity
  8
SLD-0_0
  6
SLD-Solid
 62
   179
370
    15
100
AcDbLine
 10
1143.5540306779
 20
1117.1534286362
 30
0.0
 11
1143.5504019341
 21
1117.1645692012
 31
0.0
  0
LINE
  5
41E
330
1F
100
AcDbEntity
  8
SLD-0_0
  6
SLD-Solid
 62
   179
370
    15
100
AcDbLine
 10
1148.4946596834
 20
1101.9476877075
 30
0.0
 11
1148.4910536023
 21
1101.9588337761
 31
0.0
  0
LINE
  5
41F
330
1F
100
AcDbEntity
  8
SLD-0_0
  6
SLD-Solid
 62
   179
370
    15
100
AcDbLine
 10
1148.4910536023
 20
1101.9588337761
 30
0.0
 11
1148.4045672628
 21
1102.224968515
 31
0.0
  0
LINE
  5
420
330
1F
100
AcDbEntity
  8
SLD-0_0
  6
SLD-Solid
 62
   179
370
    15
100
AcDbLine
 10
1148.4045672628
 20
1102.224968515
 30
0.0
 11
1148.2067096444
 21
1102.8339491707
 31
0.0
  0
LINE
  5
421
330
1F
100
AcDbEntity
  8
SLD-0_0
  6
SLD-Solid
 62
   179
370
    15
100
AcDbLine
 10
1148.2067096444
 20
1102.8339491707
 30
0.0
 11
1147.9067194673
 21
1103.7572251183
 31
0.0
  0
LINE
  5
422
330
1F
100
AcDbEntity
  8
SLD-0_0
  6
SLD-Solid
 62
   179
370
    15
100
AcDbLine
 10
1147.9067194673
 20
1103.7572251183
 30
0.0
 11
1147.5186038228
 21
1104.9517021996
 31
0.0
  0
LINE
  5
423
330
1F
100
AcDbEntity
  8
SLD-0_0
  6
SLD-Solid
 62
   179
370
    15
100
AcDbLine
 10
1147.5186038228
 20
1104.9517021996
 30
0.0
 11
1147.0605719301
 21
1106.3614116532
 31
0.0
  0
LINE
  5
424
330
1F
100
AcDbEntity
  8
SLD-0_0
  6
SLD-Solid
 62
   179
370
    15
100
AcDbLine
 10
1147.0605719301
 20
1106.3614116532
 30
0.0
 11
1146.9997453901
 21
1106.5486298424
 31
0.0
  0
LINE
  5
425
330
1F
100
AcDbEntity
  8
SLD-0_0
  6
SLD-Solid
 62
   179
370
    15
100
AcDbLine
 10
1107.1639943334
 20
1029.331468187
 30
0.0
 11
1107.1639943334
 21
1148.0191574913
 31
0.0
  0
LINE
  5
426
330
1F
100
AcDbEntity
  8
SLD-0_0
  6
SLD-Solid
 62
   179
370
    15
100
AcDbLine
 10
1107.1639943334
 20
1028.3314810616
 30
0.0
 11
1107.1639943334
 21
1027.5314675194
 31
0.0
  0
LINE
  5
427
330
1F
100
AcDbEntity
  8
SLD-0_0
  6
SLD-Solid
 62
   179
370
    15
100
AcDbLine
 10
1107.1639943334
 20
1028.3314810616
 30
0.0
 11
1167.8080547067
 21
1028.3314810616
 31
0.0
  0
LINE
  5
428
330
1F
100
AcDbEntity
  8
SLD-0_0
  6
SLD-Solid
 62
   179
370
    15
100
AcDbLine
 10
1107.1639943334
 20
1027.5314675194
 30
0.0
 11
1167.8080547067
 21
1027.5314675194
 31
0.0
  0
LINE
  5
429
330
1F
100
AcDbEntity
  8
SLD-0_0
  6
SLD-Solid
 62
   179
370
    15
100
AcDbLine
 10
1107.1639943334
 20
1149.0191446167
 30
0.0
 11
1125.403134844
 21
1149.0191446167
 31
0.0
  0
LINE
  5
42A
330
1F
100
AcDbEntity
  8
SLD-0_0
  6
SLD-Solid
 62
   179
370
    15
100
AcDbLine
 10
1107.1639943334
 20
1149.8191581589
 30
0.0
 11
1107.1639943334
 21
1149.0191446167
 31
0.0
  0
LINE
  5
42B
330
1F
100
AcDbEntity
  8
SLD-0_0
  6
SLD-Solid
 62
   179
370
    15
100
AcDbLine
 10
1107.1639943334
 20
1149.8191581589
 30
0.0
 11
1125.403134844
 21
1149.8191581589
 31
0.0
  0
LINE
  5
42C
330
1F
100
AcDbEntity
  8
SLD-0_0
  6
SLD-Solid
 62
   179
370
    15
100
AcDbLine
 10
1151.6769218656
 20
1073.540710054
 30
0.0
 11
1127.3528027746
 21
1148.4026537758
 31
0.0
  0
LINE
  5
42D
330
1F
100
AcDbEntity
  8
SLD-0_0
  6
SLD-Solid
 62
   179
370
    15
100
AcDbLine
 10
1150.916068575
 20
1073.2934699875
 30
0.0
 11
1126.591949484
 21
1148.1554137093
 31
0.0
  0
LINE
  5
42E
330
1F
100
AcDbEntity
  8
SLD-0_0
  6
SLD-Solid
 62
   179
370
    15
100
AcDbLine
 10
1177.2176909658
 20
1060.1545797211
 30
0.0
 11
1157.7672946664
 21
1067.2339425904
 31
0.0
  0
LINE
  5
42F
330
1F
100
AcDbEntity
  8
SLD-0_0
  6
SLD-Solid
 62
   179
370
    15
100
AcDbLine
 10
1176.9440758439
 20
1059.4028459412
 30
0.0
 11
1157.4936795446
 21
1066.4822088105
 31
0.0
  0
LINE
  5
430
330
1F
100
AcDbEntity
  8
SLD-0_0
  6
SLD-Solid
 62
   179
370
    15
100
AcDbLine
 10
1168.7656060876
 20
1028.777989122
 30
0.0
 11
1181.1843204709
 21
1043.5780511719
 31
0.0
  0
LINE
  5
431
330
1F
100
AcDbEntity
  8
SLD-0_0
  6
SLD-Solid
 62
   179
370
    15
100
AcDbLine
 10
1169.3784284803
 20
1028.2637701851
 30
0.0
 11
1181.7971437885
 21
1043.0637919327
 31
0.0
  0
LINE
  5
432
330
1F
100
AcDbEntity
  8
SLD-0_0
  6
SLD-Solid
 62
   179
370
    15
100
AcDbLine
 10
1126.9564318868
 20
1149.6225224358
 30
0.0
 11
1127.3528027746
 21
1148.4026537758
 31
0.0
  0
LINE
  5
433
330
1F
100
AcDbEntity
  8
SLD-0_0
  6
SLD-Solid
 62
   179
370
    15
100
AcDbLine
 10
1127.3581373903
 20
1151.9023404938
 30
0.0
 11
1127.6081490728
 21
1152.0136819702
 31
0.0
  0
LINE
  5
434
330
1F
100
AcDbEntity
  8
SLD-0_0
  6
SLD-Solid
 62
   179
370
    15
100
AcDbLine
 10
1126.1040556642
 20
1149.8191581589
 30
0.0
 11
1126.1127877446
 21
1149.7411952835
 31
0.0
  0
LINE
  5
435
330
1F
100
AcDbEntity
  8
SLD-0_0
  6
SLD-Solid
 62
   179
370
    15
100
AcDbLine
 10
1126.1127877446
 20
1149.7411952835
 30
0.0
 11
1126.1202681276
 21
1149.6896372658
 31
0.0
  0
LINE
  5
436
330
1F
100
AcDbEntity
  8
SLD-0_0
  6
SLD-Solid
 62
   179
370
    15
100
AcDbLine
 10
1127.6081490728
 20
1151.137493692
 30
0.0
 11
1127.4372625562
 21
1151.0389672142
 31
0.0
  0
LINE
  5
437
330
1F
100
AcDbEntity
  8
SLD-0_0
  6
SLD-Solid
 62
   179
370
    15
100
AcDbLine
 10
1127.4372625562
 20
1151.0389672142
 30
0.0
 11
1127.3581373903
 21
1150.9798394066
 31
0.0
  0
LINE
  5
438
330
1F
100
AcDbEntity
  8
SLD-0_0
  6
SLD-Solid
 62
   179
370
    15
100
AcDbLine
 10
1126.9097316476
 20
1149.8191581589
 30
0.0
 11
1126.9564318868
 21
1149.6225224358
 31
0.0
  0
LINE
  5
439
330
1F
100
AcDbEntity
  8
SLD-0_0
  6
SLD-Solid
 62
   179
370
    15
100
AcDbLine
 10
1151.8071580144
 20
1137.2359023911
 30
0.0
 11
1151.2831437799
 21
1138.8487444741
 31
0.0
  0
LINE
  5
43A
330
1F
100
AcDbEntity
  8
SLD-0_0
  6
SLD-Solid
 62
   179
370
    15
100
AcDbLine
 10
1151.2831437799
 20
1138.8487444741
 30
0.0
 11
1150.8678484174
 21
1140.1269064766
 31
0.0
  0
LINE
  5
43B
330
1F
100
AcDbEntity
  8
SLD-0_0
  6
SLD-Solid
 62
   179
370
    15
100
AcDbLine
 10
1150.8678484174
 20
1140.1269064766
 30
0.0
 11
1150.5670237752
 21
1141.0527454239
 31
0.0
  0
LINE
  5
43C
330
1F
100
AcDbEntity
  8
SLD-0_0
  6
SLD-Solid
 62
   179
370
    15
100
AcDbLine
 10
1150.5670237752
 20
1141.0527454239
 30
0.0
 11
1150.3848421785
 21
1141.6134463173
 31
0.0
  0
LINE
  5
43D
330
1F
100
AcDbEntity
  8
SLD-0_0
  6
SLD-Solid
 62
   179
370
    15
100
AcDbLine
 10
1150.3848421785
 20
1141.6134463173
 30
0.0
 11
1150.3238070222
 21
1141.8012009484
 31
0.0
  0
LINE
  5
43E
330
1F
100
AcDbEntity
  8
SLD-0_0
  6
SLD-Solid
 62
   179
370
    15
100
AcDbLine
 10
1167.9377842161
 20
1087.5910149437
 30
0.0
 11
1167.8767788621
 21
1087.7787695748
 31
0.0
  0
LINE
  5
43F
330
1F
100
AcDbEntity
  8
SLD-0_0
  6
SLD-Solid
 62
   179
370
    15
100
AcDbLine
 10
1167.8767788621
 20
1087.7787695748
 30
0.0
 11
1167.6945972654
 21
1088.3394704682
 31
0.0
  0
LINE
  5
440
330
1F
100
AcDbEntity
  8
SLD-0_0
  6
SLD-Solid
 62
   179
370
    15
100
AcDbLine
 10
1167.6945972654
 20
1088.3394704682
 30
0.0
 11
1167.3937726232
 21
1089.2653094155
 31
0.0
  0
LINE
  5
441
330
1F
100
AcDbEntity
  8
SLD-0_0
  6
SLD-Solid
 62
   179
370
    15
100
AcDbLine
 10
1167.3937726232
 20
1089.2653094155
 30
0.0
 11
1166.9784772607
 21
1090.543471418
 31
0.0
  0
LINE
  5
442
330
1F
100
AcDbEntity
  8
SLD-0_0
  6
SLD-Solid
 62
   179
370
    15
100
AcDbLine
 10
1166.9784772607
 20
1090.543471418
 30
0.0
 11
1166.4544332239
 21
1092.1562538964
 31
0.0
  0
LINE
  5
443
330
1F
100
AcDbEntity
  8
SLD-0_0
  6
SLD-Solid
 62
   179
370
    15
100
AcDbLine
 10
1142.0717525693
 20
1142.3495040756
 30
0.0
 11
1142.2611165258
 21
1142.3233972412
 31
0.0
  0
LINE
  5
444
330
1F
100
AcDbEntity
  8
SLD-0_0
  6
SLD-Solid
 62
   179
370
    15
100
AcDbLine
 10
1142.2611165258
 20
1142.3233972412
 30
0.0
 11
1142.7997935029
 21
1142.2546730858
 31
0.0
  0
LINE
  5
445
330
1F
100
AcDbEntity
  8
SLD-0_0
  6
SLD-Solid
 62
   179
370
    15
100
AcDbLine
 10
1142.7997935029
 20
1142.2546730858
 30
0.0
 11
1143.6066913816
 21
1142.1674714905
 31
0.0
  0
LINE
  5
446
330
1F
100
AcDbEntity
  8
SLD-0_0
  6
SLD-Solid
 62
   179
370
    15
100
AcDbLine
 10
1143.6066913816
 20
1142.1674714905
 30
0.0
 11
1144.5600080701
 21
1142.0893894059
 31
0.0
  0
LINE
  5
447
330
1F
100
AcDbEntity
  8
SLD-0_0
  6
SLD-Solid
 62
   179
370
    15
100
AcDbLine
 10
1144.5600080701
 20
1142.0893894059
 30
0.0
 11
1145.5151427003
 21
1142.0388446671
 31
0.0
  0
LINE
  5
448
330
1F
100
AcDbEntity
  8
SLD-0_0
  6
SLD-Solid
 62
   179
370
    15
100
AcDbLine
 10
1145.5151427003
 20
1142.0388446671
 30
0.0
 11
1146.326481125
 21
1142.0183406693
 31
0.0
  0
LINE
  5
449
330
1F
100
AcDbEntity
  8
SLD-0_0
  6
SLD-Solid
 62
   179
370
    15
100
AcDbLine
 10
1146.326481125
 20
1142.0183406693
 30
0.0
 11
1146.8691814157
 21
1142.0164333206
 31
0.0
  0
LINE
  5
44A
330
1F
100
AcDbEntity
  8
SLD-0_0
  6
SLD-Solid
 62
   179
370
    15
100
AcDbLine
 10
1146.8691814157
 20
1142.0164333206
 30
0.0
 11
1147.0606911393
 21
1142.0180426461
 31
0.0
  0
LINE
  5
44B
330
1F
100
AcDbEntity
  8
SLD-0_0
  6
SLD-Solid
 62
   179
370
    15
100
AcDbLine
 10
1159.6632886144
 20
1080.6966052872
 30
0.0
 11
1159.6082735273
 21
1080.865942083
 31
0.0
  0
LINE
  5
44C
330
1F
100
AcDbEntity
  8
SLD-0_0
  6
SLD-Solid
 62
   179
370
    15
100
AcDbLine
 10
1159.6082735273
 20
1080.865942083
 30
0.0
 11
1159.4438243123
 21
1081.3720451218
 31
0.0
  0
LINE
  5
44D
330
1F
100
AcDbEntity
  8
SLD-0_0
  6
SLD-Solid
 62
   179
370
    15
100
AcDbLine
 10
1159.4438243123
 20
1081.3720451218
 30
0.0
 11
1159.1717589113
 21
1082.2094307762
 31
0.0
  0
LINE
  5
44E
330
1F
100
AcDbEntity
  8
SLD-0_0
  6
SLD-Solid
 62
   179
370
    15
100
AcDbLine
 10
1159.1717589113
 20
1082.2094307762
 30
0.0
 11
1158.795027754
 21
1083.3688603264
 31
0.0
  0
LINE
  5
44F
330
1F
100
AcDbEntity
  8
SLD-0_0
  6
SLD-Solid
 62
   179
370
    15
100
AcDbLine
 10
1158.795027754
 20
1083.3688603264
 30
0.0
 11
1158.3177733632
 21
1084.837637983
 31
0.0
  0
LINE
  5
450
330
1F
100
AcDbEntity
  8
SLD-0_0
  6
SLD-Solid
 62
   179
370
    15
100
AcDbLine
 10
1158.3177733632
 20
1084.837637983
 30
0.0
 11
1157.7452409479
 21
1086.5997300965
 31
0.0
  0
LINE
  5
451
330
1F
100
AcDbEntity
  8
SLD-0_0
  6
SLD-Solid
 62
   179
370
    15
100
AcDbLine
 10
1157.7452409479
 20
1086.5997300965
 30
0.0
 11
1157.0836889955
 21
1088.635824762
 31
0.0
  0
LINE
  5
452
330
1F
100
AcDbEntity
  8
SLD-0_0
  6
SLD-Solid
 62
   179
370
    15
100
AcDbLine
 10
1157.0836889955
 20
1088.635824762
 30
0.0
 11
1156.3403594705
 21
1090.9235702378
 31
0.0
  0
LINE
  5
453
330
1F
100
AcDbEntity
  8
SLD-0_0
  6
SLD-Solid
 62
   179
370
    15
100
AcDbLine
 10
1156.3403594705
 20
1090.9235702378
 30
0.0
 11
1155.5233884069
 21
1093.4378729683
 31
0.0
  0
LINE
  5
454
330
1F
100
AcDbEntity
  8
SLD-0_0
  6
SLD-Solid
 62
   179
370
    15
100
AcDbLine
 10
1155.5233884069
 20
1093.4378729683
 30
0.0
 11
1154.641776106
 21
1096.1512552124
 31
0.0
  0
LINE
  5
455
330
1F
100
AcDbEntity
  8
SLD-0_0
  6
SLD-Solid
 62
   179
370
    15
100
AcDbLine
 10
1154.641776106
 20
1096.1512552124
 30
0.0
 11
1153.7051189157
 21
1099.0339742523
 31
0.0
  0
LINE
  5
456
330
1F
100
AcDbEntity
  8
SLD-0_0
  6
SLD-Solid
 62
   179
370
    15
100
AcDbLine
 10
1153.7051189157
 20
1099.0339742523
 30
0.0
 11
1152.7237284395
 21
1102.0544396263
 31
0.0
  0
LINE
  5
457
330
1F
100
AcDbEntity
  8
SLD-0_0
  6
SLD-Solid
 62
   179
370
    15
100
AcDbLine
 10
1152.7237284395
 20
1102.0544396263
 30
0.0
 11
1151.7083037111
 21
1105.1795111519
 31
0.0
  0
LINE
  5
458
330
1F
100
AcDbEntity
  8
SLD-0_0
  6
SLD-Solid
 62
   179
370
    15
100
AcDbLine
 10
1151.7083037111
 20
1105.1795111519
 30
0.0
 11
1150.6700206014
 21
1108.3750353676
 31
0.0
  0
LINE
  5
459
330
1F
100
AcDbEntity
  8
SLD-0_0
  6
SLD-Solid
 62
   179
370
    15
100
AcDbLine
 10
1150.6700206014
 20
1108.3750353676
 30
0.0
 11
1149.6202337953
 21
1111.6059051377
 31
0.0
  0
LINE
  5
45A
330
1F
100
AcDbEntity
  8
SLD-0_0
  6
SLD-Solid
 62
   179
370
    15
100
AcDbLine
 10
1149.6202337953
 20
1111.6059051377
 30
0.0
 11
1148.5704469892
 21
1114.8368345124
 31
0.0
  0
LINE
  5
45B
330
1F
100
AcDbEntity
  8
SLD-0_0
  6
SLD-Solid
 62
   179
370
    15
100
AcDbLine
 10
1148.5704469892
 20
1114.8368345124
 30
0.0
 11
1147.5321638795
 21
1118.0323587281
 31
0.0
  0
LINE
  5
45C
330
1F
100
AcDbEntity
  8
SLD-0_0
  6
SLD-Solid
 62
   179
370
    15
100
AcDbLine
 10
1147.5321638795
 20
1118.0323587281
 30
0.0
 11
1146.5167689535
 21
1121.1574302536
 31
0.0
  0
LINE
  5
45D
330
1F
100
AcDbEntity
  8
SLD-0_0
  6
SLD-Solid
 62
   179
370
    15
100
AcDbLine
 10
1146.5167689535
 20
1121.1574302536
 30
0.0
 11
1145.5353486749
 21
1124.1778956276
 31
0.0
  0
LINE
  5
45E
330
1F
100
AcDbEntity
  8
SLD-0_0
  6
SLD-Solid
 62
   179
370
    15
100
AcDbLine
 10
1145.5353486749
 20
1124.1778956276
 30
0.0
 11
1144.5987212869
 21
1127.0606146675
 31
0.0
  0
LINE
  5
45F
330
1F
100
AcDbEntity
  8
SLD-0_0
  6
SLD-Solid
 62
   179
370
    15
100
AcDbLine
 10
1144.5987212869
 20
1127.0606146675
 30
0.0
 11
1143.7170791837
 21
1129.7739969116
 31
0.0
  0
LINE
  5
460
330
1F
100
AcDbEntity
  8
SLD-0_0
  6
SLD-Solid
 62
   179
370
    15
100
AcDbLine
 10
1143.7170791837
 20
1129.7739969116
 30
0.0
 11
1142.9001379224
 21
1132.2882996422
 31
0.0
  0
LINE
  5
461
330
1F
100
AcDbEntity
  8
SLD-0_0
  6
SLD-Solid
 62
   179
370
    15
100
AcDbLine
 10
1142.9001379224
 20
1132.2882996422
 30
0.0
 11
1142.1568083974
 21
1134.576045118
 31
0.0
  0
LINE
  5
462
330
1F
100
AcDbEntity
  8
SLD-0_0
  6
SLD-Solid
 62
   179
370
    15
100
AcDbLine
 10
1142.1568083974
 20
1134.576045118
 30
0.0
 11
1141.4952266427
 21
1136.6120801789
 31
0.0
  0
LINE
  5
463
330
1F
100
AcDbEntity
  8
SLD-0_0
  6
SLD-Solid
 62
   179
370
    15
100
AcDbLine
 10
1141.4952266427
 20
1136.6120801789
 30
0.0
 11
1140.9226942273
 21
1138.3741722924
 31
0.0
  0
LINE
  5
464
330
1F
100
AcDbEntity
  8
SLD-0_0
  6
SLD-Solid
 62
   179
370
    15
100
AcDbLine
 10
1140.9226942273
 20
1138.3741722924
 30
0.0
 11
1140.445469639
 21
1139.8430095536
 31
0.0
  0
LINE
  5
465
330
1F
100
AcDbEntity
  8
SLD-0_0
  6
SLD-Solid
 62
   179
370
    15
100
AcDbLine
 10
1140.445469639
 20
1139.8430095536
 30
0.0
 11
1140.0687384816
 21
1141.0024391037
 31
0.0
  0
LINE
  5
466
330
1F
100
AcDbEntity
  8
SLD-0_0
  6
SLD-Solid
 62
   179
370
    15
100
AcDbLine
 10
1140.0687384816
 20
1141.0024391037
 30
0.0
 11
1139.7966432782
 21
1141.8398247582
 31
0.0
  0
LINE
  5
467
330
1F
100
AcDbEntity
  8
SLD-0_0
  6
SLD-Solid
 62
   179
370
    15
100
AcDbLine
 10
1139.7966432782
 20
1141.8398247582
 30
0.0
 11
1139.6321940633
 21
1142.345927797
 31
0.0
  0
LINE
  5
468
330
1F
100
AcDbEntity
  8
SLD-0_0
  6
SLD-Solid
 62
   179
370
    15
100
AcDbLine
 10
1139.6321940633
 20
1142.345927797
 30
0.0
 11
1139.5771789762
 21
1142.5152645928
 31
0.0
  0
LINE
  5
469
330
1F
100
AcDbEntity
  8
SLD-0_0
  6
SLD-Solid
 62
   179
370
    15
100
AcDbLine
 10
1152.3740279886
 20
1135.4913340431
 30
0.0
 11
1153.0167150709
 21
1133.5133539063
 31
0.0
  0
LINE
  5
46A
330
1F
100
AcDbEntity
  8
SLD-0_0
  6
SLD-Solid
 62
   179
370
    15
100
AcDbLine
 10
1153.0167150709
 20
1133.5133539063
 30
0.0
 11
1153.7374246332
 21
1131.2952862603
 31
0.0
  0
LINE
  5
46B
330
1F
100
AcDbEntity
  8
SLD-0_0
  6
SLD-Solid
 62
   179
370
    15
100
AcDbLine
 10
1153.7374246332
 20
1131.2952862603
 30
0.0
 11
1154.5269179555
 21
1128.8653837067
 31
0.0
  0
LINE
  5
46C
330
1F
100
AcDbEntity
  8
SLD-0_0
  6
SLD-Solid
 62
   179
370
    15
100
AcDbLine
 10
1154.5269179555
 20
1128.8653837067
 30
0.0
 11
1155.3751516553
 21
1126.2547598702
 31
0.0
  0
LINE
  5
46D
330
1F
100
AcDbEntity
  8
SLD-0_0
  6
SLD-Solid
 62
   179
370
    15
100
AcDbLine
 10
1155.3751516553
 20
1126.2547598702
 30
0.0
 11
1156.2713372918
 21
1123.4966741425
 31
0.0
  0
LINE
  5
46E
330
1F
100
AcDbEntity
  8
SLD-0_0
  6
SLD-Solid
 62
   179
370
    15
100
AcDbLine
 10
1156.2713372918
 20
1123.4966741425
 30
0.0
 11
1157.2039711686
 21
1120.626293264
 31
0.0
  0
LINE
  5
46F
330
1F
100
AcDbEntity
  8
SLD-0_0
  6
SLD-Solid
 62
   179
370
    15
100
AcDbLine
 10
1157.2039711686
 20
1120.626293264
 30
0.0
 11
1158.1611919614
 21
1117.6802144867
 31
0.0
  0
LINE
  5
470
330
1F
100
AcDbEntity
  8
SLD-0_0
  6
SLD-Solid
 62
   179
370
    15
100
AcDbLine
 10
1158.1611919614
 20
1117.6802144867
 30
0.0
 11
1159.1308105203
 21
1114.696107946
 31
0.0
  0
LINE
  5
471
330
1F
100
AcDbEntity
  8
SLD-0_0
  6
SLD-Solid
 62
   179
370
    15
100
AcDbLine
 10
1159.1308105203
 20
1114.696107946
 30
0.0
 11
1160.1003992769
 21
1111.7120014054
 31
0.0
  0
LINE
  5
472
330
1F
100
AcDbEntity
  8
SLD-0_0
  6
SLD-Solid
 62
   179
370
    15
100
AcDbLine
 10
1160.1003992769
 20
1111.7120014054
 30
0.0
 11
1161.057649872
 21
1108.765922628
 31
0.0
  0
LINE
  5
473
330
1F
100
AcDbEntity
  8
SLD-0_0
  6
SLD-Solid
 62
   179
370
    15
100
AcDbLine
 10
1161.057649872
 20
1108.765922628
 30
0.0
 11
1161.9902837488
 21
1105.8955417496
 31
0.0
  0
LINE
  5
474
330
1F
100
AcDbEntity
  8
SLD-0_0
  6
SLD-Solid
 62
   179
370
    15
100
AcDbLine
 10
1161.9902837488
 20
1105.8955417496
 30
0.0
 11
1162.886439583
 21
1103.1374560219
 31
0.0
  0
LINE
  5
475
330
1F
100
AcDbEntity
  8
SLD-0_0
  6
SLD-Solid
 62
   179
370
    15
100
AcDbLine
 10
1162.886439583
 20
1103.1374560219
 30
0.0
 11
1163.7347030851
 21
1100.5267725807
 31
0.0
  0
LINE
  5
476
330
1F
100
AcDbEntity
  8
SLD-0_0
  6
SLD-Solid
 62
   179
370
    15
100
AcDbLine
 10
1163.7347030851
 20
1100.5267725807
 30
0.0
 11
1164.5241964074
 21
1098.0969296318
 31
0.0
  0
LINE
  5
477
330
1F
100
AcDbEntity
  8
SLD-0_0
  6
SLD-Solid
 62
   179
370
    15
100
AcDbLine
 10
1164.5241964074
 20
1098.0969296318
 30
0.0
 11
1165.2449059697
 21
1095.8788619858
 31
0.0
  0
LINE
  5
478
330
1F
100
AcDbEntity
  8
SLD-0_0
  6
SLD-Solid
 62
   179
370
    15
100
AcDbLine
 10
1165.2449059697
 20
1095.8788619858
 30
0.0
 11
1165.887593052
 21
1093.9008818489
 31
0.0
  0
LINE
  5
479
330
1F
100
AcDbEntity
  8
SLD-0_0
  6
SLD-Solid
 62
   179
370
    15
100
AcDbLine
 10
1151.053248665
 20
1141.7204962593
 30
0.0
 11
1170.0310993406
 21
1139.5999418122
 31
0.0
  0
LINE
  5
47A
330
1F
100
AcDbEntity
  8
SLD-0_0
  6
SLD-Solid
 62
   179
370
    15
100
AcDbLine
 10
1170.0310993406
 20
1139.5999418122
 30
0.0
 11
1171.5009498807
 21
1139.4379959923
 31
0.0
  0
LINE
  5
47B
330
1F
100
AcDbEntity
  8
SLD-0_0
  6
SLD-Solid
 62
   179
370
    15
100
AcDbLine
 10
1173.3412730905
 20
1135.6821881157
 30
0.0
 11
1174.5271969053
 21
1132.0322976929
 31
0.0
  0
LINE
  5
47C
330
1F
100
AcDbEntity
  8
SLD-0_0
  6
SLD-Solid
 62
   179
370
    15
100
AcDbLine
 10
1174.5271969053
 20
1132.0322976929
 30
0.0
 11
1175.7274258348
 21
1128.3382998329
 31
0.0
  0
LINE
  5
47D
330
1F
100
AcDbEntity
  8
SLD-0_0
  6
SLD-Solid
 62
   179
370
    15
100
AcDbLine
 10
1175.7274258348
 20
1128.3382998329
 30
0.0
 11
1176.9372809144
 21
1124.6147380692
 31
0.0
  0
LINE
  5
47E
330
1F
100
AcDbEntity
  8
SLD-0_0
  6
SLD-Solid
 62
   179
370
    15
100
AcDbLine
 10
1176.9372809144
 20
1124.6147380692
 30
0.0
 11
1178.151934168
 21
1120.8764539582
 31
0.0
  0
LINE
  5
47F
330
1F
100
AcDbEntity
  8
SLD-0_0
  6
SLD-Solid
 62
   179
370
    15
100
AcDbLine
 10
1178.151934168
 20
1120.8764539582
 30
0.0
 11
1179.3665874215
 21
1117.1381102425
 31
0.0
  0
LINE
  5
480
330
1F
100
AcDbEntity
  8
SLD-0_0
  6
SLD-Solid
 62
   179
370
    15
100
AcDbLine
 10
1179.3665874215
 20
1117.1381102425
 30
0.0
 11
1180.5764425012
 21
1113.4146080834
 31
0.0
  0
LINE
  5
481
330
1F
100
AcDbEntity
  8
SLD-0_0
  6
SLD-Solid
 62
   179
370
    15
100
AcDbLine
 10
1180.5764425012
 20
1113.4146080834
 30
0.0
 11
1181.776701233
 21
1109.7206102234
 31
0.0
  0
LINE
  5
482
330
1F
100
AcDbEntity
  8
SLD-0_0
  6
SLD-Solid
 62
   179
370
    15
100
AcDbLine
 10
1181.776701233
 20
1109.7206102234
 30
0.0
 11
1182.9625952455
 21
1106.0707198006
 31
0.0
  0
LINE
  5
483
330
1F
100
AcDbEntity
  8
SLD-0_0
  6
SLD-Solid
 62
   179
370
    15
100
AcDbLine
 10
1182.9625952455
 20
1106.0707198006
 30
0.0
 11
1183.3992588731
 21
1104.7268138748
 31
0.0
  0
LINE
  5
484
330
1F
100
AcDbEntity
  8
SLD-0_0
  6
SLD-Solid
 62
   179
370
    15
100
AcDbLine
 10
1183.3992588731
 20
1104.7268138748
 30
0.0
 11
1183.7183523389
 21
1103.7448273522
 31
0.0
  0
LINE
  5
485
330
1F
100
AcDbEntity
  8
SLD-0_0
  6
SLD-Solid
 62
   179
370
    15
100
AcDbLine
 10
1183.7183523389
 20
1103.7448273522
 30
0.0
 11
1183.9126932832
 21
1103.1466351372
 31
0.0
  0
LINE
  5
486
330
1F
100
AcDbEntity
  8
SLD-0_0
  6
SLD-Solid
 62
   179
370
    15
100
AcDbLine
 10
1183.9126932832
 20
1103.1466351372
 30
0.0
 11
1183.9779616848
 21
1102.9457770701
 31
0.0
  0
LINE
  5
487
330
1F
100
AcDbEntity
  8
SLD-0_0
  6
SLD-Solid
 62
   179
370
    15
100
AcDbLine
 10
1172.3443854066
 20
1138.7502776009
 30
0.0
 11
1172.3867047044
 21
1138.6199818474
 31
0.0
  0
LINE
  5
488
330
1F
100
AcDbEntity
  8
SLD-0_0
  6
SLD-Solid
 62
   179
370
    15
100
AcDbLine
 10
1172.3867047044
 20
1138.6199818474
 30
0.0
 11
1172.4533724996
 21
1138.4148226601
 31
0.0
  0
LINE
  5
489
330
1F
100
AcDbEntity
  8
SLD-0_0
  6
SLD-Solid
 62
   179
370
    15
100
AcDbLine
 10
1172.4533724996
 20
1138.4148226601
 30
0.0
 11
1172.5440609666
 21
1138.1356941086
 31
0.0
  0
LINE
  5
48A
330
1F
100
AcDbEntity
  8
SLD-0_0
  6
SLD-Solid
 62
   179
370
    15
100
AcDbLine
 10
1172.5440609666
 20
1138.1356941086
 30
0.0
 11
1172.6584124776
 21
1137.7837286812
 31
0.0
  0
LINE
  5
48B
330
1F
100
AcDbEntity
  8
SLD-0_0
  6
SLD-Solid
 62
   179
370
    15
100
AcDbLine
 10
1172.6584124776
 20
1137.7837286812
 30
0.0
 11
1172.7959501954
 21
1137.3605357033
 31
0.0
  0
LINE
  5
48C
330
1F
100
AcDbEntity
  8
SLD-0_0
  6
SLD-Solid
 62
   179
370
    15
100
AcDbLine
 10
1172.7959501954
 20
1137.3605357033
 30
0.0
 11
1172.9560482713
 21
1136.8677245003
 31
0.0
  0
LINE
  5
48D
330
1F
100
AcDbEntity
  8
SLD-0_0
  6
SLD-Solid
 62
   179
370
    15
100
AcDbLine
 10
1172.9560482713
 20
1136.8677245003
 30
0.0
 11
1173.1380808565
 21
1136.3075004441
 31
0.0
  0
LINE
  5
48E
330
1F
100
AcDbEntity
  8
SLD-0_0
  6
SLD-Solid
 62
   179
370
    15
100
AcDbLine
 10
1173.1380808565
 20
1136.3075004441
 30
0.0
 11
1173.3412730905
 21
1135.6821881157
 31
0.0
  0
LINE
  5
48F
330
1F
100
AcDbEntity
  8
SLD-0_0
  6
SLD-Solid
 62
   179
370
    15
100
AcDbLine
 10
1147.3318624708
 20
1112.1767388207
 30
0.0
 11
1147.3340678426
 21
1112.1698842865
 31
0.0
  0
LINE
  5
490
330
1F
100
AcDbEntity
  8
SLD-0_0
  6
SLD-Solid
 62
   179
370
    15
100
AcDbLine
 10
1147.3340678426
 20
1112.1698842865
 30
0.0
 11
1147.3406541559
 21
1112.1496187073
 31
0.0
  0
LINE
  5
491
330
1F
100
AcDbEntity
  8
SLD-0_0
  6
SLD-Solid
 62
   179
370
    15
100
AcDbLine
 10
1147.3406541559
 20
1112.1496187073
 30
0.0
 11
1147.3514425966
 21
1112.1164785248
 31
0.0
  0
LINE
  5
492
330
1F
100
AcDbEntity
  8
SLD-0_0
  6
SLD-Solid
 62
   179
370
    15
100
AcDbLine
 10
1147.3514425966
 20
1112.1164785248
 30
0.0
 11
1147.3660755369
 21
1112.0713578087
 31
0.0
  0
LINE
  5
493
330
1F
100
AcDbEntity
  8
SLD-0_0
  6
SLD-Solid
 62
   179
370
    15
100
AcDbLine
 10
1147.3660755369
 20
1112.0713578087
 30
0.0
 11
1147.3841953489
 21
1112.0156870705
 31
0.0
  0
LINE
  5
494
330
1F
100
AcDbEntity
  8
SLD-0_0
  6
SLD-Solid
 62
   179
370
    15
100
AcDbLine
 10
1147.3841953489
 20
1112.0156870705
 30
0.0
 11
1147.4052059862
 21
1111.9508968216
 31
0.0
  0
LINE
  5
495
330
1F
100
AcDbEntity
  8
SLD-0_0
  6
SLD-Solid
 62
   179
370
    15
100
AcDbLine
 10
1147.4052059862
 20
1111.9508968216
 30
0.0
 11
1147.4285710069
 21
1111.87901362
 31
0.0
  0
LINE
  5
496
330
1F
100
AcDbEntity
  8
SLD-0_0
  6
SLD-Solid
 62
   179
370
    15
100
AcDbLine
 10
1147.4285710069
 20
1111.87901362
 30
0.0
 11
1147.4536049577
 21
1111.802004419
 31
0.0
  0
LINE
  5
497
330
1F
100
AcDbEntity
  8
SLD-0_0
  6
SLD-Solid
 62
   179
370
    15
100
AcDbLine
 10
1147.3318624708
 20
1112.1767388207
 30
0.0
 11
1147.3322200986
 21
1112.17685803
 31
0.0
  0
LINE
  5
498
330
1F
100
AcDbEntity
  8
SLD-0_0
  6
SLD-Solid
 62
   179
370
    15
100
AcDbLine
 10
1147.3322200986
 20
1112.17685803
 30
0.0
 11
1147.3337400171
 21
1112.1773348671
 31
0.0
  0
LINE
  5
499
330
1F
100
AcDbEntity
  8
SLD-0_0
  6
SLD-Solid
 62
   179
370
    15
100
AcDbLine
 10
1147.3337400171
 20
1112.1773348671
 30
0.0
 11
1147.3373460981
 21
1112.17852696
 31
0.0
  0
LINE
  5
49A
330
1F
100
AcDbEntity
  8
SLD-0_0
  6
SLD-Solid
 62
   179
370
    15
100
AcDbLine
 10
1147.3373460981
 20
1112.17852696
 30
0.0
 11
1147.3442304345
 21
1112.1807323319
 31
0.0
  0
LINE
  5
49B
330
1F
100
AcDbEntity
  8
SLD-0_0
  6
SLD-Solid
 62
   179
370
    15
100
AcDbLine
 10
1147.3442304345
 20
1112.1807323319
 30
0.0
 11
1147.3584759446
 21
1112.1853814942
 31
0.0
  0
LINE
  5
49C
330
1F
100
AcDbEntity
  8
SLD-0_0
  6
SLD-Solid
 62
   179
370
    15
100
AcDbLine
 10
1147.3584759446
 20
1112.1853814942
 30
0.0
 11
1147.4151599618
 21
1112.2037993294
 31
0.0
  0
LINE
  5
49D
330
1F
100
AcDbEntity
  8
SLD-0_0
  6
SLD-Solid
 62
   179
370
    15
100
AcDbLine
 10
1147.4151599618
 20
1112.2037993294
 30
0.0
 11
1147.5311506006
 21
1112.2414694649
 31
0.0
  0
LINE
  5
49E
330
1F
100
AcDbEntity
  8
SLD-0_0
  6
SLD-Solid
 62
   179
370
    15
100
AcDbLine
 10
1147.5311506006
 20
1112.2414694649
 30
0.0
 11
1149.2339658948
 21
1112.7947793824
 31
0.0
  0
LINE
  5
49F
330
1F
100
AcDbEntity
  8
SLD-0_0
  6
SLD-Solid
 62
   179
370
    15
100
AcDbLine
 10
1147.4536049577
 20
1111.802004419
 30
0.0
 11
1147.5148785325
 21
1111.6134749275
 31
0.0
  0
LINE
  5
4A0
330
1F
100
AcDbEntity
  8
SLD-0_0
  6
SLD-Solid
 62
   179
370
    15
100
AcDbLine
 10
1147.5148785325
 20
1111.6134749275
 30
0.0
 11
1147.5764203283
 21
1111.4239917618
 31
0.0
  0
LINE
  5
4A1
330
1F
100
AcDbEntity
  8
SLD-0_0
  6
SLD-Solid
 62
   179
370
    15
100
AcDbLine
 10
1147.5764203283
 20
1111.4239917618
 30
0.0
 11
1147.6382601472
 21
1111.233674131
 31
0.0
  0
LINE
  5
4A2
330
1F
100
AcDbEntity
  8
SLD-0_0
  6
SLD-Solid
 62
   179
370
    15
100
AcDbLine
 10
1147.6382601472
 20
1111.233674131
 30
0.0
 11
1147.7003383848
 21
1111.0427008492
 31
0.0
  0
LINE
  5
4A3
330
1F
100
AcDbEntity
  8
SLD-0_0
  6
SLD-Solid
 62
   179
370
    15
100
AcDbLine
 10
1147.7003383848
 20
1111.0427008492
 30
0.0
 11
1147.7625656339
 21
1110.8511315209
 31
0.0
  0
LINE
  5
4A4
330
1F
100
AcDbEntity
  8
SLD-0_0
  6
SLD-Solid
 62
   179
370
    15
100
AcDbLine
 10
1147.7625656339
 20
1110.8511315209
 30
0.0
 11
1147.8249418947
 21
1110.6592045647
 31
0.0
  0
LINE
  5
4A5
330
1F
100
AcDbEntity
  8
SLD-0_0
  6
SLD-Solid
 62
   179
370
    15
100
AcDbLine
 10
1147.8249418947
 20
1110.6592045647
 30
0.0
 11
1147.8873777601
 21
1110.4669795853
 31
0.0
  0
LINE
  5
4A6
330
1F
100
AcDbEntity
  8
SLD-0_0
  6
SLD-Solid
 62
   179
370
    15
100
AcDbLine
 10
1147.8873777601
 20
1110.4669795853
 30
0.0
 11
1147.9499030324
 21
1110.274575792
 31
0.0
  0
LINE
  5
4A7
330
1F
100
AcDbEntity
  8
SLD-0_0
  6
SLD-Solid
 62
   179
370
    15
100
AcDbLine
 10
1147.9499030324
 20
1110.274575792
 30
0.0
 11
1147.9800331804
 21
1110.1818309647
 31
0.0
  0
LINE
  5
4A8
330
1F
100
AcDbEntity
  8
SLD-0_0
  6
SLD-Solid
 62
   179
370
    15
100
AcDbLine
 10
1147.9800331804
 20
1110.1818309647
 30
0.0
 11
1148.00903084
 21
1110.0926028115
 31
0.0
  0
LINE
  5
4A9
330
1F
100
AcDbEntity
  8
SLD-0_0
  6
SLD-Solid
 62
   179
370
    15
100
AcDbLine
 10
1148.00903084
 20
1110.0926028115
 30
0.0
 11
1148.0357337209
 21
1110.0104080063
 31
0.0
  0
LINE
  5
4AA
330
1F
100
AcDbEntity
  8
SLD-0_0
  6
SLD-Solid
 62
   179
370
    15
100
AcDbLine
 10
1148.0357337209
 20
1110.0104080063
 30
0.0
 11
1148.0591583463
 21
1109.9383459908
 31
0.0
  0
LINE
  5
4AB
330
1F
100
AcDbEntity
  8
SLD-0_0
  6
SLD-Solid
 62
   179
370
    15
100
AcDbLine
 10
1148.0591583463
 20
1109.9383459908
 30
0.0
 11
1148.0783510419
 21
1109.8792181832
 31
0.0
  0
LINE
  5
4AC
330
1F
100
AcDbEntity
  8
SLD-0_0
  6
SLD-Solid
 62
   179
370
    15
100
AcDbLine
 10
1148.0783510419
 20
1109.8792181832
 30
0.0
 11
1148.0926263543
 21
1109.83528956
 31
0.0
  0
LINE
  5
4AD
330
1F
100
AcDbEntity
  8
SLD-0_0
  6
SLD-Solid
 62
   179
370
    15
100
AcDbLine
 10
1148.0926263543
 20
1109.83528956
 30
0.0
 11
1148.1014180394
 21
1109.8082290512
 31
0.0
  0
LINE
  5
4AE
330
1F
100
AcDbEntity
  8
SLD-0_0
  6
SLD-Solid
 62
   179
370
    15
100
AcDbLine
 10
1148.1014180394
 20
1109.8082290512
 30
0.0
 11
1148.1043982717
 21
1109.7990499359
 31
0.0
  0
LINE
  5
4AF
330
1F
100
AcDbEntity
  8
SLD-0_0
  6
SLD-Solid
 62
   179
370
    15
100
AcDbLine
 10
1150.0172901365
 20
1110.3838907105
 30
0.0
 11
1148.1043982717
 21
1109.7990499359
 31
0.0
  0
LINE
  5
4B0
330
1F
100
AcDbEntity
  8
SLD-0_0
  6
SLD-Solid
 62
   179
370
    15
100
AcDbLine
 10
1150.9369898053
 20
1107.553444944
 30
0.0
 11
1149.0337240907
 21
1106.9389210564
 31
0.0
  0
LINE
  5
4B1
330
1F
100
AcDbEntity
  8
SLD-0_0
  6
SLD-Solid
 62
   179
370
    15
100
AcDbLine
 10
1148.1043982717
 20
1109.7990499359
 30
0.0
 11
1148.2317733976
 21
1109.4070897919
 31
0.0
  0
LINE
  5
4B2
330
1F
100
AcDbEntity
  8
SLD-0_0
  6
SLD-Solid
 62
   179
370
    15
100
AcDbLine
 10
1148.2317733976
 20
1109.4070897919
 30
0.0
 11
1148.3569729539
 21
1109.0217457634
 31
0.0
  0
LINE
  5
4B3
330
1F
100
AcDbEntity
  8
SLD-0_0
  6
SLD-Solid
 62
   179
370
    15
100
AcDbLine
 10
1148.3569729539
 20
1109.0217457634
 30
0.0
 11
1148.4794604989
 21
1108.6447463852
 31
0.0
  0
LINE
  5
4B4
330
1F
100
AcDbEntity
  8
SLD-0_0
  6
SLD-Solid
 62
   179
370
    15
100
AcDbLine
 10
1148.4794604989
 20
1108.6447463852
 30
0.0
 11
1148.5987293931
 21
1108.2777009827
 31
0.0
  0
LINE
  5
4B5
330
1F
100
AcDbEntity
  8
SLD-0_0
  6
SLD-Solid
 62
   179
370
    15
100
AcDbLine
 10
1148.5987293931
 20
1108.2777009827
 30
0.0
 11
1148.714272997
 21
1107.922099672
 31
0.0
  0
LINE
  5
4B6
330
1F
100
AcDbEntity
  8
SLD-0_0
  6
SLD-Solid
 62
   179
370
    15
100
AcDbLine
 10
1148.714272997
 20
1107.922099672
 30
0.0
 11
1148.8255846711
 21
1107.5794921738
 31
0.0
  0
LINE
  5
4B7
330
1F
100
AcDbEntity
  8
SLD-0_0
  6
SLD-Solid
 62
   179
370
    15
100
AcDbLine
 10
1148.8255846711
 20
1107.5794921738
 30
0.0
 11
1148.9322173807
 21
1107.2513089997
 31
0.0
  0
LINE
  5
4B8
330
1F
100
AcDbEntity
  8
SLD-0_0
  6
SLD-Solid
 62
   179
370
    15
100
AcDbLine
 10
1148.9322173807
 20
1107.2513089997
 30
0.0
 11
1149.0337240907
 21
1106.9389210564
 31
0.0
  0
LINE
  5
4B9
330
1F
100
AcDbEntity
  8
SLD-0_0
  6
SLD-Solid
 62
   179
370
    15
100
AcDbLine
 10
1149.3797886583
 20
1105.8738456589
 30
0.0
 11
1149.4021702024
 21
1105.8050022942
 31
0.0
  0
LINE
  5
4BA
330
1F
100
AcDbEntity
  8
SLD-0_0
  6
SLD-Solid
 62
   179
370
    15
100
AcDbLine
 10
1149.4021702024
 20
1105.8050022942
 30
0.0
 11
1149.4259524556
 21
1105.7317481858
 31
0.0
  0
LINE
  5
4BB
330
1F
100
AcDbEntity
  8
SLD-0_0
  6
SLD-Solid
 62
   179
370
    15
100
AcDbLine
 10
1149.4259524556
 20
1105.7317481858
 30
0.0
 11
1149.4505393716
 21
1105.6560502869
 31
0.0
  0
LINE
  5
4BC
330
1F
100
AcDbEntity
  8
SLD-0_0
  6
SLD-Solid
 62
   179
370
    15
100
AcDbLine
 10
1149.4505393716
 20
1105.6560502869
 30
0.0
 11
1149.4753051015
 21
1105.5798755509
 31
0.0
  0
LINE
  5
4BD
330
1F
100
AcDbEntity
  8
SLD-0_0
  6
SLD-Solid
 62
   179
370
    15
100
AcDbLine
 10
1149.4753051015
 20
1105.5798755509
 30
0.0
 11
1149.4995939943
 21
1105.5051313263
 31
0.0
  0
LINE
  5
4BE
330
1F
100
AcDbEntity
  8
SLD-0_0
  6
SLD-Solid
 62
   179
370
    15
100
AcDbLine
 10
1149.4995939943
 20
1105.5051313263
 30
0.0
 11
1149.5227802011
 21
1105.4337249619
 31
0.0
  0
LINE
  5
4BF
330
1F
100
AcDbEntity
  8
SLD-0_0
  6
SLD-Solid
 62
   179
370
    15
100
AcDbLine
 10
1149.5227802011
 20
1105.4337249619
 30
0.0
 11
1149.5442974778
 21
1105.3675638062
 31
0.0
  0
LINE
  5
4C0
330
1F
100
AcDbEntity
  8
SLD-0_0
  6
SLD-Solid
 62
   179
370
    15
100
AcDbLine
 10
1149.5442974778
 20
1105.3675638062
 30
0.0
 11
1149.5635497781
 21
1105.3082571846
 31
0.0
  0
LINE
  5
4C1
330
1F
100
AcDbEntity
  8
SLD-0_0
  6
SLD-Solid
 62
   179
370
    15
100
AcDbLine
 10
1149.0337240907
 20
1106.9389210564
 30
0.0
 11
1149.3797886583
 21
1105.8738456589
 31
0.0
  0
LINE
  5
4C2
330
1F
100
AcDbEntity
  8
SLD-0_0
  6
SLD-Solid
 62
   179
370
    15
100
AcDbLine
 10
1149.5635497781
 20
1105.3082571846
 30
0.0
 11
1149.6087002965
 21
1105.169259153
 31
0.0
  0
LINE
  5
4C3
330
1F
100
AcDbEntity
  8
SLD-0_0
  6
SLD-Solid
 62
   179
370
    15
100
AcDbLine
 10
1149.6087002965
 20
1105.169259153
 30
0.0
 11
1149.6526587221
 21
1105.034016214
 31
0.0
  0
LINE
  5
4C4
330
1F
100
AcDbEntity
  8
SLD-0_0
  6
SLD-Solid
 62
   179
370
    15
100
AcDbLine
 10
1149.6526587221
 20
1105.034016214
 30
0.0
 11
1149.69536545
 21
1104.9025283676
 31
0.0
  0
LINE
  5
4C5
330
1F
100
AcDbEntity
  8
SLD-0_0
  6
SLD-Solid
 62
   179
370
    15
100
AcDbLine
 10
1149.69536545
 20
1104.9025283676
 30
0.0
 11
1149.7368204805
 21
1104.7749744278
 31
0.0
  0
LINE
  5
4C6
330
1F
100
AcDbEntity
  8
SLD-0_0
  6
SLD-Solid
 62
   179
370
    15
100
AcDbLine
 10
1149.7368204805
 20
1104.7749744278
 30
0.0
 11
1149.7769642087
 21
1104.6514139992
 31
0.0
  0
LINE
  5
4C7
330
1F
100
AcDbEntity
  8
SLD-0_0
  6
SLD-Solid
 62
   179
370
    15
100
AcDbLine
 10
1149.7769642087
 20
1104.6514139992
 30
0.0
 11
1149.8157668325
 21
1104.5319662911
 31
0.0
  0
LINE
  5
4C8
330
1F
100
AcDbEntity
  8
SLD-0_0
  6
SLD-Solid
 62
   179
370
    15
100
AcDbLine
 10
1149.8157668325
 20
1104.5319662911
 30
0.0
 11
1149.8532283517
 21
1104.4166909081
 31
0.0
  0
LINE
  5
4C9
330
1F
100
AcDbEntity
  8
SLD-0_0
  6
SLD-Solid
 62
   179
370
    15
100
AcDbLine
 10
1149.8532283517
 20
1104.4166909081
 30
0.0
 11
1149.8892891618
 21
1104.3057070595
 31
0.0
  0
LINE
  5
4CA
330
1F
100
AcDbEntity
  8
SLD-0_0
  6
SLD-Solid
 62
   179
370
    15
100
AcDbLine
 10
1142.0726764413
 20
1142.3594580513
 30
0.0
 11
1142.0724082204
 21
1142.359517656
 31
0.0
  0
LINE
  5
4CB
330
1F
100
AcDbEntity
  8
SLD-0_0
  6
SLD-Solid
 62
   179
370
    15
100
AcDbLine
 10
1142.0724082204
 20
1142.359517656
 30
0.0
 11
1142.2620105954
 21
1142.3333512169
 31
0.0
  0
LINE
  5
4CC
330
1F
100
AcDbEntity
  8
SLD-0_0
  6
SLD-Solid
 62
   179
370
    15
100
AcDbLine
 10
1142.2620105954
 20
1142.3333512169
 30
0.0
 11
1142.8011644098
 21
1142.2645674568
 31
0.0
  0
LINE
  5
4CD
330
1F
100
AcDbEntity
  8
SLD-0_0
  6
SLD-Solid
 62
   179
370
    15
100
AcDbLine
 10
1142.8011644098
 20
1142.2645674568
 30
0.0
 11
1143.6086881372
 21
1142.1773062569
 31
0.0
  0
LINE
  5
4CE
330
1F
100
AcDbEntity
  8
SLD-0_0
  6
SLD-Solid
 62
   179
370
    15
100
AcDbLine
 10
1143.6086881372
 20
1142.1773062569
 30
0.0
 11
1144.5625710698
 21
1142.0991645676
 31
0.0
  0
LINE
  5
4CF
330
1F
100
AcDbEntity
  8
SLD-0_0
  6
SLD-Solid
 62
   179
370
    15
100
AcDbLine
 10
1144.5625710698
 20
1142.0991645676
 30
0.0
 11
1145.5179441186
 21
1142.0486794335
 31
0.0
  0
LINE
  5
4D0
330
1F
100
AcDbEntity
  8
SLD-0_0
  6
SLD-Solid
 62
   179
370
    15
100
AcDbLine
 10
1145.5179441186
 20
1142.0486794335
 30
0.0
 11
1146.3290739271
 21
1142.028294645
 31
0.0
  0
LINE
  5
4D1
330
1F
100
AcDbEntity
  8
SLD-0_0
  6
SLD-Solid
 62
   179
370
    15
100
AcDbLine
 10
1146.3290739271
 20
1142.028294645
 30
0.0
 11
1146.8712675783
 21
1142.026446901
 31
0.0
  0
LINE
  5
4D2
330
1F
100
AcDbEntity
  8
SLD-0_0
  6
SLD-Solid
 62
   179
370
    15
100
AcDbLine
 10
1146.8712675783
 20
1142.026446901
 30
0.0
 11
1147.0613467904
 21
1142.0279966217
 31
0.0
  0
LINE
  5
4D3
330
1F
100
AcDbEntity
  8
SLD-0_0
  6
SLD-Solid
 62
   179
370
    15
100
AcDbLine
 10
393.8639748308
 20
1133.9191423279
 30
0.0
 11
390.8639836522
 21
1133.9191423279
 31
0.0
  0
LINE
  5
4D4
330
1F
100
AcDbEntity
  8
SLD-0_0
  6
SLD-Solid
 62
   179
370
    15
100
AcDbLine
 10
393.8639748308
 20
1133.9191423279
 30
0.0
 11
393.8639748308
 21
1129.8191772324
 31
0.0
  0
LINE
  5
4D5
330
1F
100
AcDbEntity
  8
SLD-0_0
  6
SLD-Solid
 62
   179
370
    15
100
AcDbLine
 10
393.8639748308
 20
1125.019155584
 30
0.0
 11
393.8639748308
 21
1117.4191461426
 31
0.0
  0
LINE
  5
4D6
330
1F
100
AcDbEntity
  8
SLD-0_0
  6
SLD-Solid
 62
   179
370
    15
100
AcDbLine
 10
393.8639748308
 20
1117.4191461426
 30
0.0
 11
390.8639836522
 21
1117.4191461426
 31
0.0
  0
LINE
  5
4D7
330
1F
100
AcDbEntity
  8
SLD-0_0
  6
SLD-Solid
 62
   179
370
    15
100
AcDbLine
 10
393.8639748308
 20
1117.4191461426
 30
0.0
 11
393.8639748308
 21
1100.9191499573
 31
0.0
  0
LINE
  5
4D8
330
1F
100
AcDbEntity
  8
SLD-0_0
  6
SLD-Solid
 62
   179
370
    15
100
AcDbLine
 10
393.8639748308
 20
1100.9191499573
 30
0.0
 11
390.8639836522
 21
1100.9191499573
 31
0.0
  0
LINE
  5
4D9
330
1F
100
AcDbEntity
  8
SLD-0_0
  6
SLD-Solid
 62
   179
370
    15
100
AcDbLine
 10
390.4639768812
 20
1174.2191539627
 30
0.0
 11
390.4094088289
 21
1174.2191539627
 31
0.0
  0
LINE
  5
4DA
330
1F
100
AcDbEntity
  8
SLD-0_0
  6
SLD-Solid
 62
   179
370
    15
100
AcDbLine
 10
390.4639768812
 20
1174.2191539627
 30
0.0
 11
390.4639768812
 21
1172.169171415
 31
0.0
  0
LINE
  5
4DB
330
1F
100
AcDbEntity
  8
SLD-0_0
  6
SLD-Solid
 62
   179
370
    15
100
AcDbLine
 10
327.5139916154
 20
1174.2191539628
 30
0.0
 11
390.4094088289
 21
1174.2191539627
 31
0.0
  0
LINE
  5
4DC
330
1F
100
AcDbEntity
  8
SLD-0_0
  6
SLD-Solid
 62
   179
370
    15
100
AcDbLine
 10
337.4639737817
 20
1015.0191412789
 30
0.0
 11
337.4639737817
 21
1162.212096296
 31
0.0
  0
LINE
  5
4DD
330
1F
100
AcDbEntity
  8
SLD-0_0
  6
SLD-Solid
 62
   179
370
    15
100
AcDbLine
 10
327.5139916154
 20
1172.1620784622
 30
0.0
 11
337.4639737817
 21
1162.212096296
 31
0.0
  0
LINE
  5
4DE
330
1F
100
AcDbEntity
  8
SLD-0_0
  6
SLD-Solid
 62
   179
370
    15
100
AcDbLine
 10
327.5139916154
 20
1015.0191412789
 30
0.0
 11
337.4639737817
 21
1015.0191412789
 31
0.0
  0
LINE
  5
4DF
330
1F
100
AcDbEntity
  8
SLD-0_0
  6
SLD-Solid
 62
   179
370
    15
100
AcDbLine
 10
390.4639768812
 20
1162.219129644
 30
0.0
 11
390.4639768812
 21
1172.169171415
 31
0.0
  0
LINE
  5
4E0
330
1F
100
AcDbEntity
  8
SLD-0_0
  6
SLD-Solid
 62
   179
370
    15
100
AcDbLine
 10
337.4710667344
 20
1162.219129644
 30
0.0
 11
390.4639768812
 21
1162.219129644
 31
0.0
  0
LINE
  5
4E1
330
1F
100
AcDbEntity
  8
SLD-0_0
  6
SLD-Solid
 62
   179
370
    15
100
AcDbLine
 10
337.4710667344
 20
1162.219129644
 30
0.0
 11
327.5210547658
 21
1172.1691714149
 31
0.0
  0
LINE
  5
4E2
330
1F
100
AcDbEntity
  8
SLD-0_0
  6
SLD-Solid
 62
   179
370
    15
100
AcDbLine
 10
325.4639792653
 20
1015.0191412789
 30
0.0
 11
325.4639792652
 21
1172.169171415
 31
0.0
  0
LINE
  5
4E3
330
1F
100
AcDbEntity
  8
SLD-0_0
  6
SLD-Solid
 62
   179
370
    15
100
AcDbLine
 10
327.5139916154
 20
1015.0191412789
 30
0.0
 11
325.4639792653
 21
1015.0191412789
 31
0.0
  0
LINE
  5
4E4
330
1F
100
AcDbEntity
  8
SLD-0_0
  6
SLD-Solid
 62
   179
370
    15
100
AcDbLine
 10
326.2639928075
 20
1172.169171415
 30
0.0
 11
325.4639792652
 21
1172.169171415
 31
0.0
  0
LINE
  5
4E5
330
1F
100
AcDbEntity
  8
SLD-0_0
  6
SLD-Solid
 62
   179
370
    15
100
AcDbLine
 10
327.5139916154
 20
1173.4191404206
 30
0.0
 11
327.5139916154
 21
1174.2191539628
 31
0.0
  0
LINE
  5
4E6
330
1F
100
AcDbEntity
  8
SLD-0_0
  6
SLD-Solid
 62
   179
370
    15
100
AcDbLine
 10
390.5880737516
 20
1174.2113457543
 30
0.0
 11
390.4639768812
 21
1174.218438707
 31
0.0
  0
LINE
  5
4E7
330
1F
100
AcDbEntity
  8
SLD-0_0
  6
SLD-Solid
 62
   179
370
    15
100
AcDbLine
 10
395.5146658632
 20
1173.7803445679
 30
0.0
 11
395.4449582311
 21
1172.9833708626
 31
0.0
  0
LINE
  5
4E8
330
1F
100
AcDbEntity
  8
SLD-0_0
  6
SLD-Solid
 62
   179
370
    15
100
AcDbLine
 10
395.4449582311
 20
1172.9833708626
 30
0.0
 11
390.5183363172
 21
1173.414372049
 31
0.0
  0
LINE
  5
4E9
330
1F
100
AcDbEntity
  8
SLD-0_0
  6
SLD-Solid
 62
   179
370
    15
100
AcDbLine
 10
395.5146658632
 20
1173.7803445679
 30
0.0
 11
390.5880737516
 21
1174.2113457543
 31
0.0
  0
LINE
  5
4EA
330
1F
100
AcDbEntity
  8
SLD-0_0
  6
SLD-Solid
 62
   179
370
    15
100
AcDbLine
 10
337.4639737817
 20
1014.2191277367
 30
0.0
 11
337.4639737817
 21
1014.9262772423
 31
0.0
  0
LINE
  5
4EB
330
1F
100
AcDbEntity
  8
SLD-0_0
  6
SLD-Solid
 62
   179
370
    15
100
AcDbLine
 10
328.1139719697
 20
1014.2191277367
 30
0.0
 11
327.5139916154
 21
1014.2191277367
 31
0.0
  0
LINE
  5
4EC
330
1F
100
AcDbEntity
  8
SLD-0_0
  6
SLD-Solid
 62
   179
370
    15
100
AcDbLine
 10
338.2639873239
 20
1012.9691587311
 30
0.0
 11
338.2245886537
 21
1013.3691058975
 31
0.0
  0
LINE
  5
4ED
330
1F
100
AcDbEntity
  8
SLD-0_0
  6
SLD-Solid
 62
   179
370
    15
100
AcDbLine
 10
338.2245886537
 20
1013.3691058975
 30
0.0
 11
338.2139790269
 21
1013.4191737992
 31
0.0
  0
LINE
  5
4EE
330
1F
100
AcDbEntity
  8
SLD-0_0
  6
SLD-Solid
 62
   179
370
    15
100
AcDbLine
 10
337.8387975904
 20
1014.2191277367
 30
0.0
 11
337.6635599347
 21
1014.418743692
 31
0.0
  0
LINE
  5
4EF
330
1F
100
AcDbEntity
  8
SLD-0_0
  6
SLD-Solid
 62
   179
370
    15
100
AcDbLine
 10
337.6635599347
 20
1014.418743692
 30
0.0
 11
337.4639737817
 21
1014.5939813477
 31
0.0
  0
LINE
  5
4F0
330
1F
100
AcDbEntity
  8
SLD-0_0
  6
SLD-Solid
 62
   179
370
    15
100
AcDbLine
 10
337.4639737817
 20
1012.9691587311
 30
0.0
 11
337.4399531099
 21
1013.2130013329
 31
0.0
  0
LINE
  5
4F1
330
1F
100
AcDbEntity
  8
SLD-0_0
  6
SLD-Solid
 62
   179
370
    15
100
AcDbLine
 10
337.4399531099
 20
1013.2130013329
 30
0.0
 11
337.3801696512
 21
1013.4191737992
 31
0.0
  0
LINE
  5
4F2
330
1F
100
AcDbEntity
  8
SLD-0_0
  6
SLD-Solid
 62
   179
370
    15
100
AcDbLine
 10
338.2639873239
 20
1008.2191453797
 30
0.0
 11
337.4639737817
 21
1008.2191453797
 31
0.0
  0
LINE
  5
4F3
330
1F
100
AcDbEntity
  8
SLD-0_0
  6
SLD-Solid
 62
   179
370
    15
100
AcDbLine
 10
337.4639737817
 20
1008.2191453797
 30
0.0
 11
337.4639737817
 21
1012.9691587311
 31
0.0
  0
LINE
  5
4F4
330
1F
100
AcDbEntity
  8
SLD-0_0
  6
SLD-Solid
 62
   179
370
    15
100
AcDbLine
 10
338.2639873239
 20
1008.2191453797
 30
0.0
 11
338.2639873239
 21
1012.9691587311
 31
0.0
  0
LINE
  5
4F5
330
1F
100
AcDbEntity
  8
SLD-0_0
  6
SLD-Solid
 62
   179
370
    15
100
AcDbLine
 10
392.4139726373
 20
1097.4191652161
 30
0.0
 11
392.4139726373
 21
1095.9191547257
 31
0.0
  0
LINE
  5
4F6
330
1F
100
AcDbEntity
  8
SLD-0_0
  6
SLD-Solid
 62
   179
370
    15
100
AcDbLine
 10
392.4139726373
 20
1098.9191757065
 30
0.0
 11
392.4139726373
 21
1097.4191652161
 31
0.0
  0
LINE
  5
4F7
330
1F
100
AcDbEntity
  8
SLD-0_0
  6
SLD-Solid
 62
   179
370
    15
100
AcDbLine
 10
388.8139713022
 20
1014.9262772423
 30
0.0
 11
326.8639731618
 21
1014.9262772423
 31
0.0
  0
LINE
  5
4F8
330
1F
100
AcDbEntity
  8
SLD-0_0
  6
SLD-Solid
 62
   179
370
    15
100
AcDbLine
 10
326.8639731618
 20
1015.0191412789
 30
0.0
 11
326.8639731618
 21
1014.9262772423
 31
0.0
  0
LINE
  5
4F9
330
1F
100
AcDbEntity
  8
SLD-0_0
  6
SLD-Solid
 62
   179
370
    15
100
AcDbLine
 10
326.8639731618
 20
1172.1648202759
 30
0.0
 11
326.8639731618
 21
1173.2368694168
 31
0.0
  0
LINE
  5
4FA
330
1F
100
AcDbEntity
  8
SLD-0_0
  6
SLD-Solid
 62
   179
370
    15
100
AcDbLine
 10
390.8639836522
 20
1171.3691578728
 30
0.0
 11
390.8639836522
 21
1015.4691563469
 31
0.0
  0
LINE
  5
4FB
330
1F
100
AcDbEntity
  8
SLD-0_0
  6
SLD-Solid
 62
   179
370
    15
100
AcDbLine
 10
390.4429066392
 20
1172.6191268784
 30
0.0
 11
390.8639836522
 21
1172.6191268784
 31
0.0
  0
LINE
  5
4FC
330
1F
100
AcDbEntity
  8
SLD-0_0
  6
SLD-Solid
 62
   179
370
    15
100
AcDbLine
 10
390.8639836522
 20
1172.6191268784
 30
0.0
 11
390.8639836522
 21
1171.3691578728
 31
0.0
  0
LINE
  5
4FD
330
1F
100
AcDbEntity
  8
SLD-0_0
  6
SLD-Solid
 62
   179
370
    15
100
AcDbLine
 10
326.8639731618
 20
1008.4191189629
 30
0.0
 11
326.8639731618
 21
1012.1691451889
 31
0.0
  0
LINE
  5
4FE
330
1F
100
AcDbEntity
  8
SLD-0_0
  6
SLD-Solid
 62
   179
370
    15
100
AcDbLine
 10
326.063989422
 20
1008.4191189629
 30
0.0
 11
326.063989422
 21
1012.1691451889
 31
0.0
  0
LINE
  5
4FF
330
1F
100
AcDbEntity
  8
SLD-0_0
  6
SLD-Solid
 62
   179
370
    15
100
AcDbLine
 10
388.8139713022
 20
1014.2191277367
 30
0.0
 11
328.1139719697
 21
1014.2191277367
 31
0.0
  0
LINE
  5
500
330
1F
100
AcDbEntity
  8
SLD-0_0
  6
SLD-Solid
 62
   179
370
    15
100
AcDbLine
 10
388.8139713022
 20
1013.4191737992
 30
0.0
 11
388.8139713022
 21
1014.2191277367
 31
0.0
  0
LINE
  5
501
330
1F
100
AcDbEntity
  8
SLD-0_0
  6
SLD-Solid
 62
   179
370
    15
100
AcDbLine
 10
388.8139713022
 20
1013.4191737992
 30
0.0
 11
328.1139719697
 21
1013.4191737992
 31
0.0
  0
LINE
  5
502
330
1F
100
AcDbEntity
  8
SLD-0_0
  6
SLD-Solid
 62
   179
370
    15
100
AcDbLine
 10
326.063989422
 20
1003.4191237313
 30
0.0
 11
326.8639731618
 21
1003.4191237313
 31
0.0
  0
LINE
  5
503
330
1F
100
AcDbEntity
  8
SLD-0_0
  6
SLD-Solid
 62
   179
370
    15
100
AcDbLine
 10
326.063989422
 20
1003.4191237313
 30
0.0
 11
326.063989422
 21
1008.4191189629
 31
0.0
  0
LINE
  5
504
330
1F
100
AcDbEntity
  8
SLD-0_0
  6
SLD-Solid
 62
   179
370
    15
100
AcDbLine
 10
326.8639731618
 20
1003.4191237313
 30
0.0
 11
326.8639731618
 21
1008.4191189629
 31
0.0
  0
LINE
  5
505
330
1F
100
AcDbEntity
  8
SLD-0_0
  6
SLD-Solid
 62
   179
370
    15
100
AcDbLine
 10
401.163994095
 20
1166.2609206063
 30
0.0
 11
401.163994095
 21
1165.8464895111
 31
0.0
  0
LINE
  5
506
330
1F
100
AcDbEntity
  8
SLD-0_0
  6
SLD-Solid
 62
   179
370
    15
100
AcDbLine
 10
400.7339763852
 20
485.4191468579
 30
0.0
 11
400.3639805528
 21
485.4191468579
 31
0.0
  0
LINE
  5
507
330
1F
100
AcDbEntity
  8
SLD-0_0
  6
SLD-Solid
 62
   179
370
    15
100
AcDbLine
 10
401.163994095
 20
486.4191488844
 30
0.0
 11
401.163994095
 21
485.8663083535
 31
0.0
  0
LINE
  5
508
330
1F
100
AcDbEntity
  8
SLD-0_0
  6
SLD-Solid
 62
   179
370
    15
100
AcDbLine
 10
1147.3318624708
 20
1112.1767388207
 30
0.0
 11
1147.021828911
 21
1113.1308899742
 31
0.0
  0
LINE
  5
509
330
1F
100
AcDbEntity
  8
SLD-0_0
  6
SLD-Solid
 62
   179
370
    15
100
AcDbLine
 10
1147.021828911
 20
1113.1308899742
 30
0.0
 11
1146.7517304632
 21
1113.9621363503
 31
0.0
  0
LINE
  5
50A
330
1F
100
AcDbEntity
  8
SLD-0_0
  6
SLD-Solid
 62
   179
370
    15
100
AcDbLine
 10
1146.7517304632
 20
1113.9621363503
 30
0.0
 11
1146.5674925062
 21
1114.529155336
 31
0.0
  0
LINE
  5
50B
330
1F
100
AcDbEntity
  8
SLD-0_0
  6
SLD-Solid
 62
   179
370
    15
100
AcDbLine
 10
1146.5674925062
 20
1114.529155336
 30
0.0
 11
1146.4855063173
 21
1114.7814617974
 31
0.0
  0
LINE
  5
50C
330
1F
100
AcDbEntity
  8
SLD-0_0
  6
SLD-Solid
 62
   179
370
    15
100
AcDbLine
 10
1146.4855063173
 20
1114.7814617974
 30
0.0
 11
1146.4820492479
 21
1114.7921310288
 31
0.0
  0
LINE
  5
50D
330
1F
100
AcDbEntity
  8
SLD-0_0
  6
SLD-Solid
 62
   179
370
    15
100
AcDbLine
 10
1149.0794706556
 20
1113.2703052384
 30
0.0
 11
1147.1773374292
 21
1112.6522646767
 31
0.0
  0
LINE
  5
50E
330
1F
100
AcDbEntity
  8
SLD-0_0
  6
SLD-Solid
 62
   179
370
    15
100
AcDbLine
 10
398.6639666768
 20
1138.3691655022
 30
0.0
 11
398.6639666768
 21
1129.9191342217
 31
0.0
  0
LINE
  5
50F
330
1F
100
AcDbEntity
  8
SLD-0_0
  6
SLD-Solid
 62
   179
370
    15
100
AcDbLine
 10
673.8494175884
 20
1189.1302691323
 30
0.0
 11
570.8785492393
 21
1189.1302691323
 31
0.0
  0
LINE
  5
510
330
1F
100
AcDbEntity
  8
SLD-0_0
  6
SLD-Solid
 62
   179
370
    15
100
AcDbLine
 10
953.8494187805
 20
1189.1302691323
 30
0.0
 11
850.8785504314
 21
1189.1302691323
 31
0.0
  0
LINE
  5
511
330
1F
100
AcDbEntity
  8
SLD-0_0
  6
SLD-Solid
 62
   179
370
    15
100
AcDbLine
 10
501.3639766189
 20
1167.6191316468
 30
0.0
 11
501.3639766189
 21
1167.6652060372
 31
0.0
  0
LINE
  5
512
330
1F
100
AcDbEntity
  8
SLD-0_0
  6
SLD-Solid
 62
   179
370
    15
100
AcDbLine
 10
1023.3639764997
 20
1174.819134317
 30
0.0
 11
1023.3639764997
 21
1167.6191316468
 31
0.0
  0
LINE
  5
513
330
1F
100
AcDbEntity
  8
SLD-0_0
  6
SLD-Solid
 62
   179
370
    15
100
AcDbLine
 10
1106.2932598802
 20
1167.0191512924
 30
0.0
 11
1107.1639943334
 21
1167.0191512924
 31
0.0
  0
LINE
  5
514
330
1F
100
AcDbEntity
  8
SLD-0_0
  6
SLD-Solid
 62
   179
370
    15
100
AcDbLine
 10
1047.5355673047
 20
1183.6191640717
 30
0.0
 11
1047.3139870378
 21
1183.6191640717
 31
0.0
  0
LINE
  5
515
330
1F
100
AcDbEntity
  8
SLD-0_0
  6
SLD-Solid
 62
   179
370
    15
100
AcDbLine
 10
1025.3639805528
 20
1183.6000309807
 30
0.0
 11
1025.3639805528
 21
1183.6101041657
 31
0.0
  0
LINE
  5
516
330
1F
100
AcDbEntity
  8
SLD-0_0
  6
SLD-Solid
 62
   179
370
    15
100
AcDbLine
 10
1110.3726911756
 20
1018.119119249
 30
0.0
 11
1110.3639888975
 21
1018.119119249
 31
0.0
  0
LINE
  5
517
330
1F
100
AcDbEntity
  8
SLD-0_0
  6
SLD-Solid
 62
   179
370
    15
100
AcDbLine
 10
1108.863978407
 20
1007.1191416603
 30
0.0
 11
1108.863978407
 21
1016.6191683632
 31
0.0
  0
LINE
  5
518
330
1F
100
AcDbEntity
  8
SLD-0_0
  6
SLD-Solid
 62
   179
370
    15
100
AcDbLine
 10
1164.2433691236
 20
1020.8031760079
 30
0.0
 11
1162.6125264379
 21
1020.2096329552
 31
0.0
  0
LINE
  5
519
330
1F
100
AcDbEntity
  8
SLD-0_0
  6
SLD-Solid
 62
   179
370
    15
100
AcDbLine
 10
1164.1639757367
 20
1018.6459647042
 30
0.0
 11
1164.927392027
 21
1018.9237819535
 31
0.0
  0
LINE
  5
51A
330
1F
100
AcDbEntity
  8
SLD-0_0
  6
SLD-Solid
 62
   179
370
    15
100
AcDbLine
 10
1107.1639943334
 20
1007.1191416603
 30
0.0
 11
1108.863978407
 21
1007.1191416603
 31
0.0
  0
LINE
  5
51B
330
1F
100
AcDbEntity
  8
SLD-0_0
  6
SLD-Solid
 62
   179
370
    15
100
AcDbLine
 10
1168.9418244573
 20
1022.5132928711
 30
0.0
 11
1169.6258771631
 21
1020.6338988167
 31
0.0
  0
LINE
  5
51C
330
1F
100
AcDbEntity
  8
SLD-0_0
  6
SLD-Solid
 62
   179
370
    15
100
AcDbLine
 10
1169.6258771631
 20
1020.6338988167
 30
0.0
 11
1169.5355761262
 21
1020.6010566574
 31
0.0
  0
LINE
  5
51D
330
1F
100
AcDbEntity
  8
SLD-0_0
  6
SLD-Solid
 62
   179
370
    15
100
AcDbLine
 10
1169.5355761262
 20
1020.6010566574
 30
0.0
 11
1169.2682194921
 21
1020.5037222725
 31
0.0
  0
LINE
  5
51E
330
1F
100
AcDbEntity
  8
SLD-0_0
  6
SLD-Solid
 62
   179
370
    15
100
AcDbLine
 10
1169.2682194921
 20
1020.5037222725
 30
0.0
 11
1168.8340294572
 21
1020.3457103592
 31
0.0
  0
LINE
  5
51F
330
1F
100
AcDbEntity
  8
SLD-0_0
  6
SLD-Solid
 62
   179
370
    15
100
AcDbLine
 10
1168.8340294572
 20
1020.3457103592
 30
0.0
 11
1168.2497251245
 21
1020.1330409867
 31
0.0
  0
LINE
  5
520
330
1F
100
AcDbEntity
  8
SLD-0_0
  6
SLD-Solid
 62
   179
370
    15
100
AcDbLine
 10
1168.2497251245
 20
1020.1330409867
 30
0.0
 11
1167.5377476426
 21
1019.8738799912
 31
0.0
  0
LINE
  5
521
330
1F
100
AcDbEntity
  8
SLD-0_0
  6
SLD-Solid
 62
   179
370
    15
100
AcDbLine
 10
1167.5377476426
 20
1019.8738799912
 30
0.0
 11
1166.7254257413
 21
1019.5782409531
 31
0.0
  0
LINE
  5
522
330
1F
100
AcDbEntity
  8
SLD-0_0
  6
SLD-Solid
 62
   179
370
    15
100
AcDbLine
 10
1166.7254257413
 20
1019.5782409531
 30
0.0
 11
1165.8440220567
 21
1019.2574487549
 31
0.0
  0
LINE
  5
523
330
1F
100
AcDbEntity
  8
SLD-0_0
  6
SLD-Solid
 62
   179
370
    15
100
AcDbLine
 10
1165.8440220567
 20
1019.2574487549
 30
0.0
 11
1164.927392027
 21
1018.9237819535
 31
0.0
  0
LINE
  5
524
330
1F
100
AcDbEntity
  8
SLD-0_0
  6
SLD-Solid
 62
   179
370
    15
100
AcDbLine
 10
1164.2433691236
 20
1020.8031760079
 30
0.0
 11
1165.1599991533
 21
1021.1367832047
 31
0.0
  0
LINE
  5
525
330
1F
100
AcDbEntity
  8
SLD-0_0
  6
SLD-Solid
 62
   179
370
    15
100
AcDbLine
 10
1165.1599991533
 20
1021.1367832047
 30
0.0
 11
1166.0414028379
 21
1021.4576350075
 31
0.0
  0
LINE
  5
526
330
1F
100
AcDbEntity
  8
SLD-0_0
  6
SLD-Solid
 62
   179
370
    15
100
AcDbLine
 10
1166.0414028379
 20
1021.4576350075
 30
0.0
 11
1166.8536949369
 21
1021.7532740456
 31
0.0
  0
LINE
  5
527
330
1F
100
AcDbEntity
  8
SLD-0_0
  6
SLD-Solid
 62
   179
370
    15
100
AcDbLine
 10
1166.8536949369
 20
1021.7532740456
 30
0.0
 11
1167.5656724187
 21
1022.0124350411
 31
0.0
  0
LINE
  5
528
330
1F
100
AcDbEntity
  8
SLD-0_0
  6
SLD-Solid
 62
   179
370
    15
100
AcDbLine
 10
1167.5656724187
 20
1022.0124350411
 30
0.0
 11
1168.1500065538
 21
1022.2251044136
 31
0.0
  0
LINE
  5
529
330
1F
100
AcDbEntity
  8
SLD-0_0
  6
SLD-Solid
 62
   179
370
    15
100
AcDbLine
 10
1168.1500065538
 20
1022.2251044136
 30
0.0
 11
1168.5841667863
 21
1022.3831163269
 31
0.0
  0
LINE
  5
52A
330
1F
100
AcDbEntity
  8
SLD-0_0
  6
SLD-Solid
 62
   179
370
    15
100
AcDbLine
 10
1168.5841667863
 20
1022.3831163269
 30
0.0
 11
1168.8515532228
 21
1022.4804507118
 31
0.0
  0
LINE
  5
52B
330
1F
100
AcDbEntity
  8
SLD-0_0
  6
SLD-Solid
 62
   179
370
    15
100
AcDbLine
 10
1168.8515532228
 20
1022.4804507118
 30
0.0
 11
1168.9418244573
 21
1022.5132928711
 31
0.0
  0
LINE
  5
52C
330
1F
100
AcDbEntity
  8
SLD-0_0
  6
SLD-Solid
 62
   179
370
    15
100
AcDbLine
 10
1129.163979313
 20
1017.3191653115
 30
0.0
 11
1151.163994095
 21
1017.3191653115
 31
0.0
  0
LINE
  5
52D
330
1F
100
AcDbEntity
  8
SLD-0_0
  6
SLD-Solid
 62
   179
370
    15
100
AcDbLine
 10
1126.1639881345
 20
1015.319131456
 30
0.0
 11
1126.1639881345
 21
1014.3191443306
 31
0.0
  0
LINE
  5
52E
330
1F
100
AcDbEntity
  8
SLD-0_0
  6
SLD-Solid
 62
   179
370
    15
100
AcDbLine
 10
1128.1639921876
 20
1017.3191653115
 30
0.0
 11
1129.163979313
 21
1017.3191653115
 31
0.0
  0
LINE
  5
52F
330
1F
100
AcDbEntity
  8
SLD-0_0
  6
SLD-Solid
 62
   179
370
    15
100
AcDbLine
 10
1134.0402651044
 20
1017.3191653115
 30
0.0
 11
1134.1714847299
 21
1017.6191554886
 31
0.0
  0
LINE
  5
530
330
1F
100
AcDbEntity
  8
SLD-0_0
  6
SLD-Solid
 62
   179
370
    15
100
AcDbLine
 10
1146.1564886781
 20
1017.6191554886
 30
0.0
 11
1146.2877083036
 21
1017.3191653115
 31
0.0
  0
LINE
  5
531
330
1F
100
AcDbEntity
  8
SLD-0_0
  6
SLD-Solid
 62
   179
370
    15
100
AcDbLine
 10
1141.7510497781
 20
1017.2437058312
 30
0.0
 11
1141.7202341768
 21
1017.6191554886
 31
0.0
  0
LINE
  5
532
330
1F
100
AcDbEntity
  8
SLD-0_0
  6
SLD-Solid
 62
   179
370
    15
100
AcDbLine
 10
1138.5959971162
 20
1017.6191554886
 30
0.0
 11
1138.5879504892
 21
1017.3191653115
 31
0.0
  0
LINE
  5
533
330
1F
100
AcDbEntity
  8
SLD-0_0
  6
SLD-Solid
 62
   179
370
    15
100
AcDbLine
 10
1141.1639738294
 20
1017.3191653115
 30
0.0
 11
1141.1179292413
 21
1017.6191554886
 31
0.0
  0
LINE
  5
534
330
1F
100
AcDbEntity
  8
SLD-0_0
  6
SLD-Solid
 62
   179
370
    15
100
AcDbLine
 10
1139.2100441667
 20
1017.6191554886
 30
0.0
 11
1139.1639697763
 21
1017.3191653115
 31
0.0
  0
LINE
  5
535
330
1F
100
AcDbEntity
  8
SLD-0_0
  6
SLD-Solid
 62
   179
370
    15
100
AcDbLine
 10
1146.663992426
 20
1017.3191653115
 30
0.0
 11
1146.6570484849
 21
1017.6191554886
 31
0.0
  0
LINE
  5
536
330
1F
100
AcDbEntity
  8
SLD-0_0
  6
SLD-Solid
 62
   179
370
    15
100
AcDbLine
 10
1133.6708951207
 20
1017.6191554886
 30
0.0
 11
1133.663980982
 21
1017.3191653115
 31
0.0
  0
LINE
  5
537
330
1F
100
AcDbEntity
  8
SLD-0_0
  6
SLD-Solid
 62
   179
370
    15
100
AcDbLine
 10
1164.6639692994
 20
1014.8191676956
 30
0.0
 11
1147.6639795514
 21
1014.8191676956
 31
0.0
  0
LINE
  5
538
330
1F
100
AcDbEntity
  8
SLD-0_0
  6
SLD-Solid
 62
   179
370
    15
100
AcDbLine
 10
1164.6639692994
 20
1016.3191185814
 30
0.0
 11
1147.6639795514
 21
1016.3191185814
 31
0.0
  0
LINE
  5
539
330
1F
100
AcDbEntity
  8
SLD-0_0
  6
SLD-Solid
 62
   179
370
    15
100
AcDbLine
 10
1164.1639757367
 20
1014.3191443306
 30
0.0
 11
1164.1139674398
 21
1014.3191443306
 31
0.0
  0
LINE
  5
53A
330
1F
100
AcDbEntity
  8
SLD-0_0
  6
SLD-Solid
 62
   179
370
    15
100
AcDbLine
 10
1156.3639927121
 20
1014.3191443306
 30
0.0
 11
1156.3639927121
 21
1014.5191775185
 31
0.0
  0
LINE
  5
53B
330
1F
100
AcDbEntity
  8
SLD-0_0
  6
SLD-Solid
 62
   179
370
    15
100
AcDbLine
 10
1155.9639859411
 20
1014.5191775185
 30
0.0
 11
1156.3639927121
 21
1014.5191775185
 31
0.0
  0
LINE
  5
53C
330
1F
100
AcDbEntity
  8
SLD-0_0
  6
SLD-Solid
 62
   179
370
    15
100
AcDbLine
 10
1155.9639859411
 20
1014.5191775185
 30
0.0
 11
1155.9639859411
 21
1014.3191443306
 31
0.0
  0
LINE
  5
53D
330
1F
100
AcDbEntity
  8
SLD-0_0
  6
SLD-Solid
 62
   179
370
    15
100
AcDbLine
 10
1164.1639757367
 20
1016.8191419464
 30
0.0
 11
1148.1639731141
 21
1016.8191419464
 31
0.0
  0
LINE
  5
53E
330
1F
100
AcDbEntity
  8
SLD-0_0
  6
SLD-Solid
 62
   179
370
    15
100
AcDbLine
 10
1147.6639795514
 20
489.819146834
 30
0.0
 11
1164.6639692994
 21
489.819146834
 31
0.0
  0
LINE
  5
53F
330
1F
100
AcDbEntity
  8
SLD-0_0
  6
SLD-Solid
 62
   179
370
    15
100
AcDbLine
 10
1164.1139674398
 20
490.3191478473
 30
0.0
 11
1164.1639757367
 21
490.3191478473
 31
0.0
  0
LINE
  5
540
330
1F
100
AcDbEntity
  8
SLD-0_0
  6
SLD-Solid
 62
   179
370
    15
100
AcDbLine
 10
1147.6639795514
 20
488.3191512448
 30
0.0
 11
1164.6639692994
 21
488.3191512448
 31
0.0
  0
LINE
  5
541
330
1F
100
AcDbEntity
  8
SLD-0_0
  6
SLD-Solid
 62
   179
370
    15
100
AcDbLine
 10
1156.1639893266
 20
487.8191502315
 30
0.0
 11
1164.1639757367
 21
487.8191502315
 31
0.0
  0
LINE
  5
542
330
1F
100
AcDbEntity
  8
SLD-0_0
  6
SLD-Solid
 62
   179
370
    15
100
AcDbLine
 10
1166.1639797899
 20
580.319143973
 30
0.0
 11
1167.7639770719
 21
580.319143973
 31
0.0
  0
LINE
  5
543
330
1F
100
AcDbEntity
  8
SLD-0_0
  6
SLD-Solid
 62
   179
370
    15
100
AcDbLine
 10
1167.7639770719
 20
578.3247725588
 30
0.0
 11
1167.7639770719
 21
580.319143973
 31
0.0
  0
LINE
  5
544
330
1F
100
AcDbEntity
  8
SLD-0_0
  6
SLD-Solid
 62
   179
370
    15
100
AcDbLine
 10
1167.7639770719
 20
520.3191490394
 30
0.0
 11
1167.7639770719
 21
522.3131330234
 31
0.0
  0
LINE
  5
545
330
1F
100
AcDbEntity
  8
SLD-0_0
  6
SLD-Solid
 62
   179
370
    15
100
AcDbLine
 10
1166.1639797899
 20
520.3191490394
 30
0.0
 11
1167.7639770719
 21
520.3191490394
 31
0.0
  0
LINE
  5
546
330
1F
100
AcDbEntity
  8
SLD-0_0
  6
SLD-Solid
 62
   179
370
    15
100
AcDbLine
 10
1167.7639770719
 20
522.3131330234
 30
0.0
 11
1167.7639770719
 21
578.3247725588
 31
0.0
  0
LINE
  5
547
330
1F
100
AcDbEntity
  8
SLD-0_0
  6
SLD-Solid
 62
   179
370
    15
100
AcDbLine
 10
1169.1639709684
 20
577.7814315182
 30
0.0
 11
1169.1639709684
 21
522.8568614942
 31
0.0
  0
LINE
  5
548
330
1F
100
AcDbEntity
  8
SLD-0_0
  6
SLD-Solid
 62
   179
370
    15
100
AcDbLine
 10
1200.7485020372
 20
949.6693836075
 30
0.0
 11
1200.6443131181
 21
949.6285544258
 31
0.0
  0
LINE
  5
549
330
1F
100
AcDbEntity
  8
SLD-0_0
  6
SLD-Solid
 62
   179
370
    15
100
AcDbLine
 10
1206.6120791646
 20
950.8866296631
 30
0.0
 11
1206.4692366334
 21
950.9338961464
 31
0.0
  0
LINE
  5
54A
330
1F
100
AcDbEntity
  8
SLD-0_0
  6
SLD-Solid
 62
   179
370
    15
100
AcDbLine
 10
1206.4692366334
 20
950.9338961464
 30
0.0
 11
1206.1520803186
 21
951.0106073242
 31
0.0
  0
LINE
  5
54B
330
1F
100
AcDbEntity
  8
SLD-0_0
  6
SLD-Solid
 62
   179
370
    15
100
AcDbLine
 10
1206.6201257917
 20
950.8400784355
 30
0.0
 11
1206.755398533
 21
950.8392439705
 31
0.0
  0
LINE
  5
54C
330
1F
100
AcDbEntity
  8
SLD-0_0
  6
SLD-Solid
 62
   179
370
    15
100
AcDbLine
 10
1201.8941927167
 20
978.8757191521
 30
0.0
 11
1202.2998023244
 21
978.8756595475
 31
0.0
  0
LINE
  5
54D
330
1F
100
AcDbEntity
  8
SLD-0_0
  6
SLD-Solid
 62
   179
370
    15
100
AcDbLine
 10
1203.0644703122
 20
978.735290609
 30
0.0
 11
1200.6443131181
 21
979.0256248337
 31
0.0
  0
LINE
  5
54E
330
1F
100
AcDbEntity
  8
SLD-0_0
  6
SLD-Solid
 62
   179
370
    15
100
AcDbLine
 10
1207.7492761823
 20
955.2089200837
 30
0.0
 11
1208.3140599939
 21
955.3687201363
 31
0.0
  0
LINE
  5
54F
330
1F
100
AcDbEntity
  8
SLD-0_0
  6
SLD-Solid
 62
   179
370
    15
100
AcDbLine
 10
1208.3140599939
 20
955.3687201363
 30
0.0
 11
1210.3672611924
 21
955.3847537857
 31
0.0
  0
LINE
  5
550
330
1F
100
AcDbEntity
  8
SLD-0_0
  6
SLD-Solid
 62
   179
370
    15
100
AcDbLine
 10
1210.3672611924
 20
955.3847537857
 30
0.0
 11
1214.0626895639
 21
955.3822503907
 31
0.0
  0
LINE
  5
551
330
1F
100
AcDbEntity
  8
SLD-0_0
  6
SLD-Solid
 62
   179
370
    15
100
AcDbLine
 10
1214.0626895639
 20
955.3822503907
 30
0.0
 11
1217.2185170862
 21
955.3800450188
 31
0.0
  0
LINE
  5
552
330
1F
100
AcDbEntity
  8
SLD-0_0
  6
SLD-Solid
 62
   179
370
    15
100
AcDbLine
 10
1217.2185170862
 20
955.3800450188
 30
0.0
 11
1220.2130246373
 21
955.3777204376
 31
0.0
  0
LINE
  5
553
330
1F
100
AcDbEntity
  8
SLD-0_0
  6
SLD-Solid
 62
   179
370
    15
100
AcDbLine
 10
1220.2130246373
 20
955.3777204376
 30
0.0
 11
1221.4353966924
 21
955.3767667633
 31
0.0
  0
LINE
  5
554
330
1F
100
AcDbEntity
  8
SLD-0_0
  6
SLD-Solid
 62
   179
370
    15
100
AcDbLine
 10
1221.4353966924
 20
955.3767667633
 30
0.0
 11
1221.9777095529
 21
955.3762899262
 31
0.0
  0
LINE
  5
555
330
1F
100
AcDbEntity
  8
SLD-0_0
  6
SLD-Solid
 62
   179
370
    15
100
AcDbLine
 10
1221.9777095529
 20
955.3762899262
 30
0.0
 11
1222.2256052705
 21
955.3455339295
 31
0.0
  0
LINE
  5
556
330
1F
100
AcDbEntity
  8
SLD-0_0
  6
SLD-Solid
 62
   179
370
    15
100
AcDbLine
 10
1222.2256052705
 20
955.3455339295
 30
0.0
 11
1222.4290955278
 21
955.1503287178
 31
0.0
  0
LINE
  5
557
330
1F
100
AcDbEntity
  8
SLD-0_0
  6
SLD-Solid
 62
   179
370
    15
100
AcDbLine
 10
1205.4428148481
 20
951.2303696495
 30
0.0
 11
1205.7362783166
 21
951.1181341034
 31
0.0
  0
LINE
  5
558
330
1F
100
AcDbEntity
  8
SLD-0_0
  6
SLD-Solid
 62
   179
370
    15
100
AcDbLine
 10
1205.7362783166
 20
951.1181341034
 30
0.0
 11
1206.755398533
 21
950.8392439705
 31
0.0
  0
LINE
  5
559
330
1F
100
AcDbEntity
  8
SLD-0_0
  6
SLD-Solid
 62
   179
370
    15
100
AcDbLine
 10
1222.4290955278
 20
955.1503287178
 30
0.0
 11
1222.2501027795
 21
955.0006018502
 31
0.0
  0
LINE
  5
55A
330
1F
100
AcDbEntity
  8
SLD-0_0
  6
SLD-Solid
 62
   179
370
    15
100
AcDbLine
 10
1222.2501027795
 20
973.6380205971
 30
0.0
 11
1222.4290955278
 21
973.4884725434
 31
0.0
  0
LINE
  5
55B
330
1F
100
AcDbEntity
  8
SLD-0_0
  6
SLD-Solid
 62
   179
370
    15
100
AcDbLine
 10
1200.9685325834
 20
949.7702346665
 30
0.0
 11
1201.0349023553
 21
949.7702346665
 31
0.0
  0
LINE
  5
55C
330
1F
100
AcDbEntity
  8
SLD-0_0
  6
SLD-Solid
 62
   179
370
    15
100
AcDbLine
 10
1200.6443131181
 20
949.6206270081
 30
0.0
 11
1200.925974867
 21
949.7596846443
 31
0.0
  0
LINE
  5
55D
330
1F
100
AcDbEntity
  8
SLD-0_0
  6
SLD-Solid
 62
   179
370
    15
100
AcDbLine
 10
1200.925974867
 20
949.7596846443
 30
0.0
 11
1200.9685325834
 21
949.7702346665
 31
0.0
  0
LINE
  5
55E
330
1F
100
AcDbEntity
  8
SLD-0_0
  6
SLD-Solid
 62
   179
370
    15
100
AcDbLine
 10
1114.3639672014
 20
493.9691500288
 30
0.0
 11
1114.3639672013
 21
1010.6691346986
 31
0.0
  0
LINE
  5
55F
330
1F
100
AcDbEntity
  8
SLD-0_0
  6
SLD-Solid
 62
   179
370
    15
100
AcDbLine
 10
1116.1639678689
 20
1013.4484396797
 30
0.0
 11
1116.1639678689
 21
491.1898599488
 31
0.0
  0
LINE
  5
560
330
1F
100
AcDbEntity
  8
SLD-0_0
  6
SLD-Solid
 62
   179
370
    15
100
AcDbLine
 10
1164.1139674398
 20
1013.4484396797
 30
0.0
 11
1116.1639678689
 21
1013.4484396797
 31
0.0
  0
LINE
  5
561
330
1F
100
AcDbEntity
  8
SLD-0_0
  6
SLD-Solid
 62
   179
370
    15
100
AcDbLine
 10
1164.1139674398
 20
491.1898599488
 30
0.0
 11
1116.1639678689
 21
491.1898599488
 31
0.0
  0
LINE
  5
562
330
1F
100
AcDbEntity
  8
SLD-0_0
  6
SLD-Solid
 62
   179
370
    15
100
AcDbLine
 10
1166.1639797899
 20
1012.2691617829
 30
0.0
 11
1165.9642446252
 21
1012.7973185402
 31
0.0
  0
LINE
  5
563
330
1F
100
AcDbEntity
  8
SLD-0_0
  6
SLD-Solid
 62
   179
370
    15
100
AcDbLine
 10
1165.9642446252
 20
1012.7973185402
 30
0.0
 11
1165.6257200452
 21
1013.0939112526
 31
0.0
  0
LINE
  5
564
330
1F
100
AcDbEntity
  8
SLD-0_0
  6
SLD-Solid
 62
   179
370
    15
100
AcDbLine
 10
1165.6257200452
 20
1013.0939112526
 30
0.0
 11
1165.0724995347
 21
1013.2927523476
 31
0.0
  0
LINE
  5
565
330
1F
100
AcDbEntity
  8
SLD-0_0
  6
SLD-Solid
 62
   179
370
    15
100
AcDbLine
 10
1165.0724995347
 20
1013.2927523476
 30
0.0
 11
1164.6434653016
 21
1013.3760200363
 31
0.0
  0
LINE
  5
566
330
1F
100
AcDbEntity
  8
SLD-0_0
  6
SLD-Solid
 62
   179
370
    15
100
AcDbLine
 10
1164.6434653016
 20
1013.3760200363
 30
0.0
 11
1164.1139674398
 21
1013.4484396797
 31
0.0
  0
LINE
  5
567
330
1F
100
AcDbEntity
  8
SLD-0_0
  6
SLD-Solid
 62
   179
370
    15
100
AcDbLine
 10
1166.1639797899
 20
1012.2691617829
 30
0.0
 11
1166.1639797899
 21
492.3691452962
 31
0.0
  0
LINE
  5
568
330
1F
100
AcDbEntity
  8
SLD-0_0
  6
SLD-Solid
 62
   179
370
    15
100
AcDbLine
 10
1164.1139674398
 20
491.1898599488
 30
0.0
 11
1164.6100270959
 21
491.2463800532
 31
0.0
  0
LINE
  5
569
330
1F
100
AcDbEntity
  8
SLD-0_0
  6
SLD-Solid
 62
   179
370
    15
100
AcDbLine
 10
1164.6100270959
 20
491.2463800532
 30
0.0
 11
1165.0296437951
 21
491.3233445507
 31
0.0
  0
LINE
  5
56A
330
1F
100
AcDbEntity
  8
SLD-0_0
  6
SLD-Solid
 62
   179
370
    15
100
AcDbLine
 10
1165.0296437951
 20
491.3233445507
 30
0.0
 11
1165.6169283601
 21
491.5385918242
 31
0.0
  0
LINE
  5
56B
330
1F
100
AcDbEntity
  8
SLD-0_0
  6
SLD-Solid
 62
   179
370
    15
100
AcDbLine
 10
1165.6169283601
 20
491.5385918242
 30
0.0
 11
1165.9802484723
 21
491.8577970487
 31
0.0
  0
LINE
  5
56C
330
1F
100
AcDbEntity
  8
SLD-0_0
  6
SLD-Solid
 62
   179
370
    15
100
AcDbLine
 10
1165.9802484723
 20
491.8577970487
 30
0.0
 11
1166.1639797899
 21
492.3691452962
 31
0.0
  0
LINE
  5
56D
330
1F
100
AcDbEntity
  8
SLD-0_0
  6
SLD-Solid
 62
   179
370
    15
100
AcDbLine
 10
1164.1139674398
 20
491.1191464883
 30
0.0
 11
1164.1139674398
 21
490.3191478473
 31
0.0
  0
LINE
  5
56E
330
1F
100
AcDbEntity
  8
SLD-0_0
  6
SLD-Solid
 62
   179
370
    15
100
AcDbLine
 10
1164.6501410219
 20
491.2537337762
 30
0.0
 11
1164.588122389
 21
491.2125618678
 31
0.0
  0
LINE
  5
56F
330
1F
100
AcDbEntity
  8
SLD-0_0
  6
SLD-Solid
 62
   179
370
    15
100
AcDbLine
 10
1164.588122389
 20
491.2125618678
 30
0.0
 11
1164.1139674398
 21
491.1191464883
 31
0.0
  0
LINE
  5
570
330
1F
100
AcDbEntity
  8
SLD-0_0
  6
SLD-Solid
 62
   179
370
    15
100
AcDbLine
 10
1164.1139674398
 20
1013.5191307884
 30
0.0
 11
1164.593576214
 21
1013.4234653336
 31
0.0
  0
LINE
  5
571
330
1F
100
AcDbEntity
  8
SLD-0_0
  6
SLD-Solid
 62
   179
370
    15
100
AcDbLine
 10
1164.593576214
 20
1013.4234653336
 30
0.0
 11
1164.6728801938
 21
1013.3702979904
 31
0.0
  0
LINE
  5
572
330
1F
100
AcDbEntity
  8
SLD-0_0
  6
SLD-Solid
 62
   179
370
    15
100
AcDbLine
 10
1164.1139674398
 20
1013.5191307884
 30
0.0
 11
1164.1139674398
 21
1014.3191443306
 31
0.0
  0
LINE
  5
573
330
1F
100
AcDbEntity
  8
SLD-0_0
  6
SLD-Solid
 62
   179
370
    15
100
AcDbLine
 10
1116.1639678689
 20
1014.3191443306
 30
0.0
 11
1116.1639678689
 21
1013.5191307884
 31
0.0
  0
LINE
  5
574
330
1F
100
AcDbEntity
  8
SLD-0_0
  6
SLD-Solid
 62
   179
370
    15
100
AcDbLine
 10
1164.1139674398
 20
1014.3191443306
 30
0.0
 11
1116.1639678689
 21
1014.3191443306
 31
0.0
  0
LINE
  5
575
330
1F
100
AcDbEntity
  8
SLD-0_0
  6
SLD-Solid
 62
   179
370
    15
100
AcDbLine
 10
1164.1139674398
 20
1013.5191307884
 30
0.0
 11
1116.1639678689
 21
1013.5191307884
 31
0.0
  0
LINE
  5
576
330
1F
100
AcDbEntity
  8
SLD-0_0
  6
SLD-Solid
 62
   179
370
    15
100
AcDbLine
 10
1164.1139674398
 20
490.3191478473
 30
0.0
 11
1116.1639678689
 21
490.3191478473
 31
0.0
  0
LINE
  5
577
330
1F
100
AcDbEntity
  8
SLD-0_0
  6
SLD-Solid
 62
   179
370
    15
100
AcDbLine
 10
1116.1639678689
 20
490.3191478473
 30
0.0
 11
1116.1639678689
 21
491.1191464883
 31
0.0
  0
LINE
  5
578
330
1F
100
AcDbEntity
  8
SLD-0_0
  6
SLD-Solid
 62
   179
370
    15
100
AcDbLine
 10
1164.1139674398
 20
491.1191464883
 30
0.0
 11
1116.1639678689
 21
491.1191464883
 31
0.0
  0
LINE
  5
579
330
1F
100
AcDbEntity
  8
SLD-0_0
  6
SLD-Solid
 62
   179
370
    15
100
AcDbLine
 10
1115.1139724466
 20
1013.4484396797
 30
0.0
 11
1115.1139724466
 21
1012.2691617829
 31
0.0
  0
LINE
  5
57A
330
1F
100
AcDbEntity
  8
SLD-0_0
  6
SLD-Solid
 62
   179
370
    15
100
AcDbLine
 10
1116.1639678689
 20
1013.4484396797
 30
0.0
 11
1115.1139724466
 21
1013.4484396797
 31
0.0
  0
LINE
  5
57B
330
1F
100
AcDbEntity
  8
SLD-0_0
  6
SLD-Solid
 62
   179
370
    15
100
AcDbLine
 10
1114.3639672014
 20
565.8191518408
 30
0.0
 11
1113.0639898988
 21
565.8191518408
 31
0.0
  0
LINE
  5
57C
330
1F
100
AcDbEntity
  8
SLD-0_0
  6
SLD-Solid
 62
   179
370
    15
100
AcDbLine
 10
1113.0639898988
 20
1012.2691617829
 30
0.0
 11
1113.0639898988
 21
1000.6087051255
 31
0.0
  0
LINE
  5
57D
330
1F
100
AcDbEntity
  8
SLD-0_0
  6
SLD-Solid
 62
   179
370
    15
100
AcDbLine
 10
1113.0639898988
 20
566.259749375
 30
0.0
 11
1113.0639898988
 21
565.8191518408
 31
0.0
  0
LINE
  5
57E
330
1F
100
AcDbEntity
  8
SLD-0_0
  6
SLD-Solid
 62
   179
370
    15
100
AcDbLine
 10
1113.0639898988
 20
1012.2691617829
 30
0.0
 11
1115.1139724466
 21
1012.2691617829
 31
0.0
  0
LINE
  5
57F
330
1F
100
AcDbEntity
  8
SLD-0_0
  6
SLD-Solid
 62
   179
370
    15
100
AcDbLine
 10
1107.1639943334
 20
505.8191494566
 30
0.0
 11
1109.6639919492
 21
505.8191494566
 31
0.0
  0
LINE
  5
580
330
1F
100
AcDbEntity
  8
SLD-0_0
  6
SLD-Solid
 62
   179
370
    15
100
AcDbLine
 10
1109.6639919492
 20
500.8191467744
 30
0.0
 11
1109.6639919492
 21
505.8191494566
 31
0.0
  0
LINE
  5
581
330
1F
100
AcDbEntity
  8
SLD-0_0
  6
SLD-Solid
 62
   179
370
    15
100
AcDbLine
 10
1109.6639919492
 20
490.8191488606
 30
0.0
 11
1109.6639919492
 21
500.8191467744
 31
0.0
  0
LINE
  5
582
330
1F
100
AcDbEntity
  8
SLD-0_0
  6
SLD-Solid
 62
   179
370
    15
100
AcDbLine
 10
1112.6639812394
 20
487.8191481612
 30
0.0
 11
1156.1639893266
 21
487.8191502315
 31
0.0
  0
LINE
  5
583
330
1F
100
AcDbEntity
  8
SLD-0_0
  6
SLD-Solid
 62
   179
370
    15
100
AcDbLine
 10
1112.6639812394
 20
485.3191481612
 30
0.0
 11
1156.1639893266
 21
485.3191451651
 31
0.0
  0
LINE
  5
584
330
1F
100
AcDbEntity
  8
SLD-0_0
  6
SLD-Solid
 62
   179
370
    15
100
AcDbLine
 10
1156.1639893266
 20
485.3191451651
 30
0.0
 11
1164.1639757367
 21
485.3191451651
 31
0.0
  0
LINE
  5
585
330
1F
100
AcDbEntity
  8
SLD-0_0
  6
SLD-Solid
 62
   179
370
    15
100
AcDbLine
 10
1112.6639831277
 20
1020.1191531044
 30
0.0
 11
1156.1639893266
 21
1020.1191531044
 31
0.0
  0
LINE
  5
586
330
1F
100
AcDbEntity
  8
SLD-0_0
  6
SLD-Solid
 62
   179
370
    15
100
AcDbLine
 10
1112.6639831277
 20
1017.6191554886
 30
0.0
 11
1156.1639893266
 21
1017.6191554886
 31
0.0
  0
LINE
  5
587
330
1F
100
AcDbEntity
  8
SLD-0_0
  6
SLD-Solid
 62
   179
370
    15
100
AcDbLine
 10
1109.6639919492
 20
1023.1191740853
 30
0.0
 11
1109.6639919492
 21
1027.5314675194
 31
0.0
  0
LINE
  5
588
330
1F
100
AcDbEntity
  8
SLD-0_0
  6
SLD-Solid
 62
   179
370
    15
100
AcDbLine
 10
1156.1639893266
 20
1020.1191531044
 30
0.0
 11
1164.1639757367
 21
1020.1191531044
 31
0.0
  0
LINE
  5
589
330
1F
100
AcDbEntity
  8
SLD-0_0
  6
SLD-Solid
 62
   179
370
    15
100
AcDbLine
 10
1156.1639893266
 20
1017.6191554886
 30
0.0
 11
1164.1639757367
 21
1017.6191554886
 31
0.0
  0
LINE
  5
58A
330
1F
100
AcDbEntity
  8
SLD-0_0
  6
SLD-Solid
 62
   179
370
    15
100
AcDbLine
 10
1152.263968012
 20
484.8191516024
 30
0.0
 11
1160.0639808389
 21
484.8191516024
 31
0.0
  0
LINE
  5
58B
330
1F
100
AcDbEntity
  8
SLD-0_0
  6
SLD-Solid
 62
   179
370
    15
100
AcDbLine
 10
1160.0639808389
 20
1020.6191764694
 30
0.0
 11
1152.263968012
 21
1020.6191764694
 31
0.0
  0
LINE
  5
58C
330
1F
100
AcDbEntity
  8
SLD-0_0
  6
SLD-Solid
 62
   179
370
    15
100
AcDbLine
 10
399.5639670106
 20
1166.7484269959
 30
0.0
 11
399.5639670106
 21
485.3898586255
 31
0.0
  0
LINE
  5
58D
330
1F
100
AcDbEntity
  8
SLD-0_0
  6
SLD-Solid
 62
   179
370
    15
100
AcDbLine
 10
1024.2739904138
 20
1167.6191316468
 30
0.0
 11
501.0639864417
 21
1167.6191316468
 31
0.0
  0
LINE
  5
58E
330
1F
100
AcDbEntity
  8
SLD-0_0
  6
SLD-Solid
 62
   179
370
    15
100
AcDbLine
 10
400.3639805528
 20
1166.7484269959
 30
0.0
 11
399.5639670106
 21
1166.7484269959
 31
0.0
  0
LINE
  5
58F
330
1F
100
AcDbEntity
  8
SLD-0_0
  6
SLD-Solid
 62
   179
370
    15
100
AcDbLine
 10
400.4347014638
 20
1167.6191316467
 30
0.0
 11
400.4347014638
 21
1166.8191777092
 31
0.0
  0
LINE
  5
590
330
1F
100
AcDbEntity
  8
SLD-0_0
  6
SLD-Solid
 62
   179
370
    15
100
AcDbLine
 10
400.4347014638
 20
484.5191465241
 30
0.0
 11
1106.2932598802
 21
484.519146524
 31
0.0
  0
LINE
  5
591
330
1F
100
AcDbEntity
  8
SLD-0_0
  6
SLD-Solid
 62
   179
370
    15
100
AcDbLine
 10
401.6139793607
 20
486.5691514236
 30
0.0
 11
401.3442087385
 21
485.8482928497
 31
0.0
  0
LINE
  5
592
330
1F
100
AcDbEntity
  8
SLD-0_0
  6
SLD-Solid
 62
   179
370
    15
100
AcDbLine
 10
401.3442087385
 20
485.8482928497
 30
0.0
 11
401.0743785116
 21
485.2193297368
 31
0.0
  0
LINE
  5
593
330
1F
100
AcDbEntity
  8
SLD-0_0
  6
SLD-Solid
 62
   179
370
    15
100
AcDbLine
 10
401.0743785116
 20
485.2193297368
 30
0.0
 11
400.8045184823
 21
484.7628848177
 31
0.0
  0
LINE
  5
594
330
1F
100
AcDbEntity
  8
SLD-0_0
  6
SLD-Solid
 62
   179
370
    15
100
AcDbLine
 10
400.8045184823
 20
484.7628848177
 30
0.0
 11
400.5346882554
 21
484.5372961384
 31
0.0
  0
LINE
  5
595
330
1F
100
AcDbEntity
  8
SLD-0_0
  6
SLD-Solid
 62
   179
370
    15
100
AcDbLine
 10
400.5346882554
 20
484.5372961384
 30
0.0
 11
400.4347014638
 21
484.5191465241
 31
0.0
  0
LINE
  5
596
330
1F
100
AcDbEntity
  8
SLD-0_0
  6
SLD-Solid
 62
   179
370
    15
100
AcDbLine
 10
400.4347014638
 20
484.5191465241
 30
0.0
 11
400.4347014638
 21
485.3191451651
 31
0.0
  0
LINE
  5
597
330
1F
100
AcDbEntity
  8
SLD-0_0
  6
SLD-Solid
 62
   179
370
    15
100
AcDbLine
 10
400.3639805528
 20
485.3898586255
 30
0.0
 11
399.5639670106
 21
485.3898586255
 31
0.0
  0
LINE
  5
598
330
1F
100
AcDbEntity
  8
SLD-0_0
  6
SLD-Solid
 62
   179
370
    15
100
AcDbLine
 10
1107.1639943334
 20
485.3898586255
 30
0.0
 11
1107.1639943334
 21
1027.5314675194
 31
0.0
  0
LINE
  5
599
330
1F
100
AcDbEntity
  8
SLD-0_0
  6
SLD-Solid
 62
   179
370
    15
100
AcDbLine
 10
1107.1639943334
 20
1028.3314810616
 30
0.0
 11
1107.1639943334
 21
1029.331468187
 31
0.0
  0
LINE
  5
59A
330
1F
100
AcDbEntity
  8
SLD-0_0
  6
SLD-Solid
 62
   179
370
    15
100
AcDbLine
 10
1107.1639943334
 20
1148.0191574913
 30
0.0
 11
1107.1639943334
 21
1149.0191446167
 31
0.0
  0
LINE
  5
59B
330
1F
100
AcDbEntity
  8
SLD-0_0
  6
SLD-Solid
 62
   179
370
    15
100
AcDbLine
 10
1107.1639943334
 20
1149.8191581589
 30
0.0
 11
1107.1639943334
 21
1149.8520003182
 31
0.0
  0
LINE
  5
59C
330
1F
100
AcDbEntity
  8
SLD-0_0
  6
SLD-Solid
 62
   179
370
    15
100
AcDbLine
 10
1105.1139819833
 20
486.5691514236
 30
0.0
 11
1105.8348405572
 21
486.2993882519
 31
0.0
  0
LINE
  5
59D
330
1F
100
AcDbEntity
  8
SLD-0_0
  6
SLD-Solid
 62
   179
370
    15
100
AcDbLine
 10
1105.8348405572
 20
486.2993882519
 30
0.0
 11
1106.4637887689
 21
486.0295356733
 31
0.0
  0
LINE
  5
59E
330
1F
100
AcDbEntity
  8
SLD-0_0
  6
SLD-Solid
 62
   179
370
    15
100
AcDbLine
 10
1106.4637887689
 20
486.0295356733
 30
0.0
 11
1106.9202411386
 21
485.7596905452
 31
0.0
  0
LINE
  5
59F
330
1F
100
AcDbEntity
  8
SLD-0_0
  6
SLD-Solid
 62
   179
370
    15
100
AcDbLine
 10
1106.9202411386
 20
485.7596905452
 30
0.0
 11
1107.1458447191
 21
485.4898379666
 31
0.0
  0
LINE
  5
5A0
330
1F
100
AcDbEntity
  8
SLD-0_0
  6
SLD-Solid
 62
   179
370
    15
100
AcDbLine
 10
1107.1458447191
 20
485.4898379666
 30
0.0
 11
1107.1639943334
 21
485.3898586255
 31
0.0
  0
LINE
  5
5A1
330
1F
100
AcDbEntity
  8
SLD-0_0
  6
SLD-Solid
 62
   179
370
    15
100
AcDbLine
 10
1106.3639807912
 20
1166.7484269959
 30
0.0
 11
1107.1639943334
 21
1166.7484269959
 31
0.0
  0
LINE
  5
5A2
330
1F
100
AcDbEntity
  8
SLD-0_0
  6
SLD-Solid
 62
   179
370
    15
100
AcDbLine
 10
1106.2932598802
 20
1166.8191777092
 30
0.0
 11
1106.2932598802
 21
1167.2191248757
 31
0.0
  0
LINE
  5
5A3
330
1F
100
AcDbEntity
  8
SLD-0_0
  6
SLD-Solid
 62
   179
370
    15
100
AcDbLine
 10
1106.3639807912
 20
485.3898586255
 30
0.0
 11
1107.1639943334
 21
485.3898586255
 31
0.0
  0
LINE
  5
5A4
330
1F
100
AcDbEntity
  8
SLD-0_0
  6
SLD-Solid
 62
   179
370
    15
100
AcDbLine
 10
1106.2932598802
 20
485.3191451651
 30
0.0
 11
1106.2932598802
 21
484.519146524
 31
0.0
  0
LINE
  5
5A5
330
1F
100
AcDbEntity
  8
SLD-0_0
  6
SLD-Solid
 62
   179
370
    15
100
AcDbLine
 10
400.3639805528
 20
485.3898586255
 30
0.0
 11
400.3639805528
 21
485.4191468579
 31
0.0
  0
LINE
  5
5A6
330
1F
100
AcDbEntity
  8
SLD-0_0
  6
SLD-Solid
 62
   179
370
    15
100
AcDbLine
 10
391.8639707776
 20
1077.9691563469
 30
0.0
 11
391.8639707776
 21
1084.8691688401
 31
0.0
  0
LINE
  5
5A7
330
1F
100
AcDbEntity
  8
SLD-0_0
  6
SLD-Solid
 62
   179
370
    15
100
AcDbLine
 10
396.263985655
 20
1078.319154821
 30
0.0
 11
396.263985655
 21
1084.5191703659
 31
0.0
  0
LINE
  5
5A8
330
1F
100
AcDbEntity
  8
SLD-0_0
  6
SLD-Solid
 62
   179
370
    15
100
AcDbLine
 10
396.8639958116
 20
1078.5691367012
 30
0.0
 11
396.8639958116
 21
1084.2691288811
 31
0.0
  0
LINE
  5
5A9
330
1F
100
AcDbEntity
  8
SLD-0_0
  6
SLD-Solid
 62
   179
370
    15
100
AcDbLine
 10
391.8639707776
 20
1124.5691405159
 30
0.0
 11
391.8639707776
 21
1130.2691326958
 31
0.0
  0
LINE
  5
5AA
330
1F
100
AcDbEntity
  8
SLD-0_0
  6
SLD-Solid
 62
   179
370
    15
100
AcDbLine
 10
396.1139905664
 20
1125.019155584
 30
0.0
 11
396.1139905664
 21
1129.8191772324
 31
0.0
  0
LINE
  5
5AB
330
1F
100
AcDbEntity
  8
SLD-0_0
  6
SLD-Solid
 62
   179
370
    15
100
AcDbLine
 10
396.7139709207
 20
1125.2691374642
 30
0.0
 11
396.7139709207
 21
1129.5691357476
 31
0.0
  0
LINE
  5
5AC
330
1F
100
AcDbEntity
  8
SLD-0_0
  6
SLD-Solid
 62
   179
370
    15
100
AcDbLine
 10
391.8639707776
 20
1094.5691691262
 30
0.0
 11
391.8639707776
 21
1095.9191547257
 31
0.0
  0
LINE
  5
5AD
330
1F
100
AcDbEntity
  8
SLD-0_0
  6
SLD-Solid
 62
   179
370
    15
100
AcDbLine
 10
391.8639707776
 20
1098.9191757065
 30
0.0
 11
391.8639707776
 21
1100.269161306
 31
0.0
  0
LINE
  5
5AE
330
1F
100
AcDbEntity
  8
SLD-0_0
  6
SLD-Solid
 62
   179
370
    15
100
AcDbLine
 10
396.1139905664
 20
1095.0191245896
 30
0.0
 11
396.1139905664
 21
1099.819146238
 31
0.0
  0
LINE
  5
5AF
330
1F
100
AcDbEntity
  8
SLD-0_0
  6
SLD-Solid
 62
   179
370
    15
100
AcDbLine
 10
396.7139709207
 20
1095.2691660744
 30
0.0
 11
396.7139709207
 21
1099.5691643578
 31
0.0
  0
LINE
  5
5B0
330
1F
100
AcDbEntity
  8
SLD-0_0
  6
SLD-Solid
 62
   179
370
    15
100
AcDbLine
 10
391.8639707776
 20
1064.5691381317
 30
0.0
 11
391.8639707776
 21
1070.2691303116
 31
0.0
  0
LINE
  5
5B1
330
1F
100
AcDbEntity
  8
SLD-0_0
  6
SLD-Solid
 62
   179
370
    15
100
AcDbLine
 10
396.1139905664
 20
1065.0191531998
 30
0.0
 11
396.1139905664
 21
1069.8191748482
 31
0.0
  0
LINE
  5
5B2
330
1F
100
AcDbEntity
  8
SLD-0_0
  6
SLD-Solid
 62
   179
370
    15
100
AcDbLine
 10
396.7139709207
 20
1065.26913508
 30
0.0
 11
396.7139709207
 21
1069.5691333634
 31
0.0
  0
LINE
  5
5B3
330
1F
100
AcDbEntity
  8
SLD-0_0
  6
SLD-Solid
 62
   179
370
    15
100
AcDbLine
 10
1105.5317509385
 20
485.9216363651
 30
0.0
 11
1105.7585168096
 21
486.1246050817
 31
0.0
  0
LINE
  5
5B4
330
1F
100
AcDbEntity
  8
SLD-0_0
  6
SLD-Solid
 62
   179
370
    15
100
AcDbLine
 10
1105.7585168096
 20
486.1246050817
 30
0.0
 11
1105.7743716451
 21
486.1405791265
 31
0.0
  0
LINE
  5
5B5
330
1F
100
AcDbEntity
  8
SLD-0_0
  6
SLD-Center
 62
   179
370
     0
100
AcDbLine
 10
311.8190438899
 20
1124.8535906914
 30
0.0
 11
367.4788946719
 21
1124.8535906914
 31
0.0
  0
LINE
  5
5B6
330
1F
100
AcDbEntity
  8
SLD-0_0
  6
SLD-Center
 62
   179
370
     0
100
AcDbLine
 10
358.863981232
 20
1037.0330717204
 30
0.0
 11
358.863981232
 21
978.3666843689
 31
0.0
  0
LINE
  5
5B7
330
1F
100
AcDbEntity
  8
SLD-0_0
  6
SLD-Center
 62
   179
370
     0
100
AcDbLine
 10
1060.863981232
 20
317.3191481621
 30
0.0
 11
1060.863981232
 21
517.5315663078
 31
0.0
  0
LINE
  5
5B8
330
1F
100
AcDbEntity
  8
SLD-0_0
  6
SLD-Center
 62
   179
370
     0
100
AcDbLine
 10
471.863981232
 20
315.3191481621
 30
0.0
 11
471.863981232
 21
520.8035906924
 31
0.0
  0
ARC
  5
5B9
330
1F
100
AcDbEntity
  8
SLD-0_0
  6
SLD-Solid
 62
   179
370
    15
100
AcDbCircle
 10
382.2139812331
 20
530.6765302667
 30
0.0
 40
0.2500029180120158
100
AcDbArc
 50
90.0005602545
 51
180.0
  0
ARC
  5
5BA
330
1F
100
AcDbEntity
  8
SLD-0_0
  6
SLD-Solid
 62
   179
370
    15
100
AcDbCircle
 10
382.2139812331
 20
526.238709052
 30
0.0
 40
0.25
100
AcDbArc
 50
180.0
 51
270.0
  0
ARC
  5
5BB
330
1F
100
AcDbEntity
  8
SLD-0_0
  6
SLD-Solid
 62
   179
370
    15
100
AcDbCircle
 10
388.5139812331
 20
526.9691481621
 30
0.0
 40
0.25
100
AcDbArc
 50
301.0756875733
 51
0.0
  0
ARC
  5
5BC
330
1F
100
AcDbEntity
  8
SLD-0_0
  6
SLD-Solid
 62
   179
370
    15
100
AcDbCircle
 10
382.2139812331
 20
544.5995872721
 30
0.0
 40
0.2499999999999432
100
AcDbArc
 50
90.0005602725
 51
180.0
  0
ARC
  5
5BD
330
1F
100
AcDbEntity
  8
SLD-0_0
  6
SLD-Solid
 62
   179
370
    15
100
AcDbCircle
 10
392.9139812331
 20
539.343557498
 30
0.0
 40
0.2500000000000568
100
AcDbArc
 50
270.0
 51
0.0
  0
ARC
  5
5BE
330
1F
100
AcDbEntity
  8
SLD-0_0
  6
SLD-Solid
 62
   179
370
    15
100
AcDbCircle
 10
392.9139812331
 20
544.1697244702
 30
0.0
 40
0.2500000000001137
100
AcDbArc
 50
0.0
 51
90.0
  0
ARC
  5
5BF
330
1F
100
AcDbEntity
  8
SLD-0_0
  6
SLD-Solid
 62
   179
370
    15
100
AcDbCircle
 10
386.6139812331
 20
543.8691481621
 30
0.0
 40
0.25
100
AcDbArc
 50
90.0
 51
180.0
  0
ARC
  5
5C0
330
1F
100
AcDbEntity
  8
SLD-0_0
  6
SLD-Solid
 62
   179
370
    15
100
AcDbCircle
 10
392.9139812331
 20
526.668571854
 30
0.0
 40
0.2500000000000568
100
AcDbArc
 50
270.0
 51
0.0
  0
ARC
  5
5C1
330
1F
100
AcDbEntity
  8
SLD-0_0
  6
SLD-Solid
 62
   179
370
    15
100
AcDbCircle
 10
498.3639812321
 20
317.3191481621
 30
0.0
 40
2.0
100
AcDbArc
 50
270.0
 51
359.9999790297
  0
ARC
  5
5C2
330
1F
100
AcDbEntity
  8
SLD-0_0
  6
SLD-Solid
 62
   179
370
    15
100
AcDbCircle
 10
445.3639812321
 20
317.3191481621
 30
0.0
 40
2.0
100
AcDbArc
 50
180.0
 51
270.0
  0
ARC
  5
5C3
330
1F
100
AcDbEntity
  8
SLD-0_0
  6
SLD-Solid
 62
   179
370
    15
100
AcDbCircle
 10
1087.363981232
 20
317.3191481621
 30
0.0
 40
2.00000981120015
100
AcDbArc
 50
270.0
 51
359.9999790298
  0
ARC
  5
5C4
330
1F
100
AcDbEntity
  8
SLD-0_0
  6
SLD-Solid
 62
   179
370
    15
100
AcDbCircle
 10
1034.363981232
 20
317.3191481621
 30
0.0
 40
2.000001394500166
100
AcDbArc
 50
180.0000209702
 51
270.0
  0
ARC
  5
5C5
330
1F
100
AcDbEntity
  8
SLD-0_0
  6
SLD-Solid
 62
   179
370
    15
100
AcDbCircle
 10
1094.263981232
 20
481.8191481621
 30
0.0
 40
1.5
100
AcDbArc
 50
90.0
 51
180.0
  0
ARC
  5
5C6
330
1F
100
AcDbEntity
  8
SLD-0_0
  6
SLD-Solid
 62
   179
370
    15
100
AcDbCircle
 10
1027.463981232
 20
481.8191481621
 30
0.0
 40
1.500000000000227
100
AcDbArc
 50
0.0
 51
90.0
  0
ARC
  5
5C7
330
1F
100
AcDbEntity
  8
SLD-0_0
  6
SLD-Solid
 62
   179
370
    15
100
AcDbCircle
 10
1088.063981232
 20
395.3517141077
 30
0.0
 40
4.700007760799983
100
AcDbArc
 50
350.5402980318
 51
359.9999945971
  0
ARC
  5
5C8
330
1F
100
AcDbEntity
  8
SLD-0_0
  6
SLD-Solid
 62
   179
370
    15
100
AcDbCircle
 10
1033.663981232
 20
395.3517141077
 30
0.0
 40
4.700000000000403
100
AcDbArc
 50
180.0000054029
 51
189.4597019682
  0
ARC
  5
5C9
330
1F
100
AcDbEntity
  8
SLD-0_0
  6
SLD-Solid
 62
   179
370
    15
100
AcDbCircle
 10
505.2639812321
 20
481.8191481621
 30
0.0
 40
1.500000000000057
100
AcDbArc
 50
90.0
 51
180.0
  0
ARC
  5
5CA
330
1F
100
AcDbEntity
  8
SLD-0_0
  6
SLD-Solid
 62
   179
370
    15
100
AcDbCircle
 10
438.4639812321
 20
481.8191481621
 30
0.0
 40
1.5
100
AcDbArc
 50
0.0
 51
90.0
  0
ARC
  5
5CB
330
1F
100
AcDbEntity
  8
SLD-0_0
  6
SLD-Solid
 62
   179
370
    15
100
AcDbCircle
 10
499.0639812321
 20
395.3517141077
 30
0.0
 40
4.700000000000057
100
AcDbArc
 50
350.5402980318
 51
0.0
  0
ARC
  5
5CC
330
1F
100
AcDbEntity
  8
SLD-0_0
  6
SLD-Solid
 62
   179
370
    15
100
AcDbCircle
 10
444.6639812321
 20
395.3517141077
 30
0.0
 40
4.700000000000045
100
AcDbArc
 50
180.0
 51
189.4597019682
  0
ARC
  5
5CD
330
1F
100
AcDbEntity
  8
SLD-0_0
  6
SLD-Solid
 62
   179
370
    15
100
AcDbCircle
 10
681.2929390909
 20
1210.8356710369
 30
0.0
 40
4.286930092659834
100
AcDbArc
 50
183.6863292598
 51
259.715589426
  0
ARC
  5
5CE
330
1F
100
AcDbEntity
  8
SLD-0_0
  6
SLD-Solid
 62
   179
370
    15
100
AcDbCircle
 10
843.4326062608
 20
1210.8508903799
 30
0.0
 40
4.302738855838004
100
AcDbArc
 50
280.2738583503
 51
355.1920191324
  0
ARC
  5
5CF
330
1F
100
AcDbEntity
  8
SLD-0_0
  6
SLD-Solid
 62
   179
370
    15
100
AcDbCircle
 10
663.4296629124
 20
1210.8453502091
 30
0.0
 40
4.291201658810685
100
AcDbArc
 50
279.8338945178
 51
354.5093969746
  0
ARC
  5
5D0
330
1F
100
AcDbEntity
  8
SLD-0_0
  6
SLD-Solid
 62
   179
370
    15
100
AcDbCircle
 10
911.3181368727
 20
1210.8888535544
 30
0.0
 40
4.32693477172483
100
AcDbArc
 50
183.9783017657
 51
260.7575456607
  0
ARC
  5
5D1
330
1F
100
AcDbEntity
  8
SLD-0_0
  6
SLD-Solid
 62
   179
370
    15
100
AcDbCircle
 10
943.3795652633
 20
1210.9169535216
 30
0.0
 40
4.344038331535807
100
AcDbArc
 50
278.2540727155
 51
353.9503672892
  0
ARC
  5
5D2
330
1F
100
AcDbEntity
  8
SLD-0_0
  6
SLD-Solid
 62
   179
370
    15
100
AcDbCircle
 10
490.0130780555
 20
1211.6190774784
 30
0.0
 40
4.999911499909639
100
AcDbArc
 50
269.9991304956
 51
336.6520828234
  0
ARC
  5
5D3
330
1F
100
AcDbEntity
  8
SLD-0_0
  6
SLD-Solid
 62
   179
370
    15
100
AcDbCircle
 10
1034.7148975345
 20
1211.6191025467
 30
0.0
 40
4.999936567790264
100
AcDbArc
 50
203.4068908581
 51
270.0004412358
  0
ARC
  5
5D4
330
1F
100
AcDbEntity
  8
SLD-0_0
  6
SLD-Solid
 62
   179
370
    15
100
AcDbCircle
 10
753.6542067965
 20
1211.6190637912
 30
0.0
 40
4.999897915603119
100
AcDbArc
 50
203.2533653804
 51
269.9883465166
  0
ARC
  5
5D5
330
1F
100
AcDbEntity
  8
SLD-0_0
  6
SLD-Solid
 62
   179
370
    15
100
AcDbCircle
 10
771.0737690131
 20
1211.6190116695
 30
0.0
 40
4.999845791228385
100
AcDbArc
 50
270.0115003016
 51
336.8711228912
  0
ARC
  5
5D6
330
1F
100
AcDbEntity
  8
SLD-0_0
  6
SLD-Solid
 62
   179
370
    15
100
AcDbCircle
 10
550.2443099562
 20
1227.1191481612
 30
0.0
 40
2.0
100
AcDbArc
 50
8.1460564929
 51
90.0
  0
ARC
  5
5D7
330
1F
100
AcDbEntity
  8
SLD-0_0
  6
SLD-Solid
 62
   179
370
    15
100
AcDbCircle
 10
974.4836525077
 20
1227.1191481612
 30
0.0
 40
2.0
100
AcDbArc
 50
90.0
 51
171.8968628339
  0
ARC
  5
5D8
330
1F
100
AcDbEntity
  8
SLD-0_0
  6
SLD-Solid
 62
   179
370
    15
100
AcDbCircle
 10
693.8650142352
 20
1227.1191481612
 30
0.0
 40
2.0
100
AcDbArc
 50
90.0
 51
171.8973955384
  0
ARC
  5
5D9
330
1F
100
AcDbEntity
  8
SLD-0_0
  6
SLD-Solid
 62
   179
370
    15
100
AcDbCircle
 10
830.8629482287
 20
1227.1191481612
 30
0.0
 40
2.0
100
AcDbArc
 50
8.1447798754
 51
90.0
  0
ARC
  5
5DA
330
1F
100
AcDbEntity
  8
SLD-0_0
  6
SLD-Solid
 62
   179
370
    15
100
AcDbCircle
 10
504.3056531919
 20
1227.1191481612
 30
0.0
 40
2.0
100
AcDbArc
 50
5.4535414403
 51
90.0
  0
ARC
  5
5DB
330
1F
100
AcDbEntity
  8
SLD-0_0
  6
SLD-Solid
 62
   179
370
    15
100
AcDbCircle
 10
1020.422309272
 20
1227.1191481612
 30
0.0
 40
2.0
100
AcDbArc
 50
90.0
 51
174.5464585597
  0
ARC
  5
5DC
330
1F
100
AcDbEntity
  8
SLD-0_0
  6
SLD-Solid
 62
   179
370
    15
100
AcDbCircle
 10
497.1139812321
 20
1185.8691481626
 30
0.0
 40
0.2500000000004547
100
AcDbArc
 50
270.0
 51
52.629836736
  0
ARC
  5
5DD
330
1F
100
AcDbEntity
  8
SLD-0_0
  6
SLD-Solid
 62
   179
370
    15
100
AcDbCircle
 10
485.6139812321
 20
1185.8691481626
 30
0.0
 40
0.2500000000004547
100
AcDbArc
 50
127.370163264
 51
270.0
  0
ARC
  5
5DE
330
1F
100
AcDbEntity
  8
SLD-0_0
  6
SLD-Solid
 62
   179
370
    15
100
AcDbCircle
 10
491.5589735198
 20
1179.1646933757
 30
0.0
 40
8.956577612210852
100
AcDbArc
 50
50.4198331666
 51
56.3345247097
  0
ARC
  5
5DF
330
1F
100
AcDbEntity
  8
SLD-0_0
  6
SLD-Solid
 62
   179
370
    15
100
AcDbCircle
 10
491.1689889444
 20
1179.1646933757
 30
0.0
 40
8.956577612210822
100
AcDbArc
 50
123.6654752903
 51
129.5801668334
  0
ARC
  5
5E0
330
1F
100
AcDbEntity
  8
SLD-0_0
  6
SLD-Solid
 62
   179
370
    15
100
AcDbCircle
 10
1039.1139812321
 20
1185.8691481626
 30
0.0
 40
0.2500000000002274
100
AcDbArc
 50
270.0
 51
52.6298367359
  0
ARC
  5
5E1
330
1F
100
AcDbEntity
  8
SLD-0_0
  6
SLD-Solid
 62
   179
370
    15
100
AcDbCircle
 10
1027.6139812321
 20
1185.8691481626
 30
0.0
 40
0.2500000000002274
100
AcDbArc
 50
127.3701632641
 51
270.0
  0
ARC
  5
5E2
330
1F
100
AcDbEntity
  8
SLD-0_0
  6
SLD-Solid
 62
   179
370
    15
100
AcDbCircle
 10
1033.5589735198
 20
1179.1646933757
 30
0.0
 40
8.956577612210884
100
AcDbArc
 50
50.4198331666
 51
56.3345247097
  0
ARC
  5
5E3
330
1F
100
AcDbEntity
  8
SLD-0_0
  6
SLD-Solid
 62
   179
370
    15
100
AcDbCircle
 10
1033.1689889444
 20
1179.1646933757
 30
0.0
 40
8.956577612210758
100
AcDbArc
 50
123.6654752903
 51
129.5801668334
  0
ARC
  5
5E4
330
1F
100
AcDbEntity
  8
SLD-0_0
  6
SLD-Solid
 62
   179
370
    15
100
AcDbCircle
 10
1184.9912330735
 20
1102.3941606445
 30
0.0
 40
1.000000000000116
100
AcDbArc
 50
312.227745318
 51
18.0
  0
ARC
  5
5E5
330
1F
100
AcDbEntity
  8
SLD-0_0
  6
SLD-Solid
 62
   179
370
    15
100
AcDbCircle
 10
1133.5550776468
 20
1105.5051936761
 30
0.0
 40
15.35732871441206
100
AcDbArc
 50
346.6057528018
 51
6.117088104
  0
ARC
  5
5E6
330
1F
100
AcDbEntity
  8
SLD-0_0
  6
SLD-Solid
 62
   179
370
    15
100
AcDbCircle
 10
1133.5550776468
 20
1105.5051936761
 30
0.0
 40
15.35732871441189
100
AcDbArc
 50
36.3615132345
 51
49.3942471982
  0
ARC
  5
5E7
330
1F
100
AcDbEntity
  8
SLD-0_0
  6
SLD-Solid
 62
   179
370
    15
100
AcDbCircle
 10
1183.0269051685
 20
1102.6367600757
 30
0.0
 40
0.999999999999824
100
AcDbArc
 50
312.2277453179
 51
18.0
  0
ARC
  5
5E8
330
1F
100
AcDbEntity
  8
SLD-0_0
  6
SLD-Solid
 62
   179
370
    15
100
AcDbCircle
 10
672.7498214244
 20
1191.0385669716
 30
0.0
 40
2.099600000000571
100
AcDbArc
 50
0.0
 51
87.0082842346
  0
ARC
  5
5E9
330
1F
100
AcDbEntity
  8
SLD-0_0
  6
SLD-Solid
 62
   179
370
    15
100
AcDbCircle
 10
571.978141037
 20
1191.0385669716
 30
0.0
 40
2.099600000000577
100
AcDbArc
 50
92.9917157654
 51
180.0
  0
ARC
  5
5EA
330
1F
100
AcDbEntity
  8
SLD-0_0
  6
SLD-Solid
 62
   179
370
    15
100
AcDbCircle
 10
674.3245214244
 20
1189.8635881503
 30
0.0
 40
0.5249000000000039
100
AcDbArc
 50
290.140195206
 51
359.99966452
  0
ARC
  5
5EB
330
1F
100
AcDbEntity
  8
SLD-0_0
  6
SLD-Solid
 62
   179
370
    15
100
AcDbCircle
 10
570.403441037
 20
1189.8635881503
 30
0.0
 40
0.5249000000000039
100
AcDbArc
 50
180.0003354828
 51
249.859804794
  0
ARC
  5
5EC
330
1F
100
AcDbEntity
  8
SLD-0_0
  6
SLD-Solid
 62
   179
370
    15
100
AcDbCircle
 10
671.8855992945
 20
1188.6053591616
 30
0.0
 40
0.5249000000002297
100
AcDbArc
 50
90.0
 51
180.0
  0
ARC
  5
5ED
330
1F
100
AcDbEntity
  8
SLD-0_0
  6
SLD-Solid
 62
   179
370
    15
100
AcDbCircle
 10
572.8423631669
 20
1188.6053591616
 30
0.0
 40
0.5248999999998887
100
AcDbArc
 50
0.0
 51
90.0
  0
ARC
  5
5EE
330
1F
100
AcDbEntity
  8
SLD-0_0
  6
SLD-Solid
 62
   179
370
    15
100
AcDbCircle
 10
670.9407792945
 20
1188.0345678025
 30
0.0
 40
0.4199199999999337
100
AcDbArc
 50
289.9336222061
 51
0.0
  0
ARC
  5
5EF
330
1F
100
AcDbEntity
  8
SLD-0_0
  6
SLD-Solid
 62
   179
370
    15
100
AcDbCircle
 10
573.7871831669
 20
1188.0345678025
 30
0.0
 40
0.4199200000000474
100
AcDbArc
 50
180.0
 51
250.0663777939
  0
ARC
  5
5F0
330
1F
100
AcDbEntity
  8
SLD-0_0
  6
SLD-Solid
 62
   179
370
    15
100
AcDbCircle
 10
954.3245214245
 20
1189.8635881502
 30
0.0
 40
0.5249000000000024
100
AcDbArc
 50
290.140195206
 51
0.0
  0
ARC
  5
5F1
330
1F
100
AcDbEntity
  8
SLD-0_0
  6
SLD-Solid
 62
   179
370
    15
100
AcDbCircle
 10
850.4034410371
 20
1189.8635881502
 30
0.0
 40
0.5248999999999648
100
AcDbArc
 50
180.0
 51
249.859804794
  0
ARC
  5
5F2
330
1F
100
AcDbEntity
  8
SLD-0_0
  6
SLD-Solid
 62
   179
370
    15
100
AcDbCircle
 10
952.7498214245
 20
1191.0385669716
 30
0.0
 40
2.099600000000344
100
AcDbArc
 50
0.0
 51
87.0082842346
  0
ARC
  5
5F3
330
1F
100
AcDbEntity
  8
SLD-0_0
  6
SLD-Solid
 62
   179
370
    15
100
AcDbCircle
 10
851.9781410371
 20
1191.0385669716
 30
0.0
 40
2.099600000000344
100
AcDbArc
 50
92.9917157654
 51
180.0
  0
ARC
  5
5F4
330
1F
100
AcDbEntity
  8
SLD-0_0
  6
SLD-Solid
 62
   179
370
    15
100
AcDbCircle
 10
951.8855992946
 20
1188.6053591615
 30
0.0
 40
0.5249000000000024
100
AcDbArc
 50
90.0
 51
180.0
  0
ARC
  5
5F5
330
1F
100
AcDbEntity
  8
SLD-0_0
  6
SLD-Solid
 62
   179
370
    15
100
AcDbCircle
 10
852.842363167
 20
1188.6053591615
 30
0.0
 40
0.524900000000116
100
AcDbArc
 50
0.0
 51
90.0
  0
ARC
  5
5F6
330
1F
100
AcDbEntity
  8
SLD-0_0
  6
SLD-Solid
 62
   179
370
    15
100
AcDbCircle
 10
950.9407792946
 20
1188.0345678024
 30
0.0
 40
0.4199199999999337
100
AcDbArc
 50
289.9336222061
 51
0.0
  0
ARC
  5
5F7
330
1F
100
AcDbEntity
  8
SLD-0_0
  6
SLD-Solid
 62
   179
370
    15
100
AcDbCircle
 10
853.787183167
 20
1188.0345678024
 30
0.0
 40
0.4199200000000474
100
AcDbArc
 50
180.0
 51
250.0663777939
  0
ARC
  5
5F8
330
1F
100
AcDbEntity
  8
SLD-0_0
  6
SLD-Solid
 62
   179
370
    15
100
AcDbCircle
 10
573.6299372307
 20
1187.3147790783
 30
0.0
 40
0.3000000000001819
100
AcDbArc
 50
90.0
 51
180.0
  0
ARC
  5
5F9
330
1F
100
AcDbEntity
  8
SLD-0_0
  6
SLD-Solid
 62
   179
370
    15
100
AcDbCircle
 10
671.0980252307
 20
1187.3147790783
 30
0.0
 40
0.2999999999999545
100
AcDbArc
 50
0.0
 51
90.0
  0
ARC
  5
5FA
330
1F
100
AcDbEntity
  8
SLD-0_0
  6
SLD-Solid
 62
   179
370
    15
100
AcDbCircle
 10
853.6299372308
 20
1187.3147790782
 30
0.0
 40
0.3000000000001819
100
AcDbArc
 50
90.0
 51
180.0
  0
ARC
  5
5FB
330
1F
100
AcDbEntity
  8
SLD-0_0
  6
SLD-Solid
 62
   179
370
    15
100
AcDbCircle
 10
951.0980252308
 20
1187.3147790782
 30
0.0
 40
0.3000000000001819
100
AcDbArc
 50
0.0
 51
90.0
  0
ARC
  5
5FC
330
1F
100
AcDbEntity
  8
SLD-0_0
  6
SLD-Solid
 62
   179
370
    15
100
AcDbCircle
 10
1169.2214798823
 20
580.335235094
 30
0.0
 40
1.010155878901096
100
AcDbArc
 50
209.383788886
 51
231.1787120255
  0
ARC
  5
5FD
330
1F
100
AcDbEntity
  8
SLD-0_0
  6
SLD-Solid
 62
   179
370
    15
100
AcDbCircle
 10
1204.3406601743
 20
1327.9983470612
 30
0.0
 40
349.0994731770497
100
AcDbArc
 50
269.4253965309
 51
271.7989074296
  0
ARC
  5
5FE
330
1F
100
AcDbEntity
  8
SLD-0_0
  6
SLD-Solid
 62
   179
370
    15
100
AcDbCircle
 10
1215.5971857286
 20
956.4677572482
 30
0.0
 40
6.901467500664495
100
AcDbArc
 50
266.8348674354
 51
347.559902536
  0
ARC
  5
5FF
330
1F
100
AcDbEntity
  8
SLD-0_0
  6
SLD-Solid
 62
   179
370
    15
100
AcDbCircle
 10
1215.5969231664
 20
972.1707101001
 30
0.0
 40
6.901786412811141
100
AcDbArc
 50
12.440831961
 51
93.1628031531
  0
ARC
  5
600
330
1F
100
AcDbEntity
  8
SLD-0_0
  6
SLD-Solid
 62
   179
370
    15
100
AcDbCircle
 10
1181.3944606395
 20
964.3318866642
 30
0.0
 40
42.01523020915573
100
AcDbArc
 50
347.3253531784
 51
12.6410772864
  0
ARC
  5
601
330
1F
100
AcDbEntity
  8
SLD-0_0
  6
SLD-Solid
 62
   179
370
    15
100
AcDbCircle
 10
391.113981232
 20
1077.9691481621
 30
0.0
 40
0.2500000000002274
100
AcDbArc
 50
180.0
 51
270.0
  0
ARC
  5
602
330
1F
100
AcDbEntity
  8
SLD-0_0
  6
SLD-Solid
 62
   179
370
    15
100
AcDbCircle
 10
391.113981232
 20
1084.8691481621
 30
0.0
 40
0.25
100
AcDbArc
 50
90.0
 51
180.0
  0
ARC
  5
603
330
1F
100
AcDbEntity
  8
SLD-0_0
  6
SLD-Solid
 62
   179
370
    15
100
AcDbCircle
 10
391.613981232
 20
1077.9691481621
 30
0.0
 40
0.2500000000002274
100
AcDbArc
 50
270.0
 51
0.0
  0
ARC
  5
604
330
1F
100
AcDbEntity
  8
SLD-0_0
  6
SLD-Solid
 62
   179
370
    15
100
AcDbCircle
 10
391.613981232
 20
1084.8691481621
 30
0.0
 40
0.2500025582175686
100
AcDbArc
 50
0.0
 51
89.9982432148
  0
ARC
  5
605
330
1F
100
AcDbEntity
  8
SLD-0_0
  6
SLD-Solid
 62
   179
370
    15
100
AcDbCircle
 10
392.113981232
 20
1078.0691481621
 30
0.0
 40
0.25
100
AcDbArc
 50
90.0
 51
180.0
  0
ARC
  5
606
330
1F
100
AcDbEntity
  8
SLD-0_0
  6
SLD-Solid
 62
   179
370
    15
100
AcDbCircle
 10
392.113981232
 20
1084.7691481621
 30
0.0
 40
0.25
100
AcDbArc
 50
180.0
 51
270.0
  0
ARC
  5
607
330
1F
100
AcDbEntity
  8
SLD-0_0
  6
SLD-Solid
 62
   179
370
    15
100
AcDbCircle
 10
391.613981232
 20
1124.5691481621
 30
0.0
 40
0.2500000000002274
100
AcDbArc
 50
270.0
 51
0.0
  0
ARC
  5
608
330
1F
100
AcDbEntity
  8
SLD-0_0
  6
SLD-Solid
 62
   179
370
    15
100
AcDbCircle
 10
391.613981232
 20
1130.2691481621
 30
0.0
 40
0.25
100
AcDbArc
 50
0.0
 51
90.0
  0
ARC
  5
609
330
1F
100
AcDbEntity
  8
SLD-0_0
  6
SLD-Solid
 62
   179
370
    15
100
AcDbCircle
 10
391.113981232
 20
1124.5691481621
 30
0.0
 40
0.2500000000002274
100
AcDbArc
 50
180.0
 51
270.0
  0
ARC
  5
60A
330
1F
100
AcDbEntity
  8
SLD-0_0
  6
SLD-Solid
 62
   179
370
    15
100
AcDbCircle
 10
391.113981232
 20
1130.2691481621
 30
0.0
 40
0.25
100
AcDbArc
 50
90.0
 51
180.0
  0
ARC
  5
60B
330
1F
100
AcDbEntity
  8
SLD-0_0
  6
SLD-Solid
 62
   179
370
    15
100
AcDbCircle
 10
392.113981232
 20
1124.7691481621
 30
0.0
 40
0.2500000000002274
100
AcDbArc
 50
90.0
 51
180.0
  0
ARC
  5
60C
330
1F
100
AcDbEntity
  8
SLD-0_0
  6
SLD-Solid
 62
   179
370
    15
100
AcDbCircle
 10
392.113981232
 20
1130.0691481621
 30
0.0
 40
0.2500000000002274
100
AcDbArc
 50
180.0
 51
270.0
  0
ARC
  5
60D
330
1F
100
AcDbEntity
  8
SLD-0_0
  6
SLD-Solid
 62
   179
370
    15
100
AcDbCircle
 10
391.613981232
 20
1094.5691481621
 30
0.0
 40
0.25
100
AcDbArc
 50
270.0
 51
0.0
  0
ARC
  5
60E
330
1F
100
AcDbEntity
  8
SLD-0_0
  6
SLD-Solid
 62
   179
370
    15
100
AcDbCircle
 10
391.613981232
 20
1100.2691481621
 30
0.0
 40
0.25
100
AcDbArc
 50
0.0
 51
90.0
  0
ARC
  5
60F
330
1F
100
AcDbEntity
  8
SLD-0_0
  6
SLD-Solid
 62
   179
370
    15
100
AcDbCircle
 10
391.113981232
 20
1094.5691481621
 30
0.0
 40
0.25
100
AcDbArc
 50
180.0
 51
270.0
  0
ARC
  5
610
330
1F
100
AcDbEntity
  8
SLD-0_0
  6
SLD-Solid
 62
   179
370
    15
100
AcDbCircle
 10
391.113981232
 20
1100.2691481621
 30
0.0
 40
0.25
100
AcDbArc
 50
90.0
 51
180.0
  0
ARC
  5
611
330
1F
100
AcDbEntity
  8
SLD-0_0
  6
SLD-Solid
 62
   179
370
    15
100
AcDbCircle
 10
392.113981232
 20
1094.7691481621
 30
0.0
 40
0.2500000000004547
100
AcDbArc
 50
90.0
 51
180.0
  0
ARC
  5
612
330
1F
100
AcDbEntity
  8
SLD-0_0
  6
SLD-Solid
 62
   179
370
    15
100
AcDbCircle
 10
392.113981232
 20
1100.0691481621
 30
0.0
 40
0.25
100
AcDbArc
 50
180.0
 51
270.0
  0
ARC
  5
613
330
1F
100
AcDbEntity
  8
SLD-0_0
  6
SLD-Solid
 62
   179
370
    15
100
AcDbCircle
 10
391.113981232
 20
1064.5691481621
 30
0.0
 40
0.2500000000002274
100
AcDbArc
 50
180.0
 51
270.0
  0
ARC
  5
614
330
1F
100
AcDbEntity
  8
SLD-0_0
  6
SLD-Solid
 62
   179
370
    15
100
AcDbCircle
 10
391.113981232
 20
1070.2691481621
 30
0.0
 40
0.2500000000002274
100
AcDbArc
 50
90.0
 51
180.0
  0
ARC
  5
615
330
1F
100
AcDbEntity
  8
SLD-0_0
  6
SLD-Solid
 62
   179
370
    15
100
AcDbCircle
 10
391.613981232
 20
1064.5691481621
 30
0.0
 40
0.2500000000002274
100
AcDbArc
 50
270.0
 51
0.0
  0
ARC
  5
616
330
1F
100
AcDbEntity
  8
SLD-0_0
  6
SLD-Solid
 62
   179
370
    15
100
AcDbCircle
 10
391.613981232
 20
1070.2691481621
 30
0.0
 40
0.2500000000002274
100
AcDbArc
 50
0.0
 51
90.0
  0
ARC
  5
617
330
1F
100
AcDbEntity
  8
SLD-0_0
  6
SLD-Solid
 62
   179
370
    15
100
AcDbCircle
 10
392.113981232
 20
1064.7691481621
 30
0.0
 40
0.25
100
AcDbArc
 50
90.0
 51
180.0
  0
ARC
  5
618
330
1F
100
AcDbEntity
  8
SLD-0_0
  6
SLD-Solid
 62
   179
370
    15
100
AcDbCircle
 10
392.113981232
 20
1070.0691481621
 30
0.0
 40
0.2500000000004547
100
AcDbArc
 50
180.0
 51
270.0
  0
ARC
  5
619
330
1F
100
AcDbEntity
  8
SLD-0_0
  6
SLD-Solid
 62
   179
370
    15
100
AcDbCircle
 10
388.5832859737
 20
530.8950163509
 30
0.0
 40
0.4671731942771875
100
AcDbArc
 50
67.2439037852
 51
98.5312821919
  0
ARC
  5
61A
330
1F
100
AcDbEntity
  8
SLD-0_0
  6
SLD-Solid
 62
   179
370
    15
100
AcDbCircle
 10
387.7446793281
 20
530.8950163509
 30
0.0
 40
0.4671731942771875
100
AcDbArc
 50
81.4687178081
 51
112.7560962148
  0
ARC
  5
61B
330
1F
100
AcDbEntity
  8
SLD-0_0
  6
SLD-Solid
 62
   179
370
    15
100
AcDbCircle
 10
387.443947159
 20
527.3272404597
 30
0.0
 40
1.325578848552409
100
AcDbArc
 50
264.3738231142
 51
354.7631007517
  0
ARC
  5
61C
330
1F
100
AcDbEntity
  8
SLD-0_0
  6
SLD-Solid
 62
   179
370
    15
100
AcDbCircle
 10
387.4357746193
 20
531.3255572359
 30
0.0
 40
1.350467065145545
100
AcDbArc
 50
264.8260850463
 51
349.5852767003
  0
ARC
  5
61D
330
1F
100
AcDbEntity
  8
SLD-0_0
  6
SLD-Solid
 62
   179
370
    15
100
AcDbCircle
 10
387.3806881502
 20
543.4007057887
 30
0.0
 40
1.431104648238792
100
AcDbArc
 50
45.4022116933
 51
92.6712736297
  0
ARC
  5
61E
330
1F
100
AcDbEntity
  8
SLD-0_0
  6
SLD-Solid
 62
   179
370
    15
100
AcDbCircle
 10
387.6411671126
 20
543.1118120211
 30
0.0
 40
1.28940498241508
100
AcDbArc
 50
82.2975513138
 51
172.1055925637
  0
ARC
  5
61F
330
1F
100
AcDbEntity
  8
SLD-0_0
  6
SLD-Solid
 62
   179
370
    15
100
AcDbCircle
 10
399.6639812321
 20
1168.6191481612
 30
0.0
 40
1.000000000000227
100
AcDbArc
 50
180.0
 51
270.0
  0
ARC
  5
620
330
1F
100
AcDbEntity
  8
SLD-0_0
  6
SLD-Solid
 62
   179
370
    15
100
AcDbCircle
 10
501.0639812321
 20
1168.6191481612
 30
0.0
 40
1.000000000000227
100
AcDbArc
 50
270.0
 51
0.0
  0
ARC
  5
621
330
1F
100
AcDbEntity
  8
SLD-0_0
  6
SLD-Solid
 62
   179
370
    15
100
AcDbCircle
 10
399.9139812321
 20
1252.798603321
 30
0.0
 40
1.250000000000057
100
AcDbArc
 50
75.0
 51
180.0
  0
ARC
  5
622
330
1F
100
AcDbEntity
  8
SLD-0_0
  6
SLD-Solid
 62
   179
370
    15
100
AcDbCircle
 10
399.9139812321
 20
1252.798603321
 30
0.0
 40
2.05000000000009
100
AcDbArc
 50
75.0
 51
180.0
  0
ARC
  5
623
330
1F
100
AcDbEntity
  8
SLD-0_0
  6
SLD-Solid
 62
   179
370
    15
100
AcDbCircle
 10
427.0639812321
 20
1220.9359734617
 30
0.0
 40
25.80000000000013
100
AcDbArc
 50
0.0
 51
75.0
  0
ARC
  5
624
330
1F
100
AcDbEntity
  8
SLD-0_0
  6
SLD-Solid
 62
   179
370
    15
100
AcDbCircle
 10
427.0639812321
 20
1220.9359734617
 30
0.0
 40
25.0
100
AcDbArc
 50
0.0
 51
75.0
  0
ARC
  5
625
330
1F
100
AcDbEntity
  8
SLD-0_0
  6
SLD-Solid
 62
   179
370
    15
100
AcDbCircle
 10
454.1139812321
 20
1206.0691481612
 30
0.0
 40
1.250000000000227
100
AcDbArc
 50
180.0
 51
270.0
  0
ARC
  5
626
330
1F
100
AcDbEntity
  8
SLD-0_0
  6
SLD-Solid
 62
   179
370
    15
100
AcDbCircle
 10
454.1139812321
 20
1206.0691481612
 30
0.0
 40
2.050000000000182
100
AcDbArc
 50
180.0
 51
270.0002142419
  0
ARC
  5
627
330
1F
100
AcDbEntity
  8
SLD-0_0
  6
SLD-Solid
 62
   179
370
    15
100
AcDbCircle
 10
478.6139812321
 20
1186.0691481612
 30
0.0
 40
1.250000000000227
100
AcDbArc
 50
180.0
 51
270.0
  0
ARC
  5
628
330
1F
100
AcDbEntity
  8
SLD-0_0
  6
SLD-Solid
 62
   179
370
    15
100
AcDbCircle
 10
478.6139812321
 20
1186.0691481612
 30
0.0
 40
2.050000000000182
100
AcDbArc
 50
180.0
 51
270.0
  0
ARC
  5
629
330
1F
100
AcDbEntity
  8
SLD-0_0
  6
SLD-Solid
 62
   179
370
    15
100
AcDbCircle
 10
475.3139812321
 20
1202.7691481612
 30
0.0
 40
1.25000360813158
100
AcDbArc
 50
0.0
 51
89.9995918215
  0
ARC
  5
62A
330
1F
100
AcDbEntity
  8
SLD-0_0
  6
SLD-Solid
 62
   179
370
    15
100
AcDbCircle
 10
475.3139812321
 20
1202.7691481612
 30
0.0
 40
2.050000000000182
100
AcDbArc
 50
0.0
 51
90.0
  0
ARC
  5
62B
330
1F
100
AcDbEntity
  8
SLD-0_0
  6
SLD-Solid
 62
   179
370
    15
100
AcDbCircle
 10
500.8139812321
 20
1182.7691481612
 30
0.0
 40
2.050005877208595
100
AcDbArc
 50
359.9998342983
 51
90.0
  0
ARC
  5
62C
330
1F
100
AcDbEntity
  8
SLD-0_0
  6
SLD-Solid
 62
   179
370
    15
100
AcDbCircle
 10
500.8139812321
 20
1182.7691481612
 30
0.0
 40
1.250007236214079
100
AcDbArc
 50
359.99972825
 51
90.0
  0
ARC
  5
62D
330
1F
100
AcDbEntity
  8
SLD-0_0
  6
SLD-Solid
 62
   179
370
    15
100
AcDbCircle
 10
1142.3307897306
 20
1181.5191481612
 30
0.0
 40
22.00000031259475
100
AcDbArc
 50
293.5
 51
88.6977158047
  0
ARC
  5
62E
330
1F
100
AcDbEntity
  8
SLD-0_0
  6
SLD-Solid
 62
   179
370
    15
100
AcDbCircle
 10
1127.48313466
 20
1152.2691481612
 30
0.0
 40
0.1250000000002274
100
AcDbArc
 50
0.0
 51
180.0
  0
ARC
  5
62F
330
1F
100
AcDbEntity
  8
SLD-0_0
  6
SLD-Solid
 62
   179
370
    15
100
AcDbCircle
 10
1107.0389812321
 20
1169.6691481612
 30
0.0
 40
0.1249999999999402
100
AcDbArc
 50
23.5781784781
 51
156.4218215219
  0
ARC
  5
630
330
1F
100
AcDbEntity
  8
SLD-0_0
  6
SLD-Solid
 62
   179
370
    15
100
AcDbCircle
 10
1130.3228528684
 20
1166.2119477999
 30
0.0
 40
0.250000000000152
100
AcDbArc
 50
99.9421486626
 51
279.9421486626
  0
ARC
  5
631
330
1F
100
AcDbEntity
  8
SLD-0_0
  6
SLD-Solid
 62
   179
370
    15
100
AcDbCircle
 10
1129.8307897306
 20
1169.0191481612
 30
0.0
 40
3.100000000011633
100
AcDbArc
 50
279.9421486626
 51
80.0578513373
  0
ARC
  5
632
330
1F
100
AcDbEntity
  8
SLD-0_0
  6
SLD-Solid
 62
   179
370
    15
100
AcDbCircle
 10
1130.3228528684
 20
1171.8263485225
 30
0.0
 40
0.2500000000001127
100
AcDbArc
 50
80.0578513358
 51
260.0578513374
  0
ARC
  5
633
330
1F
100
AcDbEntity
  8
SLD-0_0
  6
SLD-Solid
 62
   179
370
    15
100
AcDbCircle
 10
1129.8307897306
 20
1169.0191481612
 30
0.0
 40
2.600000000011368
100
AcDbArc
 50
279.9421486626
 51
80.0578513374
  0
ARC
  5
634
330
1F
100
AcDbEntity
  8
SLD-0_0
  6
SLD-Solid
 62
   179
370
    15
100
AcDbCircle
 10
1129.3387265928
 20
1171.8263485225
 30
0.0
 40
0.2500000000003367
100
AcDbArc
 50
279.9421486627
 51
99.9421486626
  0
ARC
  5
635
330
1F
100
AcDbEntity
  8
SLD-0_0
  6
SLD-Solid
 62
   179
370
    15
100
AcDbCircle
 10
1129.8307897306
 20
1169.0191481612
 30
0.0
 40
3.100000000011554
100
AcDbArc
 50
99.9421486626
 51
260.0578513373
  0
ARC
  5
636
330
1F
100
AcDbEntity
  8
SLD-0_0
  6
SLD-Solid
 62
   179
370
    15
100
AcDbCircle
 10
1129.3387265928
 20
1166.2119477999
 30
0.0
 40
0.2500000000001912
100
AcDbArc
 50
260.0578513357
 51
80.0578513373
  0
ARC
  5
637
330
1F
100
AcDbEntity
  8
SLD-0_0
  6
SLD-Solid
 62
   179
370
    15
100
AcDbCircle
 10
1129.8307897306
 20
1169.0191481612
 30
0.0
 40
2.600000000011251
100
AcDbArc
 50
99.9421486625
 51
260.0578513375
  0
ARC
  5
638
330
1F
100
AcDbEntity
  8
SLD-0_0
  6
SLD-Solid
 62
   179
370
    15
100
AcDbCircle
 10
1025.5139812321
 20
1182.3691481612
 30
0.0
 40
1.240002330212617
100
AcDbArc
 50
90.0002583249
 51
180.0
  0
ARC
  5
639
330
1F
100
AcDbEntity
  8
SLD-0_0
  6
SLD-Solid
 62
   179
370
    15
100
AcDbCircle
 10
1047.3139812321
 20
1186.0691481612
 30
0.0
 40
2.46000870490535
100
AcDbArc
 50
270.0001352205
 51
0.000121795
  0
ARC
  5
63A
330
1F
100
AcDbEntity
  8
SLD-0_0
  6
SLD-Solid
 62
   179
370
    15
100
AcDbCircle
 10
1025.5139812321
 20
1182.3691481612
 30
0.0
 40
2.450000000000045
100
AcDbArc
 50
90.0
 51
180.0
  0
ARC
  5
63B
330
1F
100
AcDbEntity
  8
SLD-0_0
  6
SLD-Solid
 62
   179
370
    15
100
AcDbCircle
 10
1025.5139812321
 20
1182.3691481612
 30
0.0
 40
1.250000000000227
100
AcDbArc
 50
90.0
 51
180.0
  0
ARC
  5
63C
330
1F
100
AcDbEntity
  8
SLD-0_0
  6
SLD-Solid
 62
   179
370
    15
100
AcDbCircle
 10
1047.3139812321
 20
1186.0691481612
 30
0.0
 40
2.450000000000273
100
AcDbArc
 50
270.0
 51
0.0001222928
  0
ARC
  5
63D
330
1F
100
AcDbEntity
  8
SLD-0_0
  6
SLD-Solid
 62
   179
370
    15
100
AcDbCircle
 10
1047.3139812321
 20
1186.0691481612
 30
0.0
 40
1.250004613610851
100
AcDbArc
 50
270.0
 51
0.0002396926
  0
ARC
  5
63E
330
1F
100
AcDbEntity
  8
SLD-0_0
  6
SLD-Solid
 62
   179
370
    15
100
AcDbCircle
 10
1142.3307897306
 20
1181.5191481612
 30
0.0
 40
22.10000000000022
100
AcDbArc
 50
293.5
 51
88.703604783
  0
ARC
  5
63F
330
1F
100
AcDbEntity
  8
SLD-0_0
  6
SLD-Solid
 62
   179
370
    15
100
AcDbCircle
 10
1142.3307897306
 20
1181.5191481612
 30
0.0
 40
23.30000000000005
100
AcDbArc
 50
293.5
 51
88.7703824493
  0
ARC
  5
640
330
1F
100
AcDbEntity
  8
SLD-0_0
  6
SLD-Solid
 62
   179
370
    15
100
AcDbCircle
 10
1051.0139812321
 20
1202.3691481612
 30
0.0
 40
1.25
100
AcDbArc
 50
90.0
 51
180.0
  0
ARC
  5
641
330
1F
100
AcDbEntity
  8
SLD-0_0
  6
SLD-Solid
 62
   179
370
    15
100
AcDbCircle
 10
1051.0139812321
 20
1202.3691481612
 30
0.0
 40
2.450000000000045
100
AcDbArc
 50
90.0
 51
180.0
  0
ARC
  5
642
330
1F
100
AcDbEntity
  8
SLD-0_0
  6
SLD-Solid
 62
   179
370
    15
100
AcDbCircle
 10
1142.3307897306
 20
1181.5191481612
 30
0.0
 40
22.09999999999999
100
AcDbArc
 50
88.703604783
 51
90.0
  0
ARC
  5
643
330
1F
100
AcDbEntity
  8
SLD-0_0
  6
SLD-Solid
 62
   179
370
    15
100
AcDbCircle
 10
1142.3307897306
 20
1181.5191481612
 30
0.0
 40
23.29999999999995
100
AcDbArc
 50
88.7703824493
 51
90.0
  0
ARC
  5
644
330
1F
100
AcDbEntity
  8
SLD-0_0
  6
SLD-Solid
 62
   179
370
    15
100
AcDbCircle
 10
485.9878613893
 20
1203.6191481612
 30
0.0
 40
3.0
100
AcDbArc
 50
90.0
 51
175.0
  0
ARC
  5
645
330
1F
100
AcDbEntity
  8
SLD-0_0
  6
SLD-Solid
 62
   179
370
    15
100
AcDbCircle
 10
1038.7401010746
 20
1203.6191481612
 30
0.0
 40
3.0
100
AcDbArc
 50
5.0
 51
90.0
  0
ARC
  5
646
330
1F
100
AcDbEntity
  8
SLD-0_0
  6
SLD-Solid
 62
   179
370
    15
100
AcDbCircle
 10
485.4381288875
 20
1195.6191481612
 30
0.0
 40
1.000000000000034
100
AcDbArc
 50
18.5
 51
90.0
  0
ARC
  5
647
330
1F
100
AcDbEntity
  8
SLD-0_0
  6
SLD-Solid
 62
   179
370
    15
100
AcDbCircle
 10
1039.2898335764
 20
1195.6191481612
 30
0.0
 40
1.000000000000034
100
AcDbArc
 50
90.0
 51
161.5
  0
ARC
  5
648
330
1F
100
AcDbEntity
  8
SLD-0_0
  6
SLD-Solid
 62
   179
370
    15
100
AcDbCircle
 10
750.5476500579
 20
1195.6191481612
 30
0.0
 40
1.0
100
AcDbArc
 50
5.0
 51
90.0
  0
ARC
  5
649
330
1F
100
AcDbEntity
  8
SLD-0_0
  6
SLD-Solid
 62
   179
370
    15
100
AcDbCircle
 10
774.180312406
 20
1195.6191481612
 30
0.0
 40
1.00000000000018
100
AcDbArc
 50
90.0
 51
175.0
  0
ARC
  5
64A
330
1F
100
AcDbEntity
  8
SLD-0_0
  6
SLD-Solid
 62
   179
370
    15
100
AcDbCircle
 10
753.3426877047
 20
1186.6191481612
 30
0.0
 40
1.000000723791549
100
AcDbArc
 50
185.0005117749
 51
270.0
  0
ARC
  5
64B
330
1F
100
AcDbEntity
  8
SLD-0_0
  6
SLD-Solid
 62
   179
370
    15
100
AcDbCircle
 10
771.3852747591
 20
1186.6191481612
 30
0.0
 40
1.000001619668579
100
AcDbArc
 50
270.0
 51
354.9994927164
  0
ARC
  5
64C
330
1F
100
AcDbEntity
  8
SLD-0_0
  6
SLD-Solid
 62
   179
370
    15
100
AcDbCircle
 10
621.6490494807
 20
1227.1191481612
 30
0.0
 40
2.000000000000083
100
AcDbArc
 50
90.0
 51
173.5
  0
ARC
  5
64D
330
1F
100
AcDbEntity
  8
SLD-0_0
  6
SLD-Solid
 62
   179
370
    15
100
AcDbCircle
 10
903.0789129831
 20
1227.1191481612
 30
0.0
 40
2.000000000000083
100
AcDbArc
 50
6.5
 51
90.0
  0
ARC
  5
64E
330
1F
100
AcDbEntity
  8
SLD-0_0
  6
SLD-Solid
 62
   179
370
    15
100
AcDbCircle
 10
623.0789129831
 20
1227.1191481612
 30
0.0
 40
2.000000000000083
100
AcDbArc
 50
6.5
 51
90.0
  0
ARC
  5
64F
330
1F
100
AcDbEntity
  8
SLD-0_0
  6
SLD-Solid
 62
   179
370
    15
100
AcDbCircle
 10
901.6490494807
 20
1227.1191481612
 30
0.0
 40
2.0
100
AcDbArc
 50
90.0
 51
173.5001459722
  0
ARC
  5
650
330
1F
100
AcDbEntity
  8
SLD-0_0
  6
SLD-Solid
 62
   179
370
    15
100
AcDbCircle
 10
571.6490494807
 20
1227.1191481612
 30
0.0
 40
2.000005831889172
100
AcDbArc
 50
90.0001690114
 51
173.5001884974
  0
ARC
  5
651
330
1F
100
AcDbEntity
  8
SLD-0_0
  6
SLD-Solid
 62
   179
370
    15
100
AcDbCircle
 10
573.0789129831
 20
1227.1191481612
 30
0.0
 40
2.000001284408413
100
AcDbArc
 50
6.4998263452
 51
89.9999621074
  0
ARC
  5
652
330
1F
100
AcDbEntity
  8
SLD-0_0
  6
SLD-Solid
 62
   179
370
    15
100
AcDbCircle
 10
673.0789129831
 20
1227.1191481612
 30
0.0
 40
2.00000276493033
100
AcDbArc
 50
6.4998215129
 51
90.0
  0
ARC
  5
653
330
1F
100
AcDbEntity
  8
SLD-0_0
  6
SLD-Solid
 62
   179
370
    15
100
AcDbCircle
 10
671.6490494807
 20
1227.1191481612
 30
0.0
 40
1.999996948658195
100
AcDbArc
 50
89.9999128787
 51
173.5001595032
  0
ARC
  5
654
330
1F
100
AcDbEntity
  8
SLD-0_0
  6
SLD-Solid
 62
   179
370
    15
100
AcDbCircle
 10
851.6490494807
 20
1227.1191481612
 30
0.0
 40
1.999997244742621
100
AcDbArc
 50
89.9999214158
 51
173.5001604696
  0
ARC
  5
655
330
1F
100
AcDbEntity
  8
SLD-0_0
  6
SLD-Solid
 62
   179
370
    15
100
AcDbCircle
 10
853.0789129831
 20
1227.1191481612
 30
0.0
 40
2.000002468845667
100
AcDbArc
 50
6.4998224793
 51
89.9999279562
  0
ARC
  5
656
330
1F
100
AcDbEntity
  8
SLD-0_0
  6
SLD-Solid
 62
   179
370
    15
100
AcDbCircle
 10
953.0789129831
 20
1227.1191481612
 30
0.0
 40
1.999996546658809
100
AcDbArc
 50
6.4998418089
 51
90.0000987122
  0
ARC
  5
657
330
1F
100
AcDbEntity
  8
SLD-0_0
  6
SLD-Solid
 62
   179
370
    15
100
AcDbCircle
 10
951.6490494807
 20
1227.1191481612
 30
0.0
 40
1.999996360204637
100
AcDbArc
 50
89.9998787275
 51
173.5001556373
  0
ARC
  5
658
330
1F
100
AcDbEntity
  8
SLD-0_0
  6
SLD-Solid
 62
   179
370
    15
100
AcDbCircle
 10
551.7733078423
 20
1221.123607971
 30
0.0
 40
2.283467944963566
100
AcDbArc
 50
270.8360727884
 51
295.2455569665
  0
ARC
  5
659
330
1F
100
AcDbEntity
  8
SLD-0_0
  6
SLD-Solid
 62
   179
370
    15
100
AcDbCircle
 10
972.954662693
 20
1221.1236854464
 30
0.0
 40
2.283545448832928
100
AcDbArc
 50
244.7548768503
 51
269.1638924662
  0
ARC
  5
65A
330
1F
100
AcDbEntity
  8
SLD-0_0
  6
SLD-Solid
 62
   179
370
    15
100
AcDbCircle
 10
489.1146157865
 20
1211.6191481612
 30
0.0
 40
5.000000000000251
100
AcDbArc
 50
270.0
 51
336.0375110254
  0
ARC
  5
65B
330
1F
100
AcDbEntity
  8
SLD-0_0
  6
SLD-Solid
 62
   179
370
    15
100
AcDbCircle
 10
1035.6133466774
 20
1211.6191481612
 30
0.0
 40
5.000000000000304
100
AcDbArc
 50
203.9624889746
 51
270.0
  0
ARC
  5
65C
330
1F
100
AcDbEntity
  8
SLD-0_0
  6
SLD-Solid
 62
   179
370
    15
100
AcDbCircle
 10
754.6133466774
 20
1211.6191481612
 30
0.0
 40
5.000000000000304
100
AcDbArc
 50
203.9624889746
 51
270.0
  0
ARC
  5
65D
330
1F
100
AcDbEntity
  8
SLD-0_0
  6
SLD-Solid
 62
   179
370
    15
100
AcDbCircle
 10
770.1146157865
 20
1211.6191481612
 30
0.0
 40
5.000000000000408
100
AcDbArc
 50
270.0
 51
336.0375110254
  0
ARC
  5
65E
330
1F
100
AcDbEntity
  8
SLD-0_0
  6
SLD-Solid
 62
   179
370
    15
100
AcDbCircle
 10
503.6637274101
 20
1227.1191481612
 30
0.0
 40
1.99999999999997
100
AcDbArc
 50
89.999856173
 51
156.0375110254
  0
ARC
  5
65F
330
1F
100
AcDbEntity
  8
SLD-0_0
  6
SLD-Solid
 62
   179
370
    15
100
AcDbCircle
 10
1021.0642350538
 20
1227.1191481612
 30
0.0
 40
2.0
100
AcDbArc
 50
23.9624889746
 51
90.0
  0
ARC
  5
660
330
1F
100
AcDbEntity
  8
SLD-0_0
  6
SLD-Solid
 62
   179
370
    15
100
AcDbCircle
 10
739.9702638052
 20
1227.5176912523
 30
0.0
 40
1.60145484840763
100
AcDbArc
 50
89.9195323145
 51
173.454091554
  0
ARC
  5
661
330
1F
100
AcDbEntity
  8
SLD-0_0
  6
SLD-Solid
 62
   179
370
    15
100
AcDbCircle
 10
784.7576972935
 20
1227.5176887126
 30
0.0
 40
1.601457387588509
100
AcDbArc
 50
6.5459894833
 51
90.0804531838
  0
ARC
  5
662
330
1F
100
AcDbEntity
  8
SLD-0_0
  6
SLD-Solid
 62
   179
370
    15
100
AcDbCircle
 10
740.3241842894
 20
1227.5191481612
 30
0.0
 40
1.600000000000161
100
AcDbArc
 50
23.9624889746
 51
90.0000082542
  0
ARC
  5
663
330
1F
100
AcDbEntity
  8
SLD-0_0
  6
SLD-Solid
 62
   179
370
    15
100
AcDbCircle
 10
784.4037781745
 20
1227.5191481612
 30
0.0
 40
1.600000000000265
100
AcDbArc
 50
90.0000262451
 51
156.0375110254
  0
ARC
  5
664
330
1F
100
AcDbEntity
  8
SLD-0_0
  6
SLD-Solid
 62
   179
370
    15
100
AcDbCircle
 10
587.1138994345
 20
1084.2027359755
 30
0.0
 40
135.0000000000004
100
AcDbArc
 50
93.487847246
 51
94.7028122098
  0
ARC
  5
665
330
1F
100
AcDbEntity
  8
SLD-0_0
  6
SLD-Solid
 62
   179
370
    15
100
AcDbCircle
 10
587.1138994345
 20
1084.2027359755
 30
0.0
 40
135.0000000000003
100
AcDbArc
 50
97.9001814258
 51
112.6591189244
  0
ARC
  5
666
330
1F
100
AcDbEntity
  8
SLD-0_0
  6
SLD-Solid
 62
   179
370
    15
100
AcDbCircle
 10
937.6140630294
 20
1084.2027359755
 30
0.0
 40
135.0000000000006
100
AcDbArc
 50
85.2977570097
 51
86.512152754
  0
ARC
  5
667
330
1F
100
AcDbEntity
  8
SLD-0_0
  6
SLD-Solid
 62
   179
370
    15
100
AcDbCircle
 10
937.6140630294
 20
1084.2027359755
 30
0.0
 40
135.0000000000001
100
AcDbArc
 50
67.3408810756
 51
82.0998185742
  0
ARC
  5
668
330
1F
100
AcDbEntity
  8
SLD-0_0
  6
SLD-Solid
 62
   179
370
    15
100
AcDbCircle
 10
657.6140630294
 20
1084.2027359755
 30
0.0
 40
135.0
100
AcDbArc
 50
67.3515265346
 51
82.0946525468
  0
ARC
  5
669
330
1F
100
AcDbEntity
  8
SLD-0_0
  6
SLD-Solid
 62
   179
370
    15
100
AcDbCircle
 10
657.6140630294
 20
1084.2027359755
 30
0.0
 40
135.0000000000001
100
AcDbArc
 50
85.2971832839
 51
86.512152754
  0
ARC
  5
66A
330
1F
100
AcDbEntity
  8
SLD-0_0
  6
SLD-Solid
 62
   179
370
    15
100
AcDbCircle
 10
867.1138994345
 20
1084.2027359755
 30
0.0
 40
135.0
100
AcDbArc
 50
97.9053474532
 51
112.6484734654
  0
ARC
  5
66B
330
1F
100
AcDbEntity
  8
SLD-0_0
  6
SLD-Solid
 62
   179
370
    15
100
AcDbCircle
 10
867.1138994345
 20
1084.2027359755
 30
0.0
 40
135.0000000000001
100
AcDbArc
 50
93.487847246
 51
94.7028167161
  0
ARC
  5
66C
330
1F
100
AcDbEntity
  8
SLD-0_0
  6
SLD-Solid
 62
   179
370
    15
100
AcDbCircle
 10
657.6189115294
 20
1084.3088413215
 30
0.0
 40
134.8937962326242
100
AcDbArc
 50
86.511466535
 51
87.9841278901
  0
ARC
  5
66D
330
1F
100
AcDbEntity
  8
SLD-0_0
  6
SLD-Solid
 62
   179
370
    15
100
AcDbCircle
 10
867.1090490398
 20
1084.3088413215
 30
0.0
 40
134.893796117334
100
AcDbArc
 50
92.0158721099
 51
93.4885326617
  0
ARC
  5
66E
330
1F
100
AcDbEntity
  8
SLD-0_0
  6
SLD-Solid
 62
   179
370
    15
100
AcDbCircle
 10
587.1554137485
 20
1083.3447008222
 30
0.0
 40
135.8589718614828
100
AcDbArc
 50
92.0211109494
 51
93.4833082864
  0
ARC
  5
66F
330
1F
100
AcDbEntity
  8
SLD-0_0
  6
SLD-Solid
 62
   179
370
    15
100
AcDbCircle
 10
937.5726203694
 20
1083.3456469301
 30
0.0
 40
135.858023147943
100
AcDbArc
 50
86.516697634
 51
87.9789091174
  0
ARC
  5
670
330
1F
100
AcDbEntity
  8
SLD-0_0
  6
SLD-Solid
 62
   179
370
    15
100
AcDbCircle
 10
579.6564322486
 20
1227.1191481612
 30
0.0
 40
2.000003298740496
100
AcDbArc
 50
4.9998365926
 51
89.9998963002
  0
ARC
  5
671
330
1F
100
AcDbEntity
  8
SLD-0_0
  6
SLD-Solid
 62
   179
370
    15
100
AcDbCircle
 10
665.0715302152
 20
1227.1191481612
 30
0.0
 40
2.0
100
AcDbArc
 50
90.0
 51
175.0001525121
  0
ARC
  5
672
330
1F
100
AcDbEntity
  8
SLD-0_0
  6
SLD-Solid
 62
   179
370
    15
100
AcDbCircle
 10
859.6564322487
 20
1227.1191481612
 30
0.0
 40
1.999997063954967
100
AcDbArc
 50
4.9998522187
 51
90.0000755962
  0
ARC
  5
673
330
1F
100
AcDbEntity
  8
SLD-0_0
  6
SLD-Solid
 62
   179
370
    15
100
AcDbCircle
 10
945.0715302152
 20
1227.1191481612
 30
0.0
 40
1.999997763981189
100
AcDbArc
 50
89.9999445347
 51
175.0001495357
  0
ARC
  5
674
330
1F
100
AcDbEntity
  8
SLD-0_0
  6
SLD-Solid
 62
   179
370
    15
100
AcDbCircle
 10
509.863826736
 20
1173.8191481612
 30
0.0
 40
5.000000000000227
100
AcDbArc
 50
180.0
 51
270.0
  0
ARC
  5
675
330
1F
100
AcDbEntity
  8
SLD-0_0
  6
SLD-Solid
 62
   179
370
    15
100
AcDbCircle
 10
1014.863826736
 20
1173.8191481612
 30
0.0
 40
5.000000000000455
100
AcDbArc
 50
270.0
 51
0.0
  0
ARC
  5
676
330
1F
100
AcDbEntity
  8
SLD-0_0
  6
SLD-Solid
 62
   179
370
    15
100
AcDbCircle
 10
483.463826736
 20
1187.1191481612
 30
0.0
 40
1.500009838705588
100
AcDbArc
 50
197.5
 51
269.9998429457
  0
ARC
  5
677
330
1F
100
AcDbEntity
  8
SLD-0_0
  6
SLD-Solid
 62
   179
370
    15
100
AcDbCircle
 10
483.463826736
 20
1187.1191481612
 30
0.0
 40
2.300000000000048
100
AcDbArc
 50
197.5
 51
270.0
  0
ARC
  5
678
330
1F
100
AcDbEntity
  8
SLD-0_0
  6
SLD-Solid
 62
   179
370
    15
100
AcDbCircle
 10
1041.2641357272
 20
1187.1191481612
 30
0.0
 40
2.299999999999955
100
AcDbArc
 50
270.0
 51
342.5
  0
ARC
  5
679
330
1F
100
AcDbEntity
  8
SLD-0_0
  6
SLD-Solid
 62
   179
370
    15
100
AcDbCircle
 10
1041.2641357272
 20
1187.1191481612
 30
0.0
 40
1.50000983873111
100
AcDbArc
 50
270.0003692956
 51
342.5
  0
ARC
  5
67A
330
1F
100
AcDbEntity
  8
SLD-0_0
  6
SLD-Solid
 62
   179
370
    15
100
AcDbCircle
 10
503.3639812316
 20
1181.6191481612
 30
0.0
 40
3.200000000000273
100
AcDbArc
 50
62.0436814777
 51
90.0
  0
ARC
  5
67B
330
1F
100
AcDbEntity
  8
SLD-0_0
  6
SLD-Solid
 62
   179
370
    15
100
AcDbCircle
 10
1021.3639812316
 20
1181.6191481612
 30
0.0
 40
3.200000000000211
100
AcDbArc
 50
90.0
 51
117.9500553353
  0
ARC
  5
67C
330
1F
100
AcDbEntity
  8
SLD-0_0
  6
SLD-Solid
 62
   179
370
    15
100
AcDbCircle
 10
1014.8641357272
 20
1173.8191481612
 30
0.0
 40
5.000005042900037
100
AcDbArc
 50
270.0
 51
359.9999888892
  0
ARC
  5
67D
330
1F
100
AcDbEntity
  8
SLD-0_0
  6
SLD-Solid
 62
   179
370
    15
100
AcDbCircle
 10
1173.354365404
 20
1138.1982247636
 30
0.0
 40
1.0032706018009
100
AcDbArc
 50
17.9660321712
 51
83.6527723885
  0
ARC
  5
67E
330
1F
100
AcDbEntity
  8
SLD-0_0
  6
SLD-Solid
 62
   179
370
    15
100
AcDbCircle
 10
1108.1639812329
 20
1148.0191481612
 30
0.0
 40
1.0
100
AcDbArc
 50
90.0
 51
180.0
  0
ARC
  5
67F
330
1F
100
AcDbEntity
  8
SLD-0_0
  6
SLD-Solid
 62
   179
370
    15
100
AcDbCircle
 10
1108.1639812329
 20
1029.3314736341
 30
0.0
 40
1.0
100
AcDbArc
 50
180.0
 51
270.0
  0
ARC
  5
680
330
1F
100
AcDbEntity
  8
SLD-0_0
  6
SLD-Solid
 62
   179
370
    15
100
AcDbCircle
 10
1167.8080505337
 20
1029.5814736341
 30
0.0
 40
1.250000000000307
100
AcDbArc
 50
270.0001912774
 51
320.0
  0
ARC
  5
681
330
1F
100
AcDbEntity
  8
SLD-0_0
  6
SLD-Solid
 62
   179
370
    15
100
AcDbCircle
 10
1167.8080505337
 20
1029.5814736341
 30
0.0
 40
2.050006114704201
100
AcDbArc
 50
270.0001166315
 51
320.0
  0
ARC
  5
682
330
1F
100
AcDbEntity
  8
SLD-0_0
  6
SLD-Solid
 62
   179
370
    15
100
AcDbCircle
 10
1173.5238638028
 20
1050.0058981173
 30
0.0
 40
10.00000000000018
100
AcDbArc
 50
320.0
 51
70.0
  0
ARC
  5
683
330
1F
100
AcDbEntity
  8
SLD-0_0
  6
SLD-Solid
 62
   179
370
    15
100
AcDbCircle
 10
1173.5238638028
 20
1050.0058981173
 30
0.0
 40
10.80000450950976
100
AcDbArc
 50
320.0
 51
69.9999544242
  0
ARC
  5
684
330
1F
100
AcDbEntity
  8
SLD-0_0
  6
SLD-Solid
 62
   179
370
    15
100
AcDbCircle
 10
1161.1874900236
 20
1076.6308686392
 30
0.0
 40
9.99999999999996
100
AcDbArc
 50
198.0
 51
250.0000324021
  0
ARC
  5
685
330
1F
100
AcDbEntity
  8
SLD-0_0
  6
SLD-Solid
 62
   179
370
    15
100
AcDbCircle
 10
1161.1874900236
 20
1076.6308686392
 30
0.0
 40
10.8000000000001
100
AcDbArc
 50
198.0
 51
250.0
  0
ARC
  5
686
330
1F
100
AcDbEntity
  8
SLD-0_0
  6
SLD-Solid
 62
   179
370
    15
100
AcDbCircle
 10
1125.4031420487
 20
1147.7691481612
 30
0.0
 40
2.050009997712705
100
AcDbArc
 50
18.0
 51
90.0002013643
  0
ARC
  5
687
330
1F
100
AcDbEntity
  8
SLD-0_0
  6
SLD-Solid
 62
   179
370
    15
100
AcDbCircle
 10
1125.4031420487
 20
1147.7691481612
 30
0.0
 40
1.250000000000139
100
AcDbArc
 50
18.0
 51
90.0003302401
  0
ARC
  5
688
330
1F
100
AcDbEntity
  8
SLD-0_0
  6
SLD-Solid
 62
   179
370
    15
100
AcDbCircle
 10
1165.4556676634
 20
1092.8387578301
 30
0.0
 40
1.195989492823656
100
AcDbArc
 50
326.9620972492
 51
19.2412833314
  0
ARC
  5
689
330
1F
100
AcDbEntity
  8
SLD-0_0
  6
SLD-Solid
 62
   179
370
    15
100
AcDbCircle
 10
1166.486612851
 20
1092.1676637034
 30
0.0
 40
0.0341425262110428
100
AcDbArc
 50
146.089204001
 51
199.5227844297
  0
ARC
  5
68A
330
1F
100
AcDbEntity
  8
SLD-0_0
  6
SLD-Solid
 62
   179
370
    15
100
AcDbCircle
 10
1151.4009885484
 20
1136.0973822566
 30
0.0
 40
1.195121216185044
100
AcDbArc
 50
16.7369613106
 51
69.0571459241
  0
ARC
  5
68B
330
1F
100
AcDbEntity
  8
SLD-0_0
  6
SLD-Solid
 62
   179
370
    15
100
AcDbCircle
 10
1151.8401630633
 20
1137.2458762666
 30
0.0
 40
0.0344791451106918
100
AcDbArc
 50
196.8144188378
 51
249.6426416006
  0
ARC
  5
68C
330
1F
100
AcDbEntity
  8
SLD-0_0
  6
SLD-Solid
 62
   179
370
    15
100
AcDbCircle
 10
1153.9230470685
 20
1167.9518676336
 30
0.0
 40
26.38788712747552
100
AcDbArc
 50
263.2486804039
 51
263.7564837616
  0
ARC
  5
68D
330
1F
100
AcDbEntity
  8
SLD-0_0
  6
SLD-Solid
 62
   179
370
    15
100
AcDbCircle
 10
1171.3898710023
 20
1138.4407012901
 30
0.0
 40
1.003461628695201
100
AcDbArc
 50
17.9693608794
 51
83.64457935
  0
ARC
  5
68E
330
1F
100
AcDbEntity
  8
SLD-0_0
  6
SLD-Solid
 62
   179
370
    15
100
AcDbCircle
 10
1093.9426868284
 20
1086.0820770384
 30
0.0
 40
58.83980798574338
100
AcDbArc
 50
17.9586304992
 51
18.0421162234
  0
ARC
  5
68F
330
1F
100
AcDbEntity
  8
SLD-0_0
  6
SLD-Solid
 62
   179
370
    15
100
AcDbCircle
 10
11.7835954409
 20
1172.1063113692
 30
0.0
 40
315.7374655823097
100
AcDbArc
 50
0.0114069939
 51
0.383413057
  0
ARC
  5
690
330
1F
100
AcDbEntity
  8
SLD-0_0
  6
SLD-Solid
 62
   179
370
    15
100
AcDbCircle
 10
327.5784945894
 20
1487.0566578493
 30
0.0
 40
314.8945859934914
100
AcDbArc
 50
269.6152562804
 51
269.9882635384
  0
ARC
  5
691
330
1F
100
AcDbEntity
  8
SLD-0_0
  6
SLD-Solid
 62
   179
370
    15
100
AcDbCircle
 10
327.5139812331
 20
1172.1691481621
 30
0.0
 40
2.050000000000011
100
AcDbArc
 50
90.0
 51
180.0
  0
ARC
  5
692
330
1F
100
AcDbEntity
  8
SLD-0_0
  6
SLD-Solid
 62
   179
370
    15
100
AcDbCircle
 10
327.5139812331
 20
1172.1691481621
 30
0.0
 40
1.25
100
AcDbArc
 50
90.0
 51
180.0
  0
ARC
  5
693
330
1F
100
AcDbEntity
  8
SLD-0_0
  6
SLD-Solid
 62
   179
370
    15
100
AcDbCircle
 10
327.5139812331
 20
1016.2691481621
 30
0.0
 40
2.049999999999943
100
AcDbArc
 50
217.5718693197
 51
270.0
  0
ARC
  5
694
330
1F
100
AcDbEntity
  8
SLD-0_0
  6
SLD-Solid
 62
   179
370
    15
100
AcDbCircle
 10
388.6622081973
 20
1019.6414162049
 30
0.0
 40
4.717580680458856
100
AcDbArc
 50
271.843505491
 51
297.8214048919
  0
ARC
  5
695
330
1F
100
AcDbEntity
  8
SLD-0_0
  6
SLD-Solid
 62
   179
370
    15
100
AcDbCircle
 10
328.113981232
 20
1012.1691481621
 30
0.0
 40
2.050000000000182
100
AcDbArc
 50
90.0
 51
180.0000830988
  0
ARC
  5
696
330
1F
100
AcDbEntity
  8
SLD-0_0
  6
SLD-Solid
 62
   179
370
    15
100
AcDbCircle
 10
328.113981232
 20
1012.1691481621
 30
0.0
 40
1.250008070203546
100
AcDbArc
 50
90.0
 51
180.0001362806
  0
ARC
  5
697
330
1F
100
AcDbEntity
  8
SLD-0_0
  6
SLD-Solid
 62
   179
370
    15
100
AcDbCircle
 10
388.8140237
 20
1015.4691337508
 30
0.0
 40
2.049959952324505
100
AcDbArc
 50
269.9985354969
 51
0.0006315544
  0
ARC
  5
698
330
1F
100
AcDbEntity
  8
SLD-0_0
  6
SLD-Solid
 62
   179
370
    15
100
AcDbCircle
 10
388.8681044469
 20
1015.3717706352
 30
0.0
 40
1.153913362820675
100
AcDbArc
 50
267.3111157066
 51
348.6042245207
  0
ARC
  5
699
330
1F
100
AcDbEntity
  8
SLD-0_0
  6
SLD-Solid
 62
   179
370
    15
100
AcDbCircle
 10
1138.8639812321
 20
1017.1191481621
 30
0.0
 40
6.500000000000232
100
AcDbArc
 50
26.7436839504
 51
153.2563160496
  0
ARC
  5
69A
330
1F
100
AcDbEntity
  8
SLD-0_0
  6
SLD-Solid
 62
   179
370
    15
100
AcDbCircle
 10
1110.3639812321
 20
1016.6191481621
 30
0.0
 40
1.500000000000114
100
AcDbArc
 50
90.0
 51
180.0
  0
ARC
  5
69B
330
1F
100
AcDbEntity
  8
SLD-0_0
  6
SLD-Solid
 62
   179
370
    15
100
AcDbCircle
 10
1110.3639812321
 20
1016.6191481621
 30
0.0
 40
3.500000000000179
100
AcDbArc
 50
122.7764070491
 51
156.1044916004
  0
ARC
  5
69C
330
1F
100
AcDbEntity
  8
SLD-0_0
  6
SLD-Solid
 62
   179
370
    15
100
AcDbCircle
 10
1129.9336956824
 20
1021.6191481621
 30
0.0
 40
1.500000000000163
100
AcDbArc
 50
270.0
 51
333.2563160496
  0
ARC
  5
69D
330
1F
100
AcDbEntity
  8
SLD-0_0
  6
SLD-Solid
 62
   179
370
    15
100
AcDbCircle
 10
1138.8639812321
 20
1017.1191481621
 30
0.0
 40
8.499999999999973
100
AcDbArc
 50
26.7436839504
 51
153.2563160495
  0
ARC
  5
69E
330
1F
100
AcDbEntity
  8
SLD-0_0
  6
SLD-Solid
 62
   179
370
    15
100
AcDbCircle
 10
1147.7942667819
 20
1021.6191481621
 30
0.0
 40
1.500000000048491
100
AcDbArc
 50
206.7436839495
 51
270.0
  0
ARC
  5
69F
330
1F
100
AcDbEntity
  8
SLD-0_0
  6
SLD-Solid
 62
   179
370
    15
100
AcDbCircle
 10
1162.099490761
 20
1021.6191481621
 30
0.0
 40
1.5
100
AcDbArc
 50
270.0
 51
290.0
  0
ARC
  5
6A0
330
1F
100
AcDbEntity
  8
SLD-0_0
  6
SLD-Solid
 62
   179
370
    15
100
AcDbCircle
 10
1110.5639812321
 20
554.7191481596
 30
0.0
 40
4.000000000000237
100
AcDbArc
 50
18.1948719932
 51
90.0
  0
ARC
  5
6A1
330
1F
100
AcDbEntity
  8
SLD-0_0
  6
SLD-Solid
 62
   179
370
    15
100
AcDbCircle
 10
1110.5639812321
 20
550.7191481596
 30
0.0
 40
4.000000000000237
100
AcDbArc
 50
270.0
 51
341.8051280068
  0
ARC
  5
6A2
330
1F
100
AcDbEntity
  8
SLD-0_0
  6
SLD-Solid
 62
   179
370
    15
100
AcDbCircle
 10
1110.3639812321
 20
997.6574406127
 30
0.0
 40
4.0
100
AcDbArc
 50
0.0
 51
143.1301022282
  0
ARC
  5
6A3
330
1F
100
AcDbEntity
  8
SLD-0_0
  6
SLD-Solid
 62
   179
370
    15
100
AcDbCircle
 10
1105.3639812321
 20
570.9191481602
 30
0.0
 40
9.000000000000227
100
AcDbArc
 50
281.5369590671
 51
0.0
  0
ARC
  5
6A4
330
1F
100
AcDbEntity
  8
SLD-0_0
  6
SLD-Solid
 62
   179
370
    15
100
AcDbCircle
 10
1128.163981239
 20
1015.3191481612
 30
0.0
 40
2.000000000000227
100
AcDbArc
 50
90.0
 51
180.0
  0
ARC
  5
6A5
330
1F
100
AcDbEntity
  8
SLD-0_0
  6
SLD-Solid
 62
   179
370
    15
100
AcDbCircle
 10
1140.163981239
 20
1014.8191481612
 30
0.0
 40
6.614378277661331
100
AcDbArc
 50
53.2529516179
 51
126.7470483821
  0
ARC
  5
6A6
330
1F
100
AcDbEntity
  8
SLD-0_0
  6
SLD-Solid
 62
   179
370
    15
100
AcDbCircle
 10
1140.163981239
 20
1017.3191481612
 30
0.0
 40
6.500000000000315
100
AcDbArc
 50
104.5530854461
 51
154.4836157471
  0
ARC
  5
6A7
330
1F
100
AcDbEntity
  8
SLD-0_0
  6
SLD-Solid
 62
   179
370
    15
100
AcDbCircle
 10
1140.163981239
 20
1017.3191481612
 30
0.0
 40
5.00000000000025
100
AcDbArc
 50
34.0557933339
 51
145.9442066661
  0
ARC
  5
6A8
330
1F
100
AcDbEntity
  8
SLD-0_0
  6
SLD-Solid
 62
   179
370
    15
100
AcDbCircle
 10
1166.1640284832
 20
577.7814640426
 30
0.0
 40
2.999942485388407
100
AcDbArc
 50
359.9993788178
 51
57.7695155624
  0
ARC
  5
6A9
330
1F
100
AcDbEntity
  8
SLD-0_0
  6
SLD-Solid
 62
   179
370
    15
100
AcDbCircle
 10
1166.1640586705
 20
522.8568123162
 30
0.0
 40
2.999912298310969
100
AcDbArc
 50
302.2301663618
 51
0.0009392581
  0
ARC
  5
6AA
330
1F
100
AcDbEntity
  8
SLD-0_0
  6
SLD-Solid
 62
   179
370
    15
100
AcDbCircle
 10
1201.0347220348
 20
956.4447116293
 30
0.0
 40
6.827328770834553
100
AcDbArc
 50
266.7218523315
 51
349.5716032995
  0
ARC
  5
6AB
330
1F
100
AcDbEntity
  8
SLD-0_0
  6
SLD-Solid
 62
   179
370
    15
100
AcDbCircle
 10
1215.5772720066
 20
956.5635343784
 30
0.0
 40
6.996044296959084
100
AcDbArc
 50
267.0410165007
 51
348.3460225826
  0
ARC
  5
6AC
330
1F
100
AcDbEntity
  8
SLD-0_0
  6
SLD-Solid
 62
   179
370
    15
100
AcDbCircle
 10
1215.5772720066
 20
972.0752668828
 30
0.0
 40
6.996044296950089
100
AcDbArc
 50
11.6539774174
 51
92.958983499
  0
ARC
  5
6AD
330
1F
100
AcDbEntity
  8
SLD-0_0
  6
SLD-Solid
 62
   179
370
    15
100
AcDbCircle
 10
1116.6631048237
 20
1008.8913841326
 30
0.0
 40
2.906274398841505
100
AcDbArc
 50
99.8892697118
 51
142.2879099114
  0
ARC
  5
6AE
330
1F
100
AcDbEntity
  8
SLD-0_0
  6
SLD-Solid
 62
   179
370
    15
100
AcDbCircle
 10
1116.4355513704
 20
495.3686069032
 30
0.0
 40
2.499988102497254
100
AcDbArc
 50
214.0409589757
 51
263.7634271034
  0
ARC
  5
6AF
330
1F
100
AcDbEntity
  8
SLD-0_0
  6
SLD-Solid
 62
   179
370
    15
100
AcDbCircle
 10
1116.1901123195
 20
1011.0298461803
 30
0.0
 40
0.8398350838137134
100
AcDbArc
 50
91.7839320604
 51
146.6927889049
  0
ARC
  5
6B0
330
1F
100
AcDbEntity
  8
SLD-0_0
  6
SLD-Solid
 62
   179
370
    15
100
AcDbCircle
 10
1116.3370613528
 20
1010.7078890727
 30
0.0
 40
1.973474710275014
100
AcDbArc
 50
95.0318791812
 51
181.1252258793
  0
ARC
  5
6B1
330
1F
100
AcDbEntity
  8
SLD-0_0
  6
SLD-Solid
 62
   179
370
    15
100
AcDbCircle
 10
1116.191016613
 20
493.6089646095
 30
0.0
 40
0.8405235518629057
100
AcDbArc
 50
213.3107753146
 51
268.1558559637
  0
ARC
  5
6B2
330
1F
100
AcDbEntity
  8
SLD-0_0
  6
SLD-Solid
 62
   179
370
    15
100
AcDbCircle
 10
1116.3237297916
 20
493.9226704484
 30
0.0
 40
1.960313689548403
100
AcDbArc
 50
178.6413738838
 51
265.3253158422
  0
CIRCLE
  5
6B3
330
1F
100
AcDbEntity
  8
SLD-0_0
  6
SLD-Solid
 62
   179
370
    15
100
AcDbCircle
 10
1136.1639812394
 20
752.3191481612
 30
0.0
 40
1.599999999999909
  0
CIRCLE
  5
6B4
330
1F
100
AcDbEntity
  8
SLD-0_0
  6
SLD-Solid
 62
   179
370
    15
100
AcDbCircle
 10
1136.1639812394
 20
520.3191481612
 30
0.0
 40
1.599999999999909
  0
CIRCLE
  5
6B5
330
1F
100
AcDbEntity
  8
SLD-0_0
  6
SLD-Solid
 62
   179
370
    15
100
AcDbCircle
 10
1136.1639812394
 20
984.3191481612
 30
0.0
 40
1.599999999999682
  0
ARC
  5
6B6
330
1F
100
AcDbEntity
  8
SLD-0_0
  6
SLD-Solid
 62
   179
370
    15
100
AcDbCircle
 10
1164.1139809104
 20
492.3691467267
 30
0.0
 40
2.04999887950048
100
AcDbArc
 50
269.9996235078
 51
359.9999600187
  0
ARC
  5
6B7
330
1F
100
AcDbEntity
  8
SLD-0_0
  6
SLD-Solid
 62
   179
370
    15
100
AcDbCircle
 10
1164.1140119089
 20
1012.2691764501
 30
0.0
 40
2.0499678810524
100
AcDbArc
 50
359.9995900576
 51
90.0012428935
  0
ARC
  5
6B8
330
1F
100
AcDbEntity
  8
SLD-0_0
  6
SLD-Solid
 62
   179
370
    15
100
AcDbCircle
 10
1112.6639812394
 20
490.8191481612
 30
0.0
 40
5.5
100
AcDbArc
 50
180.0
 51
270.0
  0
ARC
  5
6B9
330
1F
100
AcDbEntity
  8
SLD-0_0
  6
SLD-Solid
 62
   179
370
    15
100
AcDbCircle
 10
1112.6639812394
 20
490.8191481612
 30
0.0
 40
3.0
100
AcDbArc
 50
180.0
 51
270.0
  0
ARC
  5
6BA
330
1F
100
AcDbEntity
  8
SLD-0_0
  6
SLD-Solid
 62
   179
370
    15
100
AcDbCircle
 10
1112.6639812321
 20
1023.1191478424
 30
0.0
 40
5.499999999999773
100
AcDbArc
 50
180.0
 51
270.0000197473
  0
ARC
  5
6BB
330
1F
100
AcDbEntity
  8
SLD-0_0
  6
SLD-Solid
 62
   179
370
    15
100
AcDbCircle
 10
1112.6639812321
 20
1023.1191478424
 30
0.0
 40
3.000000000000227
100
AcDbArc
 50
180.0
 51
270.0000362034
  0
ARC
  5
6BC
330
1F
100
AcDbEntity
  8
SLD-0_0
  6
SLD-Solid
 62
   179
370
    15
100
AcDbCircle
 10
402.0954895702
 20
483.3606666843
 30
0.0
 40
3.244414647371118
100
AcDbArc
 50
98.5349133897
 51
141.2853917339
  0
ARC
  5
6BD
330
1F
100
AcDbEntity
  8
SLD-0_0
  6
SLD-Solid
 62
   179
370
    15
100
AcDbCircle
 10
402.0954502887
 20
1168.7775911935
 30
0.0
 40
3.244366645143847
100
AcDbArc
 50
218.7146598461
 51
261.4656608712
  0
ARC
  5
6BE
330
1F
100
AcDbEntity
  8
SLD-0_0
  6
SLD-Solid
 62
   179
370
    15
100
AcDbCircle
 10
397.6614135716
 20
1164.6595749804
 30
0.0
 40
4.055872457840479
100
AcDbArc
 50
12.9594276483
 51
46.8609716806
  0
ARC
  5
6BF
330
1F
100
AcDbEntity
  8
SLD-0_0
  6
SLD-Solid
 62
   179
370
    15
100
AcDbCircle
 10
1109.6071034795
 20
1164.595823631
 30
0.0
 40
4.597336538225006
100
AcDbArc
 50
141.1938791906
 51
167.7771207898
  0
ARC
  5
6C0
330
1F
100
AcDbEntity
  8
SLD-0_0
  6
SLD-Solid
 62
   179
370
    15
100
AcDbCircle
 10
402.3383300667
 20
1167.5890582435
 30
0.0
 40
2.145860409597601
100
AcDbArc
 50
203.0631557582
 51
250.2718826881
  0
ARC
  5
6C1
330
1F
100
AcDbEntity
  8
SLD-0_0
  6
SLD-Solid
 62
   179
370
    15
100
AcDbCircle
 10
399.5903462616
 20
1164.841332283
 30
0.0
 40
2.150536732416979
100
AcDbArc
 50
19.7815521183
 51
66.8820457248
  0
ARC
  5
6C2
330
1F
100
AcDbEntity
  8
SLD-0_0
  6
SLD-Solid
 62
   179
370
    15
100
AcDbCircle
 10
1108.322374306
 20
487.0506029205
 30
0.0
 40
3.244314540863911
100
AcDbArc
 50
188.5341302124
 51
231.2857290802
  0
ARC
  5
6C3
330
1F
100
AcDbEntity
  8
SLD-0_0
  6
SLD-Solid
 62
   179
370
    15
100
AcDbCircle
 10
399.5970571431
 20
487.2906724421
 30
0.0
 40
2.142094258432589
100
AcDbArc
 50
293.0192203875
 51
340.3161589931
  0
ARC
  5
6C4
330
1F
100
AcDbEntity
  8
SLD-0_0
  6
SLD-Solid
 62
   179
370
    15
100
AcDbCircle
 10
402.3383705936
 20
484.5492099441
 30
0.0
 40
2.145904526964029
100
AcDbArc
 50
109.7288444409
 51
156.9368398589
  0
ARC
  5
6C5
330
1F
100
AcDbEntity
  8
SLD-0_0
  6
SLD-Solid
 62
   179
370
    15
100
AcDbCircle
 10
1104.2046269868
 20
1169.5214087679
 30
0.0
 40
4.05552499687343
100
AcDbArc
 50
282.9573806664
 51
316.862298617
  0
ARC
  5
6C6
330
1F
100
AcDbEntity
  8
SLD-0_0
  6
SLD-Solid
 62
   179
370
    15
100
AcDbCircle
 10
1104.3861492739
 20
1167.5927490616
 30
0.0
 40
2.15051093036926
100
AcDbArc
 50
289.7822493647
 51
336.8827121859
  0
ARC
  5
6C7
330
1F
100
AcDbEntity
  8
SLD-0_0
  6
SLD-Solid
 62
   179
370
    15
100
AcDbCircle
 10
1107.1342757814
 20
1164.844482582
 30
0.0
 40
2.146329096727638
100
AcDbArc
 50
113.0689890251
 51
160.2674131319
  0
ARC
  5
6C8
330
1F
100
AcDbEntity
  8
SLD-0_0
  6
SLD-Solid
 62
   179
370
    15
100
AcDbCircle
 10
1104.3924235208
 20
484.5522125568
 30
0.0
 40
2.142122547165586
100
AcDbArc
 50
23.0189497111
 51
70.3153659903
  0
ARC
  5
6C9
330
1F
100
AcDbEntity
  8
SLD-0_0
  6
SLD-Solid
 62
   179
370
    15
100
AcDbCircle
 10
1107.133978099
 20
487.2935724116
 30
0.0
 40
2.145966000483603
100
AcDbArc
 50
199.729099821
 51
246.9355207985
  0
ELLIPSE
  5
6CA
330
1F
100
AcDbEntity
  8
SLD-0_0
  6
SLD-Solid
 62
   179
370
    15
100
AcDbEllipse
 10
516.1358607386
 20
1194.1191481612
 30
0.0
 11
5.229180776432599
 21
34.80854219515618
 31
0.0
210
0.0
220
0.0
230
1.0
 40
0.6991287568
 41
0.1046444437037412
 42
1.222624058285287
  0
ELLIPSE
  5
6CB
330
1F
100
AcDbEntity
  8
SLD-0_0
  6
SLD-Solid
 62
   179
370
    15
100
AcDbEllipse
 10
559.8719823088
 20
1169.1717462402
 30
0.0
 11
-7.907130209246361
 21
49.69431533888223
 31
0.0
210
0.0
220
0.0
230
0.9999999999999999
 40
0.6981570542
 41
0.0045629715855939
 42
0.6136893060893043
  0
ELLIPSE
  5
6CC
330
1F
100
AcDbEntity
  8
SLD-0_0
  6
SLD-Solid
 62
   179
370
    15
100
AcDbEllipse
 10
964.8559801551
 20
1169.1717462402
 30
0.0
 11
7.907130209246248
 21
49.69431533888224
 31
0.0
210
0.0
220
0.0
230
1.0
 40
0.6981570542
 41
5.669496001090316
 42
6.278622335594035
  0
ELLIPSE
  5
6CD
330
1F
100
AcDbEntity
  8
SLD-0_0
  6
SLD-Solid
 62
   179
370
    15
100
AcDbEllipse
 10
797.1965209104
 20
1194.1191481612
 30
0.0
 11
5.229180776432371
 21
34.80854219515617
 31
0.0
210
0.0
220
0.0
230
0.9999999999999999
 40
0.6991287568
 41
0.104644364960313
 42
1.22289157858812
  0
ELLIPSE
  5
6CE
330
1F
100
AcDbEntity
  8
SLD-0_0
  6
SLD-Solid
 62
   179
370
    15
100
AcDbEllipse
 10
684.8686985336
 20
1169.1386451302
 30
0.0
 11
7.907130209246247
 21
49.69431533888178
 31
0.0
210
0.0
220
0.0
230
1.0
 40
0.6981570542
 41
5.670495650654011
 42
6.296555982904382
  0
ELLIPSE
  5
6CF
330
1F
100
AcDbEntity
  8
SLD-0_0
  6
SLD-Solid
 62
   179
370
    15
100
AcDbEllipse
 10
839.8592639303
 20
1169.1386451302
 30
0.0
 11
-7.907130209246475
 21
49.69431533888177
 31
0.0
210
0.0
220
0.0
230
1.0
 40
0.6981570542
 41
6.269814631454866
 42
6.895874963705225
  0
ENDSEC
  0
SECTION
  2
OBJECTS
  0
DICTIONARY
  5
C
330
0
100
AcDbDictionary
281
     1
  3
ACAD_GROUP
350
D
  3
ACAD_LAYOUT
350
1A
  3
ACAD_MLINESTYLE
350
17
  3
ACAD_PLOTSETTINGS
350
19
  3
ACAD_PLOTSTYLENAME
350
E
  0
DICTIONARY
  5
D
102
{ACAD_REACTORS
330
C
102
}
330
C
100
AcDbDictionary
281
     1
  0
DICTIONARY
  5
1A
102
{ACAD_REACTORS
330
C
102
}
330
C
100
AcDbDictionary
281
     1
  3
Layout1
350
1E
  3
Layout2
350
26
  3
Model
350
22
  0
DICTIONARY
  5
17
102
{ACAD_REACTORS
330
C
102
}
330
C
100
AcDbDictionary
281
     1
  3
Standard
350
18
  0
DICTIONARY
  5
19
102
{ACAD_REACTORS
330
C
102
}
330
C
100
AcDbDictionary
281
     1
  0
ACDBDICTIONARYWDFLT
  5
E
102
{ACAD_REACTORS
330
C
102
}
330
C
100
AcDbDictionary
281
     1
  3
Normal
350
F
100
AcDbDictionaryWithDefault
340
F
  0
LAYOUT
  5
1E
102
{ACAD_REACTORS
330
1A
102
}
330
1A
100
AcDbPlotSettings
  1

  2
none_device
  4

  6

 40
0.0
 41
0.0
 42
0.0
 43
0.0
 44
0.0
 45
0.0
 46
0.0
 47
0.0
 48
0.0
 49
0.0
140
0.0
141
0.0
142
1.0
143
1.0
 70
   688
 72
     0
 73
     0
 74
     5
  7

 75
    16
147
1.0
148
0.0
149
0.0
100
AcDbLayout
  1
Layout1
 70
     1
 71
     1
 10
0.0
 20
0.0
 11
420.0
 21
297.0
 12
0.0
 22
0.0
 32
0.0
 14
1.0000000000E+20
 24
1.0000000000E+20
 34
1.0000000000E+20
 15
-1.0000000000E+20
 25
-1.0000000000E+20
 35
-1.0000000000E+20
146
0.0
 13
0.0
 23
0.0
 33
0.0
 16
1.0
 26
0.0
 36
0.0
 17
0.0
 27
1.0
 37
0.0
 76
     0
330
1B
  0
LAYOUT
  5
26
102
{ACAD_REACTORS
330
1A
102
}
330
1A
100
AcDbPlotSettings
  1

  2
none_device
  4

  6

 40
0.0
 41
0.0
 42
0.0
 43
0.0
 44
0.0
 45
0.0
 46
0.0
 47
0.0
 48
0.0
 49
0.0
140
0.0
141
0.0
142
1.0
143
1.0
 70
   688
 72
     0
 73
     0
 74
     5
  7

 75
    16
147
1.0
148
0.0
149
0.0
100
AcDbLayout
  1
Layout2
 70
     1
 71
     2
 10
0.0
 20
0.0
 11
0.0
 21
0.0
 12
0.0
 22
0.0
 32
0.0
 14
0.0
 24
0.0
 34
0.0
 15
0.0
 25
0.0
 35
0.0
146
0.0
 13
0.0
 23
0.0
 33
0.0
 16
1.0
 26
0.0
 36
0.0
 17
0.0
 27
1.0
 37
0.0
 76
     0
330
23
  0
LAYOUT
  5
22
102
{ACAD_REACTORS
330
1A
102
}
330
1A
100
AcDbPlotSettings
  1

  2
none_device
  4

  6

 40
0.0
 41
0.0
 42
0.0
 43
0.0
 44
0.0
 45
0.0
 46
0.0
 47
0.0
 48
0.0
 49
0.0
140
0.0
141
0.0
142
1.0
143
1.0
 70
  1712
 72
     0
 73
     0
 74
     0
  7

 75
     0
147
1.0
148
0.0
149
0.0
100
AcDbLayout
  1
Model
 70
     1
 71
     0
 10
0.0
 20
0.0
 11
1189.0
 21
841.0
 12
0.0
 22
0.0
 32
0.0
 14
0.0
 24
0.0
 34
0.0
 15
1189.0
 25
841.0
 35
0.0
146
0.0
 13
0.0
 23
0.0
 33
0.0
 16
1.0
 26
0.0
 36
0.0
 17
0.0
 27
1.0
 37
0.0
 76
     0
330
1F
331
29
  0
MLINESTYLE
  5
18
102
{ACAD_REACTORS
330
17
102
}
330
17
100
AcDbMlineStyle
  2
Standard
 70
     0
  3

 62
   256
 51
90.0
 52
90.0
 71
     2
 49
0.5
 62
   256
  6
BYLAYER
 49
-0.5
 62
   256
  6
BYLAYER
  0
ACDBPLACEHOLDER
  5
F
102
{ACAD_REACTORS
330
E
102
}
330
E
  0
ENDSEC
  0
EOF
