  0
SECTION
  2
HEADER
  9
$LIMMIN
 10
0.000000
 20
0.000000
  9
$LIMMAX
 10
840.896415
 20
594.603557
  9
$EXTMIN
 10
0.000000
 20
0.000000
  9
$EXTMAX
 10
3363.600000
 20
2378.420000
  9
$ANGBASE
 50
0.0
  9
$ANGDIR
 70
0
  9
$DIMRND
 40
0.100000
  9
$DIMSE1
 70
0
  9
$DIMSE2
 70
0
  9
$DIMTXT
 40
3.500000
  9
$LTSCALE
 40
1.000000
  9
$LUPREC
 70
5
  9
$AUPREC
 70
5
  9
$PDMODE
 70
2
  9
$PDSIZE
 40
16.818000
  0
ENDSEC
  0
SECTION
  2
TABLES
  0
TABLE
  2
VPORT
  70
1
  0
VPORT
  2
*ACTIVE
 70
0
  10
0.0
 20
0.0
 11
1.0
 21
1.0
 12
594.0
 22
420.0
 13
0.0
 23
0.0
 14
10.0
 24
10.0
 15
10.0
 25
10.0
 16
0.0
 26
0.0
 36
1.0
 17
594.0
 27
420.0
 37
100.0
 40
1000.0
 41
1.0
 42
50.0
 43
0.0
 44
0.0
 50
0.0
 51
0.0
 71
0
 72
2000
 73
1
 74
3
 75
0
 76
0
 77
0
 78
1
  0
ENDTAB
  0
TABLE
  2
LTYPE
 70
4
  0
LTYPE
  2
CONTINUOUS
 70
0
  3
Solid line
 72
65
 73
0
 40
0.0
  0
LTYPE
  2
DASHED
 70
0
  3
Dashed line
 72
65
 73
2
 40
6.000000
 49
3.000000
 49
-3.000000
  0
LTYPE
  2
CENTER
 70
0
  3
Chain line
 72
65
 73
4
 40
24.000000
 49
15.000000
 49
-3.000000
 49
3.000000
 49
-3.000000
  0
LTYPE
  2
RANDOM
 70
0
  3
Random line
 72
65
 73
4
 40
22.500000
 49
6.000000
 49
-3.000000
 49
4.500000
 49
-9.000000
  0
ENDTAB
  0
TABLE
  2
STYLE
 70
9
  0
STYLE
  2
STANDARD
 40
0
 41
1.0
 50
0.0
 71
0
 42
0
  3
simplex
  4

 70
0
  0
ENDTAB
  0
TABLE
  2
LAYER
 70
2
  0
LAYER
  2
0
 70
0
 62
7
  6
CONTINUOUS
  0
LAYER
  2
0
 62
1
  6
CONTINUOUS
 70
0
  0
ENDTAB
  0
ENDSEC
  0
SECTION
  2
BLOCKS
  0
ENDSEC
  0
SECTION
  2
ENTITIES
  0
LINE
  8
0
  6
CENTER
 62
4
 10
1481.378858
 20
1362.070235
 11
1481.378858
 21
1304.070235
  0
LINE
  8
0
  6
CONTINUOUS
 62
1
 10
931.878858
 20
572.070235
 11
1253.578858
 21
572.070235
  0
ARC
  8
0
  6
CONTINUOUS
 62
1
 10
1253.578858
 20
552.070235
 40
20.000000
 50
26.257000
 51
89.999000
  0
LINE
  8
0
  6
CONTINUOUS
 62
1
 10
1271.518858
 20
560.920235
 11
1279.338858
 21
545.080235
  0
ARC
  8
0
  6
CONTINUOUS
 62
1
 10
1324.378858
 20
567.300235
 40
50.230000
 50
206.257000
 51
270.000000
  0
ARC
  8
0
  6
CONTINUOUS
 62
1
 10
1324.378858
 20
567.300235
 40
50.230000
 50
270.000000
 51
333.744000
  0
LINE
  8
0
  6
CONTINUOUS
 62
1
 10
1369.418858
 20
545.080235
 11
1377.238858
 21
560.920235
  0
ARC
  8
0
  6
CONTINUOUS
 62
1
 10
1395.178858
 20
552.070235
 40
20.000000
 50
90.001000
 51
153.743000
  0
LINE
  8
0
  6
CONTINUOUS
 62
1
 10
1395.178858
 20
572.070235
 11
1716.878858
 21
572.070235
  0
LINE
  8
0
  6
CONTINUOUS
 62
1
 10
916.878858
 20
607.070235
 11
916.878858
 21
527.070235
  0
ARC
  8
0
  6
CONTINUOUS
 62
1
 10
969.378858
 20
527.070235
 40
52.500000
 50
180.000000
 51
270.000000
  0
LINE
  8
0
  6
CONTINUOUS
 62
1
 10
969.378858
 20
474.570235
 11
1679.378858
 21
474.570235
  0
ARC
  8
0
  6
CONTINUOUS
 62
1
 10
1679.378858
 20
527.070235
 40
52.500000
 50
270.000000
 51
0.000000
  0
LINE
  8
0
  6
CONTINUOUS
 62
1
 10
1731.878858
 20
527.070235
 11
1731.878858
 21
607.070235
  0
LINE
  8
0
  6
CONTINUOUS
 62
1
 10
931.878858
 20
607.070235
 11
931.878858
 21
527.070235
  0
ARC
  8
0
  6
CONTINUOUS
 62
1
 10
969.378858
 20
527.070235
 40
37.500000
 50
180.000000
 51
270.000000
  0
LINE
  8
0
  6
CONTINUOUS
 62
1
 10
969.378858
 20
489.570235
 11
1679.378858
 21
489.570235
  0
ARC
  8
0
  6
CONTINUOUS
 62
1
 10
1679.378858
 20
527.070235
 40
37.500000
 50
270.000000
 51
0.000000
  0
LINE
  8
0
  6
CONTINUOUS
 62
1
 10
1716.878858
 20
527.070235
 11
1716.878858
 21
607.070235
  0
LINE
  8
0
  6
CONTINUOUS
 62
1
 10
1731.878858
 20
572.070235
 11
1774.378858
 21
572.070235
  0
LINE
  8
0
  6
CONTINUOUS
 62
1
 10
1774.378858
 20
572.070235
 11
1774.378858
 21
1342.070235
  0
LINE
  8
0
  6
CONTINUOUS
 62
1
 10
1774.378858
 20
1342.070235
 11
874.378858
 21
1342.070235
  0
LINE
  8
0
  6
CONTINUOUS
 62
1
 10
874.378858
 20
1342.070235
 11
874.378858
 21
572.070235
  0
LINE
  8
0
  6
CONTINUOUS
 62
1
 10
874.378858
 20
572.070235
 11
916.878858
 21
572.070235
  0
LINE
  8
0
  6
CONTINUOUS
 62
1
 10
899.378858
 20
1192.070235
 11
899.378858
 21
607.070235
  0
LINE
  8
0
  6
CONTINUOUS
 62
1
 10
899.378858
 20
607.070235
 11
1749.378858
 21
607.070235
  0
LINE
  8
0
  6
CONTINUOUS
 62
1
 10
1749.378858
 20
607.070235
 11
1749.378858
 21
1192.070235
  0
LINE
  8
0
  6
CONTINUOUS
 62
1
 10
874.378858
 20
1192.070235
 11
1774.378858
 21
1192.070235
  0
LINE
  8
0
  6
CONTINUOUS
 62
1
 10
1774.378858
 20
1252.070235
 11
874.378858
 21
1252.070235
  0
LINE
  8
0
  6
CONTINUOUS
 62
1
 10
914.378858
 20
1252.070235
 11
914.378858
 21
1192.070235
  0
LINE
  8
0
  6
CONTINUOUS
 62
1
 10
914.378858
 20
1239.000235
 11
1009.378858
 21
1239.000235
  0
LINE
  8
0
  6
CONTINUOUS
 62
1
 10
1009.378858
 20
1239.000235
 11
1009.378858
 21
1204.660235
  0
LINE
  8
0
  6
CONTINUOUS
 62
1
 10
1009.378858
 20
1204.660235
 11
932.498858
 21
1204.660235
  0
LINE
  8
0
  6
CONTINUOUS
 62
1
 10
932.498858
 20
1220.690235
 11
932.498858
 21
1192.070235
  0
LINE
  8
0
  6
CONTINUOUS
 62
1
 10
1734.378858
 20
1252.070235
 11
1734.378858
 21
1192.070235
  0
LINE
  8
0
  6
CONTINUOUS
 62
1
 10
1734.378858
 20
1239.000235
 11
1639.378858
 21
1239.000235
  0
LINE
  8
0
  6
CONTINUOUS
 62
1
 10
1639.378858
 20
1239.000235
 11
1639.378858
 21
1204.660235
  0
LINE
  8
0
  6
CONTINUOUS
 62
1
 10
1639.378858
 20
1204.660235
 11
1716.258858
 21
1204.660235
  0
LINE
  8
0
  6
CONTINUOUS
 62
1
 10
1716.258858
 20
1220.690235
 11
1716.258858
 21
1192.070235
  0
ARC
  8
0
  6
CONTINUOUS
 62
1
 10
1395.718858
 20
587.070235
 40
20.000000
 50
90.003000
 51
153.742000
  0
LINE
  8
0
  6
CONTINUOUS
 62
1
 10
1377.778858
 20
595.920235
 11
1355.968858
 21
551.710235
  0
ARC
  8
0
  6
CONTINUOUS
 62
1
 10
1324.378858
 20
567.300235
 40
35.230000
 50
269.999000
 51
333.742000
  0
ARC
  8
0
  6
CONTINUOUS
 62
1
 10
1324.378858
 20
567.300235
 40
35.230000
 50
206.257000
 51
270.001000
  0
LINE
  8
0
  6
CONTINUOUS
 62
1
 10
1292.788858
 20
551.710235
 11
1270.978858
 21
595.920235
  0
ARC
  8
0
  6
CONTINUOUS
 62
1
 10
1253.038858
 20
587.070235
 40
20.000000
 50
26.259000
 51
89.998000
  0
LINE
  8
0
  6
CONTINUOUS
 62
1
 10
1283.248858
 20
607.070235
 11
1295.298858
 21
577.990235
  0
LINE
  8
0
  6
CONTINUOUS
 62
1
 10
1295.298858
 20
577.990235
 11
1324.378858
 21
565.940235
  0
LINE
  8
0
  6
CONTINUOUS
 62
1
 10
1324.378858
 20
565.940235
 11
1353.458858
 21
577.990235
  0
LINE
  8
0
  6
CONTINUOUS
 62
1
 10
1353.458858
 20
577.990235
 11
1365.508858
 21
607.070235
  0
LINE
  8
0
  6
CONTINUOUS
 62
1
 10
1716.878858
 20
565.070235
 11
1621.878858
 21
565.070235
  0
LINE
  8
0
  6
CONTINUOUS
 62
1
 10
1621.878858
 20
565.070235
 11
1621.878858
 21
532.070235
  0
LINE
  8
0
  6
CONTINUOUS
 62
1
 10
1621.878858
 20
532.070235
 11
1716.878858
 21
532.070235
  0
LINE
  8
0
  6
CONTINUOUS
 62
1
 10
1731.878858
 20
532.070235
 11
1766.878858
 21
532.070235
  0
LINE
  8
0
  6
CONTINUOUS
 62
1
 10
1766.878858
 20
532.070235
 11
1766.878858
 21
565.070235
  0
LINE
  8
0
  6
CONTINUOUS
 62
1
 10
1766.878858
 20
565.070235
 11
1731.878858
 21
565.070235
  0
LINE
  8
0
  6
CONTINUOUS
 62
1
 10
1674.378858
 20
572.070235
 11
1674.378858
 21
565.070235
  0
LINE
  8
0
  6
CONTINUOUS
 62
1
 10
1714.378858
 20
565.070235
 11
1714.378858
 21
572.070235
  0
LINE
  8
0
  6
CONTINUOUS
 62
1
 10
1014.378858
 20
1342.070235
 11
1014.378858
 21
1352.070235
  0
LINE
  8
0
  6
CONTINUOUS
 62
1
 10
1014.378858
 20
1352.070235
 11
994.378858
 21
1352.070235
  0
LINE
  8
0
  6
CONTINUOUS
 62
1
 10
994.378858
 20
1352.070235
 11
994.378858
 21
1342.070235
  0
LINE
  8
0
  6
CONTINUOUS
 62
1
 10
1123.236889
 20
1326.518245
 11
1109.021016
 21
1326.518245
  0
LINE
  8
0
  6
CONTINUOUS
 62
1
 10
933.161016
 20
1336.118245
 11
948.696889
 21
1336.118245
  0
LINE
  8
0
  6
CONTINUOUS
 62
1
 10
955.721016
 20
1336.118245
 11
969.936889
 21
1336.118245
  0
LINE
  8
0
  6
CONTINUOUS
 62
1
 10
976.961016
 20
1336.118245
 11
992.496889
 21
1336.118245
  0
LINE
  8
0
  6
CONTINUOUS
 62
1
 10
999.521016
 20
1336.118245
 11
1013.736889
 21
1336.118245
  0
LINE
  8
0
  6
CONTINUOUS
 62
1
 10
1020.761016
 20
1336.118245
 11
1036.296889
 21
1336.118245
  0
LINE
  8
0
  6
CONTINUOUS
 62
1
 10
1043.321016
 20
1336.118245
 11
1057.536889
 21
1336.118245
  0
LINE
  8
0
  6
CONTINUOUS
 62
1
 10
1064.561016
 20
1336.118245
 11
1080.096889
 21
1336.118245
  0
LINE
  8
0
  6
CONTINUOUS
 62
1
 10
1087.121016
 20
1336.118245
 11
1101.336889
 21
1336.118245
  0
LINE
  8
0
  6
CONTINUOUS
 62
1
 10
1108.361016
 20
1336.118245
 11
1123.896889
 21
1336.118245
  0
LINE
  8
0
  6
CONTINUOUS
 62
1
 10
931.833007
 20
1328.228311
 11
931.173007
 21
1333.988311
  0
LINE
  8
0
  6
CONTINUOUS
 62
1
 10
975.633007
 20
1328.228311
 11
974.973007
 21
1333.988311
  0
LINE
  8
0
  6
CONTINUOUS
 62
1
 10
1019.433007
 20
1328.228311
 11
1018.773007
 21
1333.988311
  0
LINE
  8
0
  6
CONTINUOUS
 62
1
 10
1063.233007
 20
1328.228311
 11
1062.573007
 21
1333.988311
  0
LINE
  8
0
  6
CONTINUOUS
 62
1
 10
1107.033007
 20
1328.228311
 11
1106.373007
 21
1333.988311
  0
LINE
  8
0
  6
CONTINUOUS
 62
1
 10
950.024898
 20
1328.228311
 11
950.684898
 21
1333.988311
  0
LINE
  8
0
  6
CONTINUOUS
 62
1
 10
993.824898
 20
1328.228311
 11
994.484898
 21
1333.988311
  0
LINE
  8
0
  6
CONTINUOUS
 62
1
 10
1037.624898
 20
1328.228311
 11
1038.284898
 21
1333.988311
  0
LINE
  8
0
  6
CONTINUOUS
 62
1
 10
1081.424898
 20
1328.228311
 11
1082.084898
 21
1333.988311
  0
LINE
  8
0
  6
CONTINUOUS
 62
1
 10
1125.224898
 20
1328.228311
 11
1125.884898
 21
1333.988311
  0
LINE
  8
0
  6
CONTINUOUS
 62
1
 10
953.733007
 20
1334.408179
 11
953.073007
 21
1328.648179
  0
LINE
  8
0
  6
CONTINUOUS
 62
1
 10
971.924898
 20
1334.408179
 11
972.584898
 21
1328.648179
  0
LINE
  8
0
  6
CONTINUOUS
 62
1
 10
997.533007
 20
1334.408179
 11
996.873007
 21
1328.648179
  0
LINE
  8
0
  6
CONTINUOUS
 62
1
 10
1015.724898
 20
1334.408179
 11
1016.384898
 21
1328.648179
  0
LINE
  8
0
  6
CONTINUOUS
 62
1
 10
1041.333007
 20
1334.408179
 11
1040.673007
 21
1328.648179
  0
LINE
  8
0
  6
CONTINUOUS
 62
1
 10
1059.524898
 20
1334.408179
 11
1060.184898
 21
1328.648179
  0
LINE
  8
0
  6
CONTINUOUS
 62
1
 10
1085.133007
 20
1334.408179
 11
1084.473007
 21
1328.648179
  0
LINE
  8
0
  6
CONTINUOUS
 62
1
 10
1103.324898
 20
1334.408179
 11
1103.984898
 21
1328.648179
  0
LINE
  8
0
  6
CONTINUOUS
 62
1
 10
948.036889
 20
1326.518245
 11
933.821016
 21
1326.518245
  0
LINE
  8
0
  6
CONTINUOUS
 62
1
 10
970.596889
 20
1326.518245
 11
955.061016
 21
1326.518245
  0
LINE
  8
0
  6
CONTINUOUS
 62
1
 10
991.836889
 20
1326.518245
 11
977.621016
 21
1326.518245
  0
LINE
  8
0
  6
CONTINUOUS
 62
1
 10
1014.396889
 20
1326.518245
 11
998.861016
 21
1326.518245
  0
LINE
  8
0
  6
CONTINUOUS
 62
1
 10
1035.636889
 20
1326.518245
 11
1021.421016
 21
1326.518245
  0
LINE
  8
0
  6
CONTINUOUS
 62
1
 10
1058.196889
 20
1326.518245
 11
1042.661016
 21
1326.518245
  0
LINE
  8
0
  6
CONTINUOUS
 62
1
 10
1079.436889
 20
1326.518245
 11
1065.221016
 21
1326.518245
  0
LINE
  8
0
  6
CONTINUOUS
 62
1
 10
1101.996889
 20
1326.518245
 11
1086.461016
 21
1326.518245
  0
POLYLINE
  8
0
  6
CONTINUOUS
 62
1
 66
1
 70
2
  0
VERTEX
  8
0
 10
933.161016
 20
1336.118245
 70
0
 42
0.207373
  0
VERTEX
  8
0
 10
931.671492
 20
1335.479519
 70
0
 42
0.220328
  0
VERTEX
  8
0
 10
931.173007
 20
1333.988311
 70
0
  0
SEQEND
  0
POLYLINE
  8
0
  6
CONTINUOUS
 62
1
 66
1
 70
2
  0
VERTEX
  8
0
 10
931.833007
 20
1328.228311
 70
0
 42
0.189055
  0
VERTEX
  8
0
 10
932.486356
 20
1327.008302
 70
0
 42
0.179121
  0
VERTEX
  8
0
 10
933.821016
 20
1326.518245
 70
0
  0
SEQEND
  0
POLYLINE
  8
0
  6
CONTINUOUS
 62
1
 66
1
 70
2
  0
VERTEX
  8
0
 10
948.036889
 20
1326.518245
 70
0
 42
0.179121
  0
VERTEX
  8
0
 10
949.371550
 20
1327.008302
 70
0
 42
0.189055
  0
VERTEX
  8
0
 10
950.024898
 20
1328.228311
 70
0
  0
SEQEND
  0
POLYLINE
  8
0
  6
CONTINUOUS
 62
1
 66
1
 70
2
  0
VERTEX
  8
0
 10
950.684898
 20
1333.988311
 70
0
 42
0.220328
  0
VERTEX
  8
0
 10
950.186413
 20
1335.479519
 70
0
 42
0.207373
  0
VERTEX
  8
0
 10
948.696889
 20
1336.118245
 70
0
  0
SEQEND
  0
POLYLINE
  8
0
  6
CONTINUOUS
 62
1
 66
1
 70
2
  0
VERTEX
  8
0
 10
953.733007
 20
1334.408179
 70
0
 42
-0.189055
  0
VERTEX
  8
0
 10
954.386356
 20
1335.628188
 70
0
 42
-0.179121
  0
VERTEX
  8
0
 10
955.721016
 20
1336.118245
 70
0
  0
SEQEND
  0
POLYLINE
  8
0
  6
CONTINUOUS
 62
1
 66
1
 70
2
  0
VERTEX
  8
0
 10
969.936889
 20
1336.118245
 70
0
 42
-0.179121
  0
VERTEX
  8
0
 10
971.271550
 20
1335.628188
 70
0
 42
-0.189055
  0
VERTEX
  8
0
 10
971.924898
 20
1334.408179
 70
0
  0
SEQEND
  0
POLYLINE
  8
0
  6
CONTINUOUS
 62
1
 66
1
 70
2
  0
VERTEX
  8
0
 10
972.584898
 20
1328.648179
 70
0
 42
-0.220328
  0
VERTEX
  8
0
 10
972.086413
 20
1327.156971
 70
0
 42
-0.207373
  0
VERTEX
  8
0
 10
970.596889
 20
1326.518245
 70
0
  0
SEQEND
  0
POLYLINE
  8
0
  6
CONTINUOUS
 62
1
 66
1
 70
2
  0
VERTEX
  8
0
 10
955.061016
 20
1326.518245
 70
0
 42
-0.207373
  0
VERTEX
  8
0
 10
953.571492
 20
1327.156971
 70
0
 42
-0.220328
  0
VERTEX
  8
0
 10
953.073007
 20
1328.648179
 70
0
  0
SEQEND
  0
POLYLINE
  8
0
  6
CONTINUOUS
 62
1
 66
1
 70
2
  0
VERTEX
  8
0
 10
975.633007
 20
1328.228311
 70
0
 42
0.189055
  0
VERTEX
  8
0
 10
976.286356
 20
1327.008302
 70
0
 42
0.179121
  0
VERTEX
  8
0
 10
977.621016
 20
1326.518245
 70
0
  0
SEQEND
  0
POLYLINE
  8
0
  6
CONTINUOUS
 62
1
 66
1
 70
2
  0
VERTEX
  8
0
 10
991.836889
 20
1326.518245
 70
0
 42
0.179121
  0
VERTEX
  8
0
 10
993.171550
 20
1327.008302
 70
0
 42
0.189055
  0
VERTEX
  8
0
 10
993.824898
 20
1328.228311
 70
0
  0
SEQEND
  0
POLYLINE
  8
0
  6
CONTINUOUS
 62
1
 66
1
 70
2
  0
VERTEX
  8
0
 10
994.484898
 20
1333.988311
 70
0
 42
0.220328
  0
VERTEX
  8
0
 10
993.986413
 20
1335.479519
 70
0
 42
0.207373
  0
VERTEX
  8
0
 10
992.496889
 20
1336.118245
 70
0
  0
SEQEND
  0
POLYLINE
  8
0
  6
CONTINUOUS
 62
1
 66
1
 70
2
  0
VERTEX
  8
0
 10
976.961016
 20
1336.118245
 70
0
 42
0.207373
  0
VERTEX
  8
0
 10
975.471492
 20
1335.479519
 70
0
 42
0.220328
  0
VERTEX
  8
0
 10
974.973007
 20
1333.988311
 70
0
  0
SEQEND
  0
POLYLINE
  8
0
  6
CONTINUOUS
 62
1
 66
1
 70
2
  0
VERTEX
  8
0
 10
999.521016
 20
1336.118245
 70
0
 42
0.179121
  0
VERTEX
  8
0
 10
998.186356
 20
1335.628188
 70
0
 42
0.189055
  0
VERTEX
  8
0
 10
997.533007
 20
1334.408179
 70
0
  0
SEQEND
  0
POLYLINE
  8
0
  6
CONTINUOUS
 62
1
 66
1
 70
2
  0
VERTEX
  8
0
 10
996.873007
 20
1328.648179
 70
0
 42
0.220328
  0
VERTEX
  8
0
 10
997.371492
 20
1327.156971
 70
0
 42
0.207373
  0
VERTEX
  8
0
 10
998.861016
 20
1326.518245
 70
0
  0
SEQEND
  0
POLYLINE
  8
0
  6
CONTINUOUS
 62
1
 66
1
 70
2
  0
VERTEX
  8
0
 10
1014.396889
 20
1326.518245
 70
0
 42
0.207373
  0
VERTEX
  8
0
 10
1015.886413
 20
1327.156971
 70
0
 42
0.220328
  0
VERTEX
  8
0
 10
1016.384898
 20
1328.648179
 70
0
  0
SEQEND
  0
POLYLINE
  8
0
  6
CONTINUOUS
 62
1
 66
1
 70
2
  0
VERTEX
  8
0
 10
1015.724898
 20
1334.408179
 70
0
 42
0.189055
  0
VERTEX
  8
0
 10
1015.071550
 20
1335.628188
 70
0
 42
0.179121
  0
VERTEX
  8
0
 10
1013.736889
 20
1336.118245
 70
0
  0
SEQEND
  0
POLYLINE
  8
0
  6
CONTINUOUS
 62
1
 66
1
 70
2
  0
VERTEX
  8
0
 10
1018.773007
 20
1333.988311
 70
0
 42
-0.220328
  0
VERTEX
  8
0
 10
1019.271492
 20
1335.479519
 70
0
 42
-0.207373
  0
VERTEX
  8
0
 10
1020.761016
 20
1336.118245
 70
0
  0
SEQEND
  0
POLYLINE
  8
0
  6
CONTINUOUS
 62
1
 66
1
 70
2
  0
VERTEX
  8
0
 10
1036.296889
 20
1336.118245
 70
0
 42
-0.207373
  0
VERTEX
  8
0
 10
1037.786413
 20
1335.479519
 70
0
 42
-0.220328
  0
VERTEX
  8
0
 10
1038.284898
 20
1333.988311
 70
0
  0
SEQEND
  0
POLYLINE
  8
0
  6
CONTINUOUS
 62
1
 66
1
 70
2
  0
VERTEX
  8
0
 10
1037.624898
 20
1328.228311
 70
0
 42
-0.189055
  0
VERTEX
  8
0
 10
1036.971550
 20
1327.008302
 70
0
 42
-0.179121
  0
VERTEX
  8
0
 10
1035.636889
 20
1326.518245
 70
0
  0
SEQEND
  0
POLYLINE
  8
0
  6
CONTINUOUS
 62
1
 66
1
 70
2
  0
VERTEX
  8
0
 10
1021.421016
 20
1326.518245
 70
0
 42
-0.179121
  0
VERTEX
  8
0
 10
1020.086356
 20
1327.008302
 70
0
 42
-0.189055
  0
VERTEX
  8
0
 10
1019.433007
 20
1328.228311
 70
0
  0
SEQEND
  0
POLYLINE
  8
0
  6
CONTINUOUS
 62
1
 66
1
 70
2
  0
VERTEX
  8
0
 10
1040.673007
 20
1328.648179
 70
0
 42
0.220328
  0
VERTEX
  8
0
 10
1041.171492
 20
1327.156971
 70
0
 42
0.207373
  0
VERTEX
  8
0
 10
1042.661016
 20
1326.518245
 70
0
  0
SEQEND
  0
POLYLINE
  8
0
  6
CONTINUOUS
 62
1
 66
1
 70
2
  0
VERTEX
  8
0
 10
1058.196889
 20
1326.518245
 70
0
 42
0.207373
  0
VERTEX
  8
0
 10
1059.686413
 20
1327.156971
 70
0
 42
0.220328
  0
VERTEX
  8
0
 10
1060.184898
 20
1328.648179
 70
0
  0
SEQEND
  0
POLYLINE
  8
0
  6
CONTINUOUS
 62
1
 66
1
 70
2
  0
VERTEX
  8
0
 10
1059.524898
 20
1334.408179
 70
0
 42
0.189055
  0
VERTEX
  8
0
 10
1058.871550
 20
1335.628188
 70
0
 42
0.179121
  0
VERTEX
  8
0
 10
1057.536889
 20
1336.118245
 70
0
  0
SEQEND
  0
POLYLINE
  8
0
  6
CONTINUOUS
 62
1
 66
1
 70
2
  0
VERTEX
  8
0
 10
1043.321016
 20
1336.118245
 70
0
 42
0.179121
  0
VERTEX
  8
0
 10
1041.986356
 20
1335.628188
 70
0
 42
0.189055
  0
VERTEX
  8
0
 10
1041.333007
 20
1334.408179
 70
0
  0
SEQEND
  0
POLYLINE
  8
0
  6
CONTINUOUS
 62
1
 66
1
 70
2
  0
VERTEX
  8
0
 10
1064.561016
 20
1336.118245
 70
0
 42
0.207373
  0
VERTEX
  8
0
 10
1063.071492
 20
1335.479519
 70
0
 42
0.220328
  0
VERTEX
  8
0
 10
1062.573007
 20
1333.988311
 70
0
  0
SEQEND
  0
POLYLINE
  8
0
  6
CONTINUOUS
 62
1
 66
1
 70
2
  0
VERTEX
  8
0
 10
1063.233007
 20
1328.228311
 70
0
 42
0.189055
  0
VERTEX
  8
0
 10
1063.886356
 20
1327.008302
 70
0
 42
0.179121
  0
VERTEX
  8
0
 10
1065.221016
 20
1326.518245
 70
0
  0
SEQEND
  0
POLYLINE
  8
0
  6
CONTINUOUS
 62
1
 66
1
 70
2
  0
VERTEX
  8
0
 10
1079.436889
 20
1326.518245
 70
0
 42
0.179121
  0
VERTEX
  8
0
 10
1080.771550
 20
1327.008302
 70
0
 42
0.189055
  0
VERTEX
  8
0
 10
1081.424898
 20
1328.228311
 70
0
  0
SEQEND
  0
POLYLINE
  8
0
  6
CONTINUOUS
 62
1
 66
1
 70
2
  0
VERTEX
  8
0
 10
1082.084898
 20
1333.988311
 70
0
 42
0.220328
  0
VERTEX
  8
0
 10
1081.586413
 20
1335.479519
 70
0
 42
0.207373
  0
VERTEX
  8
0
 10
1080.096889
 20
1336.118245
 70
0
  0
SEQEND
  0
POLYLINE
  8
0
  6
CONTINUOUS
 62
1
 66
1
 70
2
  0
VERTEX
  8
0
 10
1087.121016
 20
1336.118245
 70
0
 42
0.179121
  0
VERTEX
  8
0
 10
1085.786356
 20
1335.628188
 70
0
 42
0.189055
  0
VERTEX
  8
0
 10
1085.133007
 20
1334.408179
 70
0
  0
SEQEND
  0
POLYLINE
  8
0
  6
CONTINUOUS
 62
1
 66
1
 70
2
  0
VERTEX
  8
0
 10
1084.473007
 20
1328.648179
 70
0
 42
0.220328
  0
VERTEX
  8
0
 10
1084.971492
 20
1327.156971
 70
0
 42
0.207373
  0
VERTEX
  8
0
 10
1086.461016
 20
1326.518245
 70
0
  0
SEQEND
  0
POLYLINE
  8
0
  6
CONTINUOUS
 62
1
 66
1
 70
2
  0
VERTEX
  8
0
 10
1101.996889
 20
1326.518245
 70
0
 42
0.207373
  0
VERTEX
  8
0
 10
1103.486413
 20
1327.156971
 70
0
 42
0.220328
  0
VERTEX
  8
0
 10
1103.984898
 20
1328.648179
 70
0
  0
SEQEND
  0
POLYLINE
  8
0
  6
CONTINUOUS
 62
1
 66
1
 70
2
  0
VERTEX
  8
0
 10
1101.336889
 20
1336.118245
 70
0
 42
-0.179121
  0
VERTEX
  8
0
 10
1102.671550
 20
1335.628188
 70
0
 42
-0.189055
  0
VERTEX
  8
0
 10
1103.324898
 20
1334.408179
 70
0
  0
SEQEND
  0
POLYLINE
  8
0
  6
CONTINUOUS
 62
1
 66
1
 70
2
  0
VERTEX
  8
0
 10
1108.361016
 20
1336.118245
 70
0
 42
0.207373
  0
VERTEX
  8
0
 10
1106.871492
 20
1335.479519
 70
0
 42
0.220328
  0
VERTEX
  8
0
 10
1106.373007
 20
1333.988311
 70
0
  0
SEQEND
  0
POLYLINE
  8
0
  6
CONTINUOUS
 62
1
 66
1
 70
2
  0
VERTEX
  8
0
 10
1107.033007
 20
1328.228311
 70
0
 42
0.189055
  0
VERTEX
  8
0
 10
1107.686356
 20
1327.008302
 70
0
 42
0.179121
  0
VERTEX
  8
0
 10
1109.021016
 20
1326.518245
 70
0
  0
SEQEND
  0
POLYLINE
  8
0
  6
CONTINUOUS
 62
1
 66
1
 70
2
  0
VERTEX
  8
0
 10
1123.236889
 20
1326.518245
 70
0
 42
0.179121
  0
VERTEX
  8
0
 10
1124.571550
 20
1327.008302
 70
0
 42
0.189055
  0
VERTEX
  8
0
 10
1125.224898
 20
1328.228311
 70
0
  0
SEQEND
  0
POLYLINE
  8
0
  6
CONTINUOUS
 62
1
 66
1
 70
2
  0
VERTEX
  8
0
 10
1125.884898
 20
1333.988311
 70
0
 42
0.220328
  0
VERTEX
  8
0
 10
1125.386413
 20
1335.479519
 70
0
 42
0.207373
  0
VERTEX
  8
0
 10
1123.896889
 20
1336.118245
 70
0
  0
SEQEND
  0
LINE
  8
0
  6
CONTINUOUS
 62
1
 10
1112.286889
 20
1323.638245
 11
1098.071016
 21
1323.638245
  0
LINE
  8
0
  6
CONTINUOUS
 62
1
 10
944.771016
 20
1314.038245
 11
958.986889
 21
1314.038245
  0
LINE
  8
0
  6
CONTINUOUS
 62
1
 10
966.011016
 20
1314.038245
 11
981.546889
 21
1314.038245
  0
LINE
  8
0
  6
CONTINUOUS
 62
1
 10
988.571016
 20
1314.038245
 11
1002.786889
 21
1314.038245
  0
LINE
  8
0
  6
CONTINUOUS
 62
1
 10
1009.811016
 20
1314.038245
 11
1025.346889
 21
1314.038245
  0
LINE
  8
0
  6
CONTINUOUS
 62
1
 10
1032.371016
 20
1314.038245
 11
1046.586889
 21
1314.038245
  0
LINE
  8
0
  6
CONTINUOUS
 62
1
 10
1053.611016
 20
1314.038245
 11
1069.146889
 21
1314.038245
  0
LINE
  8
0
  6
CONTINUOUS
 62
1
 10
1076.171016
 20
1314.038245
 11
1090.386889
 21
1314.038245
  0
LINE
  8
0
  6
CONTINUOUS
 62
1
 10
1097.411016
 20
1314.038245
 11
1112.946889
 21
1314.038245
  0
LINE
  8
0
  6
CONTINUOUS
 62
1
 10
964.683007
 20
1321.928179
 11
964.023007
 21
1316.168179
  0
LINE
  8
0
  6
CONTINUOUS
 62
1
 10
1008.483007
 20
1321.928179
 11
1007.823007
 21
1316.168179
  0
LINE
  8
0
  6
CONTINUOUS
 62
1
 10
1052.283007
 20
1321.928179
 11
1051.623007
 21
1316.168179
  0
LINE
  8
0
  6
CONTINUOUS
 62
1
 10
1096.083007
 20
1321.928179
 11
1095.423007
 21
1316.168179
  0
LINE
  8
0
  6
CONTINUOUS
 62
1
 10
982.874898
 20
1321.928179
 11
983.534898
 21
1316.168179
  0
LINE
  8
0
  6
CONTINUOUS
 62
1
 10
1026.674898
 20
1321.928179
 11
1027.334898
 21
1316.168179
  0
LINE
  8
0
  6
CONTINUOUS
 62
1
 10
1070.474898
 20
1321.928179
 11
1071.134898
 21
1316.168179
  0
LINE
  8
0
  6
CONTINUOUS
 62
1
 10
1114.274898
 20
1321.928179
 11
1114.934898
 21
1316.168179
  0
LINE
  8
0
  6
CONTINUOUS
 62
1
 10
942.783007
 20
1315.748311
 11
942.123007
 21
1321.508311
  0
LINE
  8
0
  6
CONTINUOUS
 62
1
 10
960.974898
 20
1315.748311
 11
961.634898
 21
1321.508311
  0
LINE
  8
0
  6
CONTINUOUS
 62
1
 10
986.583007
 20
1315.748311
 11
985.923007
 21
1321.508311
  0
LINE
  8
0
  6
CONTINUOUS
 62
1
 10
1004.774898
 20
1315.748311
 11
1005.434898
 21
1321.508311
  0
LINE
  8
0
  6
CONTINUOUS
 62
1
 10
1030.383007
 20
1315.748311
 11
1029.723007
 21
1321.508311
  0
LINE
  8
0
  6
CONTINUOUS
 62
1
 10
1048.574898
 20
1315.748311
 11
1049.234898
 21
1321.508311
  0
LINE
  8
0
  6
CONTINUOUS
 62
1
 10
1074.183007
 20
1315.748311
 11
1073.523007
 21
1321.508311
  0
LINE
  8
0
  6
CONTINUOUS
 62
1
 10
1092.374898
 20
1315.748311
 11
1093.034898
 21
1321.508311
  0
LINE
  8
0
  6
CONTINUOUS
 62
1
 10
959.646889
 20
1323.638245
 11
944.111016
 21
1323.638245
  0
LINE
  8
0
  6
CONTINUOUS
 62
1
 10
980.886889
 20
1323.638245
 11
966.671016
 21
1323.638245
  0
LINE
  8
0
  6
CONTINUOUS
 62
1
 10
1003.446889
 20
1323.638245
 11
987.911016
 21
1323.638245
  0
LINE
  8
0
  6
CONTINUOUS
 62
1
 10
1024.686889
 20
1323.638245
 11
1010.471016
 21
1323.638245
  0
LINE
  8
0
  6
CONTINUOUS
 62
1
 10
1047.246889
 20
1323.638245
 11
1031.711016
 21
1323.638245
  0
LINE
  8
0
  6
CONTINUOUS
 62
1
 10
1068.486889
 20
1323.638245
 11
1054.271016
 21
1323.638245
  0
LINE
  8
0
  6
CONTINUOUS
 62
1
 10
1091.046889
 20
1323.638245
 11
1075.511016
 21
1323.638245
  0
POLYLINE
  8
0
  6
CONTINUOUS
 62
1
 66
1
 70
2
  0
VERTEX
  8
0
 10
942.783007
 20
1315.748311
 70
0
 42
0.189055
  0
VERTEX
  8
0
 10
943.436356
 20
1314.528302
 70
0
 42
0.179121
  0
VERTEX
  8
0
 10
944.771016
 20
1314.038245
 70
0
  0
SEQEND
  0
POLYLINE
  8
0
  6
CONTINUOUS
 62
1
 66
1
 70
2
  0
VERTEX
  8
0
 10
958.986889
 20
1314.038245
 70
0
 42
0.179121
  0
VERTEX
  8
0
 10
960.321550
 20
1314.528302
 70
0
 42
0.189055
  0
VERTEX
  8
0
 10
960.974898
 20
1315.748311
 70
0
  0
SEQEND
  0
POLYLINE
  8
0
  6
CONTINUOUS
 62
1
 66
1
 70
2
  0
VERTEX
  8
0
 10
961.634898
 20
1321.508311
 70
0
 42
0.220328
  0
VERTEX
  8
0
 10
961.136413
 20
1322.999519
 70
0
 42
0.207373
  0
VERTEX
  8
0
 10
959.646889
 20
1323.638245
 70
0
  0
SEQEND
  0
POLYLINE
  8
0
  6
CONTINUOUS
 62
1
 66
1
 70
2
  0
VERTEX
  8
0
 10
944.111016
 20
1323.638245
 70
0
 42
0.207373
  0
VERTEX
  8
0
 10
942.621492
 20
1322.999519
 70
0
 42
0.220328
  0
VERTEX
  8
0
 10
942.123007
 20
1321.508311
 70
0
  0
SEQEND
  0
POLYLINE
  8
0
  6
CONTINUOUS
 62
1
 66
1
 70
2
  0
VERTEX
  8
0
 10
964.683007
 20
1321.928179
 70
0
 42
-0.189055
  0
VERTEX
  8
0
 10
965.336356
 20
1323.148188
 70
0
 42
-0.179121
  0
VERTEX
  8
0
 10
966.671016
 20
1323.638245
 70
0
  0
SEQEND
  0
POLYLINE
  8
0
  6
CONTINUOUS
 62
1
 66
1
 70
2
  0
VERTEX
  8
0
 10
980.886889
 20
1323.638245
 70
0
 42
-0.179121
  0
VERTEX
  8
0
 10
982.221550
 20
1323.148188
 70
0
 42
-0.189055
  0
VERTEX
  8
0
 10
982.874898
 20
1321.928179
 70
0
  0
SEQEND
  0
POLYLINE
  8
0
  6
CONTINUOUS
 62
1
 66
1
 70
2
  0
VERTEX
  8
0
 10
983.534898
 20
1316.168179
 70
0
 42
-0.220328
  0
VERTEX
  8
0
 10
983.036413
 20
1314.676971
 70
0
 42
-0.207373
  0
VERTEX
  8
0
 10
981.546889
 20
1314.038245
 70
0
  0
SEQEND
  0
POLYLINE
  8
0
  6
CONTINUOUS
 62
1
 66
1
 70
2
  0
VERTEX
  8
0
 10
966.011016
 20
1314.038245
 70
0
 42
-0.207373
  0
VERTEX
  8
0
 10
964.521492
 20
1314.676971
 70
0
 42
-0.220328
  0
VERTEX
  8
0
 10
964.023007
 20
1316.168179
 70
0
  0
SEQEND
  0
POLYLINE
  8
0
  6
CONTINUOUS
 62
1
 66
1
 70
2
  0
VERTEX
  8
0
 10
988.571016
 20
1314.038245
 70
0
 42
-0.179121
  0
VERTEX
  8
0
 10
987.236356
 20
1314.528302
 70
0
 42
-0.189055
  0
VERTEX
  8
0
 10
986.583007
 20
1315.748311
 70
0
  0
SEQEND
  0
POLYLINE
  8
0
  6
CONTINUOUS
 62
1
 66
1
 70
2
  0
VERTEX
  8
0
 10
985.923007
 20
1321.508311
 70
0
 42
-0.220328
  0
VERTEX
  8
0
 10
986.421492
 20
1322.999519
 70
0
 42
-0.207373
  0
VERTEX
  8
0
 10
987.911016
 20
1323.638245
 70
0
  0
SEQEND
  0
POLYLINE
  8
0
  6
CONTINUOUS
 62
1
 66
1
 70
2
  0
VERTEX
  8
0
 10
1003.446889
 20
1323.638245
 70
0
 42
-0.207373
  0
VERTEX
  8
0
 10
1004.936413
 20
1322.999519
 70
0
 42
-0.220328
  0
VERTEX
  8
0
 10
1005.434898
 20
1321.508311
 70
0
  0
SEQEND
  0
POLYLINE
  8
0
  6
CONTINUOUS
 62
1
 66
1
 70
2
  0
VERTEX
  8
0
 10
1004.774898
 20
1315.748311
 70
0
 42
-0.189055
  0
VERTEX
  8
0
 10
1004.121550
 20
1314.528302
 70
0
 42
-0.179121
  0
VERTEX
  8
0
 10
1002.786889
 20
1314.038245
 70
0
  0
SEQEND
  0
POLYLINE
  8
0
  6
CONTINUOUS
 62
1
 66
1
 70
2
  0
VERTEX
  8
0
 10
1007.823007
 20
1316.168179
 70
0
 42
0.220328
  0
VERTEX
  8
0
 10
1008.321492
 20
1314.676971
 70
0
 42
0.207373
  0
VERTEX
  8
0
 10
1009.811016
 20
1314.038245
 70
0
  0
SEQEND
  0
POLYLINE
  8
0
  6
CONTINUOUS
 62
1
 66
1
 70
2
  0
VERTEX
  8
0
 10
1025.346889
 20
1314.038245
 70
0
 42
0.207373
  0
VERTEX
  8
0
 10
1026.836413
 20
1314.676971
 70
0
 42
0.220328
  0
VERTEX
  8
0
 10
1027.334898
 20
1316.168179
 70
0
  0
SEQEND
  0
POLYLINE
  8
0
  6
CONTINUOUS
 62
1
 66
1
 70
2
  0
VERTEX
  8
0
 10
1026.674898
 20
1321.928179
 70
0
 42
0.189055
  0
VERTEX
  8
0
 10
1026.021550
 20
1323.148188
 70
0
 42
0.179121
  0
VERTEX
  8
0
 10
1024.686889
 20
1323.638245
 70
0
  0
SEQEND
  0
POLYLINE
  8
0
  6
CONTINUOUS
 62
1
 66
1
 70
2
  0
VERTEX
  8
0
 10
1010.471016
 20
1323.638245
 70
0
 42
0.179121
  0
VERTEX
  8
0
 10
1009.136356
 20
1323.148188
 70
0
 42
0.189055
  0
VERTEX
  8
0
 10
1008.483007
 20
1321.928179
 70
0
  0
SEQEND
  0
POLYLINE
  8
0
  6
CONTINUOUS
 62
1
 66
1
 70
2
  0
VERTEX
  8
0
 10
1029.723007
 20
1321.508311
 70
0
 42
-0.220328
  0
VERTEX
  8
0
 10
1030.221492
 20
1322.999519
 70
0
 42
-0.207373
  0
VERTEX
  8
0
 10
1031.711016
 20
1323.638245
 70
0
  0
SEQEND
  0
POLYLINE
  8
0
  6
CONTINUOUS
 62
1
 66
1
 70
2
  0
VERTEX
  8
0
 10
1047.246889
 20
1323.638245
 70
0
 42
-0.207373
  0
VERTEX
  8
0
 10
1048.736413
 20
1322.999519
 70
0
 42
-0.220328
  0
VERTEX
  8
0
 10
1049.234898
 20
1321.508311
 70
0
  0
SEQEND
  0
POLYLINE
  8
0
  6
CONTINUOUS
 62
1
 66
1
 70
2
  0
VERTEX
  8
0
 10
1048.574898
 20
1315.748311
 70
0
 42
-0.189055
  0
VERTEX
  8
0
 10
1047.921550
 20
1314.528302
 70
0
 42
-0.179121
  0
VERTEX
  8
0
 10
1046.586889
 20
1314.038245
 70
0
  0
SEQEND
  0
POLYLINE
  8
0
  6
CONTINUOUS
 62
1
 66
1
 70
2
  0
VERTEX
  8
0
 10
1032.371016
 20
1314.038245
 70
0
 42
-0.179121
  0
VERTEX
  8
0
 10
1031.036356
 20
1314.528302
 70
0
 42
-0.189055
  0
VERTEX
  8
0
 10
1030.383007
 20
1315.748311
 70
0
  0
SEQEND
  0
POLYLINE
  8
0
  6
CONTINUOUS
 62
1
 66
1
 70
2
  0
VERTEX
  8
0
 10
1053.611016
 20
1314.038245
 70
0
 42
-0.207373
  0
VERTEX
  8
0
 10
1052.121492
 20
1314.676971
 70
0
 42
-0.220328
  0
VERTEX
  8
0
 10
1051.623007
 20
1316.168179
 70
0
  0
SEQEND
  0
POLYLINE
  8
0
  6
CONTINUOUS
 62
1
 66
1
 70
2
  0
VERTEX
  8
0
 10
1052.283007
 20
1321.928179
 70
0
 42
-0.189055
  0
VERTEX
  8
0
 10
1052.936356
 20
1323.148188
 70
0
 42
-0.179121
  0
VERTEX
  8
0
 10
1054.271016
 20
1323.638245
 70
0
  0
SEQEND
  0
POLYLINE
  8
0
  6
CONTINUOUS
 62
1
 66
1
 70
2
  0
VERTEX
  8
0
 10
1068.486889
 20
1323.638245
 70
0
 42
-0.179121
  0
VERTEX
  8
0
 10
1069.821550
 20
1323.148188
 70
0
 42
-0.189055
  0
VERTEX
  8
0
 10
1070.474898
 20
1321.928179
 70
0
  0
SEQEND
  0
POLYLINE
  8
0
  6
CONTINUOUS
 62
1
 66
1
 70
2
  0
VERTEX
  8
0
 10
1071.134898
 20
1316.168179
 70
0
 42
-0.220328
  0
VERTEX
  8
0
 10
1070.636413
 20
1314.676971
 70
0
 42
-0.207373
  0
VERTEX
  8
0
 10
1069.146889
 20
1314.038245
 70
0
  0
SEQEND
  0
POLYLINE
  8
0
  6
CONTINUOUS
 62
1
 66
1
 70
2
  0
VERTEX
  8
0
 10
1076.171016
 20
1314.038245
 70
0
 42
-0.179121
  0
VERTEX
  8
0
 10
1074.836356
 20
1314.528302
 70
0
 42
-0.189055
  0
VERTEX
  8
0
 10
1074.183007
 20
1315.748311
 70
0
  0
SEQEND
  0
POLYLINE
  8
0
  6
CONTINUOUS
 62
1
 66
1
 70
2
  0
VERTEX
  8
0
 10
1073.523007
 20
1321.508311
 70
0
 42
-0.220328
  0
VERTEX
  8
0
 10
1074.021492
 20
1322.999519
 70
0
 42
-0.207373
  0
VERTEX
  8
0
 10
1075.511016
 20
1323.638245
 70
0
  0
SEQEND
  0
POLYLINE
  8
0
  6
CONTINUOUS
 62
1
 66
1
 70
2
  0
VERTEX
  8
0
 10
1091.046889
 20
1323.638245
 70
0
 42
-0.207373
  0
VERTEX
  8
0
 10
1092.536413
 20
1322.999519
 70
0
 42
-0.220328
  0
VERTEX
  8
0
 10
1093.034898
 20
1321.508311
 70
0
  0
SEQEND
  0
POLYLINE
  8
0
  6
CONTINUOUS
 62
1
 66
1
 70
2
  0
VERTEX
  8
0
 10
1090.386889
 20
1314.038245
 70
0
 42
0.179121
  0
VERTEX
  8
0
 10
1091.721550
 20
1314.528302
 70
0
 42
0.189055
  0
VERTEX
  8
0
 10
1092.374898
 20
1315.748311
 70
0
  0
SEQEND
  0
POLYLINE
  8
0
  6
CONTINUOUS
 62
1
 66
1
 70
2
  0
VERTEX
  8
0
 10
1097.411016
 20
1314.038245
 70
0
 42
-0.207373
  0
VERTEX
  8
0
 10
1095.921492
 20
1314.676971
 70
0
 42
-0.220328
  0
VERTEX
  8
0
 10
1095.423007
 20
1316.168179
 70
0
  0
SEQEND
  0
POLYLINE
  8
0
  6
CONTINUOUS
 62
1
 66
1
 70
2
  0
VERTEX
  8
0
 10
1096.083007
 20
1321.928179
 70
0
 42
-0.189055
  0
VERTEX
  8
0
 10
1096.736356
 20
1323.148188
 70
0
 42
-0.179121
  0
VERTEX
  8
0
 10
1098.071016
 20
1323.638245
 70
0
  0
SEQEND
  0
POLYLINE
  8
0
  6
CONTINUOUS
 62
1
 66
1
 70
2
  0
VERTEX
  8
0
 10
1112.286889
 20
1323.638245
 70
0
 42
-0.179121
  0
VERTEX
  8
0
 10
1113.621550
 20
1323.148188
 70
0
 42
-0.189055
  0
VERTEX
  8
0
 10
1114.274898
 20
1321.928179
 70
0
  0
SEQEND
  0
POLYLINE
  8
0
  6
CONTINUOUS
 62
1
 66
1
 70
2
  0
VERTEX
  8
0
 10
1114.934898
 20
1316.168179
 70
0
 42
-0.220328
  0
VERTEX
  8
0
 10
1114.436413
 20
1314.676971
 70
0
 42
-0.207373
  0
VERTEX
  8
0
 10
1112.946889
 20
1314.038245
 70
0
  0
SEQEND
  0
LINE
  8
0
  6
CONTINUOUS
 62
1
 10
1229.437488
 20
1323.638245
 11
1243.653360
 21
1323.638245
  0
LINE
  8
0
  6
CONTINUOUS
 62
1
 10
1265.553360
 20
1314.038245
 11
1251.337488
 21
1314.038245
  0
LINE
  8
0
  6
CONTINUOUS
 62
1
 10
1244.313360
 20
1314.038245
 11
1228.777488
 21
1314.038245
  0
LINE
  8
0
  6
CONTINUOUS
 62
1
 10
1245.641369
 20
1321.928179
 11
1246.301369
 21
1316.168179
  0
LINE
  8
0
  6
CONTINUOUS
 62
1
 10
1227.449479
 20
1321.928179
 11
1226.789479
 21
1316.168179
  0
LINE
  8
0
  6
CONTINUOUS
 62
1
 10
1267.541369
 20
1315.748311
 11
1268.201369
 21
1321.508311
  0
LINE
  8
0
  6
CONTINUOUS
 62
1
 10
1249.349479
 20
1315.748311
 11
1248.689479
 21
1321.508311
  0
LINE
  8
0
  6
CONTINUOUS
 62
1
 10
1250.677488
 20
1323.638245
 11
1266.213360
 21
1323.638245
  0
POLYLINE
  8
0
  6
CONTINUOUS
 62
1
 66
1
 70
2
  0
VERTEX
  8
0
 10
1265.553360
 20
1314.038245
 70
0
 42
0.179121
  0
VERTEX
  8
0
 10
1266.888021
 20
1314.528302
 70
0
 42
0.189055
  0
VERTEX
  8
0
 10
1267.541369
 20
1315.748311
 70
0
  0
SEQEND
  0
POLYLINE
  8
0
  6
CONTINUOUS
 62
1
 66
1
 70
2
  0
VERTEX
  8
0
 10
1268.201369
 20
1321.508311
 70
0
 42
0.220328
  0
VERTEX
  8
0
 10
1267.702884
 20
1322.999519
 70
0
 42
0.207373
  0
VERTEX
  8
0
 10
1266.213360
 20
1323.638245
 70
0
  0
SEQEND
  0
POLYLINE
  8
0
  6
CONTINUOUS
 62
1
 66
1
 70
2
  0
VERTEX
  8
0
 10
1250.677488
 20
1323.638245
 70
0
 42
0.207373
  0
VERTEX
  8
0
 10
1249.187964
 20
1322.999519
 70
0
 42
0.220328
  0
VERTEX
  8
0
 10
1248.689479
 20
1321.508311
 70
0
  0
SEQEND
  0
POLYLINE
  8
0
  6
CONTINUOUS
 62
1
 66
1
 70
2
  0
VERTEX
  8
0
 10
1251.337488
 20
1314.038245
 70
0
 42
-0.179121
  0
VERTEX
  8
0
 10
1250.002827
 20
1314.528302
 70
0
 42
-0.189055
  0
VERTEX
  8
0
 10
1249.349479
 20
1315.748311
 70
0
  0
SEQEND
  0
POLYLINE
  8
0
  6
CONTINUOUS
 62
1
 66
1
 70
2
  0
VERTEX
  8
0
 10
1244.313360
 20
1314.038245
 70
0
 42
0.207373
  0
VERTEX
  8
0
 10
1245.802884
 20
1314.676971
 70
0
 42
0.220328
  0
VERTEX
  8
0
 10
1246.301369
 20
1316.168179
 70
0
  0
SEQEND
  0
POLYLINE
  8
0
  6
CONTINUOUS
 62
1
 66
1
 70
2
  0
VERTEX
  8
0
 10
1245.641369
 20
1321.928179
 70
0
 42
0.189055
  0
VERTEX
  8
0
 10
1244.988021
 20
1323.148188
 70
0
 42
0.179121
  0
VERTEX
  8
0
 10
1243.653360
 20
1323.638245
 70
0
  0
SEQEND
  0
POLYLINE
  8
0
  6
CONTINUOUS
 62
1
 66
1
 70
2
  0
VERTEX
  8
0
 10
1229.437488
 20
1323.638245
 70
0
 42
0.179121
  0
VERTEX
  8
0
 10
1228.102827
 20
1323.148188
 70
0
 42
0.189055
  0
VERTEX
  8
0
 10
1227.449479
 20
1321.928179
 70
0
  0
SEQEND
  0
POLYLINE
  8
0
  6
CONTINUOUS
 62
1
 66
1
 70
2
  0
VERTEX
  8
0
 10
1226.789479
 20
1316.168179
 70
0
 42
0.220328
  0
VERTEX
  8
0
 10
1227.287964
 20
1314.676971
 70
0
 42
0.207373
  0
VERTEX
  8
0
 10
1228.777488
 20
1314.038245
 70
0
  0
SEQEND
  0
LINE
  8
0
  6
CONTINUOUS
 62
1
 10
1221.753360
 20
1314.038245
 11
1207.537488
 21
1314.038245
  0
LINE
  8
0
  6
CONTINUOUS
 62
1
 10
1223.741369
 20
1315.748311
 11
1224.401369
 21
1321.508311
  0
LINE
  8
0
  6
CONTINUOUS
 62
1
 10
1205.549479
 20
1315.748311
 11
1204.889479
 21
1321.508311
  0
LINE
  8
0
  6
CONTINUOUS
 62
1
 10
1206.877488
 20
1323.638245
 11
1222.413360
 21
1323.638245
  0
POLYLINE
  8
0
  6
CONTINUOUS
 62
1
 66
1
 70
2
  0
VERTEX
  8
0
 10
1221.753360
 20
1314.038245
 70
0
 42
0.179121
  0
VERTEX
  8
0
 10
1223.088021
 20
1314.528302
 70
0
 42
0.189055
  0
VERTEX
  8
0
 10
1223.741369
 20
1315.748311
 70
0
  0
SEQEND
  0
POLYLINE
  8
0
  6
CONTINUOUS
 62
1
 66
1
 70
2
  0
VERTEX
  8
0
 10
1224.401369
 20
1321.508311
 70
0
 42
0.220328
  0
VERTEX
  8
0
 10
1223.902884
 20
1322.999519
 70
0
 42
0.207373
  0
VERTEX
  8
0
 10
1222.413360
 20
1323.638245
 70
0
  0
SEQEND
  0
POLYLINE
  8
0
  6
CONTINUOUS
 62
1
 66
1
 70
2
  0
VERTEX
  8
0
 10
1206.877488
 20
1323.638245
 70
0
 42
0.207373
  0
VERTEX
  8
0
 10
1205.387964
 20
1322.999519
 70
0
 42
0.220328
  0
VERTEX
  8
0
 10
1204.889479
 20
1321.508311
 70
0
  0
SEQEND
  0
POLYLINE
  8
0
  6
CONTINUOUS
 62
1
 66
1
 70
2
  0
VERTEX
  8
0
 10
1207.537488
 20
1314.038245
 70
0
 42
-0.179121
  0
VERTEX
  8
0
 10
1206.202827
 20
1314.528302
 70
0
 42
-0.189055
  0
VERTEX
  8
0
 10
1205.549479
 20
1315.748311
 70
0
  0
SEQEND
  0
LINE
  8
0
  6
CONTINUOUS
 62
1
 10
1273.237488
 20
1323.638245
 11
1287.453360
 21
1323.638245
  0
LINE
  8
0
  6
CONTINUOUS
 62
1
 10
1440.753360
 20
1314.038245
 11
1426.537488
 21
1314.038245
  0
LINE
  8
0
  6
CONTINUOUS
 62
1
 10
1419.513360
 20
1314.038245
 11
1403.977488
 21
1314.038245
  0
LINE
  8
0
  6
CONTINUOUS
 62
1
 10
1396.953360
 20
1314.038245
 11
1382.737488
 21
1314.038245
  0
LINE
  8
0
  6
CONTINUOUS
 62
1
 10
1375.713360
 20
1314.038245
 11
1360.177488
 21
1314.038245
  0
LINE
  8
0
  6
CONTINUOUS
 62
1
 10
1353.153360
 20
1314.038245
 11
1338.937488
 21
1314.038245
  0
LINE
  8
0
  6
CONTINUOUS
 62
1
 10
1331.913360
 20
1314.038245
 11
1316.377488
 21
1314.038245
  0
LINE
  8
0
  6
CONTINUOUS
 62
1
 10
1309.353360
 20
1314.038245
 11
1295.137488
 21
1314.038245
  0
LINE
  8
0
  6
CONTINUOUS
 62
1
 10
1288.113360
 20
1314.038245
 11
1272.577488
 21
1314.038245
  0
LINE
  8
0
  6
CONTINUOUS
 62
1
 10
1464.641369
 20
1321.928179
 11
1465.301369
 21
1316.168179
  0
LINE
  8
0
  6
CONTINUOUS
 62
1
 10
1420.841369
 20
1321.928179
 11
1421.501369
 21
1316.168179
  0
LINE
  8
0
  6
CONTINUOUS
 62
1
 10
1377.041369
 20
1321.928179
 11
1377.701369
 21
1316.168179
  0
LINE
  8
0
  6
CONTINUOUS
 62
1
 10
1333.241369
 20
1321.928179
 11
1333.901369
 21
1316.168179
  0
LINE
  8
0
  6
CONTINUOUS
 62
1
 10
1289.441369
 20
1321.928179
 11
1290.101369
 21
1316.168179
  0
LINE
  8
0
  6
CONTINUOUS
 62
1
 10
1446.449479
 20
1321.928179
 11
1445.789479
 21
1316.168179
  0
LINE
  8
0
  6
CONTINUOUS
 62
1
 10
1402.649479
 20
1321.928179
 11
1401.989479
 21
1316.168179
  0
LINE
  8
0
  6
CONTINUOUS
 62
1
 10
1358.849479
 20
1321.928179
 11
1358.189479
 21
1316.168179
  0
LINE
  8
0
  6
CONTINUOUS
 62
1
 10
1315.049479
 20
1321.928179
 11
1314.389479
 21
1316.168179
  0
LINE
  8
0
  6
CONTINUOUS
 62
1
 10
1271.249479
 20
1321.928179
 11
1270.589479
 21
1316.168179
  0
LINE
  8
0
  6
CONTINUOUS
 62
1
 10
1442.741369
 20
1315.748311
 11
1443.401369
 21
1321.508311
  0
LINE
  8
0
  6
CONTINUOUS
 62
1
 10
1424.549479
 20
1315.748311
 11
1423.889479
 21
1321.508311
  0
LINE
  8
0
  6
CONTINUOUS
 62
1
 10
1398.941369
 20
1315.748311
 11
1399.601369
 21
1321.508311
  0
LINE
  8
0
  6
CONTINUOUS
 62
1
 10
1380.749479
 20
1315.748311
 11
1380.089479
 21
1321.508311
  0
LINE
  8
0
  6
CONTINUOUS
 62
1
 10
1355.141369
 20
1315.748311
 11
1355.801369
 21
1321.508311
  0
LINE
  8
0
  6
CONTINUOUS
 62
1
 10
1336.949479
 20
1315.748311
 11
1336.289479
 21
1321.508311
  0
LINE
  8
0
  6
CONTINUOUS
 62
1
 10
1311.341369
 20
1315.748311
 11
1312.001369
 21
1321.508311
  0
LINE
  8
0
  6
CONTINUOUS
 62
1
 10
1293.149479
 20
1315.748311
 11
1292.489479
 21
1321.508311
  0
LINE
  8
0
  6
CONTINUOUS
 62
1
 10
1448.437488
 20
1323.638245
 11
1462.653360
 21
1323.638245
  0
LINE
  8
0
  6
CONTINUOUS
 62
1
 10
1425.877488
 20
1323.638245
 11
1441.413360
 21
1323.638245
  0
LINE
  8
0
  6
CONTINUOUS
 62
1
 10
1404.637488
 20
1323.638245
 11
1418.853360
 21
1323.638245
  0
LINE
  8
0
  6
CONTINUOUS
 62
1
 10
1382.077488
 20
1323.638245
 11
1397.613360
 21
1323.638245
  0
LINE
  8
0
  6
CONTINUOUS
 62
1
 10
1360.837488
 20
1323.638245
 11
1375.053360
 21
1323.638245
  0
LINE
  8
0
  6
CONTINUOUS
 62
1
 10
1338.277488
 20
1323.638245
 11
1353.813360
 21
1323.638245
  0
LINE
  8
0
  6
CONTINUOUS
 62
1
 10
1317.037488
 20
1323.638245
 11
1331.253360
 21
1323.638245
  0
LINE
  8
0
  6
CONTINUOUS
 62
1
 10
1294.477488
 20
1323.638245
 11
1310.013360
 21
1323.638245
  0
POLYLINE
  8
0
  6
CONTINUOUS
 62
1
 66
1
 70
2
  0
VERTEX
  8
0
 10
1463.313360
 20
1314.038245
 70
0
 42
0.207373
  0
VERTEX
  8
0
 10
1464.802884
 20
1314.676971
 70
0
 42
0.220328
  0
VERTEX
  8
0
 10
1465.301369
 20
1316.168179
 70
0
  0
SEQEND
  0
POLYLINE
  8
0
  6
CONTINUOUS
 62
1
 66
1
 70
2
  0
VERTEX
  8
0
 10
1464.641369
 20
1321.928179
 70
0
 42
0.189055
  0
VERTEX
  8
0
 10
1463.988021
 20
1323.148188
 70
0
 42
0.179121
  0
VERTEX
  8
0
 10
1462.653360
 20
1323.638245
 70
0
  0
SEQEND
  0
POLYLINE
  8
0
  6
CONTINUOUS
 62
1
 66
1
 70
2
  0
VERTEX
  8
0
 10
1448.437488
 20
1323.638245
 70
0
 42
0.179121
  0
VERTEX
  8
0
 10
1447.102827
 20
1323.148188
 70
0
 42
0.189055
  0
VERTEX
  8
0
 10
1446.449479
 20
1321.928179
 70
0
  0
SEQEND
  0
POLYLINE
  8
0
  6
CONTINUOUS
 62
1
 66
1
 70
2
  0
VERTEX
  8
0
 10
1445.789479
 20
1316.168179
 70
0
 42
0.220328
  0
VERTEX
  8
0
 10
1446.287964
 20
1314.676971
 70
0
 42
0.207373
  0
VERTEX
  8
0
 10
1447.777488
 20
1314.038245
 70
0
  0
SEQEND
  0
POLYLINE
  8
0
  6
CONTINUOUS
 62
1
 66
1
 70
2
  0
VERTEX
  8
0
 10
1442.741369
 20
1315.748311
 70
0
 42
-0.189055
  0
VERTEX
  8
0
 10
1442.088021
 20
1314.528302
 70
0
 42
-0.179121
  0
VERTEX
  8
0
 10
1440.753360
 20
1314.038245
 70
0
  0
SEQEND
  0
POLYLINE
  8
0
  6
CONTINUOUS
 62
1
 66
1
 70
2
  0
VERTEX
  8
0
 10
1426.537488
 20
1314.038245
 70
0
 42
-0.179121
  0
VERTEX
  8
0
 10
1425.202827
 20
1314.528302
 70
0
 42
-0.189055
  0
VERTEX
  8
0
 10
1424.549479
 20
1315.748311
 70
0
  0
SEQEND
  0
POLYLINE
  8
0
  6
CONTINUOUS
 62
1
 66
1
 70
2
  0
VERTEX
  8
0
 10
1423.889479
 20
1321.508311
 70
0
 42
-0.220328
  0
VERTEX
  8
0
 10
1424.387964
 20
1322.999519
 70
0
 42
-0.207373
  0
VERTEX
  8
0
 10
1425.877488
 20
1323.638245
 70
0
  0
SEQEND
  0
POLYLINE
  8
0
  6
CONTINUOUS
 62
1
 66
1
 70
2
  0
VERTEX
  8
0
 10
1441.413360
 20
1323.638245
 70
0
 42
-0.207373
  0
VERTEX
  8
0
 10
1442.902884
 20
1322.999519
 70
0
 42
-0.220328
  0
VERTEX
  8
0
 10
1443.401369
 20
1321.508311
 70
0
  0
SEQEND
  0
POLYLINE
  8
0
  6
CONTINUOUS
 62
1
 66
1
 70
2
  0
VERTEX
  8
0
 10
1420.841369
 20
1321.928179
 70
0
 42
0.189055
  0
VERTEX
  8
0
 10
1420.188021
 20
1323.148188
 70
0
 42
0.179121
  0
VERTEX
  8
0
 10
1418.853360
 20
1323.638245
 70
0
  0
SEQEND
  0
POLYLINE
  8
0
  6
CONTINUOUS
 62
1
 66
1
 70
2
  0
VERTEX
  8
0
 10
1404.637488
 20
1323.638245
 70
0
 42
0.179121
  0
VERTEX
  8
0
 10
1403.302827
 20
1323.148188
 70
0
 42
0.189055
  0
VERTEX
  8
0
 10
1402.649479
 20
1321.928179
 70
0
  0
SEQEND
  0
POLYLINE
  8
0
  6
CONTINUOUS
 62
1
 66
1
 70
2
  0
VERTEX
  8
0
 10
1401.989479
 20
1316.168179
 70
0
 42
0.220328
  0
VERTEX
  8
0
 10
1402.487964
 20
1314.676971
 70
0
 42
0.207373
  0
VERTEX
  8
0
 10
1403.977488
 20
1314.038245
 70
0
  0
SEQEND
  0
POLYLINE
  8
0
  6
CONTINUOUS
 62
1
 66
1
 70
2
  0
VERTEX
  8
0
 10
1419.513360
 20
1314.038245
 70
0
 42
0.207373
  0
VERTEX
  8
0
 10
1421.002884
 20
1314.676971
 70
0
 42
0.220328
  0
VERTEX
  8
0
 10
1421.501369
 20
1316.168179
 70
0
  0
SEQEND
  0
POLYLINE
  8
0
  6
CONTINUOUS
 62
1
 66
1
 70
2
  0
VERTEX
  8
0
 10
1396.953360
 20
1314.038245
 70
0
 42
0.179121
  0
VERTEX
  8
0
 10
1398.288021
 20
1314.528302
 70
0
 42
0.189055
  0
VERTEX
  8
0
 10
1398.941369
 20
1315.748311
 70
0
  0
SEQEND
  0
POLYLINE
  8
0
  6
CONTINUOUS
 62
1
 66
1
 70
2
  0
VERTEX
  8
0
 10
1399.601369
 20
1321.508311
 70
0
 42
0.220328
  0
VERTEX
  8
0
 10
1399.102884
 20
1322.999519
 70
0
 42
0.207373
  0
VERTEX
  8
0
 10
1397.613360
 20
1323.638245
 70
0
  0
SEQEND
  0
POLYLINE
  8
0
  6
CONTINUOUS
 62
1
 66
1
 70
2
  0
VERTEX
  8
0
 10
1382.077488
 20
1323.638245
 70
0
 42
0.207373
  0
VERTEX
  8
0
 10
1380.587964
 20
1322.999519
 70
0
 42
0.220328
  0
VERTEX
  8
0
 10
1380.089479
 20
1321.508311
 70
0
  0
SEQEND
  0
POLYLINE
  8
0
  6
CONTINUOUS
 62
1
 66
1
 70
2
  0
VERTEX
  8
0
 10
1380.749479
 20
1315.748311
 70
0
 42
0.189055
  0
VERTEX
  8
0
 10
1381.402827
 20
1314.528302
 70
0
 42
0.179121
  0
VERTEX
  8
0
 10
1382.737488
 20
1314.038245
 70
0
  0
SEQEND
  0
POLYLINE
  8
0
  6
CONTINUOUS
 62
1
 66
1
 70
2
  0
VERTEX
  8
0
 10
1377.701369
 20
1316.168179
 70
0
 42
-0.220328
  0
VERTEX
  8
0
 10
1377.202884
 20
1314.676971
 70
0
 42
-0.207373
  0
VERTEX
  8
0
 10
1375.713360
 20
1314.038245
 70
0
  0
SEQEND
  0
POLYLINE
  8
0
  6
CONTINUOUS
 62
1
 66
1
 70
2
  0
VERTEX
  8
0
 10
1360.177488
 20
1314.038245
 70
0
 42
-0.207373
  0
VERTEX
  8
0
 10
1358.687964
 20
1314.676971
 70
0
 42
-0.220328
  0
VERTEX
  8
0
 10
1358.189479
 20
1316.168179
 70
0
  0
SEQEND
  0
POLYLINE
  8
0
  6
CONTINUOUS
 62
1
 66
1
 70
2
  0
VERTEX
  8
0
 10
1358.849479
 20
1321.928179
 70
0
 42
-0.189055
  0
VERTEX
  8
0
 10
1359.502827
 20
1323.148188
 70
0
 42
-0.179121
  0
VERTEX
  8
0
 10
1360.837488
 20
1323.638245
 70
0
  0
SEQEND
  0
POLYLINE
  8
0
  6
CONTINUOUS
 62
1
 66
1
 70
2
  0
VERTEX
  8
0
 10
1375.053360
 20
1323.638245
 70
0
 42
-0.179121
  0
VERTEX
  8
0
 10
1376.388021
 20
1323.148188
 70
0
 42
-0.189055
  0
VERTEX
  8
0
 10
1377.041369
 20
1321.928179
 70
0
  0
SEQEND
  0
POLYLINE
  8
0
  6
CONTINUOUS
 62
1
 66
1
 70
2
  0
VERTEX
  8
0
 10
1355.801369
 20
1321.508311
 70
0
 42
0.220328
  0
VERTEX
  8
0
 10
1355.302884
 20
1322.999519
 70
0
 42
0.207373
  0
VERTEX
  8
0
 10
1353.813360
 20
1323.638245
 70
0
  0
SEQEND
  0
POLYLINE
  8
0
  6
CONTINUOUS
 62
1
 66
1
 70
2
  0
VERTEX
  8
0
 10
1338.277488
 20
1323.638245
 70
0
 42
0.207373
  0
VERTEX
  8
0
 10
1336.787964
 20
1322.999519
 70
0
 42
0.220328
  0
VERTEX
  8
0
 10
1336.289479
 20
1321.508311
 70
0
  0
SEQEND
  0
POLYLINE
  8
0
  6
CONTINUOUS
 62
1
 66
1
 70
2
  0
VERTEX
  8
0
 10
1336.949479
 20
1315.748311
 70
0
 42
0.189055
  0
VERTEX
  8
0
 10
1337.602827
 20
1314.528302
 70
0
 42
0.179121
  0
VERTEX
  8
0
 10
1338.937488
 20
1314.038245
 70
0
  0
SEQEND
  0
POLYLINE
  8
0
  6
CONTINUOUS
 62
1
 66
1
 70
2
  0
VERTEX
  8
0
 10
1353.153360
 20
1314.038245
 70
0
 42
0.179121
  0
VERTEX
  8
0
 10
1354.488021
 20
1314.528302
 70
0
 42
0.189055
  0
VERTEX
  8
0
 10
1355.141369
 20
1315.748311
 70
0
  0
SEQEND
  0
POLYLINE
  8
0
  6
CONTINUOUS
 62
1
 66
1
 70
2
  0
VERTEX
  8
0
 10
1331.913360
 20
1314.038245
 70
0
 42
0.207373
  0
VERTEX
  8
0
 10
1333.402884
 20
1314.676971
 70
0
 42
0.220328
  0
VERTEX
  8
0
 10
1333.901369
 20
1316.168179
 70
0
  0
SEQEND
  0
POLYLINE
  8
0
  6
CONTINUOUS
 62
1
 66
1
 70
2
  0
VERTEX
  8
0
 10
1333.241369
 20
1321.928179
 70
0
 42
0.189055
  0
VERTEX
  8
0
 10
1332.588021
 20
1323.148188
 70
0
 42
0.179121
  0
VERTEX
  8
0
 10
1331.253360
 20
1323.638245
 70
0
  0
SEQEND
  0
POLYLINE
  8
0
  6
CONTINUOUS
 62
1
 66
1
 70
2
  0
VERTEX
  8
0
 10
1317.037488
 20
1323.638245
 70
0
 42
0.179121
  0
VERTEX
  8
0
 10
1315.702827
 20
1323.148188
 70
0
 42
0.189055
  0
VERTEX
  8
0
 10
1315.049479
 20
1321.928179
 70
0
  0
SEQEND
  0
POLYLINE
  8
0
  6
CONTINUOUS
 62
1
 66
1
 70
2
  0
VERTEX
  8
0
 10
1314.389479
 20
1316.168179
 70
0
 42
0.220328
  0
VERTEX
  8
0
 10
1314.887964
 20
1314.676971
 70
0
 42
0.207373
  0
VERTEX
  8
0
 10
1316.377488
 20
1314.038245
 70
0
  0
SEQEND
  0
POLYLINE
  8
0
  6
CONTINUOUS
 62
1
 66
1
 70
2
  0
VERTEX
  8
0
 10
1309.353360
 20
1314.038245
 70
0
 42
0.179121
  0
VERTEX
  8
0
 10
1310.688021
 20
1314.528302
 70
0
 42
0.189055
  0
VERTEX
  8
0
 10
1311.341369
 20
1315.748311
 70
0
  0
SEQEND
  0
POLYLINE
  8
0
  6
CONTINUOUS
 62
1
 66
1
 70
2
  0
VERTEX
  8
0
 10
1312.001369
 20
1321.508311
 70
0
 42
0.220328
  0
VERTEX
  8
0
 10
1311.502884
 20
1322.999519
 70
0
 42
0.207373
  0
VERTEX
  8
0
 10
1310.013360
 20
1323.638245
 70
0
  0
SEQEND
  0
POLYLINE
  8
0
  6
CONTINUOUS
 62
1
 66
1
 70
2
  0
VERTEX
  8
0
 10
1294.477488
 20
1323.638245
 70
0
 42
0.207373
  0
VERTEX
  8
0
 10
1292.987964
 20
1322.999519
 70
0
 42
0.220328
  0
VERTEX
  8
0
 10
1292.489479
 20
1321.508311
 70
0
  0
SEQEND
  0
POLYLINE
  8
0
  6
CONTINUOUS
 62
1
 66
1
 70
2
  0
VERTEX
  8
0
 10
1295.137488
 20
1314.038245
 70
0
 42
-0.179121
  0
VERTEX
  8
0
 10
1293.802827
 20
1314.528302
 70
0
 42
-0.189055
  0
VERTEX
  8
0
 10
1293.149479
 20
1315.748311
 70
0
  0
SEQEND
  0
POLYLINE
  8
0
  6
CONTINUOUS
 62
1
 66
1
 70
2
  0
VERTEX
  8
0
 10
1288.113360
 20
1314.038245
 70
0
 42
0.207373
  0
VERTEX
  8
0
 10
1289.602884
 20
1314.676971
 70
0
 42
0.220328
  0
VERTEX
  8
0
 10
1290.101369
 20
1316.168179
 70
0
  0
SEQEND
  0
POLYLINE
  8
0
  6
CONTINUOUS
 62
1
 66
1
 70
2
  0
VERTEX
  8
0
 10
1289.441369
 20
1321.928179
 70
0
 42
0.189055
  0
VERTEX
  8
0
 10
1288.788021
 20
1323.148188
 70
0
 42
0.179121
  0
VERTEX
  8
0
 10
1287.453360
 20
1323.638245
 70
0
  0
SEQEND
  0
POLYLINE
  8
0
  6
CONTINUOUS
 62
1
 66
1
 70
2
  0
VERTEX
  8
0
 10
1273.237488
 20
1323.638245
 70
0
 42
0.179121
  0
VERTEX
  8
0
 10
1271.902827
 20
1323.148188
 70
0
 42
0.189055
  0
VERTEX
  8
0
 10
1271.249479
 20
1321.928179
 70
0
  0
SEQEND
  0
POLYLINE
  8
0
  6
CONTINUOUS
 62
1
 66
1
 70
2
  0
VERTEX
  8
0
 10
1270.589479
 20
1316.168179
 70
0
 42
0.220328
  0
VERTEX
  8
0
 10
1271.087964
 20
1314.676971
 70
0
 42
0.207373
  0
VERTEX
  8
0
 10
1272.577488
 20
1314.038245
 70
0
  0
SEQEND
  0
LINE
  8
0
  6
CONTINUOUS
 62
1
 10
1463.313360
 20
1314.038245
 11
1447.777488
 21
1314.038245
  0
LINE
  8
0
  6
CONTINUOUS
 62
1
 10
1254.636889
 20
1326.518245
 11
1240.421016
 21
1326.518245
  0
LINE
  8
0
  6
CONTINUOUS
 62
1
 10
1218.521016
 20
1336.118245
 11
1232.736889
 21
1336.118245
  0
LINE
  8
0
  6
CONTINUOUS
 62
1
 10
1239.761016
 20
1336.118245
 11
1255.296889
 21
1336.118245
  0
LINE
  8
0
  6
CONTINUOUS
 62
1
 10
1238.433007
 20
1328.228311
 11
1237.773007
 21
1333.988311
  0
LINE
  8
0
  6
CONTINUOUS
 62
1
 10
1256.624898
 20
1328.228311
 11
1257.284898
 21
1333.988311
  0
LINE
  8
0
  6
CONTINUOUS
 62
1
 10
1216.533007
 20
1334.408179
 11
1215.873007
 21
1328.648179
  0
LINE
  8
0
  6
CONTINUOUS
 62
1
 10
1234.724898
 20
1334.408179
 11
1235.384898
 21
1328.648179
  0
LINE
  8
0
  6
CONTINUOUS
 62
1
 10
1233.396889
 20
1326.518245
 11
1217.861016
 21
1326.518245
  0
POLYLINE
  8
0
  6
CONTINUOUS
 62
1
 66
1
 70
2
  0
VERTEX
  8
0
 10
1218.521016
 20
1336.118245
 70
0
 42
0.179121
  0
VERTEX
  8
0
 10
1217.186356
 20
1335.628188
 70
0
 42
0.189055
  0
VERTEX
  8
0
 10
1216.533007
 20
1334.408179
 70
0
  0
SEQEND
  0
POLYLINE
  8
0
  6
CONTINUOUS
 62
1
 66
1
 70
2
  0
VERTEX
  8
0
 10
1215.873007
 20
1328.648179
 70
0
 42
0.220328
  0
VERTEX
  8
0
 10
1216.371492
 20
1327.156971
 70
0
 42
0.207373
  0
VERTEX
  8
0
 10
1217.861016
 20
1326.518245
 70
0
  0
SEQEND
  0
POLYLINE
  8
0
  6
CONTINUOUS
 62
1
 66
1
 70
2
  0
VERTEX
  8
0
 10
1233.396889
 20
1326.518245
 70
0
 42
0.207373
  0
VERTEX
  8
0
 10
1234.886413
 20
1327.156971
 70
0
 42
0.220328
  0
VERTEX
  8
0
 10
1235.384898
 20
1328.648179
 70
0
  0
SEQEND
  0
POLYLINE
  8
0
  6
CONTINUOUS
 62
1
 66
1
 70
2
  0
VERTEX
  8
0
 10
1232.736889
 20
1336.118245
 70
0
 42
-0.179121
  0
VERTEX
  8
0
 10
1234.071550
 20
1335.628188
 70
0
 42
-0.189055
  0
VERTEX
  8
0
 10
1234.724898
 20
1334.408179
 70
0
  0
SEQEND
  0
POLYLINE
  8
0
  6
CONTINUOUS
 62
1
 66
1
 70
2
  0
VERTEX
  8
0
 10
1239.761016
 20
1336.118245
 70
0
 42
0.207373
  0
VERTEX
  8
0
 10
1238.271492
 20
1335.479519
 70
0
 42
0.220328
  0
VERTEX
  8
0
 10
1237.773007
 20
1333.988311
 70
0
  0
SEQEND
  0
POLYLINE
  8
0
  6
CONTINUOUS
 62
1
 66
1
 70
2
  0
VERTEX
  8
0
 10
1238.433007
 20
1328.228311
 70
0
 42
0.189055
  0
VERTEX
  8
0
 10
1239.086356
 20
1327.008302
 70
0
 42
0.179121
  0
VERTEX
  8
0
 10
1240.421016
 20
1326.518245
 70
0
  0
SEQEND
  0
POLYLINE
  8
0
  6
CONTINUOUS
 62
1
 66
1
 70
2
  0
VERTEX
  8
0
 10
1254.636889
 20
1326.518245
 70
0
 42
0.179121
  0
VERTEX
  8
0
 10
1255.971550
 20
1327.008302
 70
0
 42
0.189055
  0
VERTEX
  8
0
 10
1256.624898
 20
1328.228311
 70
0
  0
SEQEND
  0
POLYLINE
  8
0
  6
CONTINUOUS
 62
1
 66
1
 70
2
  0
VERTEX
  8
0
 10
1257.284898
 20
1333.988311
 70
0
 42
0.220328
  0
VERTEX
  8
0
 10
1256.786413
 20
1335.479519
 70
0
 42
0.207373
  0
VERTEX
  8
0
 10
1255.296889
 20
1336.118245
 70
0
  0
SEQEND
  0
LINE
  8
0
  6
CONTINUOUS
 62
1
 10
1298.436889
 20
1326.518245
 11
1284.221016
 21
1326.518245
  0
LINE
  8
0
  6
CONTINUOUS
 62
1
 10
1262.321016
 20
1336.118245
 11
1276.536889
 21
1336.118245
  0
LINE
  8
0
  6
CONTINUOUS
 62
1
 10
1283.561016
 20
1336.118245
 11
1299.096889
 21
1336.118245
  0
LINE
  8
0
  6
CONTINUOUS
 62
1
 10
1282.233007
 20
1328.228311
 11
1281.573007
 21
1333.988311
  0
LINE
  8
0
  6
CONTINUOUS
 62
1
 10
1300.424898
 20
1328.228311
 11
1301.084898
 21
1333.988311
  0
LINE
  8
0
  6
CONTINUOUS
 62
1
 10
1260.333007
 20
1334.408179
 11
1259.673007
 21
1328.648179
  0
LINE
  8
0
  6
CONTINUOUS
 62
1
 10
1278.524898
 20
1334.408179
 11
1279.184898
 21
1328.648179
  0
LINE
  8
0
  6
CONTINUOUS
 62
1
 10
1277.196889
 20
1326.518245
 11
1261.661016
 21
1326.518245
  0
POLYLINE
  8
0
  6
CONTINUOUS
 62
1
 66
1
 70
2
  0
VERTEX
  8
0
 10
1262.321016
 20
1336.118245
 70
0
 42
0.179121
  0
VERTEX
  8
0
 10
1260.986356
 20
1335.628188
 70
0
 42
0.189055
  0
VERTEX
  8
0
 10
1260.333007
 20
1334.408179
 70
0
  0
SEQEND
  0
POLYLINE
  8
0
  6
CONTINUOUS
 62
1
 66
1
 70
2
  0
VERTEX
  8
0
 10
1259.673007
 20
1328.648179
 70
0
 42
0.220328
  0
VERTEX
  8
0
 10
1260.171492
 20
1327.156971
 70
0
 42
0.207373
  0
VERTEX
  8
0
 10
1261.661016
 20
1326.518245
 70
0
  0
SEQEND
  0
POLYLINE
  8
0
  6
CONTINUOUS
 62
1
 66
1
 70
2
  0
VERTEX
  8
0
 10
1277.196889
 20
1326.518245
 70
0
 42
0.207373
  0
VERTEX
  8
0
 10
1278.686413
 20
1327.156971
 70
0
 42
0.220328
  0
VERTEX
  8
0
 10
1279.184898
 20
1328.648179
 70
0
  0
SEQEND
  0
POLYLINE
  8
0
  6
CONTINUOUS
 62
1
 66
1
 70
2
  0
VERTEX
  8
0
 10
1276.536889
 20
1336.118245
 70
0
 42
-0.179121
  0
VERTEX
  8
0
 10
1277.871550
 20
1335.628188
 70
0
 42
-0.189055
  0
VERTEX
  8
0
 10
1278.524898
 20
1334.408179
 70
0
  0
SEQEND
  0
POLYLINE
  8
0
  6
CONTINUOUS
 62
1
 66
1
 70
2
  0
VERTEX
  8
0
 10
1283.561016
 20
1336.118245
 70
0
 42
0.207373
  0
VERTEX
  8
0
 10
1282.071492
 20
1335.479519
 70
0
 42
0.220328
  0
VERTEX
  8
0
 10
1281.573007
 20
1333.988311
 70
0
  0
SEQEND
  0
POLYLINE
  8
0
  6
CONTINUOUS
 62
1
 66
1
 70
2
  0
VERTEX
  8
0
 10
1282.233007
 20
1328.228311
 70
0
 42
0.189055
  0
VERTEX
  8
0
 10
1282.886356
 20
1327.008302
 70
0
 42
0.179121
  0
VERTEX
  8
0
 10
1284.221016
 20
1326.518245
 70
0
  0
SEQEND
  0
POLYLINE
  8
0
  6
CONTINUOUS
 62
1
 66
1
 70
2
  0
VERTEX
  8
0
 10
1298.436889
 20
1326.518245
 70
0
 42
0.179121
  0
VERTEX
  8
0
 10
1299.771550
 20
1327.008302
 70
0
 42
0.189055
  0
VERTEX
  8
0
 10
1300.424898
 20
1328.228311
 70
0
  0
SEQEND
  0
POLYLINE
  8
0
  6
CONTINUOUS
 62
1
 66
1
 70
2
  0
VERTEX
  8
0
 10
1301.084898
 20
1333.988311
 70
0
 42
0.220328
  0
VERTEX
  8
0
 10
1300.586413
 20
1335.479519
 70
0
 42
0.207373
  0
VERTEX
  8
0
 10
1299.096889
 20
1336.118245
 70
0
  0
SEQEND
  0
LINE
  8
0
  6
CONTINUOUS
 62
1
 10
1342.236889
 20
1326.518245
 11
1328.021016
 21
1326.518245
  0
LINE
  8
0
  6
CONTINUOUS
 62
1
 10
1306.121016
 20
1336.118245
 11
1320.336889
 21
1336.118245
  0
LINE
  8
0
  6
CONTINUOUS
 62
1
 10
1327.361016
 20
1336.118245
 11
1342.896889
 21
1336.118245
  0
LINE
  8
0
  6
CONTINUOUS
 62
1
 10
1326.033007
 20
1328.228311
 11
1325.373007
 21
1333.988311
  0
LINE
  8
0
  6
CONTINUOUS
 62
1
 10
1344.224898
 20
1328.228311
 11
1344.884898
 21
1333.988311
  0
LINE
  8
0
  6
CONTINUOUS
 62
1
 10
1304.133007
 20
1334.408179
 11
1303.473007
 21
1328.648179
  0
LINE
  8
0
  6
CONTINUOUS
 62
1
 10
1322.324898
 20
1334.408179
 11
1322.984898
 21
1328.648179
  0
LINE
  8
0
  6
CONTINUOUS
 62
1
 10
1320.996889
 20
1326.518245
 11
1305.461016
 21
1326.518245
  0
POLYLINE
  8
0
  6
CONTINUOUS
 62
1
 66
1
 70
2
  0
VERTEX
  8
0
 10
1306.121016
 20
1336.118245
 70
0
 42
0.179121
  0
VERTEX
  8
0
 10
1304.786356
 20
1335.628188
 70
0
 42
0.189055
  0
VERTEX
  8
0
 10
1304.133007
 20
1334.408179
 70
0
  0
SEQEND
  0
POLYLINE
  8
0
  6
CONTINUOUS
 62
1
 66
1
 70
2
  0
VERTEX
  8
0
 10
1303.473007
 20
1328.648179
 70
0
 42
0.220328
  0
VERTEX
  8
0
 10
1303.971492
 20
1327.156971
 70
0
 42
0.207373
  0
VERTEX
  8
0
 10
1305.461016
 20
1326.518245
 70
0
  0
SEQEND
  0
POLYLINE
  8
0
  6
CONTINUOUS
 62
1
 66
1
 70
2
  0
VERTEX
  8
0
 10
1320.996889
 20
1326.518245
 70
0
 42
0.207373
  0
VERTEX
  8
0
 10
1322.486413
 20
1327.156971
 70
0
 42
0.220328
  0
VERTEX
  8
0
 10
1322.984898
 20
1328.648179
 70
0
  0
SEQEND
  0
POLYLINE
  8
0
  6
CONTINUOUS
 62
1
 66
1
 70
2
  0
VERTEX
  8
0
 10
1320.336889
 20
1336.118245
 70
0
 42
-0.179121
  0
VERTEX
  8
0
 10
1321.671550
 20
1335.628188
 70
0
 42
-0.189055
  0
VERTEX
  8
0
 10
1322.324898
 20
1334.408179
 70
0
  0
SEQEND
  0
POLYLINE
  8
0
  6
CONTINUOUS
 62
1
 66
1
 70
2
  0
VERTEX
  8
0
 10
1327.361016
 20
1336.118245
 70
0
 42
0.207373
  0
VERTEX
  8
0
 10
1325.871492
 20
1335.479519
 70
0
 42
0.220328
  0
VERTEX
  8
0
 10
1325.373007
 20
1333.988311
 70
0
  0
SEQEND
  0
POLYLINE
  8
0
  6
CONTINUOUS
 62
1
 66
1
 70
2
  0
VERTEX
  8
0
 10
1326.033007
 20
1328.228311
 70
0
 42
0.189055
  0
VERTEX
  8
0
 10
1326.686356
 20
1327.008302
 70
0
 42
0.179121
  0
VERTEX
  8
0
 10
1328.021016
 20
1326.518245
 70
0
  0
SEQEND
  0
POLYLINE
  8
0
  6
CONTINUOUS
 62
1
 66
1
 70
2
  0
VERTEX
  8
0
 10
1342.236889
 20
1326.518245
 70
0
 42
0.179121
  0
VERTEX
  8
0
 10
1343.571550
 20
1327.008302
 70
0
 42
0.189055
  0
VERTEX
  8
0
 10
1344.224898
 20
1328.228311
 70
0
  0
SEQEND
  0
POLYLINE
  8
0
  6
CONTINUOUS
 62
1
 66
1
 70
2
  0
VERTEX
  8
0
 10
1344.884898
 20
1333.988311
 70
0
 42
0.220328
  0
VERTEX
  8
0
 10
1344.386413
 20
1335.479519
 70
0
 42
0.207373
  0
VERTEX
  8
0
 10
1342.896889
 20
1336.118245
 70
0
  0
SEQEND
  0
LINE
  8
0
  6
CONTINUOUS
 62
1
 10
1386.036889
 20
1326.518245
 11
1371.821016
 21
1326.518245
  0
LINE
  8
0
  6
CONTINUOUS
 62
1
 10
1349.921016
 20
1336.118245
 11
1364.136889
 21
1336.118245
  0
LINE
  8
0
  6
CONTINUOUS
 62
1
 10
1371.161016
 20
1336.118245
 11
1386.696889
 21
1336.118245
  0
LINE
  8
0
  6
CONTINUOUS
 62
1
 10
1369.833007
 20
1328.228311
 11
1369.173007
 21
1333.988311
  0
LINE
  8
0
  6
CONTINUOUS
 62
1
 10
1388.024898
 20
1328.228311
 11
1388.684898
 21
1333.988311
  0
LINE
  8
0
  6
CONTINUOUS
 62
1
 10
1347.933007
 20
1334.408179
 11
1347.273007
 21
1328.648179
  0
LINE
  8
0
  6
CONTINUOUS
 62
1
 10
1366.124898
 20
1334.408179
 11
1366.784898
 21
1328.648179
  0
LINE
  8
0
  6
CONTINUOUS
 62
1
 10
1364.796889
 20
1326.518245
 11
1349.261016
 21
1326.518245
  0
POLYLINE
  8
0
  6
CONTINUOUS
 62
1
 66
1
 70
2
  0
VERTEX
  8
0
 10
1349.921016
 20
1336.118245
 70
0
 42
0.179121
  0
VERTEX
  8
0
 10
1348.586356
 20
1335.628188
 70
0
 42
0.189055
  0
VERTEX
  8
0
 10
1347.933007
 20
1334.408179
 70
0
  0
SEQEND
  0
POLYLINE
  8
0
  6
CONTINUOUS
 62
1
 66
1
 70
2
  0
VERTEX
  8
0
 10
1347.273007
 20
1328.648179
 70
0
 42
0.220328
  0
VERTEX
  8
0
 10
1347.771492
 20
1327.156971
 70
0
 42
0.207373
  0
VERTEX
  8
0
 10
1349.261016
 20
1326.518245
 70
0
  0
SEQEND
  0
POLYLINE
  8
0
  6
CONTINUOUS
 62
1
 66
1
 70
2
  0
VERTEX
  8
0
 10
1364.796889
 20
1326.518245
 70
0
 42
0.207373
  0
VERTEX
  8
0
 10
1366.286413
 20
1327.156971
 70
0
 42
0.220328
  0
VERTEX
  8
0
 10
1366.784898
 20
1328.648179
 70
0
  0
SEQEND
  0
POLYLINE
  8
0
  6
CONTINUOUS
 62
1
 66
1
 70
2
  0
VERTEX
  8
0
 10
1364.136889
 20
1336.118245
 70
0
 42
-0.179121
  0
VERTEX
  8
0
 10
1365.471550
 20
1335.628188
 70
0
 42
-0.189055
  0
VERTEX
  8
0
 10
1366.124898
 20
1334.408179
 70
0
  0
SEQEND
  0
POLYLINE
  8
0
  6
CONTINUOUS
 62
1
 66
1
 70
2
  0
VERTEX
  8
0
 10
1371.161016
 20
1336.118245
 70
0
 42
0.207373
  0
VERTEX
  8
0
 10
1369.671492
 20
1335.479519
 70
0
 42
0.220328
  0
VERTEX
  8
0
 10
1369.173007
 20
1333.988311
 70
0
  0
SEQEND
  0
POLYLINE
  8
0
  6
CONTINUOUS
 62
1
 66
1
 70
2
  0
VERTEX
  8
0
 10
1369.833007
 20
1328.228311
 70
0
 42
0.189055
  0
VERTEX
  8
0
 10
1370.486356
 20
1327.008302
 70
0
 42
0.179121
  0
VERTEX
  8
0
 10
1371.821016
 20
1326.518245
 70
0
  0
SEQEND
  0
POLYLINE
  8
0
  6
CONTINUOUS
 62
1
 66
1
 70
2
  0
VERTEX
  8
0
 10
1386.036889
 20
1326.518245
 70
0
 42
0.179121
  0
VERTEX
  8
0
 10
1387.371550
 20
1327.008302
 70
0
 42
0.189055
  0
VERTEX
  8
0
 10
1388.024898
 20
1328.228311
 70
0
  0
SEQEND
  0
POLYLINE
  8
0
  6
CONTINUOUS
 62
1
 66
1
 70
2
  0
VERTEX
  8
0
 10
1388.684898
 20
1333.988311
 70
0
 42
0.220328
  0
VERTEX
  8
0
 10
1388.186413
 20
1335.479519
 70
0
 42
0.207373
  0
VERTEX
  8
0
 10
1386.696889
 20
1336.118245
 70
0
  0
SEQEND
  0
LINE
  8
0
  6
CONTINUOUS
 62
1
 10
1429.836889
 20
1326.518245
 11
1415.621016
 21
1326.518245
  0
LINE
  8
0
  6
CONTINUOUS
 62
1
 10
1393.721016
 20
1336.118245
 11
1407.936889
 21
1336.118245
  0
LINE
  8
0
  6
CONTINUOUS
 62
1
 10
1414.961016
 20
1336.118245
 11
1430.496889
 21
1336.118245
  0
LINE
  8
0
  6
CONTINUOUS
 62
1
 10
1413.633007
 20
1328.228311
 11
1412.973007
 21
1333.988311
  0
LINE
  8
0
  6
CONTINUOUS
 62
1
 10
1431.824898
 20
1328.228311
 11
1432.484898
 21
1333.988311
  0
LINE
  8
0
  6
CONTINUOUS
 62
1
 10
1391.733007
 20
1334.408179
 11
1391.073007
 21
1328.648179
  0
LINE
  8
0
  6
CONTINUOUS
 62
1
 10
1409.924898
 20
1334.408179
 11
1410.584898
 21
1328.648179
  0
LINE
  8
0
  6
CONTINUOUS
 62
1
 10
1408.596889
 20
1326.518245
 11
1393.061016
 21
1326.518245
  0
POLYLINE
  8
0
  6
CONTINUOUS
 62
1
 66
1
 70
2
  0
VERTEX
  8
0
 10
1393.721016
 20
1336.118245
 70
0
 42
0.179121
  0
VERTEX
  8
0
 10
1392.386356
 20
1335.628188
 70
0
 42
0.189055
  0
VERTEX
  8
0
 10
1391.733007
 20
1334.408179
 70
0
  0
SEQEND
  0
POLYLINE
  8
0
  6
CONTINUOUS
 62
1
 66
1
 70
2
  0
VERTEX
  8
0
 10
1391.073007
 20
1328.648179
 70
0
 42
0.220328
  0
VERTEX
  8
0
 10
1391.571492
 20
1327.156971
 70
0
 42
0.207373
  0
VERTEX
  8
0
 10
1393.061016
 20
1326.518245
 70
0
  0
SEQEND
  0
POLYLINE
  8
0
  6
CONTINUOUS
 62
1
 66
1
 70
2
  0
VERTEX
  8
0
 10
1408.596889
 20
1326.518245
 70
0
 42
0.207373
  0
VERTEX
  8
0
 10
1410.086413
 20
1327.156971
 70
0
 42
0.220328
  0
VERTEX
  8
0
 10
1410.584898
 20
1328.648179
 70
0
  0
SEQEND
  0
POLYLINE
  8
0
  6
CONTINUOUS
 62
1
 66
1
 70
2
  0
VERTEX
  8
0
 10
1407.936889
 20
1336.118245
 70
0
 42
-0.179121
  0
VERTEX
  8
0
 10
1409.271550
 20
1335.628188
 70
0
 42
-0.189055
  0
VERTEX
  8
0
 10
1409.924898
 20
1334.408179
 70
0
  0
SEQEND
  0
POLYLINE
  8
0
  6
CONTINUOUS
 62
1
 66
1
 70
2
  0
VERTEX
  8
0
 10
1414.961016
 20
1336.118245
 70
0
 42
0.207373
  0
VERTEX
  8
0
 10
1413.471492
 20
1335.479519
 70
0
 42
0.220328
  0
VERTEX
  8
0
 10
1412.973007
 20
1333.988311
 70
0
  0
SEQEND
  0
POLYLINE
  8
0
  6
CONTINUOUS
 62
1
 66
1
 70
2
  0
VERTEX
  8
0
 10
1413.633007
 20
1328.228311
 70
0
 42
0.189055
  0
VERTEX
  8
0
 10
1414.286356
 20
1327.008302
 70
0
 42
0.179121
  0
VERTEX
  8
0
 10
1415.621016
 20
1326.518245
 70
0
  0
SEQEND
  0
POLYLINE
  8
0
  6
CONTINUOUS
 62
1
 66
1
 70
2
  0
VERTEX
  8
0
 10
1429.836889
 20
1326.518245
 70
0
 42
0.179121
  0
VERTEX
  8
0
 10
1431.171550
 20
1327.008302
 70
0
 42
0.189055
  0
VERTEX
  8
0
 10
1431.824898
 20
1328.228311
 70
0
  0
SEQEND
  0
POLYLINE
  8
0
  6
CONTINUOUS
 62
1
 66
1
 70
2
  0
VERTEX
  8
0
 10
1432.484898
 20
1333.988311
 70
0
 42
0.220328
  0
VERTEX
  8
0
 10
1431.986413
 20
1335.479519
 70
0
 42
0.207373
  0
VERTEX
  8
0
 10
1430.496889
 20
1336.118245
 70
0
  0
SEQEND
  0
LINE
  8
0
  6
CONTINUOUS
 62
1
 10
1473.636889
 20
1326.518245
 11
1459.421016
 21
1326.518245
  0
LINE
  8
0
  6
CONTINUOUS
 62
1
 10
1437.521016
 20
1336.118245
 11
1451.736889
 21
1336.118245
  0
LINE
  8
0
  6
CONTINUOUS
 62
1
 10
1458.761016
 20
1336.118245
 11
1474.296889
 21
1336.118245
  0
LINE
  8
0
  6
CONTINUOUS
 62
1
 10
1457.433007
 20
1328.228311
 11
1456.773007
 21
1333.988311
  0
LINE
  8
0
  6
CONTINUOUS
 62
1
 10
1475.624898
 20
1328.228311
 11
1476.284898
 21
1333.988311
  0
LINE
  8
0
  6
CONTINUOUS
 62
1
 10
1435.533007
 20
1334.408179
 11
1434.873007
 21
1328.648179
  0
LINE
  8
0
  6
CONTINUOUS
 62
1
 10
1453.724898
 20
1334.408179
 11
1454.384898
 21
1328.648179
  0
LINE
  8
0
  6
CONTINUOUS
 62
1
 10
1452.396889
 20
1326.518245
 11
1436.861016
 21
1326.518245
  0
POLYLINE
  8
0
  6
CONTINUOUS
 62
1
 66
1
 70
2
  0
VERTEX
  8
0
 10
1437.521016
 20
1336.118245
 70
0
 42
0.179121
  0
VERTEX
  8
0
 10
1436.186356
 20
1335.628188
 70
0
 42
0.189055
  0
VERTEX
  8
0
 10
1435.533007
 20
1334.408179
 70
0
  0
SEQEND
  0
POLYLINE
  8
0
  6
CONTINUOUS
 62
1
 66
1
 70
2
  0
VERTEX
  8
0
 10
1434.873007
 20
1328.648179
 70
0
 42
0.220328
  0
VERTEX
  8
0
 10
1435.371492
 20
1327.156971
 70
0
 42
0.207373
  0
VERTEX
  8
0
 10
1436.861016
 20
1326.518245
 70
0
  0
SEQEND
  0
POLYLINE
  8
0
  6
CONTINUOUS
 62
1
 66
1
 70
2
  0
VERTEX
  8
0
 10
1452.396889
 20
1326.518245
 70
0
 42
0.207373
  0
VERTEX
  8
0
 10
1453.886413
 20
1327.156971
 70
0
 42
0.220328
  0
VERTEX
  8
0
 10
1454.384898
 20
1328.648179
 70
0
  0
SEQEND
  0
POLYLINE
  8
0
  6
CONTINUOUS
 62
1
 66
1
 70
2
  0
VERTEX
  8
0
 10
1451.736889
 20
1336.118245
 70
0
 42
-0.179121
  0
VERTEX
  8
0
 10
1453.071550
 20
1335.628188
 70
0
 42
-0.189055
  0
VERTEX
  8
0
 10
1453.724898
 20
1334.408179
 70
0
  0
SEQEND
  0
POLYLINE
  8
0
  6
CONTINUOUS
 62
1
 66
1
 70
2
  0
VERTEX
  8
0
 10
1458.761016
 20
1336.118245
 70
0
 42
0.207373
  0
VERTEX
  8
0
 10
1457.271492
 20
1335.479519
 70
0
 42
0.220328
  0
VERTEX
  8
0
 10
1456.773007
 20
1333.988311
 70
0
  0
SEQEND
  0
POLYLINE
  8
0
  6
CONTINUOUS
 62
1
 66
1
 70
2
  0
VERTEX
  8
0
 10
1457.433007
 20
1328.228311
 70
0
 42
0.189055
  0
VERTEX
  8
0
 10
1458.086356
 20
1327.008302
 70
0
 42
0.179121
  0
VERTEX
  8
0
 10
1459.421016
 20
1326.518245
 70
0
  0
SEQEND
  0
POLYLINE
  8
0
  6
CONTINUOUS
 62
1
 66
1
 70
2
  0
VERTEX
  8
0
 10
1473.636889
 20
1326.518245
 70
0
 42
0.179121
  0
VERTEX
  8
0
 10
1474.971550
 20
1327.008302
 70
0
 42
0.189055
  0
VERTEX
  8
0
 10
1475.624898
 20
1328.228311
 70
0
  0
SEQEND
  0
POLYLINE
  8
0
  6
CONTINUOUS
 62
1
 66
1
 70
2
  0
VERTEX
  8
0
 10
1476.284898
 20
1333.988311
 70
0
 42
0.220328
  0
VERTEX
  8
0
 10
1475.786413
 20
1335.479519
 70
0
 42
0.207373
  0
VERTEX
  8
0
 10
1474.296889
 20
1336.118245
 70
0
  0
SEQEND
  0
LINE
  8
0
  6
CONTINUOUS
 62
1
 10
1167.036889
 20
1301.558245
 11
1152.821016
 21
1301.558245
  0
LINE
  8
0
  6
CONTINUOUS
 62
1
 10
1130.921016
 20
1311.158245
 11
1145.136889
 21
1311.158245
  0
LINE
  8
0
  6
CONTINUOUS
 62
1
 10
1152.161016
 20
1311.158245
 11
1167.696889
 21
1311.158245
  0
LINE
  8
0
  6
CONTINUOUS
 62
1
 10
1150.833007
 20
1303.268311
 11
1150.173007
 21
1309.028311
  0
LINE
  8
0
  6
CONTINUOUS
 62
1
 10
1169.024898
 20
1303.268311
 11
1169.684898
 21
1309.028311
  0
LINE
  8
0
  6
CONTINUOUS
 62
1
 10
1128.933007
 20
1309.448179
 11
1128.273007
 21
1303.688179
  0
LINE
  8
0
  6
CONTINUOUS
 62
1
 10
1147.124898
 20
1309.448179
 11
1147.784898
 21
1303.688179
  0
LINE
  8
0
  6
CONTINUOUS
 62
1
 10
1145.796889
 20
1301.558245
 11
1130.261016
 21
1301.558245
  0
POLYLINE
  8
0
  6
CONTINUOUS
 62
1
 66
1
 70
2
  0
VERTEX
  8
0
 10
1130.921016
 20
1311.158245
 70
0
 42
0.179121
  0
VERTEX
  8
0
 10
1129.586356
 20
1310.668188
 70
0
 42
0.189055
  0
VERTEX
  8
0
 10
1128.933007
 20
1309.448179
 70
0
  0
SEQEND
  0
POLYLINE
  8
0
  6
CONTINUOUS
 62
1
 66
1
 70
2
  0
VERTEX
  8
0
 10
1128.273007
 20
1303.688179
 70
0
 42
0.220328
  0
VERTEX
  8
0
 10
1128.771492
 20
1302.196971
 70
0
 42
0.207373
  0
VERTEX
  8
0
 10
1130.261016
 20
1301.558245
 70
0
  0
SEQEND
  0
POLYLINE
  8
0
  6
CONTINUOUS
 62
1
 66
1
 70
2
  0
VERTEX
  8
0
 10
1145.796889
 20
1301.558245
 70
0
 42
0.207373
  0
VERTEX
  8
0
 10
1147.286413
 20
1302.196971
 70
0
 42
0.220328
  0
VERTEX
  8
0
 10
1147.784898
 20
1303.688179
 70
0
  0
SEQEND
  0
POLYLINE
  8
0
  6
CONTINUOUS
 62
1
 66
1
 70
2
  0
VERTEX
  8
0
 10
1145.136889
 20
1311.158245
 70
0
 42
-0.179121
  0
VERTEX
  8
0
 10
1146.471550
 20
1310.668188
 70
0
 42
-0.189055
  0
VERTEX
  8
0
 10
1147.124898
 20
1309.448179
 70
0
  0
SEQEND
  0
POLYLINE
  8
0
  6
CONTINUOUS
 62
1
 66
1
 70
2
  0
VERTEX
  8
0
 10
1152.161016
 20
1311.158245
 70
0
 42
0.207373
  0
VERTEX
  8
0
 10
1150.671492
 20
1310.519519
 70
0
 42
0.220328
  0
VERTEX
  8
0
 10
1150.173007
 20
1309.028311
 70
0
  0
SEQEND
  0
POLYLINE
  8
0
  6
CONTINUOUS
 62
1
 66
1
 70
2
  0
VERTEX
  8
0
 10
1150.833007
 20
1303.268311
 70
0
 42
0.189055
  0
VERTEX
  8
0
 10
1151.486356
 20
1302.048302
 70
0
 42
0.179121
  0
VERTEX
  8
0
 10
1152.821016
 20
1301.558245
 70
0
  0
SEQEND
  0
POLYLINE
  8
0
  6
CONTINUOUS
 62
1
 66
1
 70
2
  0
VERTEX
  8
0
 10
1167.036889
 20
1301.558245
 70
0
 42
0.179121
  0
VERTEX
  8
0
 10
1168.371550
 20
1302.048302
 70
0
 42
0.189055
  0
VERTEX
  8
0
 10
1169.024898
 20
1303.268311
 70
0
  0
SEQEND
  0
POLYLINE
  8
0
  6
CONTINUOUS
 62
1
 66
1
 70
2
  0
VERTEX
  8
0
 10
1169.684898
 20
1309.028311
 70
0
 42
0.220328
  0
VERTEX
  8
0
 10
1169.186413
 20
1310.519519
 70
0
 42
0.207373
  0
VERTEX
  8
0
 10
1167.696889
 20
1311.158245
 70
0
  0
SEQEND
  0
LINE
  8
0
  6
CONTINUOUS
 62
1
 10
1210.836889
 20
1301.558245
 11
1196.621016
 21
1301.558245
  0
LINE
  8
0
  6
CONTINUOUS
 62
1
 10
1174.721016
 20
1311.158245
 11
1188.936889
 21
1311.158245
  0
LINE
  8
0
  6
CONTINUOUS
 62
1
 10
1195.961016
 20
1311.158245
 11
1211.496889
 21
1311.158245
  0
LINE
  8
0
  6
CONTINUOUS
 62
1
 10
1194.633007
 20
1303.268311
 11
1193.973007
 21
1309.028311
  0
LINE
  8
0
  6
CONTINUOUS
 62
1
 10
1212.824898
 20
1303.268311
 11
1213.484898
 21
1309.028311
  0
LINE
  8
0
  6
CONTINUOUS
 62
1
 10
1172.733007
 20
1309.448179
 11
1172.073007
 21
1303.688179
  0
LINE
  8
0
  6
CONTINUOUS
 62
1
 10
1190.924898
 20
1309.448179
 11
1191.584898
 21
1303.688179
  0
LINE
  8
0
  6
CONTINUOUS
 62
1
 10
1189.596889
 20
1301.558245
 11
1174.061016
 21
1301.558245
  0
POLYLINE
  8
0
  6
CONTINUOUS
 62
1
 66
1
 70
2
  0
VERTEX
  8
0
 10
1174.721016
 20
1311.158245
 70
0
 42
0.179121
  0
VERTEX
  8
0
 10
1173.386356
 20
1310.668188
 70
0
 42
0.189055
  0
VERTEX
  8
0
 10
1172.733007
 20
1309.448179
 70
0
  0
SEQEND
  0
POLYLINE
  8
0
  6
CONTINUOUS
 62
1
 66
1
 70
2
  0
VERTEX
  8
0
 10
1172.073007
 20
1303.688179
 70
0
 42
0.220328
  0
VERTEX
  8
0
 10
1172.571492
 20
1302.196971
 70
0
 42
0.207373
  0
VERTEX
  8
0
 10
1174.061016
 20
1301.558245
 70
0
  0
SEQEND
  0
POLYLINE
  8
0
  6
CONTINUOUS
 62
1
 66
1
 70
2
  0
VERTEX
  8
0
 10
1189.596889
 20
1301.558245
 70
0
 42
0.207373
  0
VERTEX
  8
0
 10
1191.086413
 20
1302.196971
 70
0
 42
0.220328
  0
VERTEX
  8
0
 10
1191.584898
 20
1303.688179
 70
0
  0
SEQEND
  0
POLYLINE
  8
0
  6
CONTINUOUS
 62
1
 66
1
 70
2
  0
VERTEX
  8
0
 10
1188.936889
 20
1311.158245
 70
0
 42
-0.179121
  0
VERTEX
  8
0
 10
1190.271550
 20
1310.668188
 70
0
 42
-0.189055
  0
VERTEX
  8
0
 10
1190.924898
 20
1309.448179
 70
0
  0
SEQEND
  0
POLYLINE
  8
0
  6
CONTINUOUS
 62
1
 66
1
 70
2
  0
VERTEX
  8
0
 10
1195.961016
 20
1311.158245
 70
0
 42
0.207373
  0
VERTEX
  8
0
 10
1194.471492
 20
1310.519519
 70
0
 42
0.220328
  0
VERTEX
  8
0
 10
1193.973007
 20
1309.028311
 70
0
  0
SEQEND
  0
POLYLINE
  8
0
  6
CONTINUOUS
 62
1
 66
1
 70
2
  0
VERTEX
  8
0
 10
1194.633007
 20
1303.268311
 70
0
 42
0.189055
  0
VERTEX
  8
0
 10
1195.286356
 20
1302.048302
 70
0
 42
0.179121
  0
VERTEX
  8
0
 10
1196.621016
 20
1301.558245
 70
0
  0
SEQEND
  0
POLYLINE
  8
0
  6
CONTINUOUS
 62
1
 66
1
 70
2
  0
VERTEX
  8
0
 10
1210.836889
 20
1301.558245
 70
0
 42
0.179121
  0
VERTEX
  8
0
 10
1212.171550
 20
1302.048302
 70
0
 42
0.189055
  0
VERTEX
  8
0
 10
1212.824898
 20
1303.268311
 70
0
  0
SEQEND
  0
POLYLINE
  8
0
  6
CONTINUOUS
 62
1
 66
1
 70
2
  0
VERTEX
  8
0
 10
1213.484898
 20
1309.028311
 70
0
 42
0.220328
  0
VERTEX
  8
0
 10
1212.986413
 20
1310.519519
 70
0
 42
0.207373
  0
VERTEX
  8
0
 10
1211.496889
 20
1311.158245
 70
0
  0
SEQEND
  0
LINE
  8
0
  6
CONTINUOUS
 62
1
 10
1123.236889
 20
1301.558245
 11
1109.021016
 21
1301.558245
  0
LINE
  8
0
  6
CONTINUOUS
 62
1
 10
933.161016
 20
1311.158245
 11
948.696889
 21
1311.158245
  0
LINE
  8
0
  6
CONTINUOUS
 62
1
 10
955.721016
 20
1311.158245
 11
969.936889
 21
1311.158245
  0
LINE
  8
0
  6
CONTINUOUS
 62
1
 10
976.961016
 20
1311.158245
 11
992.496889
 21
1311.158245
  0
LINE
  8
0
  6
CONTINUOUS
 62
1
 10
999.521016
 20
1311.158245
 11
1013.736889
 21
1311.158245
  0
LINE
  8
0
  6
CONTINUOUS
 62
1
 10
1020.761016
 20
1311.158245
 11
1036.296889
 21
1311.158245
  0
LINE
  8
0
  6
CONTINUOUS
 62
1
 10
1043.321016
 20
1311.158245
 11
1057.536889
 21
1311.158245
  0
LINE
  8
0
  6
CONTINUOUS
 62
1
 10
1064.561016
 20
1311.158245
 11
1080.096889
 21
1311.158245
  0
LINE
  8
0
  6
CONTINUOUS
 62
1
 10
1087.121016
 20
1311.158245
 11
1101.336889
 21
1311.158245
  0
LINE
  8
0
  6
CONTINUOUS
 62
1
 10
1108.361016
 20
1311.158245
 11
1123.896889
 21
1311.158245
  0
LINE
  8
0
  6
CONTINUOUS
 62
1
 10
931.833007
 20
1303.268311
 11
931.173007
 21
1309.028311
  0
LINE
  8
0
  6
CONTINUOUS
 62
1
 10
975.633007
 20
1303.268311
 11
974.973007
 21
1309.028311
  0
LINE
  8
0
  6
CONTINUOUS
 62
1
 10
1019.433007
 20
1303.268311
 11
1018.773007
 21
1309.028311
  0
LINE
  8
0
  6
CONTINUOUS
 62
1
 10
1063.233007
 20
1303.268311
 11
1062.573007
 21
1309.028311
  0
LINE
  8
0
  6
CONTINUOUS
 62
1
 10
1107.033007
 20
1303.268311
 11
1106.373007
 21
1309.028311
  0
LINE
  8
0
  6
CONTINUOUS
 62
1
 10
950.024898
 20
1303.268311
 11
950.684898
 21
1309.028311
  0
LINE
  8
0
  6
CONTINUOUS
 62
1
 10
993.824898
 20
1303.268311
 11
994.484898
 21
1309.028311
  0
LINE
  8
0
  6
CONTINUOUS
 62
1
 10
1037.624898
 20
1303.268311
 11
1038.284898
 21
1309.028311
  0
LINE
  8
0
  6
CONTINUOUS
 62
1
 10
1081.424898
 20
1303.268311
 11
1082.084898
 21
1309.028311
  0
LINE
  8
0
  6
CONTINUOUS
 62
1
 10
1125.224898
 20
1303.268311
 11
1125.884898
 21
1309.028311
  0
LINE
  8
0
  6
CONTINUOUS
 62
1
 10
953.733007
 20
1309.448179
 11
953.073007
 21
1303.688179
  0
LINE
  8
0
  6
CONTINUOUS
 62
1
 10
971.924898
 20
1309.448179
 11
972.584898
 21
1303.688179
  0
LINE
  8
0
  6
CONTINUOUS
 62
1
 10
997.533007
 20
1309.448179
 11
996.873007
 21
1303.688179
  0
LINE
  8
0
  6
CONTINUOUS
 62
1
 10
1015.724898
 20
1309.448179
 11
1016.384898
 21
1303.688179
  0
LINE
  8
0
  6
CONTINUOUS
 62
1
 10
1041.333007
 20
1309.448179
 11
1040.673007
 21
1303.688179
  0
LINE
  8
0
  6
CONTINUOUS
 62
1
 10
1059.524898
 20
1309.448179
 11
1060.184898
 21
1303.688179
  0
LINE
  8
0
  6
CONTINUOUS
 62
1
 10
1085.133007
 20
1309.448179
 11
1084.473007
 21
1303.688179
  0
LINE
  8
0
  6
CONTINUOUS
 62
1
 10
1103.324898
 20
1309.448179
 11
1103.984898
 21
1303.688179
  0
LINE
  8
0
  6
CONTINUOUS
 62
1
 10
948.036889
 20
1301.558245
 11
933.821016
 21
1301.558245
  0
LINE
  8
0
  6
CONTINUOUS
 62
1
 10
970.596889
 20
1301.558245
 11
955.061016
 21
1301.558245
  0
LINE
  8
0
  6
CONTINUOUS
 62
1
 10
991.836889
 20
1301.558245
 11
977.621016
 21
1301.558245
  0
LINE
  8
0
  6
CONTINUOUS
 62
1
 10
1014.396889
 20
1301.558245
 11
998.861016
 21
1301.558245
  0
LINE
  8
0
  6
CONTINUOUS
 62
1
 10
1035.636889
 20
1301.558245
 11
1021.421016
 21
1301.558245
  0
LINE
  8
0
  6
CONTINUOUS
 62
1
 10
1058.196889
 20
1301.558245
 11
1042.661016
 21
1301.558245
  0
LINE
  8
0
  6
CONTINUOUS
 62
1
 10
1079.436889
 20
1301.558245
 11
1065.221016
 21
1301.558245
  0
LINE
  8
0
  6
CONTINUOUS
 62
1
 10
1101.996889
 20
1301.558245
 11
1086.461016
 21
1301.558245
  0
POLYLINE
  8
0
  6
CONTINUOUS
 62
1
 66
1
 70
2
  0
VERTEX
  8
0
 10
933.161016
 20
1311.158245
 70
0
 42
0.207373
  0
VERTEX
  8
0
 10
931.671492
 20
1310.519519
 70
0
 42
0.220328
  0
VERTEX
  8
0
 10
931.173007
 20
1309.028311
 70
0
  0
SEQEND
  0
POLYLINE
  8
0
  6
CONTINUOUS
 62
1
 66
1
 70
2
  0
VERTEX
  8
0
 10
931.833007
 20
1303.268311
 70
0
 42
0.189055
  0
VERTEX
  8
0
 10
932.486356
 20
1302.048302
 70
0
 42
0.179121
  0
VERTEX
  8
0
 10
933.821016
 20
1301.558245
 70
0
  0
SEQEND
  0
POLYLINE
  8
0
  6
CONTINUOUS
 62
1
 66
1
 70
2
  0
VERTEX
  8
0
 10
948.036889
 20
1301.558245
 70
0
 42
0.179121
  0
VERTEX
  8
0
 10
949.371550
 20
1302.048302
 70
0
 42
0.189055
  0
VERTEX
  8
0
 10
950.024898
 20
1303.268311
 70
0
  0
SEQEND
  0
POLYLINE
  8
0
  6
CONTINUOUS
 62
1
 66
1
 70
2
  0
VERTEX
  8
0
 10
950.684898
 20
1309.028311
 70
0
 42
0.220328
  0
VERTEX
  8
0
 10
950.186413
 20
1310.519519
 70
0
 42
0.207373
  0
VERTEX
  8
0
 10
948.696889
 20
1311.158245
 70
0
  0
SEQEND
  0
POLYLINE
  8
0
  6
CONTINUOUS
 62
1
 66
1
 70
2
  0
VERTEX
  8
0
 10
953.733007
 20
1309.448179
 70
0
 42
-0.189055
  0
VERTEX
  8
0
 10
954.386356
 20
1310.668188
 70
0
 42
-0.179121
  0
VERTEX
  8
0
 10
955.721016
 20
1311.158245
 70
0
  0
SEQEND
  0
POLYLINE
  8
0
  6
CONTINUOUS
 62
1
 66
1
 70
2
  0
VERTEX
  8
0
 10
969.936889
 20
1311.158245
 70
0
 42
-0.179121
  0
VERTEX
  8
0
 10
971.271550
 20
1310.668188
 70
0
 42
-0.189055
  0
VERTEX
  8
0
 10
971.924898
 20
1309.448179
 70
0
  0
SEQEND
  0
POLYLINE
  8
0
  6
CONTINUOUS
 62
1
 66
1
 70
2
  0
VERTEX
  8
0
 10
972.584898
 20
1303.688179
 70
0
 42
-0.220328
  0
VERTEX
  8
0
 10
972.086413
 20
1302.196971
 70
0
 42
-0.207373
  0
VERTEX
  8
0
 10
970.596889
 20
1301.558245
 70
0
  0
SEQEND
  0
POLYLINE
  8
0
  6
CONTINUOUS
 62
1
 66
1
 70
2
  0
VERTEX
  8
0
 10
955.061016
 20
1301.558245
 70
0
 42
-0.207373
  0
VERTEX
  8
0
 10
953.571492
 20
1302.196971
 70
0
 42
-0.220328
  0
VERTEX
  8
0
 10
953.073007
 20
1303.688179
 70
0
  0
SEQEND
  0
POLYLINE
  8
0
  6
CONTINUOUS
 62
1
 66
1
 70
2
  0
VERTEX
  8
0
 10
975.633007
 20
1303.268311
 70
0
 42
0.189055
  0
VERTEX
  8
0
 10
976.286356
 20
1302.048302
 70
0
 42
0.179121
  0
VERTEX
  8
0
 10
977.621016
 20
1301.558245
 70
0
  0
SEQEND
  0
POLYLINE
  8
0
  6
CONTINUOUS
 62
1
 66
1
 70
2
  0
VERTEX
  8
0
 10
991.836889
 20
1301.558245
 70
0
 42
0.179121
  0
VERTEX
  8
0
 10
993.171550
 20
1302.048302
 70
0
 42
0.189055
  0
VERTEX
  8
0
 10
993.824898
 20
1303.268311
 70
0
  0
SEQEND
  0
POLYLINE
  8
0
  6
CONTINUOUS
 62
1
 66
1
 70
2
  0
VERTEX
  8
0
 10
994.484898
 20
1309.028311
 70
0
 42
0.220328
  0
VERTEX
  8
0
 10
993.986413
 20
1310.519519
 70
0
 42
0.207373
  0
VERTEX
  8
0
 10
992.496889
 20
1311.158245
 70
0
  0
SEQEND
  0
POLYLINE
  8
0
  6
CONTINUOUS
 62
1
 66
1
 70
2
  0
VERTEX
  8
0
 10
976.961016
 20
1311.158245
 70
0
 42
0.207373
  0
VERTEX
  8
0
 10
975.471492
 20
1310.519519
 70
0
 42
0.220328
  0
VERTEX
  8
0
 10
974.973007
 20
1309.028311
 70
0
  0
SEQEND
  0
POLYLINE
  8
0
  6
CONTINUOUS
 62
1
 66
1
 70
2
  0
VERTEX
  8
0
 10
999.521016
 20
1311.158245
 70
0
 42
0.179121
  0
VERTEX
  8
0
 10
998.186356
 20
1310.668188
 70
0
 42
0.189055
  0
VERTEX
  8
0
 10
997.533007
 20
1309.448179
 70
0
  0
SEQEND
  0
POLYLINE
  8
0
  6
CONTINUOUS
 62
1
 66
1
 70
2
  0
VERTEX
  8
0
 10
996.873007
 20
1303.688179
 70
0
 42
0.220328
  0
VERTEX
  8
0
 10
997.371492
 20
1302.196971
 70
0
 42
0.207373
  0
VERTEX
  8
0
 10
998.861016
 20
1301.558245
 70
0
  0
SEQEND
  0
POLYLINE
  8
0
  6
CONTINUOUS
 62
1
 66
1
 70
2
  0
VERTEX
  8
0
 10
1014.396889
 20
1301.558245
 70
0
 42
0.207373
  0
VERTEX
  8
0
 10
1015.886413
 20
1302.196971
 70
0
 42
0.220328
  0
VERTEX
  8
0
 10
1016.384898
 20
1303.688179
 70
0
  0
SEQEND
  0
POLYLINE
  8
0
  6
CONTINUOUS
 62
1
 66
1
 70
2
  0
VERTEX
  8
0
 10
1015.724898
 20
1309.448179
 70
0
 42
0.189055
  0
VERTEX
  8
0
 10
1015.071550
 20
1310.668188
 70
0
 42
0.179121
  0
VERTEX
  8
0
 10
1013.736889
 20
1311.158245
 70
0
  0
SEQEND
  0
POLYLINE
  8
0
  6
CONTINUOUS
 62
1
 66
1
 70
2
  0
VERTEX
  8
0
 10
1018.773007
 20
1309.028311
 70
0
 42
-0.220328
  0
VERTEX
  8
0
 10
1019.271492
 20
1310.519519
 70
0
 42
-0.207373
  0
VERTEX
  8
0
 10
1020.761016
 20
1311.158245
 70
0
  0
SEQEND
  0
POLYLINE
  8
0
  6
CONTINUOUS
 62
1
 66
1
 70
2
  0
VERTEX
  8
0
 10
1036.296889
 20
1311.158245
 70
0
 42
-0.207373
  0
VERTEX
  8
0
 10
1037.786413
 20
1310.519519
 70
0
 42
-0.220328
  0
VERTEX
  8
0
 10
1038.284898
 20
1309.028311
 70
0
  0
SEQEND
  0
POLYLINE
  8
0
  6
CONTINUOUS
 62
1
 66
1
 70
2
  0
VERTEX
  8
0
 10
1037.624898
 20
1303.268311
 70
0
 42
-0.189055
  0
VERTEX
  8
0
 10
1036.971550
 20
1302.048302
 70
0
 42
-0.179121
  0
VERTEX
  8
0
 10
1035.636889
 20
1301.558245
 70
0
  0
SEQEND
  0
POLYLINE
  8
0
  6
CONTINUOUS
 62
1
 66
1
 70
2
  0
VERTEX
  8
0
 10
1021.421016
 20
1301.558245
 70
0
 42
-0.179121
  0
VERTEX
  8
0
 10
1020.086356
 20
1302.048302
 70
0
 42
-0.189055
  0
VERTEX
  8
0
 10
1019.433007
 20
1303.268311
 70
0
  0
SEQEND
  0
POLYLINE
  8
0
  6
CONTINUOUS
 62
1
 66
1
 70
2
  0
VERTEX
  8
0
 10
1040.673007
 20
1303.688179
 70
0
 42
0.220328
  0
VERTEX
  8
0
 10
1041.171492
 20
1302.196971
 70
0
 42
0.207373
  0
VERTEX
  8
0
 10
1042.661016
 20
1301.558245
 70
0
  0
SEQEND
  0
POLYLINE
  8
0
  6
CONTINUOUS
 62
1
 66
1
 70
2
  0
VERTEX
  8
0
 10
1058.196889
 20
1301.558245
 70
0
 42
0.207373
  0
VERTEX
  8
0
 10
1059.686413
 20
1302.196971
 70
0
 42
0.220328
  0
VERTEX
  8
0
 10
1060.184898
 20
1303.688179
 70
0
  0
SEQEND
  0
POLYLINE
  8
0
  6
CONTINUOUS
 62
1
 66
1
 70
2
  0
VERTEX
  8
0
 10
1059.524898
 20
1309.448179
 70
0
 42
0.189055
  0
VERTEX
  8
0
 10
1058.871550
 20
1310.668188
 70
0
 42
0.179121
  0
VERTEX
  8
0
 10
1057.536889
 20
1311.158245
 70
0
  0
SEQEND
  0
POLYLINE
  8
0
  6
CONTINUOUS
 62
1
 66
1
 70
2
  0
VERTEX
  8
0
 10
1043.321016
 20
1311.158245
 70
0
 42
0.179121
  0
VERTEX
  8
0
 10
1041.986356
 20
1310.668188
 70
0
 42
0.189055
  0
VERTEX
  8
0
 10
1041.333007
 20
1309.448179
 70
0
  0
SEQEND
  0
POLYLINE
  8
0
  6
CONTINUOUS
 62
1
 66
1
 70
2
  0
VERTEX
  8
0
 10
1064.561016
 20
1311.158245
 70
0
 42
0.207373
  0
VERTEX
  8
0
 10
1063.071492
 20
1310.519519
 70
0
 42
0.220328
  0
VERTEX
  8
0
 10
1062.573007
 20
1309.028311
 70
0
  0
SEQEND
  0
POLYLINE
  8
0
  6
CONTINUOUS
 62
1
 66
1
 70
2
  0
VERTEX
  8
0
 10
1063.233007
 20
1303.268311
 70
0
 42
0.189055
  0
VERTEX
  8
0
 10
1063.886356
 20
1302.048302
 70
0
 42
0.179121
  0
VERTEX
  8
0
 10
1065.221016
 20
1301.558245
 70
0
  0
SEQEND
  0
POLYLINE
  8
0
  6
CONTINUOUS
 62
1
 66
1
 70
2
  0
VERTEX
  8
0
 10
1079.436889
 20
1301.558245
 70
0
 42
0.179121
  0
VERTEX
  8
0
 10
1080.771550
 20
1302.048302
 70
0
 42
0.189055
  0
VERTEX
  8
0
 10
1081.424898
 20
1303.268311
 70
0
  0
SEQEND
  0
POLYLINE
  8
0
  6
CONTINUOUS
 62
1
 66
1
 70
2
  0
VERTEX
  8
0
 10
1082.084898
 20
1309.028311
 70
0
 42
0.220328
  0
VERTEX
  8
0
 10
1081.586413
 20
1310.519519
 70
0
 42
0.207373
  0
VERTEX
  8
0
 10
1080.096889
 20
1311.158245
 70
0
  0
SEQEND
  0
POLYLINE
  8
0
  6
CONTINUOUS
 62
1
 66
1
 70
2
  0
VERTEX
  8
0
 10
1087.121016
 20
1311.158245
 70
0
 42
0.179121
  0
VERTEX
  8
0
 10
1085.786356
 20
1310.668188
 70
0
 42
0.189055
  0
VERTEX
  8
0
 10
1085.133007
 20
1309.448179
 70
0
  0
SEQEND
  0
POLYLINE
  8
0
  6
CONTINUOUS
 62
1
 66
1
 70
2
  0
VERTEX
  8
0
 10
1084.473007
 20
1303.688179
 70
0
 42
0.220328
  0
VERTEX
  8
0
 10
1084.971492
 20
1302.196971
 70
0
 42
0.207373
  0
VERTEX
  8
0
 10
1086.461016
 20
1301.558245
 70
0
  0
SEQEND
  0
POLYLINE
  8
0
  6
CONTINUOUS
 62
1
 66
1
 70
2
  0
VERTEX
  8
0
 10
1101.996889
 20
1301.558245
 70
0
 42
0.207373
  0
VERTEX
  8
0
 10
1103.486413
 20
1302.196971
 70
0
 42
0.220328
  0
VERTEX
  8
0
 10
1103.984898
 20
1303.688179
 70
0
  0
SEQEND
  0
POLYLINE
  8
0
  6
CONTINUOUS
 62
1
 66
1
 70
2
  0
VERTEX
  8
0
 10
1101.336889
 20
1311.158245
 70
0
 42
-0.179121
  0
VERTEX
  8
0
 10
1102.671550
 20
1310.668188
 70
0
 42
-0.189055
  0
VERTEX
  8
0
 10
1103.324898
 20
1309.448179
 70
0
  0
SEQEND
  0
POLYLINE
  8
0
  6
CONTINUOUS
 62
1
 66
1
 70
2
  0
VERTEX
  8
0
 10
1108.361016
 20
1311.158245
 70
0
 42
0.207373
  0
VERTEX
  8
0
 10
1106.871492
 20
1310.519519
 70
0
 42
0.220328
  0
VERTEX
  8
0
 10
1106.373007
 20
1309.028311
 70
0
  0
SEQEND
  0
POLYLINE
  8
0
  6
CONTINUOUS
 62
1
 66
1
 70
2
  0
VERTEX
  8
0
 10
1107.033007
 20
1303.268311
 70
0
 42
0.189055
  0
VERTEX
  8
0
 10
1107.686356
 20
1302.048302
 70
0
 42
0.179121
  0
VERTEX
  8
0
 10
1109.021016
 20
1301.558245
 70
0
  0
SEQEND
  0
POLYLINE
  8
0
  6
CONTINUOUS
 62
1
 66
1
 70
2
  0
VERTEX
  8
0
 10
1123.236889
 20
1301.558245
 70
0
 42
0.179121
  0
VERTEX
  8
0
 10
1124.571550
 20
1302.048302
 70
0
 42
0.189055
  0
VERTEX
  8
0
 10
1125.224898
 20
1303.268311
 70
0
  0
SEQEND
  0
POLYLINE
  8
0
  6
CONTINUOUS
 62
1
 66
1
 70
2
  0
VERTEX
  8
0
 10
1125.884898
 20
1309.028311
 70
0
 42
0.220328
  0
VERTEX
  8
0
 10
1125.386413
 20
1310.519519
 70
0
 42
0.207373
  0
VERTEX
  8
0
 10
1123.896889
 20
1311.158245
 70
0
  0
SEQEND
  0
LINE
  8
0
  6
CONTINUOUS
 62
1
 10
1254.636889
 20
1301.558245
 11
1240.421016
 21
1301.558245
  0
LINE
  8
0
  6
CONTINUOUS
 62
1
 10
1218.521016
 20
1311.158245
 11
1232.736889
 21
1311.158245
  0
LINE
  8
0
  6
CONTINUOUS
 62
1
 10
1239.761016
 20
1311.158245
 11
1255.296889
 21
1311.158245
  0
LINE
  8
0
  6
CONTINUOUS
 62
1
 10
1238.433007
 20
1303.268311
 11
1237.773007
 21
1309.028311
  0
LINE
  8
0
  6
CONTINUOUS
 62
1
 10
1256.624898
 20
1303.268311
 11
1257.284898
 21
1309.028311
  0
LINE
  8
0
  6
CONTINUOUS
 62
1
 10
1216.533007
 20
1309.448179
 11
1215.873007
 21
1303.688179
  0
LINE
  8
0
  6
CONTINUOUS
 62
1
 10
1234.724898
 20
1309.448179
 11
1235.384898
 21
1303.688179
  0
LINE
  8
0
  6
CONTINUOUS
 62
1
 10
1233.396889
 20
1301.558245
 11
1217.861016
 21
1301.558245
  0
POLYLINE
  8
0
  6
CONTINUOUS
 62
1
 66
1
 70
2
  0
VERTEX
  8
0
 10
1218.521016
 20
1311.158245
 70
0
 42
0.179121
  0
VERTEX
  8
0
 10
1217.186356
 20
1310.668188
 70
0
 42
0.189055
  0
VERTEX
  8
0
 10
1216.533007
 20
1309.448179
 70
0
  0
SEQEND
  0
POLYLINE
  8
0
  6
CONTINUOUS
 62
1
 66
1
 70
2
  0
VERTEX
  8
0
 10
1215.873007
 20
1303.688179
 70
0
 42
0.220328
  0
VERTEX
  8
0
 10
1216.371492
 20
1302.196971
 70
0
 42
0.207373
  0
VERTEX
  8
0
 10
1217.861016
 20
1301.558245
 70
0
  0
SEQEND
  0
POLYLINE
  8
0
  6
CONTINUOUS
 62
1
 66
1
 70
2
  0
VERTEX
  8
0
 10
1233.396889
 20
1301.558245
 70
0
 42
0.207373
  0
VERTEX
  8
0
 10
1234.886413
 20
1302.196971
 70
0
 42
0.220328
  0
VERTEX
  8
0
 10
1235.384898
 20
1303.688179
 70
0
  0
SEQEND
  0
POLYLINE
  8
0
  6
CONTINUOUS
 62
1
 66
1
 70
2
  0
VERTEX
  8
0
 10
1232.736889
 20
1311.158245
 70
0
 42
-0.179121
  0
VERTEX
  8
0
 10
1234.071550
 20
1310.668188
 70
0
 42
-0.189055
  0
VERTEX
  8
0
 10
1234.724898
 20
1309.448179
 70
0
  0
SEQEND
  0
POLYLINE
  8
0
  6
CONTINUOUS
 62
1
 66
1
 70
2
  0
VERTEX
  8
0
 10
1239.761016
 20
1311.158245
 70
0
 42
0.207373
  0
VERTEX
  8
0
 10
1238.271492
 20
1310.519519
 70
0
 42
0.220328
  0
VERTEX
  8
0
 10
1237.773007
 20
1309.028311
 70
0
  0
SEQEND
  0
POLYLINE
  8
0
  6
CONTINUOUS
 62
1
 66
1
 70
2
  0
VERTEX
  8
0
 10
1238.433007
 20
1303.268311
 70
0
 42
0.189055
  0
VERTEX
  8
0
 10
1239.086356
 20
1302.048302
 70
0
 42
0.179121
  0
VERTEX
  8
0
 10
1240.421016
 20
1301.558245
 70
0
  0
SEQEND
  0
POLYLINE
  8
0
  6
CONTINUOUS
 62
1
 66
1
 70
2
  0
VERTEX
  8
0
 10
1254.636889
 20
1301.558245
 70
0
 42
0.179121
  0
VERTEX
  8
0
 10
1255.971550
 20
1302.048302
 70
0
 42
0.189055
  0
VERTEX
  8
0
 10
1256.624898
 20
1303.268311
 70
0
  0
SEQEND
  0
POLYLINE
  8
0
  6
CONTINUOUS
 62
1
 66
1
 70
2
  0
VERTEX
  8
0
 10
1257.284898
 20
1309.028311
 70
0
 42
0.220328
  0
VERTEX
  8
0
 10
1256.786413
 20
1310.519519
 70
0
 42
0.207373
  0
VERTEX
  8
0
 10
1255.296889
 20
1311.158245
 70
0
  0
SEQEND
  0
LINE
  8
0
  6
CONTINUOUS
 62
1
 10
1298.436889
 20
1301.558245
 11
1284.221016
 21
1301.558245
  0
LINE
  8
0
  6
CONTINUOUS
 62
1
 10
1262.321016
 20
1311.158245
 11
1276.536889
 21
1311.158245
  0
LINE
  8
0
  6
CONTINUOUS
 62
1
 10
1283.561016
 20
1311.158245
 11
1299.096889
 21
1311.158245
  0
LINE
  8
0
  6
CONTINUOUS
 62
1
 10
1282.233007
 20
1303.268311
 11
1281.573007
 21
1309.028311
  0
LINE
  8
0
  6
CONTINUOUS
 62
1
 10
1300.424898
 20
1303.268311
 11
1301.084898
 21
1309.028311
  0
LINE
  8
0
  6
CONTINUOUS
 62
1
 10
1260.333007
 20
1309.448179
 11
1259.673007
 21
1303.688179
  0
LINE
  8
0
  6
CONTINUOUS
 62
1
 10
1278.524898
 20
1309.448179
 11
1279.184898
 21
1303.688179
  0
LINE
  8
0
  6
CONTINUOUS
 62
1
 10
1277.196889
 20
1301.558245
 11
1261.661016
 21
1301.558245
  0
POLYLINE
  8
0
  6
CONTINUOUS
 62
1
 66
1
 70
2
  0
VERTEX
  8
0
 10
1262.321016
 20
1311.158245
 70
0
 42
0.179121
  0
VERTEX
  8
0
 10
1260.986356
 20
1310.668188
 70
0
 42
0.189055
  0
VERTEX
  8
0
 10
1260.333007
 20
1309.448179
 70
0
  0
SEQEND
  0
POLYLINE
  8
0
  6
CONTINUOUS
 62
1
 66
1
 70
2
  0
VERTEX
  8
0
 10
1259.673007
 20
1303.688179
 70
0
 42
0.220328
  0
VERTEX
  8
0
 10
1260.171492
 20
1302.196971
 70
0
 42
0.207373
  0
VERTEX
  8
0
 10
1261.661016
 20
1301.558245
 70
0
  0
SEQEND
  0
POLYLINE
  8
0
  6
CONTINUOUS
 62
1
 66
1
 70
2
  0
VERTEX
  8
0
 10
1277.196889
 20
1301.558245
 70
0
 42
0.207373
  0
VERTEX
  8
0
 10
1278.686413
 20
1302.196971
 70
0
 42
0.220328
  0
VERTEX
  8
0
 10
1279.184898
 20
1303.688179
 70
0
  0
SEQEND
  0
POLYLINE
  8
0
  6
CONTINUOUS
 62
1
 66
1
 70
2
  0
VERTEX
  8
0
 10
1276.536889
 20
1311.158245
 70
0
 42
-0.179121
  0
VERTEX
  8
0
 10
1277.871550
 20
1310.668188
 70
0
 42
-0.189055
  0
VERTEX
  8
0
 10
1278.524898
 20
1309.448179
 70
0
  0
SEQEND
  0
POLYLINE
  8
0
  6
CONTINUOUS
 62
1
 66
1
 70
2
  0
VERTEX
  8
0
 10
1283.561016
 20
1311.158245
 70
0
 42
0.207373
  0
VERTEX
  8
0
 10
1282.071492
 20
1310.519519
 70
0
 42
0.220328
  0
VERTEX
  8
0
 10
1281.573007
 20
1309.028311
 70
0
  0
SEQEND
  0
POLYLINE
  8
0
  6
CONTINUOUS
 62
1
 66
1
 70
2
  0
VERTEX
  8
0
 10
1282.233007
 20
1303.268311
 70
0
 42
0.189055
  0
VERTEX
  8
0
 10
1282.886356
 20
1302.048302
 70
0
 42
0.179121
  0
VERTEX
  8
0
 10
1284.221016
 20
1301.558245
 70
0
  0
SEQEND
  0
POLYLINE
  8
0
  6
CONTINUOUS
 62
1
 66
1
 70
2
  0
VERTEX
  8
0
 10
1298.436889
 20
1301.558245
 70
0
 42
0.179121
  0
VERTEX
  8
0
 10
1299.771550
 20
1302.048302
 70
0
 42
0.189055
  0
VERTEX
  8
0
 10
1300.424898
 20
1303.268311
 70
0
  0
SEQEND
  0
POLYLINE
  8
0
  6
CONTINUOUS
 62
1
 66
1
 70
2
  0
VERTEX
  8
0
 10
1301.084898
 20
1309.028311
 70
0
 42
0.220328
  0
VERTEX
  8
0
 10
1300.586413
 20
1310.519519
 70
0
 42
0.207373
  0
VERTEX
  8
0
 10
1299.096889
 20
1311.158245
 70
0
  0
SEQEND
  0
LINE
  8
0
  6
CONTINUOUS
 62
1
 10
1342.236889
 20
1301.558245
 11
1328.021016
 21
1301.558245
  0
LINE
  8
0
  6
CONTINUOUS
 62
1
 10
1306.121016
 20
1311.158245
 11
1320.336889
 21
1311.158245
  0
LINE
  8
0
  6
CONTINUOUS
 62
1
 10
1327.361016
 20
1311.158245
 11
1342.896889
 21
1311.158245
  0
LINE
  8
0
  6
CONTINUOUS
 62
1
 10
1326.033007
 20
1303.268311
 11
1325.373007
 21
1309.028311
  0
LINE
  8
0
  6
CONTINUOUS
 62
1
 10
1344.224898
 20
1303.268311
 11
1344.884898
 21
1309.028311
  0
LINE
  8
0
  6
CONTINUOUS
 62
1
 10
1304.133007
 20
1309.448179
 11
1303.473007
 21
1303.688179
  0
LINE
  8
0
  6
CONTINUOUS
 62
1
 10
1322.324898
 20
1309.448179
 11
1322.984898
 21
1303.688179
  0
LINE
  8
0
  6
CONTINUOUS
 62
1
 10
1320.996889
 20
1301.558245
 11
1305.461016
 21
1301.558245
  0
POLYLINE
  8
0
  6
CONTINUOUS
 62
1
 66
1
 70
2
  0
VERTEX
  8
0
 10
1306.121016
 20
1311.158245
 70
0
 42
0.179121
  0
VERTEX
  8
0
 10
1304.786356
 20
1310.668188
 70
0
 42
0.189055
  0
VERTEX
  8
0
 10
1304.133007
 20
1309.448179
 70
0
  0
SEQEND
  0
POLYLINE
  8
0
  6
CONTINUOUS
 62
1
 66
1
 70
2
  0
VERTEX
  8
0
 10
1303.473007
 20
1303.688179
 70
0
 42
0.220328
  0
VERTEX
  8
0
 10
1303.971492
 20
1302.196971
 70
0
 42
0.207373
  0
VERTEX
  8
0
 10
1305.461016
 20
1301.558245
 70
0
  0
SEQEND
  0
POLYLINE
  8
0
  6
CONTINUOUS
 62
1
 66
1
 70
2
  0
VERTEX
  8
0
 10
1320.996889
 20
1301.558245
 70
0
 42
0.207373
  0
VERTEX
  8
0
 10
1322.486413
 20
1302.196971
 70
0
 42
0.220328
  0
VERTEX
  8
0
 10
1322.984898
 20
1303.688179
 70
0
  0
SEQEND
  0
POLYLINE
  8
0
  6
CONTINUOUS
 62
1
 66
1
 70
2
  0
VERTEX
  8
0
 10
1320.336889
 20
1311.158245
 70
0
 42
-0.179121
  0
VERTEX
  8
0
 10
1321.671550
 20
1310.668188
 70
0
 42
-0.189055
  0
VERTEX
  8
0
 10
1322.324898
 20
1309.448179
 70
0
  0
SEQEND
  0
POLYLINE
  8
0
  6
CONTINUOUS
 62
1
 66
1
 70
2
  0
VERTEX
  8
0
 10
1327.361016
 20
1311.158245
 70
0
 42
0.207373
  0
VERTEX
  8
0
 10
1325.871492
 20
1310.519519
 70
0
 42
0.220328
  0
VERTEX
  8
0
 10
1325.373007
 20
1309.028311
 70
0
  0
SEQEND
  0
POLYLINE
  8
0
  6
CONTINUOUS
 62
1
 66
1
 70
2
  0
VERTEX
  8
0
 10
1326.033007
 20
1303.268311
 70
0
 42
0.189055
  0
VERTEX
  8
0
 10
1326.686356
 20
1302.048302
 70
0
 42
0.179121
  0
VERTEX
  8
0
 10
1328.021016
 20
1301.558245
 70
0
  0
SEQEND
  0
POLYLINE
  8
0
  6
CONTINUOUS
 62
1
 66
1
 70
2
  0
VERTEX
  8
0
 10
1342.236889
 20
1301.558245
 70
0
 42
0.179121
  0
VERTEX
  8
0
 10
1343.571550
 20
1302.048302
 70
0
 42
0.189055
  0
VERTEX
  8
0
 10
1344.224898
 20
1303.268311
 70
0
  0
SEQEND
  0
POLYLINE
  8
0
  6
CONTINUOUS
 62
1
 66
1
 70
2
  0
VERTEX
  8
0
 10
1344.884898
 20
1309.028311
 70
0
 42
0.220328
  0
VERTEX
  8
0
 10
1344.386413
 20
1310.519519
 70
0
 42
0.207373
  0
VERTEX
  8
0
 10
1342.896889
 20
1311.158245
 70
0
  0
SEQEND
  0
LINE
  8
0
  6
CONTINUOUS
 62
1
 10
1386.036889
 20
1301.558245
 11
1371.821016
 21
1301.558245
  0
LINE
  8
0
  6
CONTINUOUS
 62
1
 10
1349.921016
 20
1311.158245
 11
1364.136889
 21
1311.158245
  0
LINE
  8
0
  6
CONTINUOUS
 62
1
 10
1371.161016
 20
1311.158245
 11
1386.696889
 21
1311.158245
  0
LINE
  8
0
  6
CONTINUOUS
 62
1
 10
1369.833007
 20
1303.268311
 11
1369.173007
 21
1309.028311
  0
LINE
  8
0
  6
CONTINUOUS
 62
1
 10
1388.024898
 20
1303.268311
 11
1388.684898
 21
1309.028311
  0
LINE
  8
0
  6
CONTINUOUS
 62
1
 10
1347.933007
 20
1309.448179
 11
1347.273007
 21
1303.688179
  0
LINE
  8
0
  6
CONTINUOUS
 62
1
 10
1366.124898
 20
1309.448179
 11
1366.784898
 21
1303.688179
  0
LINE
  8
0
  6
CONTINUOUS
 62
1
 10
1364.796889
 20
1301.558245
 11
1349.261016
 21
1301.558245
  0
POLYLINE
  8
0
  6
CONTINUOUS
 62
1
 66
1
 70
2
  0
VERTEX
  8
0
 10
1349.921016
 20
1311.158245
 70
0
 42
0.179121
  0
VERTEX
  8
0
 10
1348.586356
 20
1310.668188
 70
0
 42
0.189055
  0
VERTEX
  8
0
 10
1347.933007
 20
1309.448179
 70
0
  0
SEQEND
  0
POLYLINE
  8
0
  6
CONTINUOUS
 62
1
 66
1
 70
2
  0
VERTEX
  8
0
 10
1347.273007
 20
1303.688179
 70
0
 42
0.220328
  0
VERTEX
  8
0
 10
1347.771492
 20
1302.196971
 70
0
 42
0.207373
  0
VERTEX
  8
0
 10
1349.261016
 20
1301.558245
 70
0
  0
SEQEND
  0
POLYLINE
  8
0
  6
CONTINUOUS
 62
1
 66
1
 70
2
  0
VERTEX
  8
0
 10
1364.796889
 20
1301.558245
 70
0
 42
0.207373
  0
VERTEX
  8
0
 10
1366.286413
 20
1302.196971
 70
0
 42
0.220328
  0
VERTEX
  8
0
 10
1366.784898
 20
1303.688179
 70
0
  0
SEQEND
  0
POLYLINE
  8
0
  6
CONTINUOUS
 62
1
 66
1
 70
2
  0
VERTEX
  8
0
 10
1364.136889
 20
1311.158245
 70
0
 42
-0.179121
  0
VERTEX
  8
0
 10
1365.471550
 20
1310.668188
 70
0
 42
-0.189055
  0
VERTEX
  8
0
 10
1366.124898
 20
1309.448179
 70
0
  0
SEQEND
  0
POLYLINE
  8
0
  6
CONTINUOUS
 62
1
 66
1
 70
2
  0
VERTEX
  8
0
 10
1371.161016
 20
1311.158245
 70
0
 42
0.207373
  0
VERTEX
  8
0
 10
1369.671492
 20
1310.519519
 70
0
 42
0.220328
  0
VERTEX
  8
0
 10
1369.173007
 20
1309.028311
 70
0
  0
SEQEND
  0
POLYLINE
  8
0
  6
CONTINUOUS
 62
1
 66
1
 70
2
  0
VERTEX
  8
0
 10
1369.833007
 20
1303.268311
 70
0
 42
0.189055
  0
VERTEX
  8
0
 10
1370.486356
 20
1302.048302
 70
0
 42
0.179121
  0
VERTEX
  8
0
 10
1371.821016
 20
1301.558245
 70
0
  0
SEQEND
  0
POLYLINE
  8
0
  6
CONTINUOUS
 62
1
 66
1
 70
2
  0
VERTEX
  8
0
 10
1386.036889
 20
1301.558245
 70
0
 42
0.179121
  0
VERTEX
  8
0
 10
1387.371550
 20
1302.048302
 70
0
 42
0.189055
  0
VERTEX
  8
0
 10
1388.024898
 20
1303.268311
 70
0
  0
SEQEND
  0
POLYLINE
  8
0
  6
CONTINUOUS
 62
1
 66
1
 70
2
  0
VERTEX
  8
0
 10
1388.684898
 20
1309.028311
 70
0
 42
0.220328
  0
VERTEX
  8
0
 10
1388.186413
 20
1310.519519
 70
0
 42
0.207373
  0
VERTEX
  8
0
 10
1386.696889
 20
1311.158245
 70
0
  0
SEQEND
  0
LINE
  8
0
  6
CONTINUOUS
 62
1
 10
1429.836889
 20
1301.558245
 11
1415.621016
 21
1301.558245
  0
LINE
  8
0
  6
CONTINUOUS
 62
1
 10
1393.721016
 20
1311.158245
 11
1407.936889
 21
1311.158245
  0
LINE
  8
0
  6
CONTINUOUS
 62
1
 10
1414.961016
 20
1311.158245
 11
1430.496889
 21
1311.158245
  0
LINE
  8
0
  6
CONTINUOUS
 62
1
 10
1413.633007
 20
1303.268311
 11
1412.973007
 21
1309.028311
  0
LINE
  8
0
  6
CONTINUOUS
 62
1
 10
1431.824898
 20
1303.268311
 11
1432.484898
 21
1309.028311
  0
LINE
  8
0
  6
CONTINUOUS
 62
1
 10
1391.733007
 20
1309.448179
 11
1391.073007
 21
1303.688179
  0
LINE
  8
0
  6
CONTINUOUS
 62
1
 10
1409.924898
 20
1309.448179
 11
1410.584898
 21
1303.688179
  0
LINE
  8
0
  6
CONTINUOUS
 62
1
 10
1408.596889
 20
1301.558245
 11
1393.061016
 21
1301.558245
  0
POLYLINE
  8
0
  6
CONTINUOUS
 62
1
 66
1
 70
2
  0
VERTEX
  8
0
 10
1393.721016
 20
1311.158245
 70
0
 42
0.179121
  0
VERTEX
  8
0
 10
1392.386356
 20
1310.668188
 70
0
 42
0.189055
  0
VERTEX
  8
0
 10
1391.733007
 20
1309.448179
 70
0
  0
SEQEND
  0
POLYLINE
  8
0
  6
CONTINUOUS
 62
1
 66
1
 70
2
  0
VERTEX
  8
0
 10
1391.073007
 20
1303.688179
 70
0
 42
0.220328
  0
VERTEX
  8
0
 10
1391.571492
 20
1302.196971
 70
0
 42
0.207373
  0
VERTEX
  8
0
 10
1393.061016
 20
1301.558245
 70
0
  0
SEQEND
  0
POLYLINE
  8
0
  6
CONTINUOUS
 62
1
 66
1
 70
2
  0
VERTEX
  8
0
 10
1408.596889
 20
1301.558245
 70
0
 42
0.207373
  0
VERTEX
  8
0
 10
1410.086413
 20
1302.196971
 70
0
 42
0.220328
  0
VERTEX
  8
0
 10
1410.584898
 20
1303.688179
 70
0
  0
SEQEND
  0
POLYLINE
  8
0
  6
CONTINUOUS
 62
1
 66
1
 70
2
  0
VERTEX
  8
0
 10
1407.936889
 20
1311.158245
 70
0
 42
-0.179121
  0
VERTEX
  8
0
 10
1409.271550
 20
1310.668188
 70
0
 42
-0.189055
  0
VERTEX
  8
0
 10
1409.924898
 20
1309.448179
 70
0
  0
SEQEND
  0
POLYLINE
  8
0
  6
CONTINUOUS
 62
1
 66
1
 70
2
  0
VERTEX
  8
0
 10
1414.961016
 20
1311.158245
 70
0
 42
0.207373
  0
VERTEX
  8
0
 10
1413.471492
 20
1310.519519
 70
0
 42
0.220328
  0
VERTEX
  8
0
 10
1412.973007
 20
1309.028311
 70
0
  0
SEQEND
  0
POLYLINE
  8
0
  6
CONTINUOUS
 62
1
 66
1
 70
2
  0
VERTEX
  8
0
 10
1413.633007
 20
1303.268311
 70
0
 42
0.189055
  0
VERTEX
  8
0
 10
1414.286356
 20
1302.048302
 70
0
 42
0.179121
  0
VERTEX
  8
0
 10
1415.621016
 20
1301.558245
 70
0
  0
SEQEND
  0
POLYLINE
  8
0
  6
CONTINUOUS
 62
1
 66
1
 70
2
  0
VERTEX
  8
0
 10
1429.836889
 20
1301.558245
 70
0
 42
0.179121
  0
VERTEX
  8
0
 10
1431.171550
 20
1302.048302
 70
0
 42
0.189055
  0
VERTEX
  8
0
 10
1431.824898
 20
1303.268311
 70
0
  0
SEQEND
  0
POLYLINE
  8
0
  6
CONTINUOUS
 62
1
 66
1
 70
2
  0
VERTEX
  8
0
 10
1432.484898
 20
1309.028311
 70
0
 42
0.220328
  0
VERTEX
  8
0
 10
1431.986413
 20
1310.519519
 70
0
 42
0.207373
  0
VERTEX
  8
0
 10
1430.496889
 20
1311.158245
 70
0
  0
SEQEND
  0
LINE
  8
0
  6
CONTINUOUS
 62
1
 10
1473.636889
 20
1301.558245
 11
1459.421016
 21
1301.558245
  0
LINE
  8
0
  6
CONTINUOUS
 62
1
 10
1437.521016
 20
1311.158245
 11
1451.736889
 21
1311.158245
  0
LINE
  8
0
  6
CONTINUOUS
 62
1
 10
1458.761016
 20
1311.158245
 11
1474.296889
 21
1311.158245
  0
LINE
  8
0
  6
CONTINUOUS
 62
1
 10
1457.433007
 20
1303.268311
 11
1456.773007
 21
1309.028311
  0
LINE
  8
0
  6
CONTINUOUS
 62
1
 10
1475.624898
 20
1303.268311
 11
1476.284898
 21
1309.028311
  0
LINE
  8
0
  6
CONTINUOUS
 62
1
 10
1435.533007
 20
1309.448179
 11
1434.873007
 21
1303.688179
  0
LINE
  8
0
  6
CONTINUOUS
 62
1
 10
1453.724898
 20
1309.448179
 11
1454.384898
 21
1303.688179
  0
LINE
  8
0
  6
CONTINUOUS
 62
1
 10
1452.396889
 20
1301.558245
 11
1436.861016
 21
1301.558245
  0
POLYLINE
  8
0
  6
CONTINUOUS
 62
1
 66
1
 70
2
  0
VERTEX
  8
0
 10
1437.521016
 20
1311.158245
 70
0
 42
0.179121
  0
VERTEX
  8
0
 10
1436.186356
 20
1310.668188
 70
0
 42
0.189055
  0
VERTEX
  8
0
 10
1435.533007
 20
1309.448179
 70
0
  0
SEQEND
  0
POLYLINE
  8
0
  6
CONTINUOUS
 62
1
 66
1
 70
2
  0
VERTEX
  8
0
 10
1434.873007
 20
1303.688179
 70
0
 42
0.220328
  0
VERTEX
  8
0
 10
1435.371492
 20
1302.196971
 70
0
 42
0.207373
  0
VERTEX
  8
0
 10
1436.861016
 20
1301.558245
 70
0
  0
SEQEND
  0
POLYLINE
  8
0
  6
CONTINUOUS
 62
1
 66
1
 70
2
  0
VERTEX
  8
0
 10
1452.396889
 20
1301.558245
 70
0
 42
0.207373
  0
VERTEX
  8
0
 10
1453.886413
 20
1302.196971
 70
0
 42
0.220328
  0
VERTEX
  8
0
 10
1454.384898
 20
1303.688179
 70
0
  0
SEQEND
  0
POLYLINE
  8
0
  6
CONTINUOUS
 62
1
 66
1
 70
2
  0
VERTEX
  8
0
 10
1451.736889
 20
1311.158245
 70
0
 42
-0.179121
  0
VERTEX
  8
0
 10
1453.071550
 20
1310.668188
 70
0
 42
-0.189055
  0
VERTEX
  8
0
 10
1453.724898
 20
1309.448179
 70
0
  0
SEQEND
  0
POLYLINE
  8
0
  6
CONTINUOUS
 62
1
 66
1
 70
2
  0
VERTEX
  8
0
 10
1458.761016
 20
1311.158245
 70
0
 42
0.207373
  0
VERTEX
  8
0
 10
1457.271492
 20
1310.519519
 70
0
 42
0.220328
  0
VERTEX
  8
0
 10
1456.773007
 20
1309.028311
 70
0
  0
SEQEND
  0
POLYLINE
  8
0
  6
CONTINUOUS
 62
1
 66
1
 70
2
  0
VERTEX
  8
0
 10
1457.433007
 20
1303.268311
 70
0
 42
0.189055
  0
VERTEX
  8
0
 10
1458.086356
 20
1302.048302
 70
0
 42
0.179121
  0
VERTEX
  8
0
 10
1459.421016
 20
1301.558245
 70
0
  0
SEQEND
  0
POLYLINE
  8
0
  6
CONTINUOUS
 62
1
 66
1
 70
2
  0
VERTEX
  8
0
 10
1473.636889
 20
1301.558245
 70
0
 42
0.179121
  0
VERTEX
  8
0
 10
1474.971550
 20
1302.048302
 70
0
 42
0.189055
  0
VERTEX
  8
0
 10
1475.624898
 20
1303.268311
 70
0
  0
SEQEND
  0
POLYLINE
  8
0
  6
CONTINUOUS
 62
1
 66
1
 70
2
  0
VERTEX
  8
0
 10
1476.284898
 20
1309.028311
 70
0
 42
0.220328
  0
VERTEX
  8
0
 10
1475.786413
 20
1310.519519
 70
0
 42
0.207373
  0
VERTEX
  8
0
 10
1474.296889
 20
1311.158245
 70
0
  0
SEQEND
  0
LINE
  8
0
  6
CONTINUOUS
 62
1
 10
1167.036889
 20
1326.518245
 11
1152.821016
 21
1326.518245
  0
LINE
  8
0
  6
CONTINUOUS
 62
1
 10
1130.921016
 20
1336.118245
 11
1145.136889
 21
1336.118245
  0
LINE
  8
0
  6
CONTINUOUS
 62
1
 10
1152.161016
 20
1336.118245
 11
1167.696889
 21
1336.118245
  0
LINE
  8
0
  6
CONTINUOUS
 62
1
 10
1150.833007
 20
1328.228311
 11
1150.173007
 21
1333.988311
  0
LINE
  8
0
  6
CONTINUOUS
 62
1
 10
1169.024898
 20
1328.228311
 11
1169.684898
 21
1333.988311
  0
LINE
  8
0
  6
CONTINUOUS
 62
1
 10
1128.933007
 20
1334.408179
 11
1128.273007
 21
1328.648179
  0
LINE
  8
0
  6
CONTINUOUS
 62
1
 10
1147.124898
 20
1334.408179
 11
1147.784898
 21
1328.648179
  0
LINE
  8
0
  6
CONTINUOUS
 62
1
 10
1145.796889
 20
1326.518245
 11
1130.261016
 21
1326.518245
  0
POLYLINE
  8
0
  6
CONTINUOUS
 62
1
 66
1
 70
2
  0
VERTEX
  8
0
 10
1130.921016
 20
1336.118245
 70
0
 42
0.179121
  0
VERTEX
  8
0
 10
1129.586356
 20
1335.628188
 70
0
 42
0.189055
  0
VERTEX
  8
0
 10
1128.933007
 20
1334.408179
 70
0
  0
SEQEND
  0
POLYLINE
  8
0
  6
CONTINUOUS
 62
1
 66
1
 70
2
  0
VERTEX
  8
0
 10
1128.273007
 20
1328.648179
 70
0
 42
0.220328
  0
VERTEX
  8
0
 10
1128.771492
 20
1327.156971
 70
0
 42
0.207373
  0
VERTEX
  8
0
 10
1130.261016
 20
1326.518245
 70
0
  0
SEQEND
  0
POLYLINE
  8
0
  6
CONTINUOUS
 62
1
 66
1
 70
2
  0
VERTEX
  8
0
 10
1145.796889
 20
1326.518245
 70
0
 42
0.207373
  0
VERTEX
  8
0
 10
1147.286413
 20
1327.156971
 70
0
 42
0.220328
  0
VERTEX
  8
0
 10
1147.784898
 20
1328.648179
 70
0
  0
SEQEND
  0
POLYLINE
  8
0
  6
CONTINUOUS
 62
1
 66
1
 70
2
  0
VERTEX
  8
0
 10
1145.136889
 20
1336.118245
 70
0
 42
-0.179121
  0
VERTEX
  8
0
 10
1146.471550
 20
1335.628188
 70
0
 42
-0.189055
  0
VERTEX
  8
0
 10
1147.124898
 20
1334.408179
 70
0
  0
SEQEND
  0
POLYLINE
  8
0
  6
CONTINUOUS
 62
1
 66
1
 70
2
  0
VERTEX
  8
0
 10
1152.161016
 20
1336.118245
 70
0
 42
0.207373
  0
VERTEX
  8
0
 10
1150.671492
 20
1335.479519
 70
0
 42
0.220328
  0
VERTEX
  8
0
 10
1150.173007
 20
1333.988311
 70
0
  0
SEQEND
  0
POLYLINE
  8
0
  6
CONTINUOUS
 62
1
 66
1
 70
2
  0
VERTEX
  8
0
 10
1150.833007
 20
1328.228311
 70
0
 42
0.189055
  0
VERTEX
  8
0
 10
1151.486356
 20
1327.008302
 70
0
 42
0.179121
  0
VERTEX
  8
0
 10
1152.821016
 20
1326.518245
 70
0
  0
SEQEND
  0
POLYLINE
  8
0
  6
CONTINUOUS
 62
1
 66
1
 70
2
  0
VERTEX
  8
0
 10
1167.036889
 20
1326.518245
 70
0
 42
0.179121
  0
VERTEX
  8
0
 10
1168.371550
 20
1327.008302
 70
0
 42
0.189055
  0
VERTEX
  8
0
 10
1169.024898
 20
1328.228311
 70
0
  0
SEQEND
  0
POLYLINE
  8
0
  6
CONTINUOUS
 62
1
 66
1
 70
2
  0
VERTEX
  8
0
 10
1169.684898
 20
1333.988311
 70
0
 42
0.220328
  0
VERTEX
  8
0
 10
1169.186413
 20
1335.479519
 70
0
 42
0.207373
  0
VERTEX
  8
0
 10
1167.696889
 20
1336.118245
 70
0
  0
SEQEND
  0
LINE
  8
0
  6
CONTINUOUS
 62
1
 10
1156.086889
 20
1323.638245
 11
1141.871016
 21
1323.638245
  0
LINE
  8
0
  6
CONTINUOUS
 62
1
 10
1119.971016
 20
1314.038245
 11
1134.186889
 21
1314.038245
  0
LINE
  8
0
  6
CONTINUOUS
 62
1
 10
1141.211016
 20
1314.038245
 11
1156.746889
 21
1314.038245
  0
LINE
  8
0
  6
CONTINUOUS
 62
1
 10
1139.883007
 20
1321.928179
 11
1139.223007
 21
1316.168179
  0
LINE
  8
0
  6
CONTINUOUS
 62
1
 10
1158.074898
 20
1321.928179
 11
1158.734898
 21
1316.168179
  0
LINE
  8
0
  6
CONTINUOUS
 62
1
 10
1117.983007
 20
1315.748311
 11
1117.323007
 21
1321.508311
  0
LINE
  8
0
  6
CONTINUOUS
 62
1
 10
1136.174898
 20
1315.748311
 11
1136.834898
 21
1321.508311
  0
LINE
  8
0
  6
CONTINUOUS
 62
1
 10
1134.846889
 20
1323.638245
 11
1119.311016
 21
1323.638245
  0
POLYLINE
  8
0
  6
CONTINUOUS
 62
1
 66
1
 70
2
  0
VERTEX
  8
0
 10
1119.971016
 20
1314.038245
 70
0
 42
-0.179121
  0
VERTEX
  8
0
 10
1118.636356
 20
1314.528302
 70
0
 42
-0.189055
  0
VERTEX
  8
0
 10
1117.983007
 20
1315.748311
 70
0
  0
SEQEND
  0
POLYLINE
  8
0
  6
CONTINUOUS
 62
1
 66
1
 70
2
  0
VERTEX
  8
0
 10
1117.323007
 20
1321.508311
 70
0
 42
-0.220328
  0
VERTEX
  8
0
 10
1117.821492
 20
1322.999519
 70
0
 42
-0.207373
  0
VERTEX
  8
0
 10
1119.311016
 20
1323.638245
 70
0
  0
SEQEND
  0
POLYLINE
  8
0
  6
CONTINUOUS
 62
1
 66
1
 70
2
  0
VERTEX
  8
0
 10
1134.846889
 20
1323.638245
 70
0
 42
-0.207373
  0
VERTEX
  8
0
 10
1136.336413
 20
1322.999519
 70
0
 42
-0.220328
  0
VERTEX
  8
0
 10
1136.834898
 20
1321.508311
 70
0
  0
SEQEND
  0
POLYLINE
  8
0
  6
CONTINUOUS
 62
1
 66
1
 70
2
  0
VERTEX
  8
0
 10
1134.186889
 20
1314.038245
 70
0
 42
0.179121
  0
VERTEX
  8
0
 10
1135.521550
 20
1314.528302
 70
0
 42
0.189055
  0
VERTEX
  8
0
 10
1136.174898
 20
1315.748311
 70
0
  0
SEQEND
  0
POLYLINE
  8
0
  6
CONTINUOUS
 62
1
 66
1
 70
2
  0
VERTEX
  8
0
 10
1141.211016
 20
1314.038245
 70
0
 42
-0.207373
  0
VERTEX
  8
0
 10
1139.721492
 20
1314.676971
 70
0
 42
-0.220328
  0
VERTEX
  8
0
 10
1139.223007
 20
1316.168179
 70
0
  0
SEQEND
  0
POLYLINE
  8
0
  6
CONTINUOUS
 62
1
 66
1
 70
2
  0
VERTEX
  8
0
 10
1139.883007
 20
1321.928179
 70
0
 42
-0.189055
  0
VERTEX
  8
0
 10
1140.536356
 20
1323.148188
 70
0
 42
-0.179121
  0
VERTEX
  8
0
 10
1141.871016
 20
1323.638245
 70
0
  0
SEQEND
  0
POLYLINE
  8
0
  6
CONTINUOUS
 62
1
 66
1
 70
2
  0
VERTEX
  8
0
 10
1156.086889
 20
1323.638245
 70
0
 42
-0.179121
  0
VERTEX
  8
0
 10
1157.421550
 20
1323.148188
 70
0
 42
-0.189055
  0
VERTEX
  8
0
 10
1158.074898
 20
1321.928179
 70
0
  0
SEQEND
  0
POLYLINE
  8
0
  6
CONTINUOUS
 62
1
 66
1
 70
2
  0
VERTEX
  8
0
 10
1158.734898
 20
1316.168179
 70
0
 42
-0.220328
  0
VERTEX
  8
0
 10
1158.236413
 20
1314.676971
 70
0
 42
-0.207373
  0
VERTEX
  8
0
 10
1156.746889
 20
1314.038245
 70
0
  0
SEQEND
  0
LINE
  8
0
  6
CONTINUOUS
 62
1
 10
1210.836889
 20
1326.518245
 11
1196.621016
 21
1326.518245
  0
LINE
  8
0
  6
CONTINUOUS
 62
1
 10
1174.721016
 20
1336.118245
 11
1188.936889
 21
1336.118245
  0
LINE
  8
0
  6
CONTINUOUS
 62
1
 10
1195.961016
 20
1336.118245
 11
1211.496889
 21
1336.118245
  0
LINE
  8
0
  6
CONTINUOUS
 62
1
 10
1194.633007
 20
1328.228311
 11
1193.973007
 21
1333.988311
  0
LINE
  8
0
  6
CONTINUOUS
 62
1
 10
1212.824898
 20
1328.228311
 11
1213.484898
 21
1333.988311
  0
LINE
  8
0
  6
CONTINUOUS
 62
1
 10
1172.733007
 20
1334.408179
 11
1172.073007
 21
1328.648179
  0
LINE
  8
0
  6
CONTINUOUS
 62
1
 10
1190.924898
 20
1334.408179
 11
1191.584898
 21
1328.648179
  0
LINE
  8
0
  6
CONTINUOUS
 62
1
 10
1189.596889
 20
1326.518245
 11
1174.061016
 21
1326.518245
  0
POLYLINE
  8
0
  6
CONTINUOUS
 62
1
 66
1
 70
2
  0
VERTEX
  8
0
 10
1174.721016
 20
1336.118245
 70
0
 42
0.179121
  0
VERTEX
  8
0
 10
1173.386356
 20
1335.628188
 70
0
 42
0.189055
  0
VERTEX
  8
0
 10
1172.733007
 20
1334.408179
 70
0
  0
SEQEND
  0
POLYLINE
  8
0
  6
CONTINUOUS
 62
1
 66
1
 70
2
  0
VERTEX
  8
0
 10
1172.073007
 20
1328.648179
 70
0
 42
0.220328
  0
VERTEX
  8
0
 10
1172.571492
 20
1327.156971
 70
0
 42
0.207373
  0
VERTEX
  8
0
 10
1174.061016
 20
1326.518245
 70
0
  0
SEQEND
  0
POLYLINE
  8
0
  6
CONTINUOUS
 62
1
 66
1
 70
2
  0
VERTEX
  8
0
 10
1189.596889
 20
1326.518245
 70
0
 42
0.207373
  0
VERTEX
  8
0
 10
1191.086413
 20
1327.156971
 70
0
 42
0.220328
  0
VERTEX
  8
0
 10
1191.584898
 20
1328.648179
 70
0
  0
SEQEND
  0
POLYLINE
  8
0
  6
CONTINUOUS
 62
1
 66
1
 70
2
  0
VERTEX
  8
0
 10
1188.936889
 20
1336.118245
 70
0
 42
-0.179121
  0
VERTEX
  8
0
 10
1190.271550
 20
1335.628188
 70
0
 42
-0.189055
  0
VERTEX
  8
0
 10
1190.924898
 20
1334.408179
 70
0
  0
SEQEND
  0
POLYLINE
  8
0
  6
CONTINUOUS
 62
1
 66
1
 70
2
  0
VERTEX
  8
0
 10
1195.961016
 20
1336.118245
 70
0
 42
0.207373
  0
VERTEX
  8
0
 10
1194.471492
 20
1335.479519
 70
0
 42
0.220328
  0
VERTEX
  8
0
 10
1193.973007
 20
1333.988311
 70
0
  0
SEQEND
  0
POLYLINE
  8
0
  6
CONTINUOUS
 62
1
 66
1
 70
2
  0
VERTEX
  8
0
 10
1194.633007
 20
1328.228311
 70
0
 42
0.189055
  0
VERTEX
  8
0
 10
1195.286356
 20
1327.008302
 70
0
 42
0.179121
  0
VERTEX
  8
0
 10
1196.621016
 20
1326.518245
 70
0
  0
SEQEND
  0
POLYLINE
  8
0
  6
CONTINUOUS
 62
1
 66
1
 70
2
  0
VERTEX
  8
0
 10
1210.836889
 20
1326.518245
 70
0
 42
0.179121
  0
VERTEX
  8
0
 10
1212.171550
 20
1327.008302
 70
0
 42
0.189055
  0
VERTEX
  8
0
 10
1212.824898
 20
1328.228311
 70
0
  0
SEQEND
  0
POLYLINE
  8
0
  6
CONTINUOUS
 62
1
 66
1
 70
2
  0
VERTEX
  8
0
 10
1213.484898
 20
1333.988311
 70
0
 42
0.220328
  0
VERTEX
  8
0
 10
1212.986413
 20
1335.479519
 70
0
 42
0.207373
  0
VERTEX
  8
0
 10
1211.496889
 20
1336.118245
 70
0
  0
SEQEND
  0
LINE
  8
0
  6
CONTINUOUS
 62
1
 10
1199.886889
 20
1323.638245
 11
1185.671016
 21
1323.638245
  0
LINE
  8
0
  6
CONTINUOUS
 62
1
 10
1163.771016
 20
1314.038245
 11
1177.986889
 21
1314.038245
  0
LINE
  8
0
  6
CONTINUOUS
 62
1
 10
1185.011016
 20
1314.038245
 11
1200.546889
 21
1314.038245
  0
LINE
  8
0
  6
CONTINUOUS
 62
1
 10
1183.683007
 20
1321.928179
 11
1183.023007
 21
1316.168179
  0
LINE
  8
0
  6
CONTINUOUS
 62
1
 10
1201.874898
 20
1321.928179
 11
1202.534898
 21
1316.168179
  0
LINE
  8
0
  6
CONTINUOUS
 62
1
 10
1161.783007
 20
1315.748311
 11
1161.123007
 21
1321.508311
  0
LINE
  8
0
  6
CONTINUOUS
 62
1
 10
1179.974898
 20
1315.748311
 11
1180.634898
 21
1321.508311
  0
LINE
  8
0
  6
CONTINUOUS
 62
1
 10
1178.646889
 20
1323.638245
 11
1163.111016
 21
1323.638245
  0
POLYLINE
  8
0
  6
CONTINUOUS
 62
1
 66
1
 70
2
  0
VERTEX
  8
0
 10
1163.771016
 20
1314.038245
 70
0
 42
-0.179121
  0
VERTEX
  8
0
 10
1162.436356
 20
1314.528302
 70
0
 42
-0.189055
  0
VERTEX
  8
0
 10
1161.783007
 20
1315.748311
 70
0
  0
SEQEND
  0
POLYLINE
  8
0
  6
CONTINUOUS
 62
1
 66
1
 70
2
  0
VERTEX
  8
0
 10
1161.123007
 20
1321.508311
 70
0
 42
-0.220328
  0
VERTEX
  8
0
 10
1161.621492
 20
1322.999519
 70
0
 42
-0.207373
  0
VERTEX
  8
0
 10
1163.111016
 20
1323.638245
 70
0
  0
SEQEND
  0
POLYLINE
  8
0
  6
CONTINUOUS
 62
1
 66
1
 70
2
  0
VERTEX
  8
0
 10
1178.646889
 20
1323.638245
 70
0
 42
-0.207373
  0
VERTEX
  8
0
 10
1180.136413
 20
1322.999519
 70
0
 42
-0.220328
  0
VERTEX
  8
0
 10
1180.634898
 20
1321.508311
 70
0
  0
SEQEND
  0
POLYLINE
  8
0
  6
CONTINUOUS
 62
1
 66
1
 70
2
  0
VERTEX
  8
0
 10
1177.986889
 20
1314.038245
 70
0
 42
0.179121
  0
VERTEX
  8
0
 10
1179.321550
 20
1314.528302
 70
0
 42
0.189055
  0
VERTEX
  8
0
 10
1179.974898
 20
1315.748311
 70
0
  0
SEQEND
  0
POLYLINE
  8
0
  6
CONTINUOUS
 62
1
 66
1
 70
2
  0
VERTEX
  8
0
 10
1185.011016
 20
1314.038245
 70
0
 42
-0.207373
  0
VERTEX
  8
0
 10
1183.521492
 20
1314.676971
 70
0
 42
-0.220328
  0
VERTEX
  8
0
 10
1183.023007
 20
1316.168179
 70
0
  0
SEQEND
  0
POLYLINE
  8
0
  6
CONTINUOUS
 62
1
 66
1
 70
2
  0
VERTEX
  8
0
 10
1183.683007
 20
1321.928179
 70
0
 42
-0.189055
  0
VERTEX
  8
0
 10
1184.336356
 20
1323.148188
 70
0
 42
-0.179121
  0
VERTEX
  8
0
 10
1185.671016
 20
1323.638245
 70
0
  0
SEQEND
  0
POLYLINE
  8
0
  6
CONTINUOUS
 62
1
 66
1
 70
2
  0
VERTEX
  8
0
 10
1199.886889
 20
1323.638245
 70
0
 42
-0.179121
  0
VERTEX
  8
0
 10
1201.221550
 20
1323.148188
 70
0
 42
-0.189055
  0
VERTEX
  8
0
 10
1201.874898
 20
1321.928179
 70
0
  0
SEQEND
  0
POLYLINE
  8
0
  6
CONTINUOUS
 62
1
 66
1
 70
2
  0
VERTEX
  8
0
 10
1202.534898
 20
1316.168179
 70
0
 42
-0.220328
  0
VERTEX
  8
0
 10
1202.036413
 20
1314.676971
 70
0
 42
-0.207373
  0
VERTEX
  8
0
 10
1200.546889
 20
1314.038245
 70
0
  0
SEQEND
  0
LINE
  8
0
  6
CONTINUOUS
 62
1
 10
1484.553360
 20
1314.038245
 11
1470.337488
 21
1314.038245
  0
LINE
  8
0
  6
CONTINUOUS
 62
1
 10
1508.441369
 20
1321.928179
 11
1509.101369
 21
1316.168179
  0
LINE
  8
0
  6
CONTINUOUS
 62
1
 10
1490.249479
 20
1321.928179
 11
1489.589479
 21
1316.168179
  0
LINE
  8
0
  6
CONTINUOUS
 62
1
 10
1486.541369
 20
1315.748311
 11
1487.201369
 21
1321.508311
  0
LINE
  8
0
  6
CONTINUOUS
 62
1
 10
1468.349479
 20
1315.748311
 11
1467.689479
 21
1321.508311
  0
LINE
  8
0
  6
CONTINUOUS
 62
1
 10
1492.237488
 20
1323.638245
 11
1506.453360
 21
1323.638245
  0
LINE
  8
0
  6
CONTINUOUS
 62
1
 10
1469.677488
 20
1323.638245
 11
1485.213360
 21
1323.638245
  0
POLYLINE
  8
0
  6
CONTINUOUS
 62
1
 66
1
 70
2
  0
VERTEX
  8
0
 10
1507.113360
 20
1314.038245
 70
0
 42
0.207373
  0
VERTEX
  8
0
 10
1508.602884
 20
1314.676971
 70
0
 42
0.220328
  0
VERTEX
  8
0
 10
1509.101369
 20
1316.168179
 70
0
  0
SEQEND
  0
POLYLINE
  8
0
  6
CONTINUOUS
 62
1
 66
1
 70
2
  0
VERTEX
  8
0
 10
1508.441369
 20
1321.928179
 70
0
 42
0.189055
  0
VERTEX
  8
0
 10
1507.788021
 20
1323.148188
 70
0
 42
0.179121
  0
VERTEX
  8
0
 10
1506.453360
 20
1323.638245
 70
0
  0
SEQEND
  0
POLYLINE
  8
0
  6
CONTINUOUS
 62
1
 66
1
 70
2
  0
VERTEX
  8
0
 10
1492.237488
 20
1323.638245
 70
0
 42
0.179121
  0
VERTEX
  8
0
 10
1490.902827
 20
1323.148188
 70
0
 42
0.189055
  0
VERTEX
  8
0
 10
1490.249479
 20
1321.928179
 70
0
  0
SEQEND
  0
POLYLINE
  8
0
  6
CONTINUOUS
 62
1
 66
1
 70
2
  0
VERTEX
  8
0
 10
1489.589479
 20
1316.168179
 70
0
 42
0.220328
  0
VERTEX
  8
0
 10
1490.087964
 20
1314.676971
 70
0
 42
0.207373
  0
VERTEX
  8
0
 10
1491.577488
 20
1314.038245
 70
0
  0
SEQEND
  0
POLYLINE
  8
0
  6
CONTINUOUS
 62
1
 66
1
 70
2
  0
VERTEX
  8
0
 10
1486.541369
 20
1315.748311
 70
0
 42
-0.189055
  0
VERTEX
  8
0
 10
1485.888021
 20
1314.528302
 70
0
 42
-0.179121
  0
VERTEX
  8
0
 10
1484.553360
 20
1314.038245
 70
0
  0
SEQEND
  0
POLYLINE
  8
0
  6
CONTINUOUS
 62
1
 66
1
 70
2
  0
VERTEX
  8
0
 10
1470.337488
 20
1314.038245
 70
0
 42
-0.179121
  0
VERTEX
  8
0
 10
1469.002827
 20
1314.528302
 70
0
 42
-0.189055
  0
VERTEX
  8
0
 10
1468.349479
 20
1315.748311
 70
0
  0
SEQEND
  0
POLYLINE
  8
0
  6
CONTINUOUS
 62
1
 66
1
 70
2
  0
VERTEX
  8
0
 10
1467.689479
 20
1321.508311
 70
0
 42
-0.220328
  0
VERTEX
  8
0
 10
1468.187964
 20
1322.999519
 70
0
 42
-0.207373
  0
VERTEX
  8
0
 10
1469.677488
 20
1323.638245
 70
0
  0
SEQEND
  0
POLYLINE
  8
0
  6
CONTINUOUS
 62
1
 66
1
 70
2
  0
VERTEX
  8
0
 10
1485.213360
 20
1323.638245
 70
0
 42
-0.207373
  0
VERTEX
  8
0
 10
1486.702884
 20
1322.999519
 70
0
 42
-0.220328
  0
VERTEX
  8
0
 10
1487.201369
 20
1321.508311
 70
0
  0
SEQEND
  0
LINE
  8
0
  6
CONTINUOUS
 62
1
 10
1507.113360
 20
1314.038245
 11
1491.577488
 21
1314.038245
  0
LINE
  8
0
  6
CONTINUOUS
 62
1
 10
1517.436889
 20
1326.518245
 11
1503.221016
 21
1326.518245
  0
LINE
  8
0
  6
CONTINUOUS
 62
1
 10
1481.321016
 20
1336.118245
 11
1495.536889
 21
1336.118245
  0
LINE
  8
0
  6
CONTINUOUS
 62
1
 10
1502.561016
 20
1336.118245
 11
1518.096889
 21
1336.118245
  0
LINE
  8
0
  6
CONTINUOUS
 62
1
 10
1501.233007
 20
1328.228311
 11
1500.573007
 21
1333.988311
  0
LINE
  8
0
  6
CONTINUOUS
 62
1
 10
1519.424898
 20
1328.228311
 11
1520.084898
 21
1333.988311
  0
LINE
  8
0
  6
CONTINUOUS
 62
1
 10
1479.333007
 20
1334.408179
 11
1478.673007
 21
1328.648179
  0
LINE
  8
0
  6
CONTINUOUS
 62
1
 10
1497.524898
 20
1334.408179
 11
1498.184898
 21
1328.648179
  0
LINE
  8
0
  6
CONTINUOUS
 62
1
 10
1496.196889
 20
1326.518245
 11
1480.661016
 21
1326.518245
  0
POLYLINE
  8
0
  6
CONTINUOUS
 62
1
 66
1
 70
2
  0
VERTEX
  8
0
 10
1481.321016
 20
1336.118245
 70
0
 42
0.179121
  0
VERTEX
  8
0
 10
1479.986356
 20
1335.628188
 70
0
 42
0.189055
  0
VERTEX
  8
0
 10
1479.333007
 20
1334.408179
 70
0
  0
SEQEND
  0
POLYLINE
  8
0
  6
CONTINUOUS
 62
1
 66
1
 70
2
  0
VERTEX
  8
0
 10
1478.673007
 20
1328.648179
 70
0
 42
0.220328
  0
VERTEX
  8
0
 10
1479.171492
 20
1327.156971
 70
0
 42
0.207373
  0
VERTEX
  8
0
 10
1480.661016
 20
1326.518245
 70
0
  0
SEQEND
  0
POLYLINE
  8
0
  6
CONTINUOUS
 62
1
 66
1
 70
2
  0
VERTEX
  8
0
 10
1496.196889
 20
1326.518245
 70
0
 42
0.207373
  0
VERTEX
  8
0
 10
1497.686413
 20
1327.156971
 70
0
 42
0.220328
  0
VERTEX
  8
0
 10
1498.184898
 20
1328.648179
 70
0
  0
SEQEND
  0
POLYLINE
  8
0
  6
CONTINUOUS
 62
1
 66
1
 70
2
  0
VERTEX
  8
0
 10
1495.536889
 20
1336.118245
 70
0
 42
-0.179121
  0
VERTEX
  8
0
 10
1496.871550
 20
1335.628188
 70
0
 42
-0.189055
  0
VERTEX
  8
0
 10
1497.524898
 20
1334.408179
 70
0
  0
SEQEND
  0
POLYLINE
  8
0
  6
CONTINUOUS
 62
1
 66
1
 70
2
  0
VERTEX
  8
0
 10
1502.561016
 20
1336.118245
 70
0
 42
0.207373
  0
VERTEX
  8
0
 10
1501.071492
 20
1335.479519
 70
0
 42
0.220328
  0
VERTEX
  8
0
 10
1500.573007
 20
1333.988311
 70
0
  0
SEQEND
  0
POLYLINE
  8
0
  6
CONTINUOUS
 62
1
 66
1
 70
2
  0
VERTEX
  8
0
 10
1501.233007
 20
1328.228311
 70
0
 42
0.189055
  0
VERTEX
  8
0
 10
1501.886356
 20
1327.008302
 70
0
 42
0.179121
  0
VERTEX
  8
0
 10
1503.221016
 20
1326.518245
 70
0
  0
SEQEND
  0
POLYLINE
  8
0
  6
CONTINUOUS
 62
1
 66
1
 70
2
  0
VERTEX
  8
0
 10
1517.436889
 20
1326.518245
 70
0
 42
0.179121
  0
VERTEX
  8
0
 10
1518.771550
 20
1327.008302
 70
0
 42
0.189055
  0
VERTEX
  8
0
 10
1519.424898
 20
1328.228311
 70
0
  0
SEQEND
  0
POLYLINE
  8
0
  6
CONTINUOUS
 62
1
 66
1
 70
2
  0
VERTEX
  8
0
 10
1520.084898
 20
1333.988311
 70
0
 42
0.220328
  0
VERTEX
  8
0
 10
1519.586413
 20
1335.479519
 70
0
 42
0.207373
  0
VERTEX
  8
0
 10
1518.096889
 20
1336.118245
 70
0
  0
SEQEND
  0
LINE
  8
0
  6
CONTINUOUS
 62
1
 10
1517.436889
 20
1301.558245
 11
1503.221016
 21
1301.558245
  0
LINE
  8
0
  6
CONTINUOUS
 62
1
 10
1481.321016
 20
1311.158245
 11
1495.536889
 21
1311.158245
  0
LINE
  8
0
  6
CONTINUOUS
 62
1
 10
1502.561016
 20
1311.158245
 11
1518.096889
 21
1311.158245
  0
LINE
  8
0
  6
CONTINUOUS
 62
1
 10
1501.233007
 20
1303.268311
 11
1500.573007
 21
1309.028311
  0
LINE
  8
0
  6
CONTINUOUS
 62
1
 10
1519.424898
 20
1303.268311
 11
1520.084898
 21
1309.028311
  0
LINE
  8
0
  6
CONTINUOUS
 62
1
 10
1479.333007
 20
1309.448179
 11
1478.673007
 21
1303.688179
  0
LINE
  8
0
  6
CONTINUOUS
 62
1
 10
1497.524898
 20
1309.448179
 11
1498.184898
 21
1303.688179
  0
LINE
  8
0
  6
CONTINUOUS
 62
1
 10
1496.196889
 20
1301.558245
 11
1480.661016
 21
1301.558245
  0
POLYLINE
  8
0
  6
CONTINUOUS
 62
1
 66
1
 70
2
  0
VERTEX
  8
0
 10
1481.321016
 20
1311.158245
 70
0
 42
0.179121
  0
VERTEX
  8
0
 10
1479.986356
 20
1310.668188
 70
0
 42
0.189055
  0
VERTEX
  8
0
 10
1479.333007
 20
1309.448179
 70
0
  0
SEQEND
  0
POLYLINE
  8
0
  6
CONTINUOUS
 62
1
 66
1
 70
2
  0
VERTEX
  8
0
 10
1478.673007
 20
1303.688179
 70
0
 42
0.220328
  0
VERTEX
  8
0
 10
1479.171492
 20
1302.196971
 70
0
 42
0.207373
  0
VERTEX
  8
0
 10
1480.661016
 20
1301.558245
 70
0
  0
SEQEND
  0
POLYLINE
  8
0
  6
CONTINUOUS
 62
1
 66
1
 70
2
  0
VERTEX
  8
0
 10
1496.196889
 20
1301.558245
 70
0
 42
0.207373
  0
VERTEX
  8
0
 10
1497.686413
 20
1302.196971
 70
0
 42
0.220328
  0
VERTEX
  8
0
 10
1498.184898
 20
1303.688179
 70
0
  0
SEQEND
  0
POLYLINE
  8
0
  6
CONTINUOUS
 62
1
 66
1
 70
2
  0
VERTEX
  8
0
 10
1495.536889
 20
1311.158245
 70
0
 42
-0.179121
  0
VERTEX
  8
0
 10
1496.871550
 20
1310.668188
 70
0
 42
-0.189055
  0
VERTEX
  8
0
 10
1497.524898
 20
1309.448179
 70
0
  0
SEQEND
  0
POLYLINE
  8
0
  6
CONTINUOUS
 62
1
 66
1
 70
2
  0
VERTEX
  8
0
 10
1502.561016
 20
1311.158245
 70
0
 42
0.207373
  0
VERTEX
  8
0
 10
1501.071492
 20
1310.519519
 70
0
 42
0.220328
  0
VERTEX
  8
0
 10
1500.573007
 20
1309.028311
 70
0
  0
SEQEND
  0
POLYLINE
  8
0
  6
CONTINUOUS
 62
1
 66
1
 70
2
  0
VERTEX
  8
0
 10
1501.233007
 20
1303.268311
 70
0
 42
0.189055
  0
VERTEX
  8
0
 10
1501.886356
 20
1302.048302
 70
0
 42
0.179121
  0
VERTEX
  8
0
 10
1503.221016
 20
1301.558245
 70
0
  0
SEQEND
  0
POLYLINE
  8
0
  6
CONTINUOUS
 62
1
 66
1
 70
2
  0
VERTEX
  8
0
 10
1517.436889
 20
1301.558245
 70
0
 42
0.179121
  0
VERTEX
  8
0
 10
1518.771550
 20
1302.048302
 70
0
 42
0.189055
  0
VERTEX
  8
0
 10
1519.424898
 20
1303.268311
 70
0
  0
SEQEND
  0
POLYLINE
  8
0
  6
CONTINUOUS
 62
1
 66
1
 70
2
  0
VERTEX
  8
0
 10
1520.084898
 20
1309.028311
 70
0
 42
0.220328
  0
VERTEX
  8
0
 10
1519.586413
 20
1310.519519
 70
0
 42
0.207373
  0
VERTEX
  8
0
 10
1518.096889
 20
1311.158245
 70
0
  0
SEQEND
  0
LINE
  8
0
  6
CONTINUOUS
 62
1
 10
1528.353360
 20
1314.038245
 11
1514.137488
 21
1314.038245
  0
LINE
  8
0
  6
CONTINUOUS
 62
1
 10
1552.241369
 20
1321.928179
 11
1552.901369
 21
1316.168179
  0
LINE
  8
0
  6
CONTINUOUS
 62
1
 10
1534.049479
 20
1321.928179
 11
1533.389479
 21
1316.168179
  0
LINE
  8
0
  6
CONTINUOUS
 62
1
 10
1530.341369
 20
1315.748311
 11
1531.001369
 21
1321.508311
  0
LINE
  8
0
  6
CONTINUOUS
 62
1
 10
1512.149479
 20
1315.748311
 11
1511.489479
 21
1321.508311
  0
LINE
  8
0
  6
CONTINUOUS
 62
1
 10
1536.037488
 20
1323.638245
 11
1550.253360
 21
1323.638245
  0
LINE
  8
0
  6
CONTINUOUS
 62
1
 10
1513.477488
 20
1323.638245
 11
1529.013360
 21
1323.638245
  0
POLYLINE
  8
0
  6
CONTINUOUS
 62
1
 66
1
 70
2
  0
VERTEX
  8
0
 10
1550.913360
 20
1314.038245
 70
0
 42
0.207373
  0
VERTEX
  8
0
 10
1552.402884
 20
1314.676971
 70
0
 42
0.220328
  0
VERTEX
  8
0
 10
1552.901369
 20
1316.168179
 70
0
  0
SEQEND
  0
POLYLINE
  8
0
  6
CONTINUOUS
 62
1
 66
1
 70
2
  0
VERTEX
  8
0
 10
1552.241369
 20
1321.928179
 70
0
 42
0.189055
  0
VERTEX
  8
0
 10
1551.588021
 20
1323.148188
 70
0
 42
0.179121
  0
VERTEX
  8
0
 10
1550.253360
 20
1323.638245
 70
0
  0
SEQEND
  0
POLYLINE
  8
0
  6
CONTINUOUS
 62
1
 66
1
 70
2
  0
VERTEX
  8
0
 10
1536.037488
 20
1323.638245
 70
0
 42
0.179121
  0
VERTEX
  8
0
 10
1534.702827
 20
1323.148188
 70
0
 42
0.189055
  0
VERTEX
  8
0
 10
1534.049479
 20
1321.928179
 70
0
  0
SEQEND
  0
POLYLINE
  8
0
  6
CONTINUOUS
 62
1
 66
1
 70
2
  0
VERTEX
  8
0
 10
1533.389479
 20
1316.168179
 70
0
 42
0.220328
  0
VERTEX
  8
0
 10
1533.887964
 20
1314.676971
 70
0
 42
0.207373
  0
VERTEX
  8
0
 10
1535.377488
 20
1314.038245
 70
0
  0
SEQEND
  0
POLYLINE
  8
0
  6
CONTINUOUS
 62
1
 66
1
 70
2
  0
VERTEX
  8
0
 10
1530.341369
 20
1315.748311
 70
0
 42
-0.189055
  0
VERTEX
  8
0
 10
1529.688021
 20
1314.528302
 70
0
 42
-0.179121
  0
VERTEX
  8
0
 10
1528.353360
 20
1314.038245
 70
0
  0
SEQEND
  0
POLYLINE
  8
0
  6
CONTINUOUS
 62
1
 66
1
 70
2
  0
VERTEX
  8
0
 10
1514.137488
 20
1314.038245
 70
0
 42
-0.179121
  0
VERTEX
  8
0
 10
1512.802827
 20
1314.528302
 70
0
 42
-0.189055
  0
VERTEX
  8
0
 10
1512.149479
 20
1315.748311
 70
0
  0
SEQEND
  0
POLYLINE
  8
0
  6
CONTINUOUS
 62
1
 66
1
 70
2
  0
VERTEX
  8
0
 10
1511.489479
 20
1321.508311
 70
0
 42
-0.220328
  0
VERTEX
  8
0
 10
1511.987964
 20
1322.999519
 70
0
 42
-0.207373
  0
VERTEX
  8
0
 10
1513.477488
 20
1323.638245
 70
0
  0
SEQEND
  0
POLYLINE
  8
0
  6
CONTINUOUS
 62
1
 66
1
 70
2
  0
VERTEX
  8
0
 10
1529.013360
 20
1323.638245
 70
0
 42
-0.207373
  0
VERTEX
  8
0
 10
1530.502884
 20
1322.999519
 70
0
 42
-0.220328
  0
VERTEX
  8
0
 10
1531.001369
 20
1321.508311
 70
0
  0
SEQEND
  0
LINE
  8
0
  6
CONTINUOUS
 62
1
 10
1550.913360
 20
1314.038245
 11
1535.377488
 21
1314.038245
  0
LINE
  8
0
  6
CONTINUOUS
 62
1
 10
1561.236889
 20
1326.518245
 11
1547.021016
 21
1326.518245
  0
LINE
  8
0
  6
CONTINUOUS
 62
1
 10
1525.121016
 20
1336.118245
 11
1539.336889
 21
1336.118245
  0
LINE
  8
0
  6
CONTINUOUS
 62
1
 10
1546.361016
 20
1336.118245
 11
1561.896889
 21
1336.118245
  0
LINE
  8
0
  6
CONTINUOUS
 62
1
 10
1545.033007
 20
1328.228311
 11
1544.373007
 21
1333.988311
  0
LINE
  8
0
  6
CONTINUOUS
 62
1
 10
1563.224898
 20
1328.228311
 11
1563.884898
 21
1333.988311
  0
LINE
  8
0
  6
CONTINUOUS
 62
1
 10
1523.133007
 20
1334.408179
 11
1522.473007
 21
1328.648179
  0
LINE
  8
0
  6
CONTINUOUS
 62
1
 10
1541.324898
 20
1334.408179
 11
1541.984898
 21
1328.648179
  0
LINE
  8
0
  6
CONTINUOUS
 62
1
 10
1539.996889
 20
1326.518245
 11
1524.461016
 21
1326.518245
  0
POLYLINE
  8
0
  6
CONTINUOUS
 62
1
 66
1
 70
2
  0
VERTEX
  8
0
 10
1525.121016
 20
1336.118245
 70
0
 42
0.179121
  0
VERTEX
  8
0
 10
1523.786356
 20
1335.628188
 70
0
 42
0.189055
  0
VERTEX
  8
0
 10
1523.133007
 20
1334.408179
 70
0
  0
SEQEND
  0
POLYLINE
  8
0
  6
CONTINUOUS
 62
1
 66
1
 70
2
  0
VERTEX
  8
0
 10
1522.473007
 20
1328.648179
 70
0
 42
0.220328
  0
VERTEX
  8
0
 10
1522.971492
 20
1327.156971
 70
0
 42
0.207373
  0
VERTEX
  8
0
 10
1524.461016
 20
1326.518245
 70
0
  0
SEQEND
  0
POLYLINE
  8
0
  6
CONTINUOUS
 62
1
 66
1
 70
2
  0
VERTEX
  8
0
 10
1539.996889
 20
1326.518245
 70
0
 42
0.207373
  0
VERTEX
  8
0
 10
1541.486413
 20
1327.156971
 70
0
 42
0.220328
  0
VERTEX
  8
0
 10
1541.984898
 20
1328.648179
 70
0
  0
SEQEND
  0
POLYLINE
  8
0
  6
CONTINUOUS
 62
1
 66
1
 70
2
  0
VERTEX
  8
0
 10
1539.336889
 20
1336.118245
 70
0
 42
-0.179121
  0
VERTEX
  8
0
 10
1540.671550
 20
1335.628188
 70
0
 42
-0.189055
  0
VERTEX
  8
0
 10
1541.324898
 20
1334.408179
 70
0
  0
SEQEND
  0
POLYLINE
  8
0
  6
CONTINUOUS
 62
1
 66
1
 70
2
  0
VERTEX
  8
0
 10
1546.361016
 20
1336.118245
 70
0
 42
0.207373
  0
VERTEX
  8
0
 10
1544.871492
 20
1335.479519
 70
0
 42
0.220328
  0
VERTEX
  8
0
 10
1544.373007
 20
1333.988311
 70
0
  0
SEQEND
  0
POLYLINE
  8
0
  6
CONTINUOUS
 62
1
 66
1
 70
2
  0
VERTEX
  8
0
 10
1545.033007
 20
1328.228311
 70
0
 42
0.189055
  0
VERTEX
  8
0
 10
1545.686356
 20
1327.008302
 70
0
 42
0.179121
  0
VERTEX
  8
0
 10
1547.021016
 20
1326.518245
 70
0
  0
SEQEND
  0
POLYLINE
  8
0
  6
CONTINUOUS
 62
1
 66
1
 70
2
  0
VERTEX
  8
0
 10
1561.236889
 20
1326.518245
 70
0
 42
0.179121
  0
VERTEX
  8
0
 10
1562.571550
 20
1327.008302
 70
0
 42
0.189055
  0
VERTEX
  8
0
 10
1563.224898
 20
1328.228311
 70
0
  0
SEQEND
  0
POLYLINE
  8
0
  6
CONTINUOUS
 62
1
 66
1
 70
2
  0
VERTEX
  8
0
 10
1563.884898
 20
1333.988311
 70
0
 42
0.220328
  0
VERTEX
  8
0
 10
1563.386413
 20
1335.479519
 70
0
 42
0.207373
  0
VERTEX
  8
0
 10
1561.896889
 20
1336.118245
 70
0
  0
SEQEND
  0
LINE
  8
0
  6
CONTINUOUS
 62
1
 10
1561.236889
 20
1301.558245
 11
1547.021016
 21
1301.558245
  0
LINE
  8
0
  6
CONTINUOUS
 62
1
 10
1525.121016
 20
1311.158245
 11
1539.336889
 21
1311.158245
  0
LINE
  8
0
  6
CONTINUOUS
 62
1
 10
1546.361016
 20
1311.158245
 11
1561.896889
 21
1311.158245
  0
LINE
  8
0
  6
CONTINUOUS
 62
1
 10
1545.033007
 20
1303.268311
 11
1544.373007
 21
1309.028311
  0
LINE
  8
0
  6
CONTINUOUS
 62
1
 10
1563.224898
 20
1303.268311
 11
1563.884898
 21
1309.028311
  0
LINE
  8
0
  6
CONTINUOUS
 62
1
 10
1523.133007
 20
1309.448179
 11
1522.473007
 21
1303.688179
  0
LINE
  8
0
  6
CONTINUOUS
 62
1
 10
1541.324898
 20
1309.448179
 11
1541.984898
 21
1303.688179
  0
LINE
  8
0
  6
CONTINUOUS
 62
1
 10
1539.996889
 20
1301.558245
 11
1524.461016
 21
1301.558245
  0
POLYLINE
  8
0
  6
CONTINUOUS
 62
1
 66
1
 70
2
  0
VERTEX
  8
0
 10
1525.121016
 20
1311.158245
 70
0
 42
0.179121
  0
VERTEX
  8
0
 10
1523.786356
 20
1310.668188
 70
0
 42
0.189055
  0
VERTEX
  8
0
 10
1523.133007
 20
1309.448179
 70
0
  0
SEQEND
  0
POLYLINE
  8
0
  6
CONTINUOUS
 62
1
 66
1
 70
2
  0
VERTEX
  8
0
 10
1522.473007
 20
1303.688179
 70
0
 42
0.220328
  0
VERTEX
  8
0
 10
1522.971492
 20
1302.196971
 70
0
 42
0.207373
  0
VERTEX
  8
0
 10
1524.461016
 20
1301.558245
 70
0
  0
SEQEND
  0
POLYLINE
  8
0
  6
CONTINUOUS
 62
1
 66
1
 70
2
  0
VERTEX
  8
0
 10
1539.996889
 20
1301.558245
 70
0
 42
0.207373
  0
VERTEX
  8
0
 10
1541.486413
 20
1302.196971
 70
0
 42
0.220328
  0
VERTEX
  8
0
 10
1541.984898
 20
1303.688179
 70
0
  0
SEQEND
  0
POLYLINE
  8
0
  6
CONTINUOUS
 62
1
 66
1
 70
2
  0
VERTEX
  8
0
 10
1539.336889
 20
1311.158245
 70
0
 42
-0.179121
  0
VERTEX
  8
0
 10
1540.671550
 20
1310.668188
 70
0
 42
-0.189055
  0
VERTEX
  8
0
 10
1541.324898
 20
1309.448179
 70
0
  0
SEQEND
  0
POLYLINE
  8
0
  6
CONTINUOUS
 62
1
 66
1
 70
2
  0
VERTEX
  8
0
 10
1546.361016
 20
1311.158245
 70
0
 42
0.207373
  0
VERTEX
  8
0
 10
1544.871492
 20
1310.519519
 70
0
 42
0.220328
  0
VERTEX
  8
0
 10
1544.373007
 20
1309.028311
 70
0
  0
SEQEND
  0
POLYLINE
  8
0
  6
CONTINUOUS
 62
1
 66
1
 70
2
  0
VERTEX
  8
0
 10
1545.033007
 20
1303.268311
 70
0
 42
0.189055
  0
VERTEX
  8
0
 10
1545.686356
 20
1302.048302
 70
0
 42
0.179121
  0
VERTEX
  8
0
 10
1547.021016
 20
1301.558245
 70
0
  0
SEQEND
  0
POLYLINE
  8
0
  6
CONTINUOUS
 62
1
 66
1
 70
2
  0
VERTEX
  8
0
 10
1561.236889
 20
1301.558245
 70
0
 42
0.179121
  0
VERTEX
  8
0
 10
1562.571550
 20
1302.048302
 70
0
 42
0.189055
  0
VERTEX
  8
0
 10
1563.224898
 20
1303.268311
 70
0
  0
SEQEND
  0
POLYLINE
  8
0
  6
CONTINUOUS
 62
1
 66
1
 70
2
  0
VERTEX
  8
0
 10
1563.884898
 20
1309.028311
 70
0
 42
0.220328
  0
VERTEX
  8
0
 10
1563.386413
 20
1310.519519
 70
0
 42
0.207373
  0
VERTEX
  8
0
 10
1561.896889
 20
1311.158245
 70
0
  0
SEQEND
  0
LINE
  8
0
  6
CONTINUOUS
 62
1
 10
1572.153360
 20
1314.038245
 11
1557.937488
 21
1314.038245
  0
LINE
  8
0
  6
CONTINUOUS
 62
1
 10
1596.041369
 20
1321.928179
 11
1596.701369
 21
1316.168179
  0
LINE
  8
0
  6
CONTINUOUS
 62
1
 10
1577.849479
 20
1321.928179
 11
1577.189479
 21
1316.168179
  0
LINE
  8
0
  6
CONTINUOUS
 62
1
 10
1574.141369
 20
1315.748311
 11
1574.801369
 21
1321.508311
  0
LINE
  8
0
  6
CONTINUOUS
 62
1
 10
1555.949479
 20
1315.748311
 11
1555.289479
 21
1321.508311
  0
LINE
  8
0
  6
CONTINUOUS
 62
1
 10
1579.837488
 20
1323.638245
 11
1594.053360
 21
1323.638245
  0
LINE
  8
0
  6
CONTINUOUS
 62
1
 10
1557.277488
 20
1323.638245
 11
1572.813360
 21
1323.638245
  0
POLYLINE
  8
0
  6
CONTINUOUS
 62
1
 66
1
 70
2
  0
VERTEX
  8
0
 10
1594.713360
 20
1314.038245
 70
0
 42
0.207373
  0
VERTEX
  8
0
 10
1596.202884
 20
1314.676971
 70
0
 42
0.220328
  0
VERTEX
  8
0
 10
1596.701369
 20
1316.168179
 70
0
  0
SEQEND
  0
POLYLINE
  8
0
  6
CONTINUOUS
 62
1
 66
1
 70
2
  0
VERTEX
  8
0
 10
1596.041369
 20
1321.928179
 70
0
 42
0.189055
  0
VERTEX
  8
0
 10
1595.388021
 20
1323.148188
 70
0
 42
0.179121
  0
VERTEX
  8
0
 10
1594.053360
 20
1323.638245
 70
0
  0
SEQEND
  0
POLYLINE
  8
0
  6
CONTINUOUS
 62
1
 66
1
 70
2
  0
VERTEX
  8
0
 10
1579.837488
 20
1323.638245
 70
0
 42
0.179121
  0
VERTEX
  8
0
 10
1578.502827
 20
1323.148188
 70
0
 42
0.189055
  0
VERTEX
  8
0
 10
1577.849479
 20
1321.928179
 70
0
  0
SEQEND
  0
POLYLINE
  8
0
  6
CONTINUOUS
 62
1
 66
1
 70
2
  0
VERTEX
  8
0
 10
1577.189479
 20
1316.168179
 70
0
 42
0.220328
  0
VERTEX
  8
0
 10
1577.687964
 20
1314.676971
 70
0
 42
0.207373
  0
VERTEX
  8
0
 10
1579.177488
 20
1314.038245
 70
0
  0
SEQEND
  0
POLYLINE
  8
0
  6
CONTINUOUS
 62
1
 66
1
 70
2
  0
VERTEX
  8
0
 10
1574.141369
 20
1315.748311
 70
0
 42
-0.189055
  0
VERTEX
  8
0
 10
1573.488021
 20
1314.528302
 70
0
 42
-0.179121
  0
VERTEX
  8
0
 10
1572.153360
 20
1314.038245
 70
0
  0
SEQEND
  0
POLYLINE
  8
0
  6
CONTINUOUS
 62
1
 66
1
 70
2
  0
VERTEX
  8
0
 10
1557.937488
 20
1314.038245
 70
0
 42
-0.179121
  0
VERTEX
  8
0
 10
1556.602827
 20
1314.528302
 70
0
 42
-0.189055
  0
VERTEX
  8
0
 10
1555.949479
 20
1315.748311
 70
0
  0
SEQEND
  0
POLYLINE
  8
0
  6
CONTINUOUS
 62
1
 66
1
 70
2
  0
VERTEX
  8
0
 10
1555.289479
 20
1321.508311
 70
0
 42
-0.220328
  0
VERTEX
  8
0
 10
1555.787964
 20
1322.999519
 70
0
 42
-0.207373
  0
VERTEX
  8
0
 10
1557.277488
 20
1323.638245
 70
0
  0
SEQEND
  0
POLYLINE
  8
0
  6
CONTINUOUS
 62
1
 66
1
 70
2
  0
VERTEX
  8
0
 10
1572.813360
 20
1323.638245
 70
0
 42
-0.207373
  0
VERTEX
  8
0
 10
1574.302884
 20
1322.999519
 70
0
 42
-0.220328
  0
VERTEX
  8
0
 10
1574.801369
 20
1321.508311
 70
0
  0
SEQEND
  0
LINE
  8
0
  6
CONTINUOUS
 62
1
 10
1594.713360
 20
1314.038245
 11
1579.177488
 21
1314.038245
  0
LINE
  8
0
  6
CONTINUOUS
 62
1
 10
1605.036889
 20
1326.518245
 11
1590.821016
 21
1326.518245
  0
LINE
  8
0
  6
CONTINUOUS
 62
1
 10
1568.921016
 20
1336.118245
 11
1583.136889
 21
1336.118245
  0
LINE
  8
0
  6
CONTINUOUS
 62
1
 10
1590.161016
 20
1336.118245
 11
1605.696889
 21
1336.118245
  0
LINE
  8
0
  6
CONTINUOUS
 62
1
 10
1588.833007
 20
1328.228311
 11
1588.173007
 21
1333.988311
  0
LINE
  8
0
  6
CONTINUOUS
 62
1
 10
1607.024898
 20
1328.228311
 11
1607.684898
 21
1333.988311
  0
LINE
  8
0
  6
CONTINUOUS
 62
1
 10
1566.933007
 20
1334.408179
 11
1566.273007
 21
1328.648179
  0
LINE
  8
0
  6
CONTINUOUS
 62
1
 10
1585.124898
 20
1334.408179
 11
1585.784898
 21
1328.648179
  0
LINE
  8
0
  6
CONTINUOUS
 62
1
 10
1583.796889
 20
1326.518245
 11
1568.261016
 21
1326.518245
  0
POLYLINE
  8
0
  6
CONTINUOUS
 62
1
 66
1
 70
2
  0
VERTEX
  8
0
 10
1568.921016
 20
1336.118245
 70
0
 42
0.179121
  0
VERTEX
  8
0
 10
1567.586356
 20
1335.628188
 70
0
 42
0.189055
  0
VERTEX
  8
0
 10
1566.933007
 20
1334.408179
 70
0
  0
SEQEND
  0
POLYLINE
  8
0
  6
CONTINUOUS
 62
1
 66
1
 70
2
  0
VERTEX
  8
0
 10
1566.273007
 20
1328.648179
 70
0
 42
0.220328
  0
VERTEX
  8
0
 10
1566.771492
 20
1327.156971
 70
0
 42
0.207373
  0
VERTEX
  8
0
 10
1568.261016
 20
1326.518245
 70
0
  0
SEQEND
  0
POLYLINE
  8
0
  6
CONTINUOUS
 62
1
 66
1
 70
2
  0
VERTEX
  8
0
 10
1583.796889
 20
1326.518245
 70
0
 42
0.207373
  0
VERTEX
  8
0
 10
1585.286413
 20
1327.156971
 70
0
 42
0.220328
  0
VERTEX
  8
0
 10
1585.784898
 20
1328.648179
 70
0
  0
SEQEND
  0
POLYLINE
  8
0
  6
CONTINUOUS
 62
1
 66
1
 70
2
  0
VERTEX
  8
0
 10
1583.136889
 20
1336.118245
 70
0
 42
-0.179121
  0
VERTEX
  8
0
 10
1584.471550
 20
1335.628188
 70
0
 42
-0.189055
  0
VERTEX
  8
0
 10
1585.124898
 20
1334.408179
 70
0
  0
SEQEND
  0
POLYLINE
  8
0
  6
CONTINUOUS
 62
1
 66
1
 70
2
  0
VERTEX
  8
0
 10
1590.161016
 20
1336.118245
 70
0
 42
0.207373
  0
VERTEX
  8
0
 10
1588.671492
 20
1335.479519
 70
0
 42
0.220328
  0
VERTEX
  8
0
 10
1588.173007
 20
1333.988311
 70
0
  0
SEQEND
  0
POLYLINE
  8
0
  6
CONTINUOUS
 62
1
 66
1
 70
2
  0
VERTEX
  8
0
 10
1588.833007
 20
1328.228311
 70
0
 42
0.189055
  0
VERTEX
  8
0
 10
1589.486356
 20
1327.008302
 70
0
 42
0.179121
  0
VERTEX
  8
0
 10
1590.821016
 20
1326.518245
 70
0
  0
SEQEND
  0
POLYLINE
  8
0
  6
CONTINUOUS
 62
1
 66
1
 70
2
  0
VERTEX
  8
0
 10
1605.036889
 20
1326.518245
 70
0
 42
0.179121
  0
VERTEX
  8
0
 10
1606.371550
 20
1327.008302
 70
0
 42
0.189055
  0
VERTEX
  8
0
 10
1607.024898
 20
1328.228311
 70
0
  0
SEQEND
  0
POLYLINE
  8
0
  6
CONTINUOUS
 62
1
 66
1
 70
2
  0
VERTEX
  8
0
 10
1607.684898
 20
1333.988311
 70
0
 42
0.220328
  0
VERTEX
  8
0
 10
1607.186413
 20
1335.479519
 70
0
 42
0.207373
  0
VERTEX
  8
0
 10
1605.696889
 20
1336.118245
 70
0
  0
SEQEND
  0
LINE
  8
0
  6
CONTINUOUS
 62
1
 10
1605.036889
 20
1301.558245
 11
1590.821016
 21
1301.558245
  0
LINE
  8
0
  6
CONTINUOUS
 62
1
 10
1568.921016
 20
1311.158245
 11
1583.136889
 21
1311.158245
  0
LINE
  8
0
  6
CONTINUOUS
 62
1
 10
1590.161016
 20
1311.158245
 11
1605.696889
 21
1311.158245
  0
LINE
  8
0
  6
CONTINUOUS
 62
1
 10
1588.833007
 20
1303.268311
 11
1588.173007
 21
1309.028311
  0
LINE
  8
0
  6
CONTINUOUS
 62
1
 10
1607.024898
 20
1303.268311
 11
1607.684898
 21
1309.028311
  0
LINE
  8
0
  6
CONTINUOUS
 62
1
 10
1566.933007
 20
1309.448179
 11
1566.273007
 21
1303.688179
  0
LINE
  8
0
  6
CONTINUOUS
 62
1
 10
1585.124898
 20
1309.448179
 11
1585.784898
 21
1303.688179
  0
LINE
  8
0
  6
CONTINUOUS
 62
1
 10
1583.796889
 20
1301.558245
 11
1568.261016
 21
1301.558245
  0
POLYLINE
  8
0
  6
CONTINUOUS
 62
1
 66
1
 70
2
  0
VERTEX
  8
0
 10
1568.921016
 20
1311.158245
 70
0
 42
0.179121
  0
VERTEX
  8
0
 10
1567.586356
 20
1310.668188
 70
0
 42
0.189055
  0
VERTEX
  8
0
 10
1566.933007
 20
1309.448179
 70
0
  0
SEQEND
  0
POLYLINE
  8
0
  6
CONTINUOUS
 62
1
 66
1
 70
2
  0
VERTEX
  8
0
 10
1566.273007
 20
1303.688179
 70
0
 42
0.220328
  0
VERTEX
  8
0
 10
1566.771492
 20
1302.196971
 70
0
 42
0.207373
  0
VERTEX
  8
0
 10
1568.261016
 20
1301.558245
 70
0
  0
SEQEND
  0
POLYLINE
  8
0
  6
CONTINUOUS
 62
1
 66
1
 70
2
  0
VERTEX
  8
0
 10
1583.796889
 20
1301.558245
 70
0
 42
0.207373
  0
VERTEX
  8
0
 10
1585.286413
 20
1302.196971
 70
0
 42
0.220328
  0
VERTEX
  8
0
 10
1585.784898
 20
1303.688179
 70
0
  0
SEQEND
  0
POLYLINE
  8
0
  6
CONTINUOUS
 62
1
 66
1
 70
2
  0
VERTEX
  8
0
 10
1583.136889
 20
1311.158245
 70
0
 42
-0.179121
  0
VERTEX
  8
0
 10
1584.471550
 20
1310.668188
 70
0
 42
-0.189055
  0
VERTEX
  8
0
 10
1585.124898
 20
1309.448179
 70
0
  0
SEQEND
  0
POLYLINE
  8
0
  6
CONTINUOUS
 62
1
 66
1
 70
2
  0
VERTEX
  8
0
 10
1590.161016
 20
1311.158245
 70
0
 42
0.207373
  0
VERTEX
  8
0
 10
1588.671492
 20
1310.519519
 70
0
 42
0.220328
  0
VERTEX
  8
0
 10
1588.173007
 20
1309.028311
 70
0
  0
SEQEND
  0
POLYLINE
  8
0
  6
CONTINUOUS
 62
1
 66
1
 70
2
  0
VERTEX
  8
0
 10
1588.833007
 20
1303.268311
 70
0
 42
0.189055
  0
VERTEX
  8
0
 10
1589.486356
 20
1302.048302
 70
0
 42
0.179121
  0
VERTEX
  8
0
 10
1590.821016
 20
1301.558245
 70
0
  0
SEQEND
  0
POLYLINE
  8
0
  6
CONTINUOUS
 62
1
 66
1
 70
2
  0
VERTEX
  8
0
 10
1605.036889
 20
1301.558245
 70
0
 42
0.179121
  0
VERTEX
  8
0
 10
1606.371550
 20
1302.048302
 70
0
 42
0.189055
  0
VERTEX
  8
0
 10
1607.024898
 20
1303.268311
 70
0
  0
SEQEND
  0
POLYLINE
  8
0
  6
CONTINUOUS
 62
1
 66
1
 70
2
  0
VERTEX
  8
0
 10
1607.684898
 20
1309.028311
 70
0
 42
0.220328
  0
VERTEX
  8
0
 10
1607.186413
 20
1310.519519
 70
0
 42
0.207373
  0
VERTEX
  8
0
 10
1605.696889
 20
1311.158245
 70
0
  0
SEQEND
  0
LINE
  8
0
  6
CONTINUOUS
 62
1
 10
1615.953360
 20
1314.038245
 11
1601.737488
 21
1314.038245
  0
LINE
  8
0
  6
CONTINUOUS
 62
1
 10
1639.841369
 20
1321.928179
 11
1640.501369
 21
1316.168179
  0
LINE
  8
0
  6
CONTINUOUS
 62
1
 10
1621.649479
 20
1321.928179
 11
1620.989479
 21
1316.168179
  0
LINE
  8
0
  6
CONTINUOUS
 62
1
 10
1617.941369
 20
1315.748311
 11
1618.601369
 21
1321.508311
  0
LINE
  8
0
  6
CONTINUOUS
 62
1
 10
1599.749479
 20
1315.748311
 11
1599.089479
 21
1321.508311
  0
LINE
  8
0
  6
CONTINUOUS
 62
1
 10
1623.637488
 20
1323.638245
 11
1637.853360
 21
1323.638245
  0
LINE
  8
0
  6
CONTINUOUS
 62
1
 10
1601.077488
 20
1323.638245
 11
1616.613360
 21
1323.638245
  0
POLYLINE
  8
0
  6
CONTINUOUS
 62
1
 66
1
 70
2
  0
VERTEX
  8
0
 10
1638.513360
 20
1314.038245
 70
0
 42
0.207373
  0
VERTEX
  8
0
 10
1640.002884
 20
1314.676971
 70
0
 42
0.220328
  0
VERTEX
  8
0
 10
1640.501369
 20
1316.168179
 70
0
  0
SEQEND
  0
POLYLINE
  8
0
  6
CONTINUOUS
 62
1
 66
1
 70
2
  0
VERTEX
  8
0
 10
1639.841369
 20
1321.928179
 70
0
 42
0.189055
  0
VERTEX
  8
0
 10
1639.188021
 20
1323.148188
 70
0
 42
0.179121
  0
VERTEX
  8
0
 10
1637.853360
 20
1323.638245
 70
0
  0
SEQEND
  0
POLYLINE
  8
0
  6
CONTINUOUS
 62
1
 66
1
 70
2
  0
VERTEX
  8
0
 10
1623.637488
 20
1323.638245
 70
0
 42
0.179121
  0
VERTEX
  8
0
 10
1622.302827
 20
1323.148188
 70
0
 42
0.189055
  0
VERTEX
  8
0
 10
1621.649479
 20
1321.928179
 70
0
  0
SEQEND
  0
POLYLINE
  8
0
  6
CONTINUOUS
 62
1
 66
1
 70
2
  0
VERTEX
  8
0
 10
1620.989479
 20
1316.168179
 70
0
 42
0.220328
  0
VERTEX
  8
0
 10
1621.487964
 20
1314.676971
 70
0
 42
0.207373
  0
VERTEX
  8
0
 10
1622.977488
 20
1314.038245
 70
0
  0
SEQEND
  0
POLYLINE
  8
0
  6
CONTINUOUS
 62
1
 66
1
 70
2
  0
VERTEX
  8
0
 10
1617.941369
 20
1315.748311
 70
0
 42
-0.189055
  0
VERTEX
  8
0
 10
1617.288021
 20
1314.528302
 70
0
 42
-0.179121
  0
VERTEX
  8
0
 10
1615.953360
 20
1314.038245
 70
0
  0
SEQEND
  0
POLYLINE
  8
0
  6
CONTINUOUS
 62
1
 66
1
 70
2
  0
VERTEX
  8
0
 10
1601.737488
 20
1314.038245
 70
0
 42
-0.179121
  0
VERTEX
  8
0
 10
1600.402827
 20
1314.528302
 70
0
 42
-0.189055
  0
VERTEX
  8
0
 10
1599.749479
 20
1315.748311
 70
0
  0
SEQEND
  0
POLYLINE
  8
0
  6
CONTINUOUS
 62
1
 66
1
 70
2
  0
VERTEX
  8
0
 10
1599.089479
 20
1321.508311
 70
0
 42
-0.220328
  0
VERTEX
  8
0
 10
1599.587964
 20
1322.999519
 70
0
 42
-0.207373
  0
VERTEX
  8
0
 10
1601.077488
 20
1323.638245
 70
0
  0
SEQEND
  0
POLYLINE
  8
0
  6
CONTINUOUS
 62
1
 66
1
 70
2
  0
VERTEX
  8
0
 10
1616.613360
 20
1323.638245
 70
0
 42
-0.207373
  0
VERTEX
  8
0
 10
1618.102884
 20
1322.999519
 70
0
 42
-0.220328
  0
VERTEX
  8
0
 10
1618.601369
 20
1321.508311
 70
0
  0
SEQEND
  0
LINE
  8
0
  6
CONTINUOUS
 62
1
 10
1638.513360
 20
1314.038245
 11
1622.977488
 21
1314.038245
  0
LINE
  8
0
  6
CONTINUOUS
 62
1
 10
1648.836889
 20
1326.518245
 11
1634.621016
 21
1326.518245
  0
LINE
  8
0
  6
CONTINUOUS
 62
1
 10
1612.721016
 20
1336.118245
 11
1626.936889
 21
1336.118245
  0
LINE
  8
0
  6
CONTINUOUS
 62
1
 10
1633.961016
 20
1336.118245
 11
1649.496889
 21
1336.118245
  0
LINE
  8
0
  6
CONTINUOUS
 62
1
 10
1632.633007
 20
1328.228311
 11
1631.973007
 21
1333.988311
  0
LINE
  8
0
  6
CONTINUOUS
 62
1
 10
1650.824898
 20
1328.228311
 11
1651.484898
 21
1333.988311
  0
LINE
  8
0
  6
CONTINUOUS
 62
1
 10
1610.733007
 20
1334.408179
 11
1610.073007
 21
1328.648179
  0
LINE
  8
0
  6
CONTINUOUS
 62
1
 10
1628.924898
 20
1334.408179
 11
1629.584898
 21
1328.648179
  0
LINE
  8
0
  6
CONTINUOUS
 62
1
 10
1627.596889
 20
1326.518245
 11
1612.061016
 21
1326.518245
  0
POLYLINE
  8
0
  6
CONTINUOUS
 62
1
 66
1
 70
2
  0
VERTEX
  8
0
 10
1612.721016
 20
1336.118245
 70
0
 42
0.179121
  0
VERTEX
  8
0
 10
1611.386356
 20
1335.628188
 70
0
 42
0.189055
  0
VERTEX
  8
0
 10
1610.733007
 20
1334.408179
 70
0
  0
SEQEND
  0
POLYLINE
  8
0
  6
CONTINUOUS
 62
1
 66
1
 70
2
  0
VERTEX
  8
0
 10
1610.073007
 20
1328.648179
 70
0
 42
0.220328
  0
VERTEX
  8
0
 10
1610.571492
 20
1327.156971
 70
0
 42
0.207373
  0
VERTEX
  8
0
 10
1612.061016
 20
1326.518245
 70
0
  0
SEQEND
  0
POLYLINE
  8
0
  6
CONTINUOUS
 62
1
 66
1
 70
2
  0
VERTEX
  8
0
 10
1627.596889
 20
1326.518245
 70
0
 42
0.207373
  0
VERTEX
  8
0
 10
1629.086413
 20
1327.156971
 70
0
 42
0.220328
  0
VERTEX
  8
0
 10
1629.584898
 20
1328.648179
 70
0
  0
SEQEND
  0
POLYLINE
  8
0
  6
CONTINUOUS
 62
1
 66
1
 70
2
  0
VERTEX
  8
0
 10
1626.936889
 20
1336.118245
 70
0
 42
-0.179121
  0
VERTEX
  8
0
 10
1628.271550
 20
1335.628188
 70
0
 42
-0.189055
  0
VERTEX
  8
0
 10
1628.924898
 20
1334.408179
 70
0
  0
SEQEND
  0
POLYLINE
  8
0
  6
CONTINUOUS
 62
1
 66
1
 70
2
  0
VERTEX
  8
0
 10
1633.961016
 20
1336.118245
 70
0
 42
0.207373
  0
VERTEX
  8
0
 10
1632.471492
 20
1335.479519
 70
0
 42
0.220328
  0
VERTEX
  8
0
 10
1631.973007
 20
1333.988311
 70
0
  0
SEQEND
  0
POLYLINE
  8
0
  6
CONTINUOUS
 62
1
 66
1
 70
2
  0
VERTEX
  8
0
 10
1632.633007
 20
1328.228311
 70
0
 42
0.189055
  0
VERTEX
  8
0
 10
1633.286356
 20
1327.008302
 70
0
 42
0.179121
  0
VERTEX
  8
0
 10
1634.621016
 20
1326.518245
 70
0
  0
SEQEND
  0
POLYLINE
  8
0
  6
CONTINUOUS
 62
1
 66
1
 70
2
  0
VERTEX
  8
0
 10
1648.836889
 20
1326.518245
 70
0
 42
0.179121
  0
VERTEX
  8
0
 10
1650.171550
 20
1327.008302
 70
0
 42
0.189055
  0
VERTEX
  8
0
 10
1650.824898
 20
1328.228311
 70
0
  0
SEQEND
  0
POLYLINE
  8
0
  6
CONTINUOUS
 62
1
 66
1
 70
2
  0
VERTEX
  8
0
 10
1651.484898
 20
1333.988311
 70
0
 42
0.220328
  0
VERTEX
  8
0
 10
1650.986413
 20
1335.479519
 70
0
 42
0.207373
  0
VERTEX
  8
0
 10
1649.496889
 20
1336.118245
 70
0
  0
SEQEND
  0
LINE
  8
0
  6
CONTINUOUS
 62
1
 10
1648.836889
 20
1301.558245
 11
1634.621016
 21
1301.558245
  0
LINE
  8
0
  6
CONTINUOUS
 62
1
 10
1612.721016
 20
1311.158245
 11
1626.936889
 21
1311.158245
  0
LINE
  8
0
  6
CONTINUOUS
 62
1
 10
1633.961016
 20
1311.158245
 11
1649.496889
 21
1311.158245
  0
LINE
  8
0
  6
CONTINUOUS
 62
1
 10
1632.633007
 20
1303.268311
 11
1631.973007
 21
1309.028311
  0
LINE
  8
0
  6
CONTINUOUS
 62
1
 10
1650.824898
 20
1303.268311
 11
1651.484898
 21
1309.028311
  0
LINE
  8
0
  6
CONTINUOUS
 62
1
 10
1610.733007
 20
1309.448179
 11
1610.073007
 21
1303.688179
  0
LINE
  8
0
  6
CONTINUOUS
 62
1
 10
1628.924898
 20
1309.448179
 11
1629.584898
 21
1303.688179
  0
LINE
  8
0
  6
CONTINUOUS
 62
1
 10
1627.596889
 20
1301.558245
 11
1612.061016
 21
1301.558245
  0
POLYLINE
  8
0
  6
CONTINUOUS
 62
1
 66
1
 70
2
  0
VERTEX
  8
0
 10
1612.721016
 20
1311.158245
 70
0
 42
0.179121
  0
VERTEX
  8
0
 10
1611.386356
 20
1310.668188
 70
0
 42
0.189055
  0
VERTEX
  8
0
 10
1610.733007
 20
1309.448179
 70
0
  0
SEQEND
  0
POLYLINE
  8
0
  6
CONTINUOUS
 62
1
 66
1
 70
2
  0
VERTEX
  8
0
 10
1610.073007
 20
1303.688179
 70
0
 42
0.220328
  0
VERTEX
  8
0
 10
1610.571492
 20
1302.196971
 70
0
 42
0.207373
  0
VERTEX
  8
0
 10
1612.061016
 20
1301.558245
 70
0
  0
SEQEND
  0
POLYLINE
  8
0
  6
CONTINUOUS
 62
1
 66
1
 70
2
  0
VERTEX
  8
0
 10
1627.596889
 20
1301.558245
 70
0
 42
0.207373
  0
VERTEX
  8
0
 10
1629.086413
 20
1302.196971
 70
0
 42
0.220328
  0
VERTEX
  8
0
 10
1629.584898
 20
1303.688179
 70
0
  0
SEQEND
  0
POLYLINE
  8
0
  6
CONTINUOUS
 62
1
 66
1
 70
2
  0
VERTEX
  8
0
 10
1626.936889
 20
1311.158245
 70
0
 42
-0.179121
  0
VERTEX
  8
0
 10
1628.271550
 20
1310.668188
 70
0
 42
-0.189055
  0
VERTEX
  8
0
 10
1628.924898
 20
1309.448179
 70
0
  0
SEQEND
  0
POLYLINE
  8
0
  6
CONTINUOUS
 62
1
 66
1
 70
2
  0
VERTEX
  8
0
 10
1633.961016
 20
1311.158245
 70
0
 42
0.207373
  0
VERTEX
  8
0
 10
1632.471492
 20
1310.519519
 70
0
 42
0.220328
  0
VERTEX
  8
0
 10
1631.973007
 20
1309.028311
 70
0
  0
SEQEND
  0
POLYLINE
  8
0
  6
CONTINUOUS
 62
1
 66
1
 70
2
  0
VERTEX
  8
0
 10
1632.633007
 20
1303.268311
 70
0
 42
0.189055
  0
VERTEX
  8
0
 10
1633.286356
 20
1302.048302
 70
0
 42
0.179121
  0
VERTEX
  8
0
 10
1634.621016
 20
1301.558245
 70
0
  0
SEQEND
  0
POLYLINE
  8
0
  6
CONTINUOUS
 62
1
 66
1
 70
2
  0
VERTEX
  8
0
 10
1648.836889
 20
1301.558245
 70
0
 42
0.179121
  0
VERTEX
  8
0
 10
1650.171550
 20
1302.048302
 70
0
 42
0.189055
  0
VERTEX
  8
0
 10
1650.824898
 20
1303.268311
 70
0
  0
SEQEND
  0
POLYLINE
  8
0
  6
CONTINUOUS
 62
1
 66
1
 70
2
  0
VERTEX
  8
0
 10
1651.484898
 20
1309.028311
 70
0
 42
0.220328
  0
VERTEX
  8
0
 10
1650.986413
 20
1310.519519
 70
0
 42
0.207373
  0
VERTEX
  8
0
 10
1649.496889
 20
1311.158245
 70
0
  0
SEQEND
  0
LINE
  8
0
  6
CONTINUOUS
 62
1
 10
1659.753360
 20
1314.038245
 11
1645.537488
 21
1314.038245
  0
LINE
  8
0
  6
CONTINUOUS
 62
1
 10
1683.641369
 20
1321.928179
 11
1684.301369
 21
1316.168179
  0
LINE
  8
0
  6
CONTINUOUS
 62
1
 10
1665.449479
 20
1321.928179
 11
1664.789479
 21
1316.168179
  0
LINE
  8
0
  6
CONTINUOUS
 62
1
 10
1661.741369
 20
1315.748311
 11
1662.401369
 21
1321.508311
  0
LINE
  8
0
  6
CONTINUOUS
 62
1
 10
1643.549479
 20
1315.748311
 11
1642.889479
 21
1321.508311
  0
LINE
  8
0
  6
CONTINUOUS
 62
1
 10
1667.437488
 20
1323.638245
 11
1681.653360
 21
1323.638245
  0
LINE
  8
0
  6
CONTINUOUS
 62
1
 10
1644.877488
 20
1323.638245
 11
1660.413360
 21
1323.638245
  0
POLYLINE
  8
0
  6
CONTINUOUS
 62
1
 66
1
 70
2
  0
VERTEX
  8
0
 10
1682.313360
 20
1314.038245
 70
0
 42
0.207373
  0
VERTEX
  8
0
 10
1683.802884
 20
1314.676971
 70
0
 42
0.220328
  0
VERTEX
  8
0
 10
1684.301369
 20
1316.168179
 70
0
  0
SEQEND
  0
POLYLINE
  8
0
  6
CONTINUOUS
 62
1
 66
1
 70
2
  0
VERTEX
  8
0
 10
1683.641369
 20
1321.928179
 70
0
 42
0.189055
  0
VERTEX
  8
0
 10
1682.988021
 20
1323.148188
 70
0
 42
0.179121
  0
VERTEX
  8
0
 10
1681.653360
 20
1323.638245
 70
0
  0
SEQEND
  0
POLYLINE
  8
0
  6
CONTINUOUS
 62
1
 66
1
 70
2
  0
VERTEX
  8
0
 10
1667.437488
 20
1323.638245
 70
0
 42
0.179121
  0
VERTEX
  8
0
 10
1666.102827
 20
1323.148188
 70
0
 42
0.189055
  0
VERTEX
  8
0
 10
1665.449479
 20
1321.928179
 70
0
  0
SEQEND
  0
POLYLINE
  8
0
  6
CONTINUOUS
 62
1
 66
1
 70
2
  0
VERTEX
  8
0
 10
1664.789479
 20
1316.168179
 70
0
 42
0.220328
  0
VERTEX
  8
0
 10
1665.287964
 20
1314.676971
 70
0
 42
0.207373
  0
VERTEX
  8
0
 10
1666.777488
 20
1314.038245
 70
0
  0
SEQEND
  0
POLYLINE
  8
0
  6
CONTINUOUS
 62
1
 66
1
 70
2
  0
VERTEX
  8
0
 10
1661.741369
 20
1315.748311
 70
0
 42
-0.189055
  0
VERTEX
  8
0
 10
1661.088021
 20
1314.528302
 70
0
 42
-0.179121
  0
VERTEX
  8
0
 10
1659.753360
 20
1314.038245
 70
0
  0
SEQEND
  0
POLYLINE
  8
0
  6
CONTINUOUS
 62
1
 66
1
 70
2
  0
VERTEX
  8
0
 10
1645.537488
 20
1314.038245
 70
0
 42
-0.179121
  0
VERTEX
  8
0
 10
1644.202827
 20
1314.528302
 70
0
 42
-0.189055
  0
VERTEX
  8
0
 10
1643.549479
 20
1315.748311
 70
0
  0
SEQEND
  0
POLYLINE
  8
0
  6
CONTINUOUS
 62
1
 66
1
 70
2
  0
VERTEX
  8
0
 10
1642.889479
 20
1321.508311
 70
0
 42
-0.220328
  0
VERTEX
  8
0
 10
1643.387964
 20
1322.999519
 70
0
 42
-0.207373
  0
VERTEX
  8
0
 10
1644.877488
 20
1323.638245
 70
0
  0
SEQEND
  0
POLYLINE
  8
0
  6
CONTINUOUS
 62
1
 66
1
 70
2
  0
VERTEX
  8
0
 10
1660.413360
 20
1323.638245
 70
0
 42
-0.207373
  0
VERTEX
  8
0
 10
1661.902884
 20
1322.999519
 70
0
 42
-0.220328
  0
VERTEX
  8
0
 10
1662.401369
 20
1321.508311
 70
0
  0
SEQEND
  0
LINE
  8
0
  6
CONTINUOUS
 62
1
 10
1682.313360
 20
1314.038245
 11
1666.777488
 21
1314.038245
  0
LINE
  8
0
  6
CONTINUOUS
 62
1
 10
1692.636889
 20
1326.518245
 11
1678.421016
 21
1326.518245
  0
LINE
  8
0
  6
CONTINUOUS
 62
1
 10
1656.521016
 20
1336.118245
 11
1670.736889
 21
1336.118245
  0
LINE
  8
0
  6
CONTINUOUS
 62
1
 10
1677.761016
 20
1336.118245
 11
1693.296889
 21
1336.118245
  0
LINE
  8
0
  6
CONTINUOUS
 62
1
 10
1676.433007
 20
1328.228311
 11
1675.773007
 21
1333.988311
  0
LINE
  8
0
  6
CONTINUOUS
 62
1
 10
1694.624898
 20
1328.228311
 11
1695.284898
 21
1333.988311
  0
LINE
  8
0
  6
CONTINUOUS
 62
1
 10
1654.533007
 20
1334.408179
 11
1653.873007
 21
1328.648179
  0
LINE
  8
0
  6
CONTINUOUS
 62
1
 10
1672.724898
 20
1334.408179
 11
1673.384898
 21
1328.648179
  0
LINE
  8
0
  6
CONTINUOUS
 62
1
 10
1671.396889
 20
1326.518245
 11
1655.861016
 21
1326.518245
  0
POLYLINE
  8
0
  6
CONTINUOUS
 62
1
 66
1
 70
2
  0
VERTEX
  8
0
 10
1656.521016
 20
1336.118245
 70
0
 42
0.179121
  0
VERTEX
  8
0
 10
1655.186356
 20
1335.628188
 70
0
 42
0.189055
  0
VERTEX
  8
0
 10
1654.533007
 20
1334.408179
 70
0
  0
SEQEND
  0
POLYLINE
  8
0
  6
CONTINUOUS
 62
1
 66
1
 70
2
  0
VERTEX
  8
0
 10
1653.873007
 20
1328.648179
 70
0
 42
0.220328
  0
VERTEX
  8
0
 10
1654.371492
 20
1327.156971
 70
0
 42
0.207373
  0
VERTEX
  8
0
 10
1655.861016
 20
1326.518245
 70
0
  0
SEQEND
  0
POLYLINE
  8
0
  6
CONTINUOUS
 62
1
 66
1
 70
2
  0
VERTEX
  8
0
 10
1671.396889
 20
1326.518245
 70
0
 42
0.207373
  0
VERTEX
  8
0
 10
1672.886413
 20
1327.156971
 70
0
 42
0.220328
  0
VERTEX
  8
0
 10
1673.384898
 20
1328.648179
 70
0
  0
SEQEND
  0
POLYLINE
  8
0
  6
CONTINUOUS
 62
1
 66
1
 70
2
  0
VERTEX
  8
0
 10
1670.736889
 20
1336.118245
 70
0
 42
-0.179121
  0
VERTEX
  8
0
 10
1672.071550
 20
1335.628188
 70
0
 42
-0.189055
  0
VERTEX
  8
0
 10
1672.724898
 20
1334.408179
 70
0
  0
SEQEND
  0
POLYLINE
  8
0
  6
CONTINUOUS
 62
1
 66
1
 70
2
  0
VERTEX
  8
0
 10
1677.761016
 20
1336.118245
 70
0
 42
0.207373
  0
VERTEX
  8
0
 10
1676.271492
 20
1335.479519
 70
0
 42
0.220328
  0
VERTEX
  8
0
 10
1675.773007
 20
1333.988311
 70
0
  0
SEQEND
  0
POLYLINE
  8
0
  6
CONTINUOUS
 62
1
 66
1
 70
2
  0
VERTEX
  8
0
 10
1676.433007
 20
1328.228311
 70
0
 42
0.189055
  0
VERTEX
  8
0
 10
1677.086356
 20
1327.008302
 70
0
 42
0.179121
  0
VERTEX
  8
0
 10
1678.421016
 20
1326.518245
 70
0
  0
SEQEND
  0
POLYLINE
  8
0
  6
CONTINUOUS
 62
1
 66
1
 70
2
  0
VERTEX
  8
0
 10
1692.636889
 20
1326.518245
 70
0
 42
0.179121
  0
VERTEX
  8
0
 10
1693.971550
 20
1327.008302
 70
0
 42
0.189055
  0
VERTEX
  8
0
 10
1694.624898
 20
1328.228311
 70
0
  0
SEQEND
  0
POLYLINE
  8
0
  6
CONTINUOUS
 62
1
 66
1
 70
2
  0
VERTEX
  8
0
 10
1695.284898
 20
1333.988311
 70
0
 42
0.220328
  0
VERTEX
  8
0
 10
1694.786413
 20
1335.479519
 70
0
 42
0.207373
  0
VERTEX
  8
0
 10
1693.296889
 20
1336.118245
 70
0
  0
SEQEND
  0
LINE
  8
0
  6
CONTINUOUS
 62
1
 10
1692.636889
 20
1301.558245
 11
1678.421016
 21
1301.558245
  0
LINE
  8
0
  6
CONTINUOUS
 62
1
 10
1656.521016
 20
1311.158245
 11
1670.736889
 21
1311.158245
  0
LINE
  8
0
  6
CONTINUOUS
 62
1
 10
1677.761016
 20
1311.158245
 11
1693.296889
 21
1311.158245
  0
LINE
  8
0
  6
CONTINUOUS
 62
1
 10
1676.433007
 20
1303.268311
 11
1675.773007
 21
1309.028311
  0
LINE
  8
0
  6
CONTINUOUS
 62
1
 10
1694.624898
 20
1303.268311
 11
1695.284898
 21
1309.028311
  0
LINE
  8
0
  6
CONTINUOUS
 62
1
 10
1654.533007
 20
1309.448179
 11
1653.873007
 21
1303.688179
  0
LINE
  8
0
  6
CONTINUOUS
 62
1
 10
1672.724898
 20
1309.448179
 11
1673.384898
 21
1303.688179
  0
LINE
  8
0
  6
CONTINUOUS
 62
1
 10
1671.396889
 20
1301.558245
 11
1655.861016
 21
1301.558245
  0
POLYLINE
  8
0
  6
CONTINUOUS
 62
1
 66
1
 70
2
  0
VERTEX
  8
0
 10
1656.521016
 20
1311.158245
 70
0
 42
0.179121
  0
VERTEX
  8
0
 10
1655.186356
 20
1310.668188
 70
0
 42
0.189055
  0
VERTEX
  8
0
 10
1654.533007
 20
1309.448179
 70
0
  0
SEQEND
  0
POLYLINE
  8
0
  6
CONTINUOUS
 62
1
 66
1
 70
2
  0
VERTEX
  8
0
 10
1653.873007
 20
1303.688179
 70
0
 42
0.220328
  0
VERTEX
  8
0
 10
1654.371492
 20
1302.196971
 70
0
 42
0.207373
  0
VERTEX
  8
0
 10
1655.861016
 20
1301.558245
 70
0
  0
SEQEND
  0
POLYLINE
  8
0
  6
CONTINUOUS
 62
1
 66
1
 70
2
  0
VERTEX
  8
0
 10
1671.396889
 20
1301.558245
 70
0
 42
0.207373
  0
VERTEX
  8
0
 10
1672.886413
 20
1302.196971
 70
0
 42
0.220328
  0
VERTEX
  8
0
 10
1673.384898
 20
1303.688179
 70
0
  0
SEQEND
  0
POLYLINE
  8
0
  6
CONTINUOUS
 62
1
 66
1
 70
2
  0
VERTEX
  8
0
 10
1670.736889
 20
1311.158245
 70
0
 42
-0.179121
  0
VERTEX
  8
0
 10
1672.071550
 20
1310.668188
 70
0
 42
-0.189055
  0
VERTEX
  8
0
 10
1672.724898
 20
1309.448179
 70
0
  0
SEQEND
  0
POLYLINE
  8
0
  6
CONTINUOUS
 62
1
 66
1
 70
2
  0
VERTEX
  8
0
 10
1677.761016
 20
1311.158245
 70
0
 42
0.207373
  0
VERTEX
  8
0
 10
1676.271492
 20
1310.519519
 70
0
 42
0.220328
  0
VERTEX
  8
0
 10
1675.773007
 20
1309.028311
 70
0
  0
SEQEND
  0
POLYLINE
  8
0
  6
CONTINUOUS
 62
1
 66
1
 70
2
  0
VERTEX
  8
0
 10
1676.433007
 20
1303.268311
 70
0
 42
0.189055
  0
VERTEX
  8
0
 10
1677.086356
 20
1302.048302
 70
0
 42
0.179121
  0
VERTEX
  8
0
 10
1678.421016
 20
1301.558245
 70
0
  0
SEQEND
  0
POLYLINE
  8
0
  6
CONTINUOUS
 62
1
 66
1
 70
2
  0
VERTEX
  8
0
 10
1692.636889
 20
1301.558245
 70
0
 42
0.179121
  0
VERTEX
  8
0
 10
1693.971550
 20
1302.048302
 70
0
 42
0.189055
  0
VERTEX
  8
0
 10
1694.624898
 20
1303.268311
 70
0
  0
SEQEND
  0
POLYLINE
  8
0
  6
CONTINUOUS
 62
1
 66
1
 70
2
  0
VERTEX
  8
0
 10
1695.284898
 20
1309.028311
 70
0
 42
0.220328
  0
VERTEX
  8
0
 10
1694.786413
 20
1310.519519
 70
0
 42
0.207373
  0
VERTEX
  8
0
 10
1693.296889
 20
1311.158245
 70
0
  0
SEQEND
  0
LINE
  8
0
  6
CONTINUOUS
 62
1
 10
1703.553360
 20
1314.038245
 11
1689.337488
 21
1314.038245
  0
LINE
  8
0
  6
CONTINUOUS
 62
1
 10
1705.541369
 20
1315.748311
 11
1706.201369
 21
1321.508311
  0
LINE
  8
0
  6
CONTINUOUS
 62
1
 10
1687.349479
 20
1315.748311
 11
1686.689479
 21
1321.508311
  0
LINE
  8
0
  6
CONTINUOUS
 62
1
 10
1688.677488
 20
1323.638245
 11
1704.213360
 21
1323.638245
  0
POLYLINE
  8
0
  6
CONTINUOUS
 62
1
 66
1
 70
2
  0
VERTEX
  8
0
 10
1705.541369
 20
1315.748311
 70
0
 42
-0.189055
  0
VERTEX
  8
0
 10
1704.888021
 20
1314.528302
 70
0
 42
-0.179121
  0
VERTEX
  8
0
 10
1703.553360
 20
1314.038245
 70
0
  0
SEQEND
  0
POLYLINE
  8
0
  6
CONTINUOUS
 62
1
 66
1
 70
2
  0
VERTEX
  8
0
 10
1689.337488
 20
1314.038245
 70
0
 42
-0.179121
  0
VERTEX
  8
0
 10
1688.002827
 20
1314.528302
 70
0
 42
-0.189055
  0
VERTEX
  8
0
 10
1687.349479
 20
1315.748311
 70
0
  0
SEQEND
  0
POLYLINE
  8
0
  6
CONTINUOUS
 62
1
 66
1
 70
2
  0
VERTEX
  8
0
 10
1686.689479
 20
1321.508311
 70
0
 42
-0.220328
  0
VERTEX
  8
0
 10
1687.187964
 20
1322.999519
 70
0
 42
-0.207373
  0
VERTEX
  8
0
 10
1688.677488
 20
1323.638245
 70
0
  0
SEQEND
  0
POLYLINE
  8
0
  6
CONTINUOUS
 62
1
 66
1
 70
2
  0
VERTEX
  8
0
 10
1704.213360
 20
1323.638245
 70
0
 42
-0.207373
  0
VERTEX
  8
0
 10
1705.702884
 20
1322.999519
 70
0
 42
-0.220328
  0
VERTEX
  8
0
 10
1706.201369
 20
1321.508311
 70
0
  0
SEQEND
  0
LINE
  8
0
  6
CONTINUOUS
 62
1
 10
1700.321016
 20
1336.118245
 11
1714.536889
 21
1336.118245
  0
LINE
  8
0
  6
CONTINUOUS
 62
1
 10
1698.333007
 20
1334.408179
 11
1697.673007
 21
1328.648179
  0
LINE
  8
0
  6
CONTINUOUS
 62
1
 10
1716.524898
 20
1334.408179
 11
1717.184898
 21
1328.648179
  0
LINE
  8
0
  6
CONTINUOUS
 62
1
 10
1715.196889
 20
1326.518245
 11
1699.661016
 21
1326.518245
  0
POLYLINE
  8
0
  6
CONTINUOUS
 62
1
 66
1
 70
2
  0
VERTEX
  8
0
 10
1700.321016
 20
1336.118245
 70
0
 42
0.179121
  0
VERTEX
  8
0
 10
1698.986356
 20
1335.628188
 70
0
 42
0.189055
  0
VERTEX
  8
0
 10
1698.333007
 20
1334.408179
 70
0
  0
SEQEND
  0
POLYLINE
  8
0
  6
CONTINUOUS
 62
1
 66
1
 70
2
  0
VERTEX
  8
0
 10
1697.673007
 20
1328.648179
 70
0
 42
0.220328
  0
VERTEX
  8
0
 10
1698.171492
 20
1327.156971
 70
0
 42
0.207373
  0
VERTEX
  8
0
 10
1699.661016
 20
1326.518245
 70
0
  0
SEQEND
  0
POLYLINE
  8
0
  6
CONTINUOUS
 62
1
 66
1
 70
2
  0
VERTEX
  8
0
 10
1715.196889
 20
1326.518245
 70
0
 42
0.207373
  0
VERTEX
  8
0
 10
1716.686413
 20
1327.156971
 70
0
 42
0.220328
  0
VERTEX
  8
0
 10
1717.184898
 20
1328.648179
 70
0
  0
SEQEND
  0
POLYLINE
  8
0
  6
CONTINUOUS
 62
1
 66
1
 70
2
  0
VERTEX
  8
0
 10
1714.536889
 20
1336.118245
 70
0
 42
-0.179121
  0
VERTEX
  8
0
 10
1715.871550
 20
1335.628188
 70
0
 42
-0.189055
  0
VERTEX
  8
0
 10
1716.524898
 20
1334.408179
 70
0
  0
SEQEND
  0
LINE
  8
0
  6
CONTINUOUS
 62
1
 10
1700.321016
 20
1311.158245
 11
1714.536889
 21
1311.158245
  0
LINE
  8
0
  6
CONTINUOUS
 62
1
 10
1698.333007
 20
1309.448179
 11
1697.673007
 21
1303.688179
  0
LINE
  8
0
  6
CONTINUOUS
 62
1
 10
1716.524898
 20
1309.448179
 11
1717.184898
 21
1303.688179
  0
LINE
  8
0
  6
CONTINUOUS
 62
1
 10
1715.196889
 20
1301.558245
 11
1699.661016
 21
1301.558245
  0
POLYLINE
  8
0
  6
CONTINUOUS
 62
1
 66
1
 70
2
  0
VERTEX
  8
0
 10
1700.321016
 20
1311.158245
 70
0
 42
0.179121
  0
VERTEX
  8
0
 10
1698.986356
 20
1310.668188
 70
0
 42
0.189055
  0
VERTEX
  8
0
 10
1698.333007
 20
1309.448179
 70
0
  0
SEQEND
  0
POLYLINE
  8
0
  6
CONTINUOUS
 62
1
 66
1
 70
2
  0
VERTEX
  8
0
 10
1697.673007
 20
1303.688179
 70
0
 42
0.220328
  0
VERTEX
  8
0
 10
1698.171492
 20
1302.196971
 70
0
 42
0.207373
  0
VERTEX
  8
0
 10
1699.661016
 20
1301.558245
 70
0
  0
SEQEND
  0
POLYLINE
  8
0
  6
CONTINUOUS
 62
1
 66
1
 70
2
  0
VERTEX
  8
0
 10
1715.196889
 20
1301.558245
 70
0
 42
0.207373
  0
VERTEX
  8
0
 10
1716.686413
 20
1302.196971
 70
0
 42
0.220328
  0
VERTEX
  8
0
 10
1717.184898
 20
1303.688179
 70
0
  0
SEQEND
  0
POLYLINE
  8
0
  6
CONTINUOUS
 62
1
 66
1
 70
2
  0
VERTEX
  8
0
 10
1714.536889
 20
1311.158245
 70
0
 42
-0.179121
  0
VERTEX
  8
0
 10
1715.871550
 20
1310.668188
 70
0
 42
-0.189055
  0
VERTEX
  8
0
 10
1716.524898
 20
1309.448179
 70
0
  0
SEQEND
  0
LINE
  8
0
  6
CONTINUOUS
 62
1
 10
1729.978919
 20
1342.070235
 11
1729.978919
 21
1341.270235
  0
LINE
  8
0
  6
CONTINUOUS
 62
1
 10
874.378858
 20
1287.070235
 11
1774.378858
 21
1287.070235
  0
LINE
  8
0
  6
CENTER
 62
4
 10
1004.378858
 20
1304.070235
 11
1004.378858
 21
1362.070235
  0
ENDSEC
  0
EOF
