  0
SECTION
  2
HEADER
  9
$LIMMIN
 10
0.000000
 20
0.000000
  9
$LIMMAX
 10
840.896415
 20
594.603557
  9
$EXTMIN
 10
0.000000
 20
0.000000
  9
$EXTMAX
 10
3363.600000
 20
2378.420000
  9
$ANGBASE
 50
0.0
  9
$ANGDIR
 70
0
  9
$DIMRND
 40
0.100000
  9
$DIMSE1
 70
0
  9
$DIMSE2
 70
0
  9
$DIMTXT
 40
3.500000
  9
$LTSCALE
 40
1.000000
  9
$LUPREC
 70
5
  9
$AUPREC
 70
5
  9
$PDMODE
 70
2
  9
$PDSIZE
 40
16.818000
  0
ENDSEC
  0
SECTION
  2
TABLES
  0
TABLE
  2
VPORT
  70
1
  0
VPORT
  2
*ACTIVE
 70
0
  10
0.0
 20
0.0
 11
1.0
 21
1.0
 12
594.0
 22
420.0
 13
0.0
 23
0.0
 14
10.0
 24
10.0
 15
10.0
 25
10.0
 16
0.0
 26
0.0
 36
1.0
 17
594.0
 27
420.0
 37
100.0
 40
1000.0
 41
1.0
 42
50.0
 43
0.0
 44
0.0
 50
0.0
 51
0.0
 71
0
 72
2000
 73
1
 74
3
 75
0
 76
0
 77
0
 78
1
  0
ENDTAB
  0
TABLE
  2
LTYPE
 70
4
  0
LTYPE
  2
CONTINUOUS
 70
0
  3
Solid line
 72
65
 73
0
 40
0.0
  0
LTYPE
  2
DASHED
 70
0
  3
Dashed line
 72
65
 73
2
 40
6.000000
 49
3.000000
 49
-3.000000
  0
LTYPE
  2
CENTER
 70
0
  3
Chain line
 72
65
 73
4
 40
24.000000
 49
15.000000
 49
-3.000000
 49
3.000000
 49
-3.000000
  0
LTYPE
  2
RANDOM
 70
0
  3
Random line
 72
65
 73
4
 40
22.500000
 49
6.000000
 49
-3.000000
 49
4.500000
 49
-9.000000
  0
ENDTAB
  0
TABLE
  2
STYLE
 70
9
  0
STYLE
  2
STANDARD
 40
0
 41
1.0
 50
0.0
 71
0
 42
0
  3
simplex
  4

 70
0
  0
ENDTAB
  0
TABLE
  2
LAYER
 70
2
  0
LAYER
  2
0
 70
0
 62
7
  6
CONTINUOUS
  0
LAYER
  2
0
 62
1
  6
CONTINUOUS
 70
0
  0
ENDTAB
  0
ENDSEC
  0
SECTION
  2
BLOCKS
  0
ENDSEC
  0
SECTION
  2
ENTITIES
  0
LINE
  8
0
  6
CONTINUOUS
 62
1
 10
1037.625404
 20
870.030485
 11
963.625404
 21
870.030485
  0
LINE
  8
0
  6
CONTINUOUS
 62
1
 10
963.625404
 20
880.030485
 11
963.625404
 21
870.030485
  0
LINE
  8
0
  6
CONTINUOUS
 62
1
 10
978.187256
 20
864.092985
 11
979.157310
 21
770.967977
  0
ARC
  8
0
  6
CONTINUOUS
 62
1
 10
972.187584
 20
864.030485
 40
6.000000
 50
0.596809
 51
90.000000
  0
ARC
  8
0
  6
CONTINUOUS
 62
1
 10
1029.063240
 20
864.030485
 40
6.000000
 50
90.000000
 51
179.403198
  0
LINE
  8
0
  6
CONTINUOUS
 62
1
 10
984.125404
 20
731.030485
 11
984.625404
 21
731.030485
  0
LINE
  8
0
  6
CONTINUOUS
 62
1
 10
984.625404
 20
731.030485
 11
984.125404
 21
731.030485
  0
LINE
  8
0
  6
CONTINUOUS
 62
1
 10
1026.625404
 20
731.030485
 11
1015.625404
 21
735.030470
  0
LINE
  8
0
  6
CONTINUOUS
 62
1
 10
974.625404
 20
731.030485
 11
985.625404
 21
735.030470
  0
ARC
  8
0
  6
CONTINUOUS
 62
1
 10
1016.093834
 20
771.030477
 40
5.999996
 50
269.999969
 51
359.403160
  0
ARC
  8
0
  6
CONTINUOUS
 62
1
 10
985.156990
 20
771.030477
 40
6.000000
 50
180.596802
 51
270.000000
  0
LINE
  8
0
  6
CONTINUOUS
 62
1
 10
1022.125404
 20
774.030477
 11
979.125404
 21
774.030477
  0
LINE
  8
0
  6
CONTINUOUS
 62
1
 10
1023.063560
 20
864.092985
 11
1022.093513
 21
770.967977
  0
LINE
  8
0
  6
CONTINUOUS
 62
1
 10
985.625404
 20
765.030477
 11
985.625404
 21
735.030470
  0
LINE
  8
0
  6
CONTINUOUS
 62
1
 10
1015.625404
 20
765.030477
 11
1015.625404
 21
735.030470
  0
LINE
  8
0
  6
CONTINUOUS
 62
1
 10
1026.625404
 20
731.030485
 11
1016.625404
 21
731.030485
  0
LINE
  8
0
  6
CONTINUOUS
 62
1
 10
974.625404
 20
731.030485
 11
974.625404
 21
730.030485
  0
LINE
  8
0
  6
CONTINUOUS
 62
1
 10
1017.125404
 20
731.030485
 11
974.625404
 21
731.030485
  0
LINE
  8
0
  6
CONTINUOUS
 62
1
 10
1015.625404
 20
735.030470
 11
985.656349
 21
735.030470
  0
LINE
  8
0
  6
CONTINUOUS
 62
1
 10
1016.093834
 20
765.030477
 11
985.156990
 21
765.030477
  0
LINE
  8
0
  6
CONTINUOUS
 62
1
 10
1026.625404
 20
730.030485
 11
974.625404
 21
730.030485
  0
LINE
  8
0
  6
CONTINUOUS
 62
1
 10
1026.625404
 20
731.030485
 11
1026.625404
 21
730.030485
  0
LINE
  8
0
  6
CONTINUOUS
 62
1
 10
1037.625404
 20
870.030485
 11
1037.625404
 21
880.030485
  0
LINE
  8
0
  6
CONTINUOUS
 62
1
 10
1629.625404
 20
870.030485
 11
1555.625404
 21
870.030485
  0
LINE
  8
0
  6
CONTINUOUS
 62
1
 10
1555.625404
 20
880.030485
 11
1555.625404
 21
870.030485
  0
LINE
  8
0
  6
CONTINUOUS
 62
1
 10
1570.187256
 20
864.092985
 11
1571.157310
 21
770.967977
  0
ARC
  8
0
  6
CONTINUOUS
 62
1
 10
1564.187584
 20
864.030485
 40
6.000000
 50
0.596809
 51
90.000000
  0
ARC
  8
0
  6
CONTINUOUS
 62
1
 10
1621.063240
 20
864.030485
 40
6.000000
 50
90.000000
 51
179.403198
  0
LINE
  8
0
  6
CONTINUOUS
 62
1
 10
1576.125404
 20
731.030485
 11
1576.625404
 21
731.030485
  0
LINE
  8
0
  6
CONTINUOUS
 62
1
 10
1576.625404
 20
731.030485
 11
1576.125404
 21
731.030485
  0
LINE
  8
0
  6
CONTINUOUS
 62
1
 10
1618.625404
 20
731.030485
 11
1607.625404
 21
735.030470
  0
LINE
  8
0
  6
CONTINUOUS
 62
1
 10
1566.625404
 20
731.030485
 11
1577.625404
 21
735.030470
  0
ARC
  8
0
  6
CONTINUOUS
 62
1
 10
1608.093834
 20
771.030477
 40
5.999996
 50
269.999969
 51
359.403160
  0
ARC
  8
0
  6
CONTINUOUS
 62
1
 10
1577.156990
 20
771.030477
 40
6.000000
 50
180.596802
 51
270.000000
  0
LINE
  8
0
  6
CONTINUOUS
 62
1
 10
1614.125404
 20
774.030477
 11
1571.125404
 21
774.030477
  0
LINE
  8
0
  6
CONTINUOUS
 62
1
 10
1615.063560
 20
864.092985
 11
1614.093513
 21
770.967977
  0
LINE
  8
0
  6
CONTINUOUS
 62
1
 10
1577.625404
 20
765.030477
 11
1577.625404
 21
735.030470
  0
LINE
  8
0
  6
CONTINUOUS
 62
1
 10
1607.625404
 20
765.030477
 11
1607.625404
 21
735.030470
  0
LINE
  8
0
  6
CONTINUOUS
 62
1
 10
1618.625404
 20
731.030485
 11
1608.625404
 21
731.030485
  0
LINE
  8
0
  6
CONTINUOUS
 62
1
 10
1566.625404
 20
731.030485
 11
1566.625404
 21
730.030485
  0
LINE
  8
0
  6
CONTINUOUS
 62
1
 10
1609.125404
 20
731.030485
 11
1566.625404
 21
731.030485
  0
LINE
  8
0
  6
CONTINUOUS
 62
1
 10
1607.625404
 20
735.030470
 11
1577.656349
 21
735.030470
  0
LINE
  8
0
  6
CONTINUOUS
 62
1
 10
1608.093834
 20
765.030477
 11
1577.156990
 21
765.030477
  0
LINE
  8
0
  6
CONTINUOUS
 62
1
 10
1618.625404
 20
730.030485
 11
1566.625404
 21
730.030485
  0
LINE
  8
0
  6
CONTINUOUS
 62
1
 10
1618.625404
 20
731.030485
 11
1618.625404
 21
730.030485
  0
LINE
  8
0
  6
CONTINUOUS
 62
1
 10
1629.625404
 20
870.030485
 11
1629.625404
 21
880.030485
  0
LINE
  8
0
  6
CENTER
 62
4
 10
866.106707
 20
930.030485
 11
1000.625404
 21
930.030485
  0
LINE
  8
0
  6
CONTINUOUS
 62
1
 10
1093.725404
 20
1600.030485
 11
1104.485404
 21
1563.030485
  0
LINE
  8
0
  6
CONTINUOUS
 62
1
 10
1104.485404
 20
1563.030485
 11
1700.625404
 21
1563.030485
  0
LINE
  8
0
  6
CONTINUOUS
 62
1
 10
1700.625404
 20
1563.030485
 11
1700.625404
 21
1600.030485
  0
LINE
  8
0
  6
CONTINUOUS
 62
1
 10
1700.625404
 20
1600.030485
 11
1093.725404
 21
1600.030485
  0
LINE
  8
0
  6
CONTINUOUS
 62
1
 10
1683.355404
 20
1600.030485
 11
1665.625404
 21
1645.030485
  0
LINE
  8
0
  6
CONTINUOUS
 62
1
 10
1665.625404
 20
1645.030485
 11
1080.625404
 21
1645.030485
  0
LINE
  8
0
  6
CONTINUOUS
 62
1
 10
1080.625404
 20
1645.030485
 11
1093.725404
 21
1600.030485
  0
LINE
  8
0
  6
CONTINUOUS
 62
1
 10
1104.485404
 20
1563.030485
 11
1104.485404
 21
1415.030485
  0
LINE
  8
0
  6
CONTINUOUS
 62
1
 10
1640.625404
 20
1415.030485
 11
1640.625404
 21
880.030485
  0
LINE
  8
0
  6
CONTINUOUS
 62
1
 10
1640.625404
 20
880.030485
 11
930.625404
 21
880.030485
  0
LINE
  8
0
  6
CONTINUOUS
 62
1
 10
930.625404
 20
880.030485
 11
930.625404
 21
1627.305904
  0
LINE
  8
0
  6
CONTINUOUS
 62
1
 10
1020.625404
 20
1600.030485
 11
1045.625404
 21
1600.030485
  0
ARC
  8
0
  6
CONTINUOUS
 62
1
 10
1045.625404
 20
1560.030485
 40
40.000000
 50
0.000000
 51
90.000000
  0
LINE
  8
0
  6
CONTINUOUS
 62
1
 10
1085.625404
 20
1560.030485
 11
1085.625404
 21
1415.030485
  0
LINE
  8
0
  6
CONTINUOUS
 62
1
 10
930.625404
 20
1415.030485
 11
1675.625404
 21
1415.030485
  0
ARC
  8
0
  6
CONTINUOUS
 62
1
 10
1675.625404
 20
1440.030485
 40
25.000000
 50
270.000000
 51
0.000000
  0
LINE
  8
0
  6
CONTINUOUS
 62
1
 10
1700.625404
 20
1440.030485
 11
1700.625404
 21
1563.030485
  0
LINE
  8
0
  6
CONTINUOUS
 62
1
 10
1020.625404
 20
1600.030485
 11
1031.975404
 21
1535.030485
  0
LINE
  8
0
  6
CONTINUOUS
 62
1
 10
1031.975404
 20
1535.030485
 11
1085.625404
 21
1535.030485
  0
LINE
  8
0
  6
CONTINUOUS
 62
1
 10
1080.625404
 20
1645.030485
 11
1034.325404
 21
1600.030485
  0
LINE
  8
0
  6
CONTINUOUS
 62
1
 10
1090.195404
 20
1612.150485
 11
1069.555404
 21
1592.080485
  0
LINE
  8
0
  6
CONTINUOUS
 62
1
 10
1648.625404
 20
880.030485
 11
1685.625404
 21
880.030485
  0
LINE
  8
0
  6
CONTINUOUS
 62
1
 10
1685.625404
 20
880.030485
 11
1685.625404
 21
1055.030485
  0
LINE
  8
0
  6
CONTINUOUS
 62
1
 10
1685.625404
 20
1055.030485
 11
1648.625404
 21
1055.030485
  0
LINE
  8
0
  6
CONTINUOUS
 62
1
 10
1648.625404
 20
1055.030485
 11
1648.625404
 21
880.030485
  0
LINE
  8
0
  6
CONTINUOUS
 62
1
 10
1648.625404
 20
1055.030485
 11
1685.625404
 21
1055.030485
  0
LINE
  8
0
  6
CONTINUOUS
 62
1
 10
1685.625404
 20
1055.030485
 11
1685.625404
 21
1362.030485
  0
LINE
  8
0
  6
CONTINUOUS
 62
1
 10
1685.625404
 20
1362.030485
 11
1648.625404
 21
1362.030485
  0
LINE
  8
0
  6
CONTINUOUS
 62
1
 10
1648.625404
 20
1362.030485
 11
1648.625404
 21
1055.030485
  0
LINE
  8
0
  6
CONTINUOUS
 62
1
 10
1707.625404
 20
1222.530485
 11
1740.625404
 21
1222.530485
  0
LINE
  8
0
  6
CONTINUOUS
 62
1
 10
1740.625404
 20
1222.530485
 11
1740.625404
 21
1367.530485
  0
LINE
  8
0
  6
CONTINUOUS
 62
1
 10
1740.625404
 20
1367.530485
 11
1707.625404
 21
1367.530485
  0
LINE
  8
0
  6
CONTINUOUS
 62
1
 10
1707.625404
 20
1367.530485
 11
1707.625404
 21
1321.955313
  0
LINE
  8
0
  6
CONTINUOUS
 62
1
 10
1685.625404
 20
1322.030485
 11
1685.625404
 21
1272.030485
  0
LINE
  8
0
  6
CONTINUOUS
 62
1
 10
1676.455404
 20
1617.530485
 11
1688.125404
 21
1617.530485
  0
ARC
  8
0
  6
CONTINUOUS
 62
1
 10
1688.125404
 20
1582.530485
 40
35.000000
 50
61.927000
 51
89.999000
  0
LINE
  8
0
  6
CONTINUOUS
 62
1
 10
1704.595404
 20
1613.410485
 11
1787.095404
 21
1569.410485
  0
ARC
  8
0
  6
CONTINUOUS
 62
1
 10
1790.625404
 20
1576.030485
 40
7.500000
 50
241.926000
 51
61.926000
  0
LINE
  8
0
  6
CONTINUOUS
 62
1
 10
1794.155404
 20
1582.650485
 11
1711.655404
 21
1626.650485
  0
ARC
  8
0
  6
CONTINUOUS
 62
1
 10
1688.125404
 20
1582.530485
 40
50.000000
 50
61.926000
 51
89.999000
  0
LINE
  8
0
  6
CONTINUOUS
 62
1
 10
1688.125404
 20
1632.530485
 11
1670.545404
 21
1632.530485
  0
ARC
  8
0
  6
CONTINUOUS
 62
1
 10
1686.465404
 20
1531.770485
 40
69.710000
 50
352.796000
 51
78.278000
  0
LINE
  8
0
  6
CONTINUOUS
 62
1
 10
1755.625404
 20
1523.030485
 11
1749.175404
 21
1523.030485
  0
ARC
  8
0
  6
CONTINUOUS
 62
1
 10
1730.885404
 20
1519.380485
 40
18.650000
 50
11.286000
 51
168.714000
  0
LINE
  8
0
  6
CONTINUOUS
 62
1
 10
1712.595404
 20
1523.030485
 11
1712.595404
 21
1508.030485
  0
LINE
  8
0
  6
CONTINUOUS
 62
1
 10
1712.595404
 20
1508.030485
 11
1701.505404
 21
1508.030485
  0
LINE
  8
0
  6
CONTINUOUS
 62
1
 10
930.625404
 20
940.030485
 11
920.625404
 21
940.030485
  0
LINE
  8
0
  6
CONTINUOUS
 62
1
 10
920.625404
 20
940.030485
 11
920.625404
 21
920.030485
  0
LINE
  8
0
  6
CONTINUOUS
 62
1
 10
920.625404
 20
920.030485
 11
930.625404
 21
920.030485
  0
LINE
  8
0
  6
CONTINUOUS
 62
1
 10
1687.625404
 20
1330.500525
 11
1687.625404
 21
1291.660420
  0
LINE
  8
0
  6
CONTINUOUS
 62
1
 10
1717.625404
 20
1279.149691
 11
1717.625404
 21
1316.851266
  0
LINE
  8
0
  6
CONTINUOUS
 62
1
 10
1687.625404
 20
1291.660420
 11
1685.625404
 21
1291.660420
  0
LINE
  8
0
  6
CONTINUOUS
 62
1
 10
1685.625404
 20
1291.660420
 11
1685.625404
 21
1300.000525
  0
LINE
  8
0
  6
CONTINUOUS
 62
1
 10
1687.625404
 20
1291.660420
 11
1687.625404
 21
1265.500525
  0
LINE
  8
0
  6
CONTINUOUS
 62
1
 10
1687.625404
 20
1330.500525
 11
1697.625404
 21
1326.410100
  0
LINE
  8
0
  6
CONTINUOUS
 62
1
 10
1687.625404
 20
1265.500525
 11
1697.625404
 21
1269.587794
  0
LINE
  8
0
  6
CONTINUOUS
 62
1
 10
1687.625404
 20
1330.500525
 11
1697.625404
 21
1326.410100
  0
LINE
  8
0
  6
CONTINUOUS
 62
1
 10
1697.625404
 20
1269.587794
 11
1697.625404
 21
1326.410100
  0
LINE
  8
0
  6
CONTINUOUS
 62
1
 10
1685.625404
 20
1300.000525
 11
1687.625404
 21
1300.000525
  0
LINE
  8
0
  6
CONTINUOUS
 62
1
 10
1717.032331
 20
1317.764726
 11
1697.625404
 21
1326.410100
  0
LINE
  8
0
  6
CONTINUOUS
 62
1
 10
1717.032452
 20
1278.236284
 11
1697.625404
 21
1269.587794
  0
ARC
  8
0
  6
CONTINUOUS
 62
1
 10
1716.625404
 20
1316.851266
 40
1.000000
 50
0.000000
 51
65.988044
  0
LINE
  8
0
  6
CONTINUOUS
 62
1
 10
1687.625404
 20
1297.500525
 11
1685.625404
 21
1297.500525
  0
LINE
  8
0
  6
CONTINUOUS
 62
1
 10
1687.625404
 20
1294.493177
 11
1685.625404
 21
1294.493177
  0
LINE
  8
0
  6
CONTINUOUS
 62
1
 10
1687.625404
 20
1293.080892
 11
1685.625404
 21
1293.080892
  0
ARC
  8
0
  6
CONTINUOUS
 62
1
 10
1716.625404
 20
1279.149691
 40
1.000000
 50
294.011956
 51
0.000000
  0
LINE
  8
0
  6
CONTINUOUS
 62
1
 10
1707.625404
 20
1274.044159
 11
1707.625404
 21
1222.530485
  0
LINE
  8
0
  6
CONTINUOUS
 62
1
 10
981.576530
 20
1613.375676
 11
930.625404
 21
1627.305904
  0
LINE
  8
0
  6
CONTINUOUS
 62
1
 10
982.975453
 20
1612.993205
 11
982.645254
 21
1613.083483
  0
LINE
  8
0
  6
CONTINUOUS
 62
1
 10
982.975453
 20
1612.993205
 11
982.975453
 21
1612.592702
  0
ARC
  8
0
  6
CONTINUOUS
 62
1
 10
981.075453
 20
1611.542940
 40
1.900000
 50
0.000000
 51
74.708812
  0
LINE
  8
0
  6
CONTINUOUS
 62
1
 10
982.975404
 20
1611.556561
 11
982.975404
 21
1575.030424
  0
ARC
  8
0
  6
CONTINUOUS
 62
1
 10
981.075453
 20
1611.542940
 40
1.100000
 50
0.000000
 51
74.708812
  0
LINE
  8
0
  6
CONTINUOUS
 62
1
 10
982.975404
 20
1575.030424
 11
1024.990799
 21
1575.030424
  0
ENDSEC
  0
EOF
