  0
SECTION
  2
HEADER
  9
$LIMMIN
 10
0.000000
 20
0.000000
  9
$LIMMAX
 10
840.896415
 20
594.603557
  9
$EXTMIN
 10
0.000000
 20
0.000000
  9
$EXTMAX
 10
3363.585661
 20
2378.414230
  9
$ANGBASE
 50
0.0
  9
$ANGDIR
 70
0
  9
$DIMRND
 40
0.100000
  9
$DIMSE1
 70
0
  9
$DIMSE2
 70
0
  9
$DIMTXT
 40
3.000000
  9
$LTSCALE
 40
1.000000
  9
$LUPREC
 70
0
  9
$AUPREC
 70
0
  9
$PDMODE
 70
2
  9
$PDSIZE
 40
16.817928
  0
ENDSEC
  0
SECTION
  2
TABLES
  0
TABLE
  2
VPORT
  70
1
  0
VPORT
  2
*ACTIVE
 70
0
  10
0.0
 20
0.0
 11
1.0
 21
1.0
 12
594.0
 22
420.0
 13
0.0
 23
0.0
 14
10.0
 24
10.0
 15
10.0
 25
10.0
 16
0.0
 26
0.0
 36
1.0
 17
594.0
 27
420.0
 37
100.0
 40
1000.0
 41
1.0
 42
50.0
 43
0.0
 44
0.0
 50
0.0
 51
0.0
 71
0
 72
2000
 73
1
 74
3
 75
0
 76
0
 77
0
 78
1
  0
ENDTAB
  0
TABLE
  2
LTYPE
 70
4
  0
LTYPE
  2
CONTINUOUS
 70
0
  3
Solid line
 72
65
 73
0
 40
0.0
  0
LTYPE
  2
DASHED
 70
0
  3
Dashed line
 72
65
 73
2
 40
24.000000
 49
12.000000
 49
-12.000000
  0
LTYPE
  2
CENTER
 70
0
  3
Chain line
 72
65
 73
4
 40
96.000000
 49
60.000000
 49
-12.000000
 49
12.000000
 49
-12.000000
  0
LTYPE
  2
RANDOM
 70
0
  3
Random line
 72
65
 73
4
 40
90.000000
 49
24.000000
 49
-12.000000
 49
18.000000
 49
-36.000000
  0
ENDTAB
  0
TABLE
  2
STYLE
 70
9
  0
STYLE
  2
RADFONT1
 40
0
 41
0.820000
 50
0.0
 71
0
 42
0
  3
monotxt
  4

 70
0
  0
STYLE
  2
RADFONT2
 40
0
 41
0.800000
 50
0.0
 71
0
 42
0
  3
monotxt
  4

 70
0
  0
STYLE
  2
RADFONT3
 40
0
 41
1.000000
 50
0.0
 71
0
 42
0
  3
monotxt
  4

 70
0
  0
STYLE
  2
RADFONT4
 40
0
 41
1.000000
 50
0.0
 71
0
 42
0
  3
monotxt
  4

 70
0
  0
STYLE
  2
RADFONT5
 40
0
 41
0.800000
 50
0.0
 71
0
 42
0
  3
monotxt
  4

 70
0
  0
STYLE
  2
RADFONT6
 40
0
 41
0.850000
 50
0.0
 71
0
 42
0
  3
simplex
  4

 70
0
  0
STYLE
  2
RADFONT7
 40
0
 41
0.920000
 50
0.0
 71
0
 42
0
  3
simplex
  4

 70
0
  0
STYLE
  2
RADFONT8
 40
0
 41
0.835000
 50
0.0
 71
0
 42
0
  3
simplex
  4

 70
0
  0
STYLE
  2
RADFONT9
 40
0
 41
0.882000
 50
0.0
 71
0
 42
0
  3
romans
  4

 70
0
  0
STYLE
  2
RADFONT128
 40
0
 41
1.000000
 50
0.0
 71
0
 42
0
  3
simplex
  4

 70
0
  0
STYLE
  2
RADFONT129
 40
0
 41
1.000000
 50
0.0
 71
0
 42
0
  3
simplex
  4

 70
0
  0
STYLE
  2
RADOTHERS
 40
0
 41
0.750000
 50
0.0
 71
0
 42
0
  3
simplex
  4

 70
0
  0
ENDTAB
  0
TABLE
  2
LAYER
 70
3
  0
LAYER
  2
0
 70
0
 62
7
  6
CONTINUOUS
  0
LAYER
  2
0
 62
1
  6
CONTINUOUS
 70
0
  0
LAYER
  2
3D-DETCETORP
 62
1
  6
CONTINUOUS
 70
0
  0
ENDTAB
  0
ENDSEC
  0
SECTION
  2
BLOCKS
  0
ENDSEC
  0
SECTION
  2
ENTITIES
  0
POLYLINE
  8
0
  6
CONTINUOUS
 62
1
 66
1
 70
0
  0
VERTEX
  8
0
 10
805.5
 20
1490.0
 70
0
 42
0.0
  0
VERTEX
  8
0
 10
805.5
 20
1490.0
 70
0
 42
0.0
  0
VERTEX
  8
0
 10
804.4
 20
1493.2
 70
0
  0
SEQEND
  0
POLYLINE
  8
0
  6
CONTINUOUS
 62
1
 66
1
 70
0
  0
VERTEX
  8
0
 10
790.5
 20
1497.0
 70
0
 42
0.0
  0
VERTEX
  8
0
 10
790.5
 20
1497.0
 70
0
 42
0.0
  0
VERTEX
  8
0
 10
789.4
 20
1494.3
 70
0
  0
SEQEND
  0
POLYLINE
  8
0
  6
CONTINUOUS
 62
1
 66
1
 70
0
  0
VERTEX
  8
0
 10
789.9
 20
1497.1
 70
0
 42
0.0
  0
VERTEX
  8
0
 10
789.9
 20
1497.1
 70
0
 42
0.0
  0
VERTEX
  8
0
 10
787.4
 20
1494.9
 70
0
  0
SEQEND
  0
POLYLINE
  8
0
  6
CONTINUOUS
 62
1
 66
1
 70
0
  0
VERTEX
  8
0
 10
796.7
 20
1495.5
 70
0
 42
0.0
  0
VERTEX
  8
0
 10
796.7
 20
1495.5
 70
0
 42
0.0
  0
VERTEX
  8
0
 10
794.8
 20
1492.9
 70
0
  0
SEQEND
  0
POLYLINE
  8
0
  6
CONTINUOUS
 62
1
 66
1
 70
0
  0
VERTEX
  8
0
 10
798.1
 20
1492.0
 70
0
 42
0.0
  0
VERTEX
  8
0
 10
798.1
 20
1492.0
 70
0
 42
0.0
  0
VERTEX
  8
0
 10
797.8
 20
1495.2
 70
0
  0
SEQEND
  0
POLYLINE
  8
0
  6
CONTINUOUS
 62
1
 66
1
 70
0
  0
VERTEX
  8
0
 10
803.5
 20
1490.6
 70
0
 42
0.0
  0
VERTEX
  8
0
 10
803.5
 20
1490.6
 70
0
 42
0.0
  0
VERTEX
  8
0
 10
803.8
 20
1493.4
 70
0
  0
SEQEND
  0
POLYLINE
  8
0
  6
CONTINUOUS
 62
1
 66
1
 70
0
  0
VERTEX
  8
0
 10
721.1
 20
1540.2
 70
0
 42
0.0
  0
VERTEX
  8
0
 10
721.1
 20
1540.2
 70
0
 42
0.0
  0
VERTEX
  8
0
 10
722.1
 20
1540.2
 70
0
  0
SEQEND
  0
POLYLINE
  8
0
  6
CONTINUOUS
 62
1
 66
1
 70
0
  0
VERTEX
  8
0
 10
723.0
 20
1539.3
 70
0
 42
0.0
  0
VERTEX
  8
0
 10
723.0
 20
1539.3
 70
0
 42
0.0
  0
VERTEX
  8
0
 10
723.0
 20
1538.3
 70
0
  0
SEQEND
  0
POLYLINE
  8
0
  6
CONTINUOUS
 62
1
 66
1
 70
0
  0
VERTEX
  8
0
 10
722.1
 20
1537.3
 70
0
 42
0.0
  0
VERTEX
  8
0
 10
722.1
 20
1537.3
 70
0
 42
0.0
  0
VERTEX
  8
0
 10
721.1
 20
1537.3
 70
0
  0
SEQEND
  0
POLYLINE
  8
0
  6
CONTINUOUS
 62
1
 66
1
 70
0
  0
VERTEX
  8
0
 10
720.1
 20
1538.3
 70
0
 42
0.0
  0
VERTEX
  8
0
 10
720.1
 20
1538.3
 70
0
 42
0.0
  0
VERTEX
  8
0
 10
720.1
 20
1539.3
 70
0
  0
SEQEND
  0
POLYLINE
  8
0
  6
CONTINUOUS
 62
1
 66
1
 70
0
  0
VERTEX
  8
0
 10
442.7
 20
739.5
 70
0
 42
0.0
  0
VERTEX
  8
0
 10
442.7
 20
739.5
 70
0
 42
0.0
  0
VERTEX
  8
0
 10
445.8
 20
738.1
 70
0
  0
SEQEND
  0
POLYLINE
  8
0
  6
CONTINUOUS
 62
1
 66
1
 70
0
  0
VERTEX
  8
0
 10
445.8
 20
738.1
 70
0
 42
0.0
  0
VERTEX
  8
0
 10
445.8
 20
738.1
 70
0
 42
0.0
  0
VERTEX
  8
0
 10
470.8
 20
735.6
 70
0
 42
0.0
  0
VERTEX
  8
0
 10
470.8
 20
735.6
 70
0
 42
0.0
  0
VERTEX
  8
0
 10
496.3
 20
735.6
 70
0
 42
0.0
  0
VERTEX
  8
0
 10
496.3
 20
735.6
 70
0
 42
0.0
  0
VERTEX
  8
0
 10
521.3
 20
738.1
 70
0
  0
SEQEND
  0
POLYLINE
  8
0
  6
CONTINUOUS
 62
1
 66
1
 70
0
  0
VERTEX
  8
0
 10
521.3
 20
738.1
 70
0
 42
0.0
  0
VERTEX
  8
0
 10
521.3
 20
738.1
 70
0
 42
0.0
  0
VERTEX
  8
0
 10
524.5
 20
739.5
 70
0
  0
SEQEND
  0
POLYLINE
  8
0
  6
CONTINUOUS
 62
1
 66
1
 70
0
  0
VERTEX
  8
0
 10
583.9
 20
1419.3
 70
0
 42
0.0
  0
VERTEX
  8
0
 10
583.9
 20
1419.3
 70
0
 42
0.0
  0
VERTEX
  8
0
 10
588.7
 20
1418.9
 70
0
  0
SEQEND
  0
POLYLINE
  8
0
  6
CONTINUOUS
 62
1
 66
1
 70
0
  0
VERTEX
  8
0
 10
522.5
 20
1402.1
 70
0
 42
0.0
  0
VERTEX
  8
0
 10
522.5
 20
1402.1
 70
0
 42
0.0
  0
VERTEX
  8
0
 10
522.4
 20
1401.6
 70
0
  0
SEQEND
  0
POLYLINE
  8
0
  6
CONTINUOUS
 62
1
 66
1
 70
0
  0
VERTEX
  8
0
 10
517.5
 20
1401.6
 70
0
 42
0.0
  0
VERTEX
  8
0
 10
517.5
 20
1401.6
 70
0
 42
0.0
  0
VERTEX
  8
0
 10
517.5
 20
1402.1
 70
0
  0
SEQEND
  0
POLYLINE
  8
0
  6
CONTINUOUS
 62
1
 66
1
 70
0
  0
VERTEX
  8
0
 10
588.7
 20
1418.9
 70
0
 42
0.0
  0
VERTEX
  8
0
 10
588.7
 20
1418.9
 70
0
 42
0.0
  0
VERTEX
  8
0
 10
589.9
 20
1421.1
 70
0
 42
0.0
  0
VERTEX
  8
0
 10
589.9
 20
1421.1
 70
0
 42
0.0
  0
VERTEX
  8
0
 10
592.4
 20
1421.1
 70
0
 42
0.0
  0
VERTEX
  8
0
 10
592.4
 20
1421.1
 70
0
 42
0.0
  0
VERTEX
  8
0
 10
593.7
 20
1418.9
 70
0
  0
SEQEND
  0
POLYLINE
  8
0
  6
CONTINUOUS
 62
1
 66
1
 70
0
  0
VERTEX
  8
0
 10
522.5
 20
1418.9
 70
0
 42
0.0
  0
VERTEX
  8
0
 10
522.5
 20
1418.9
 70
0
 42
0.0
  0
VERTEX
  8
0
 10
527.3
 20
1419.3
 70
0
  0
SEQEND
  0
POLYLINE
  8
0
  6
CONTINUOUS
 62
1
 66
1
 70
0
  0
VERTEX
  8
0
 10
522.5
 20
1418.2
 70
0
 42
0.0
  0
VERTEX
  8
0
 10
522.5
 20
1418.2
 70
0
 42
0.0
  0
VERTEX
  8
0
 10
521.2
 20
1420.4
 70
0
 42
0.0
  0
VERTEX
  8
0
 10
521.2
 20
1420.4
 70
0
 42
0.0
  0
VERTEX
  8
0
 10
518.7
 20
1420.4
 70
0
 42
0.0
  0
VERTEX
  8
0
 10
518.7
 20
1420.4
 70
0
 42
0.0
  0
VERTEX
  8
0
 10
517.5
 20
1418.2
 70
0
  0
SEQEND
  0
POLYLINE
  8
0
  6
CONTINUOUS
 62
1
 66
1
 70
0
  0
VERTEX
  8
0
 10
588.7
 20
1418.2
 70
0
 42
0.0
  0
VERTEX
  8
0
 10
588.7
 20
1418.2
 70
0
 42
0.0
  0
VERTEX
  8
0
 10
589.9
 20
1420.4
 70
0
 42
0.0
  0
VERTEX
  8
0
 10
589.9
 20
1420.4
 70
0
 42
0.0
  0
VERTEX
  8
0
 10
592.4
 20
1420.4
 70
0
 42
0.0
  0
VERTEX
  8
0
 10
592.4
 20
1420.4
 70
0
 42
0.0
  0
VERTEX
  8
0
 10
593.7
 20
1418.2
 70
0
  0
SEQEND
  0
POLYLINE
  8
0
  6
CONTINUOUS
 62
1
 66
1
 70
0
  0
VERTEX
  8
0
 10
522.5
 20
1418.9
 70
0
 42
0.0
  0
VERTEX
  8
0
 10
522.5
 20
1418.9
 70
0
 42
0.0
  0
VERTEX
  8
0
 10
521.2
 20
1421.1
 70
0
 42
0.0
  0
VERTEX
  8
0
 10
521.2
 20
1421.1
 70
0
 42
0.0
  0
VERTEX
  8
0
 10
518.7
 20
1421.1
 70
0
 42
0.0
  0
VERTEX
  8
0
 10
518.7
 20
1421.1
 70
0
 42
0.0
  0
VERTEX
  8
0
 10
517.5
 20
1418.9
 70
0
  0
SEQEND
  0
POLYLINE
  8
0
  6
CONTINUOUS
 62
1
 66
1
 70
0
  0
VERTEX
  8
0
 10
588.7
 20
1402.1
 70
0
 42
0.0
  0
VERTEX
  8
0
 10
588.7
 20
1402.1
 70
0
 42
0.0
  0
VERTEX
  8
0
 10
588.7
 20
1401.6
 70
0
  0
SEQEND
  0
POLYLINE
  8
0
  6
CONTINUOUS
 62
1
 66
1
 70
0
  0
VERTEX
  8
0
 10
593.6
 20
1401.6
 70
0
 42
0.0
  0
VERTEX
  8
0
 10
593.6
 20
1401.6
 70
0
 42
0.0
  0
VERTEX
  8
0
 10
593.7
 20
1402.1
 70
0
  0
SEQEND
  0
POLYLINE
  8
0
  6
CONTINUOUS
 62
1
 66
1
 70
0
  0
VERTEX
  8
0
 10
672.5
 20
1418.9
 70
0
 42
0.0
  0
VERTEX
  8
0
 10
672.5
 20
1418.9
 70
0
 42
0.0
  0
VERTEX
  8
0
 10
671.2
 20
1421.1
 70
0
 42
0.0
  0
VERTEX
  8
0
 10
671.2
 20
1421.1
 70
0
 42
0.0
  0
VERTEX
  8
0
 10
668.7
 20
1421.1
 70
0
 42
0.0
  0
VERTEX
  8
0
 10
668.7
 20
1421.1
 70
0
 42
0.0
  0
VERTEX
  8
0
 10
667.5
 20
1418.9
 70
0
  0
SEQEND
  0
POLYLINE
  8
0
  6
CONTINUOUS
 62
1
 66
1
 70
0
  0
VERTEX
  8
0
 10
738.7
 20
1418.2
 70
0
 42
0.0
  0
VERTEX
  8
0
 10
738.7
 20
1418.2
 70
0
 42
0.0
  0
VERTEX
  8
0
 10
739.9
 20
1420.4
 70
0
 42
0.0
  0
VERTEX
  8
0
 10
739.9
 20
1420.4
 70
0
 42
0.0
  0
VERTEX
  8
0
 10
742.4
 20
1420.4
 70
0
 42
0.0
  0
VERTEX
  8
0
 10
742.4
 20
1420.4
 70
0
 42
0.0
  0
VERTEX
  8
0
 10
743.7
 20
1418.2
 70
0
  0
SEQEND
  0
POLYLINE
  8
0
  6
CONTINUOUS
 62
1
 66
1
 70
0
  0
VERTEX
  8
0
 10
738.7
 20
1402.1
 70
0
 42
0.0
  0
VERTEX
  8
0
 10
738.7
 20
1402.1
 70
0
 42
0.0
  0
VERTEX
  8
0
 10
738.7
 20
1401.6
 70
0
  0
SEQEND
  0
POLYLINE
  8
0
  6
CONTINUOUS
 62
1
 66
1
 70
0
  0
VERTEX
  8
0
 10
743.6
 20
1401.6
 70
0
 42
0.0
  0
VERTEX
  8
0
 10
743.6
 20
1401.6
 70
0
 42
0.0
  0
VERTEX
  8
0
 10
743.7
 20
1402.1
 70
0
  0
SEQEND
  0
POLYLINE
  8
0
  6
CONTINUOUS
 62
1
 66
1
 70
0
  0
VERTEX
  8
0
 10
733.9
 20
1419.3
 70
0
 42
0.0
  0
VERTEX
  8
0
 10
733.9
 20
1419.3
 70
0
 42
0.0
  0
VERTEX
  8
0
 10
738.7
 20
1418.9
 70
0
  0
SEQEND
  0
POLYLINE
  8
0
  6
CONTINUOUS
 62
1
 66
1
 70
0
  0
VERTEX
  8
0
 10
738.7
 20
1418.9
 70
0
 42
0.0
  0
VERTEX
  8
0
 10
738.7
 20
1418.9
 70
0
 42
0.0
  0
VERTEX
  8
0
 10
739.9
 20
1421.1
 70
0
 42
0.0
  0
VERTEX
  8
0
 10
739.9
 20
1421.1
 70
0
 42
0.0
  0
VERTEX
  8
0
 10
742.4
 20
1421.1
 70
0
 42
0.0
  0
VERTEX
  8
0
 10
742.4
 20
1421.1
 70
0
 42
0.0
  0
VERTEX
  8
0
 10
743.7
 20
1418.9
 70
0
  0
SEQEND
  0
POLYLINE
  8
0
  6
CONTINUOUS
 62
1
 66
1
 70
0
  0
VERTEX
  8
0
 10
672.5
 20
1402.1
 70
0
 42
0.0
  0
VERTEX
  8
0
 10
672.5
 20
1402.1
 70
0
 42
0.0
  0
VERTEX
  8
0
 10
672.4
 20
1401.6
 70
0
  0
SEQEND
  0
POLYLINE
  8
0
  6
CONTINUOUS
 62
1
 66
1
 70
0
  0
VERTEX
  8
0
 10
667.5
 20
1401.6
 70
0
 42
0.0
  0
VERTEX
  8
0
 10
667.5
 20
1401.6
 70
0
 42
0.0
  0
VERTEX
  8
0
 10
667.5
 20
1402.1
 70
0
  0
SEQEND
  0
POLYLINE
  8
0
  6
CONTINUOUS
 62
1
 66
1
 70
0
  0
VERTEX
  8
0
 10
672.5
 20
1418.9
 70
0
 42
0.0
  0
VERTEX
  8
0
 10
672.5
 20
1418.9
 70
0
 42
0.0
  0
VERTEX
  8
0
 10
677.3
 20
1419.3
 70
0
  0
SEQEND
  0
POLYLINE
  8
0
  6
CONTINUOUS
 62
1
 66
1
 70
0
  0
VERTEX
  8
0
 10
672.5
 20
1418.2
 70
0
 42
0.0
  0
VERTEX
  8
0
 10
672.5
 20
1418.2
 70
0
 42
0.0
  0
VERTEX
  8
0
 10
671.2
 20
1420.4
 70
0
 42
0.0
  0
VERTEX
  8
0
 10
671.2
 20
1420.4
 70
0
 42
0.0
  0
VERTEX
  8
0
 10
668.7
 20
1420.4
 70
0
 42
0.0
  0
VERTEX
  8
0
 10
668.7
 20
1420.4
 70
0
 42
0.0
  0
VERTEX
  8
0
 10
667.5
 20
1418.2
 70
0
  0
SEQEND
  0
POLYLINE
  8
0
  6
CONTINUOUS
 62
1
 66
1
 70
0
  0
VERTEX
  8
0
 10
450.3
 20
820.4
 70
0
 42
0.0
  0
VERTEX
  8
0
 10
450.3
 20
820.4
 70
0
 42
0.0
  0
VERTEX
  8
0
 10
450.5
 20
816.9
 70
0
  0
SEQEND
  0
POLYLINE
  8
0
  6
CONTINUOUS
 62
1
 66
1
 70
0
  0
VERTEX
  8
0
 10
802.4
 20
819.7
 70
0
 42
0.0
  0
VERTEX
  8
0
 10
802.4
 20
819.7
 70
0
 42
0.0
  0
VERTEX
  8
0
 10
808.8
 20
820.4
 70
0
  0
SEQEND
  0
POLYLINE
  8
0
  6
CONTINUOUS
 62
1
 66
1
 70
0
  0
VERTEX
  8
0
 10
808.6
 20
816.9
 70
0
 42
0.0
  0
VERTEX
  8
0
 10
808.6
 20
816.9
 70
0
 42
0.0
  0
VERTEX
  8
0
 10
808.8
 20
820.4
 70
0
  0
SEQEND
  0
POLYLINE
  8
0
  6
CONTINUOUS
 62
1
 66
1
 70
0
  0
VERTEX
  8
0
 10
450.5
 20
816.9
 70
0
 42
0.0
  0
VERTEX
  8
0
 10
450.5
 20
816.9
 70
0
 42
0.0
  0
VERTEX
  8
0
 10
457.7
 20
816.2
 70
0
  0
SEQEND
  0
POLYLINE
  8
0
  6
CONTINUOUS
 62
1
 66
1
 70
0
  0
VERTEX
  8
0
 10
801.4
 20
816.2
 70
0
 42
0.0
  0
VERTEX
  8
0
 10
801.4
 20
816.2
 70
0
 42
0.0
  0
VERTEX
  8
0
 10
808.6
 20
816.9
 70
0
  0
SEQEND
  0
POLYLINE
  8
0
  6
CONTINUOUS
 62
1
 66
1
 70
0
  0
VERTEX
  8
0
 10
450.3
 20
820.4
 70
0
 42
0.0
  0
VERTEX
  8
0
 10
450.3
 20
820.4
 70
0
 42
0.0
  0
VERTEX
  8
0
 10
456.7
 20
819.7
 70
0
  0
SEQEND
  0
POLYLINE
  8
0
  6
CONTINUOUS
 62
1
 66
1
 70
0
  0
VERTEX
  8
0
 10
522.6
 20
956.1
 70
0
 42
0.0
  0
VERTEX
  8
0
 10
522.6
 20
956.1
 70
0
 42
0.0
  0
VERTEX
  8
0
 10
522.5
 20
956.0
 70
0
  0
SEQEND
  0
POLYLINE
  8
0
  6
CONTINUOUS
 62
1
 66
1
 70
0
  0
VERTEX
  8
0
 10
524.5
 20
954.1
 70
0
 42
0.0
  0
VERTEX
  8
0
 10
524.5
 20
954.1
 70
0
 42
0.0
  0
VERTEX
  8
0
 10
522.3
 20
953.1
 70
0
  0
SEQEND
  0
POLYLINE
  8
0
  6
CONTINUOUS
 62
1
 66
1
 70
0
  0
VERTEX
  8
0
 10
524.5
 20
955.3
 70
0
 42
0.0
  0
VERTEX
  8
0
 10
524.5
 20
955.3
 70
0
 42
0.0
  0
VERTEX
  8
0
 10
524.5
 20
955.3
 70
0
  0
SEQEND
  0
POLYLINE
  8
0
  6
CONTINUOUS
 62
1
 66
1
 70
0
  0
VERTEX
  8
0
 10
524.5
 20
955.3
 70
0
 42
0.0
  0
VERTEX
  8
0
 10
524.5
 20
955.3
 70
0
 42
0.0
  0
VERTEX
  8
0
 10
524.5
 20
955.3
 70
0
  0
SEQEND
  0
POLYLINE
  8
0
  6
CONTINUOUS
 62
1
 66
1
 70
0
  0
VERTEX
  8
0
 10
522.4
 20
956.2
 70
0
 42
0.0
  0
VERTEX
  8
0
 10
522.4
 20
956.2
 70
0
 42
0.0
  0
VERTEX
  8
0
 10
524.6
 20
956.0
 70
0
  0
SEQEND
  0
POLYLINE
  8
0
  6
CONTINUOUS
 62
1
 66
1
 70
0
  0
VERTEX
  8
0
 10
523.7
 20
955.9
 70
0
 42
0.0
  0
VERTEX
  8
0
 10
523.7
 20
955.9
 70
0
 42
0.0
  0
VERTEX
  8
0
 10
523.8
 20
956.1
 70
0
  0
SEQEND
  0
POLYLINE
  8
0
  6
CONTINUOUS
 62
1
 66
1
 70
0
  0
VERTEX
  8
0
 10
523.8
 20
956.0
 70
0
 42
0.0
  0
VERTEX
  8
0
 10
523.8
 20
956.0
 70
0
 42
0.0
  0
VERTEX
  8
0
 10
523.8
 20
954.1
 70
0
  0
SEQEND
  0
POLYLINE
  8
0
  6
CONTINUOUS
 62
1
 66
1
 70
0
  0
VERTEX
  8
0
 10
575.2
 20
1518.8
 70
0
 42
0.0
  0
VERTEX
  8
0
 10
575.2
 20
1518.8
 70
0
 42
0.0
  0
VERTEX
  8
0
 10
573.7
 20
1522.3
 70
0
 42
0.0
  0
VERTEX
  8
0
 10
573.7
 20
1522.3
 70
0
 42
0.0
  0
VERTEX
  8
0
 10
570.2
 20
1523.8
 70
0
  0
SEQEND
  0
POLYLINE
  8
0
  6
CONTINUOUS
 62
1
 66
1
 70
0
  0
VERTEX
  8
0
 10
570.0
 20
1523.8
 70
0
 42
0.0
  0
VERTEX
  8
0
 10
570.0
 20
1523.8
 70
0
 42
0.0
  0
VERTEX
  8
0
 10
573.5
 20
1522.3
 70
0
 42
0.0
  0
VERTEX
  8
0
 10
573.5
 20
1522.3
 70
0
 42
0.0
  0
VERTEX
  8
0
 10
575.0
 20
1518.8
 70
0
  0
SEQEND
  0
POLYLINE
  8
0
  6
CONTINUOUS
 62
1
 66
1
 70
0
  0
VERTEX
  8
0
 10
688.5
 20
1523.8
 70
0
 42
0.0
  0
VERTEX
  8
0
 10
688.5
 20
1523.8
 70
0
 42
0.0
  0
VERTEX
  8
0
 10
685.1
 20
1522.3
 70
0
 42
0.0
  0
VERTEX
  8
0
 10
685.1
 20
1522.3
 70
0
 42
0.0
  0
VERTEX
  8
0
 10
683.6
 20
1518.8
 70
0
  0
SEQEND
  0
POLYLINE
  8
0
  6
CONTINUOUS
 62
1
 66
1
 70
0
  0
VERTEX
  8
0
 10
683.8
 20
1518.8
 70
0
 42
0.0
  0
VERTEX
  8
0
 10
683.8
 20
1518.8
 70
0
 42
0.0
  0
VERTEX
  8
0
 10
685.2
 20
1522.3
 70
0
 42
0.0
  0
VERTEX
  8
0
 10
685.2
 20
1522.3
 70
0
 42
0.0
  0
VERTEX
  8
0
 10
688.7
 20
1523.8
 70
0
  0
SEQEND
  0
POLYLINE
  8
0
  6
CONTINUOUS
 62
1
 66
1
 70
0
  0
VERTEX
  8
0
 10
430.8
 20
1477.3
 70
0
 42
0.0
  0
VERTEX
  8
0
 10
430.8
 20
1477.3
 70
0
 42
0.0
  0
VERTEX
  8
0
 10
431.6
 20
1476.3
 70
0
  0
SEQEND
  0
POLYLINE
  8
0
  6
CONTINUOUS
 62
1
 66
1
 70
0
  0
VERTEX
  8
0
 10
827.6
 20
1466.2
 70
0
 42
0.0
  0
VERTEX
  8
0
 10
827.6
 20
1466.2
 70
0
 42
0.0
  0
VERTEX
  8
0
 10
829.6
 20
1468.4
 70
0
  0
SEQEND
  0
POLYLINE
  8
0
  6
CONTINUOUS
 62
1
 66
1
 70
0
  0
VERTEX
  8
0
 10
827.6
 20
1476.3
 70
0
 42
0.0
  0
VERTEX
  8
0
 10
827.6
 20
1476.3
 70
0
 42
0.0
  0
VERTEX
  8
0
 10
828.4
 20
1477.3
 70
0
  0
SEQEND
  0
POLYLINE
  8
0
  6
CONTINUOUS
 62
1
 66
1
 70
0
  0
VERTEX
  8
0
 10
431.6
 20
1466.2
 70
0
 42
0.0
  0
VERTEX
  8
0
 10
431.6
 20
1466.2
 70
0
 42
0.0
  0
VERTEX
  8
0
 10
429.6
 20
1468.4
 70
0
  0
SEQEND
  0
POLYLINE
  8
0
  6
CONTINUOUS
 62
1
 66
1
 70
0
  0
VERTEX
  8
0
 10
829.6
 20
1477.3
 70
0
 42
0.0
  0
VERTEX
  8
0
 10
829.6
 20
1477.3
 70
0
 42
0.0
  0
VERTEX
  8
0
 10
827.6
 20
1475.1
 70
0
  0
SEQEND
  0
POLYLINE
  8
0
  6
CONTINUOUS
 62
1
 66
1
 70
0
  0
VERTEX
  8
0
 10
431.6
 20
1475.1
 70
0
 42
0.0
  0
VERTEX
  8
0
 10
431.6
 20
1475.1
 70
0
 42
0.0
  0
VERTEX
  8
0
 10
429.6
 20
1477.3
 70
0
  0
SEQEND
  0
POLYLINE
  8
0
  6
CONTINUOUS
 62
1
 66
1
 70
0
  0
VERTEX
  8
0
 10
431.6
 20
1477.2
 70
0
 42
0.0
  0
VERTEX
  8
0
 10
431.6
 20
1477.2
 70
0
 42
0.0
  0
VERTEX
  8
0
 10
431.3
 20
1477.5
 70
0
  0
SEQEND
  0
POLYLINE
  8
0
  6
CONTINUOUS
 62
1
 66
1
 70
0
  0
VERTEX
  8
0
 10
827.6
 20
1477.3
 70
0
 42
0.0
  0
VERTEX
  8
0
 10
827.6
 20
1477.3
 70
0
 42
0.0
  0
VERTEX
  8
0
 10
827.6
 20
1477.2
 70
0
  0
SEQEND
  0
POLYLINE
  8
0
  6
CONTINUOUS
 62
1
 66
1
 70
0
  0
VERTEX
  8
0
 10
827.6
 20
1449.6
 70
0
 42
0.0
  0
VERTEX
  8
0
 10
827.6
 20
1449.6
 70
0
 42
0.0
  0
VERTEX
  8
0
 10
826.1
 20
1446.9
 70
0
 42
0.0
  0
VERTEX
  8
0
 10
826.1
 20
1446.9
 70
0
 42
0.0
  0
VERTEX
  8
0
 10
822.6
 20
1445.8
 70
0
  0
SEQEND
  0
POLYLINE
  8
0
  6
CONTINUOUS
 62
1
 66
1
 70
0
  0
VERTEX
  8
0
 10
485.1
 20
1424.7
 70
0
 42
0.0
  0
VERTEX
  8
0
 10
485.1
 20
1424.7
 70
0
 42
0.0
  0
VERTEX
  8
0
 10
480.1
 20
1425.0
 70
0
  0
SEQEND
  0
POLYLINE
  8
0
  6
CONTINUOUS
 62
1
 66
1
 70
0
  0
VERTEX
  8
0
 10
436.6
 20
1445.8
 70
0
 42
0.0
  0
VERTEX
  8
0
 10
436.6
 20
1445.8
 70
0
 42
0.0
  0
VERTEX
  8
0
 10
433.0
 20
1446.9
 70
0
 42
0.0
  0
VERTEX
  8
0
 10
433.0
 20
1446.9
 70
0
 42
0.0
  0
VERTEX
  8
0
 10
431.6
 20
1449.6
 70
0
  0
SEQEND
  0
POLYLINE
  8
0
  6
CONTINUOUS
 62
1
 66
1
 70
0
  0
VERTEX
  8
0
 10
822.6
 20
1480.7
 70
0
 42
0.0
  0
VERTEX
  8
0
 10
822.6
 20
1480.7
 70
0
 42
0.0
  0
VERTEX
  8
0
 10
826.1
 20
1480.3
 70
0
 42
0.0
  0
VERTEX
  8
0
 10
826.1
 20
1480.3
 70
0
 42
0.0
  0
VERTEX
  8
0
 10
827.6
 20
1479.5
 70
0
  0
SEQEND
  0
POLYLINE
  8
0
  6
CONTINUOUS
 62
1
 66
1
 70
0
  0
VERTEX
  8
0
 10
609.2
 20
1445.5
 70
0
 42
0.0
  0
VERTEX
  8
0
 10
609.2
 20
1445.5
 70
0
 42
0.0
  0
VERTEX
  8
0
 10
613.7
 20
1447.3
 70
0
 42
0.0
  0
VERTEX
  8
0
 10
613.7
 20
1447.3
 70
0
 42
0.0
  0
VERTEX
  8
0
 10
615.6
 20
1451.7
 70
0
  0
SEQEND
  0
POLYLINE
  8
0
  6
CONTINUOUS
 62
1
 66
1
 70
0
  0
VERTEX
  8
0
 10
615.6
 20
1451.7
 70
0
 42
0.0
  0
VERTEX
  8
0
 10
615.6
 20
1451.7
 70
0
 42
0.0
  0
VERTEX
  8
0
 10
613.7
 20
1456.1
 70
0
 42
0.0
  0
VERTEX
  8
0
 10
613.7
 20
1456.1
 70
0
 42
0.0
  0
VERTEX
  8
0
 10
609.2
 20
1458.0
 70
0
  0
SEQEND
  0
POLYLINE
  8
0
  6
CONTINUOUS
 62
1
 66
1
 70
0
  0
VERTEX
  8
0
 10
827.6
 20
1455.6
 70
0
 42
0.0
  0
VERTEX
  8
0
 10
827.6
 20
1455.6
 70
0
 42
0.0
  0
VERTEX
  8
0
 10
826.7
 20
1452.8
 70
0
 42
0.0
  0
VERTEX
  8
0
 10
826.7
 20
1452.8
 70
0
 42
0.0
  0
VERTEX
  8
0
 10
824.4
 20
1451.0
 70
0
  0
SEQEND
  0
POLYLINE
  8
0
  6
CONTINUOUS
 62
1
 66
1
 70
0
  0
VERTEX
  8
0
 10
822.6
 20
1478.7
 70
0
 42
0.0
  0
VERTEX
  8
0
 10
822.6
 20
1478.7
 70
0
 42
0.0
  0
VERTEX
  8
0
 10
826.1
 20
1478.4
 70
0
 42
0.0
  0
VERTEX
  8
0
 10
826.1
 20
1478.4
 70
0
 42
0.0
  0
VERTEX
  8
0
 10
827.6
 20
1477.6
 70
0
  0
SEQEND
  0
POLYLINE
  8
0
  6
CONTINUOUS
 62
1
 66
1
 70
0
  0
VERTEX
  8
0
 10
649.9
 20
1445.9
 70
0
 42
0.0
  0
VERTEX
  8
0
 10
649.9
 20
1445.9
 70
0
 42
0.0
  0
VERTEX
  8
0
 10
645.5
 20
1447.7
 70
0
 42
0.0
  0
VERTEX
  8
0
 10
645.5
 20
1447.7
 70
0
 42
0.0
  0
VERTEX
  8
0
 10
643.6
 20
1451.9
 70
0
  0
SEQEND
  0
POLYLINE
  8
0
  6
CONTINUOUS
 62
1
 66
1
 70
0
  0
VERTEX
  8
0
 10
473.7
 20
1434.2
 70
0
 42
0.0
  0
VERTEX
  8
0
 10
473.7
 20
1434.2
 70
0
 42
0.0
  0
VERTEX
  8
0
 10
471.6
 20
1434.4
 70
0
  0
SEQEND
  0
POLYLINE
  8
0
  6
CONTINUOUS
 62
1
 66
1
 70
0
  0
VERTEX
  8
0
 10
486.9
 20
1445.9
 70
0
 42
0.0
  0
VERTEX
  8
0
 10
486.9
 20
1445.9
 70
0
 42
0.0
  0
VERTEX
  8
0
 10
482.5
 20
1447.7
 70
0
 42
0.0
  0
VERTEX
  8
0
 10
482.5
 20
1447.7
 70
0
 42
0.0
  0
VERTEX
  8
0
 10
480.6
 20
1451.9
 70
0
  0
SEQEND
  0
POLYLINE
  8
0
  6
CONTINUOUS
 62
1
 66
1
 70
0
  0
VERTEX
  8
0
 10
494.6
 20
1433.5
 70
0
 42
0.0
  0
VERTEX
  8
0
 10
494.6
 20
1433.5
 70
0
 42
0.0
  0
VERTEX
  8
0
 10
491.7
 20
1433.5
 70
0
  0
SEQEND
  0
POLYLINE
  8
0
  6
CONTINUOUS
 62
1
 66
1
 70
0
  0
VERTEX
  8
0
 10
434.8
 20
1451.0
 70
0
 42
0.0
  0
VERTEX
  8
0
 10
434.8
 20
1451.0
 70
0
 42
0.0
  0
VERTEX
  8
0
 10
432.4
 20
1452.8
 70
0
 42
0.0
  0
VERTEX
  8
0
 10
432.4
 20
1452.8
 70
0
 42
0.0
  0
VERTEX
  8
0
 10
431.6
 20
1455.6
 70
0
  0
SEQEND
  0
POLYLINE
  8
0
  6
CONTINUOUS
 62
1
 66
1
 70
0
  0
VERTEX
  8
0
 10
431.6
 20
1479.5
 70
0
 42
0.0
  0
VERTEX
  8
0
 10
431.6
 20
1479.5
 70
0
 42
0.0
  0
VERTEX
  8
0
 10
433.0
 20
1480.3
 70
0
 42
0.0
  0
VERTEX
  8
0
 10
433.0
 20
1480.3
 70
0
 42
0.0
  0
VERTEX
  8
0
 10
436.6
 20
1480.7
 70
0
  0
SEQEND
  0
POLYLINE
  8
0
  6
CONTINUOUS
 62
1
 66
1
 70
0
  0
VERTEX
  8
0
 10
486.9
 20
1458.0
 70
0
 42
0.0
  0
VERTEX
  8
0
 10
486.9
 20
1458.0
 70
0
 42
0.0
  0
VERTEX
  8
0
 10
482.4
 20
1456.1
 70
0
 42
0.0
  0
VERTEX
  8
0
 10
482.4
 20
1456.1
 70
0
 42
0.0
  0
VERTEX
  8
0
 10
480.6
 20
1451.7
 70
0
  0
SEQEND
  0
POLYLINE
  8
0
  6
CONTINUOUS
 62
1
 66
1
 70
0
  0
VERTEX
  8
0
 10
480.6
 20
1451.7
 70
0
 42
0.0
  0
VERTEX
  8
0
 10
480.6
 20
1451.7
 70
0
 42
0.0
  0
VERTEX
  8
0
 10
482.4
 20
1447.3
 70
0
 42
0.0
  0
VERTEX
  8
0
 10
482.4
 20
1447.3
 70
0
 42
0.0
  0
VERTEX
  8
0
 10
486.9
 20
1445.5
 70
0
  0
SEQEND
  0
POLYLINE
  8
0
  6
CONTINUOUS
 62
1
 66
1
 70
0
  0
VERTEX
  8
0
 10
649.9
 20
1458.0
 70
0
 42
0.0
  0
VERTEX
  8
0
 10
649.9
 20
1458.0
 70
0
 42
0.0
  0
VERTEX
  8
0
 10
645.4
 20
1456.1
 70
0
 42
0.0
  0
VERTEX
  8
0
 10
645.4
 20
1456.1
 70
0
 42
0.0
  0
VERTEX
  8
0
 10
643.6
 20
1451.7
 70
0
  0
SEQEND
  0
POLYLINE
  8
0
  6
CONTINUOUS
 62
1
 66
1
 70
0
  0
VERTEX
  8
0
 10
643.6
 20
1451.7
 70
0
 42
0.0
  0
VERTEX
  8
0
 10
643.6
 20
1451.7
 70
0
 42
0.0
  0
VERTEX
  8
0
 10
645.4
 20
1447.3
 70
0
 42
0.0
  0
VERTEX
  8
0
 10
645.4
 20
1447.3
 70
0
 42
0.0
  0
VERTEX
  8
0
 10
649.9
 20
1445.5
 70
0
  0
SEQEND
  0
POLYLINE
  8
0
  6
CONTINUOUS
 62
1
 66
1
 70
0
  0
VERTEX
  8
0
 10
767.4
 20
1433.5
 70
0
 42
0.0
  0
VERTEX
  8
0
 10
767.4
 20
1433.5
 70
0
 42
0.0
  0
VERTEX
  8
0
 10
764.6
 20
1433.5
 70
0
  0
SEQEND
  0
POLYLINE
  8
0
  6
CONTINUOUS
 62
1
 66
1
 70
0
  0
VERTEX
  8
0
 10
431.6
 20
1477.6
 70
0
 42
0.0
  0
VERTEX
  8
0
 10
431.6
 20
1477.6
 70
0
 42
0.0
  0
VERTEX
  8
0
 10
433.0
 20
1478.4
 70
0
 42
0.0
  0
VERTEX
  8
0
 10
433.0
 20
1478.4
 70
0
 42
0.0
  0
VERTEX
  8
0
 10
436.6
 20
1478.7
 70
0
  0
SEQEND
  0
POLYLINE
  8
0
  6
CONTINUOUS
 62
1
 66
1
 70
0
  0
VERTEX
  8
0
 10
772.6
 20
1446.0
 70
0
 42
0.0
  0
VERTEX
  8
0
 10
772.6
 20
1446.0
 70
0
 42
0.0
  0
VERTEX
  8
0
 10
772.2
 20
1445.9
 70
0
  0
SEQEND
  0
POLYLINE
  8
0
  6
CONTINUOUS
 62
1
 66
1
 70
0
  0
VERTEX
  8
0
 10
772.2
 20
1445.5
 70
0
 42
0.0
  0
VERTEX
  8
0
 10
772.2
 20
1445.5
 70
0
 42
0.0
  0
VERTEX
  8
0
 10
772.5
 20
1445.5
 70
0
  0
SEQEND
  0
POLYLINE
  8
0
  6
CONTINUOUS
 62
1
 66
1
 70
0
  0
VERTEX
  8
0
 10
775.6
 20
1457.0
 70
0
 42
0.0
  0
VERTEX
  8
0
 10
775.6
 20
1457.0
 70
0
 42
0.0
  0
VERTEX
  8
0
 10
772.2
 20
1458.0
 70
0
  0
SEQEND
  0
POLYLINE
  8
0
  6
CONTINUOUS
 62
1
 66
1
 70
0
  0
VERTEX
  8
0
 10
615.6
 20
1451.9
 70
0
 42
0.0
  0
VERTEX
  8
0
 10
615.6
 20
1451.9
 70
0
 42
0.0
  0
VERTEX
  8
0
 10
613.6
 20
1447.7
 70
0
 42
0.0
  0
VERTEX
  8
0
 10
613.6
 20
1447.7
 70
0
 42
0.0
  0
VERTEX
  8
0
 10
609.2
 20
1445.9
 70
0
  0
SEQEND
  0
POLYLINE
  8
0
  6
CONTINUOUS
 62
1
 66
1
 70
0
  0
VERTEX
  8
0
 10
614.6
 20
1017.6
 70
0
 42
0.0
  0
VERTEX
  8
0
 10
614.6
 20
1017.6
 70
0
 42
0.0
  0
VERTEX
  8
0
 10
616.0
 20
1014.2
 70
0
 42
0.0
  0
VERTEX
  8
0
 10
616.0
 20
1014.2
 70
0
 42
0.0
  0
VERTEX
  8
0
 10
619.6
 20
1012.8
 70
0
  0
SEQEND
  0
POLYLINE
  8
0
  6
CONTINUOUS
 62
1
 66
1
 70
0
  0
VERTEX
  8
0
 10
619.6
 20
1144.9
 70
0
 42
0.0
  0
VERTEX
  8
0
 10
619.6
 20
1144.9
 70
0
 42
0.0
  0
VERTEX
  8
0
 10
616.0
 20
1143.4
 70
0
 42
0.0
  0
VERTEX
  8
0
 10
616.0
 20
1143.4
 70
0
 42
0.0
  0
VERTEX
  8
0
 10
614.6
 20
1139.8
 70
0
  0
SEQEND
  0
POLYLINE
  8
0
  6
CONTINUOUS
 62
1
 66
1
 70
0
  0
VERTEX
  8
0
 10
614.6
 20
1007.0
 70
0
 42
0.0
  0
VERTEX
  8
0
 10
614.6
 20
1007.0
 70
0
 42
0.0
  0
VERTEX
  8
0
 10
616.0
 20
1003.4
 70
0
 42
0.0
  0
VERTEX
  8
0
 10
616.0
 20
1003.4
 70
0
 42
0.0
  0
VERTEX
  8
0
 10
619.6
 20
1001.9
 70
0
  0
SEQEND
  0
POLYLINE
  8
0
  6
CONTINUOUS
 62
1
 66
1
 70
0
  0
VERTEX
  8
0
 10
639.6
 20
1012.8
 70
0
 42
0.0
  0
VERTEX
  8
0
 10
639.6
 20
1012.8
 70
0
 42
0.0
  0
VERTEX
  8
0
 10
643.1
 20
1014.2
 70
0
 42
0.0
  0
VERTEX
  8
0
 10
643.1
 20
1014.2
 70
0
 42
0.0
  0
VERTEX
  8
0
 10
644.6
 20
1017.6
 70
0
  0
SEQEND
  0
POLYLINE
  8
0
  6
CONTINUOUS
 62
1
 66
1
 70
0
  0
VERTEX
  8
0
 10
644.6
 20
1139.8
 70
0
 42
0.0
  0
VERTEX
  8
0
 10
644.6
 20
1139.8
 70
0
 42
0.0
  0
VERTEX
  8
0
 10
643.1
 20
1143.4
 70
0
 42
0.0
  0
VERTEX
  8
0
 10
643.1
 20
1143.4
 70
0
 42
0.0
  0
VERTEX
  8
0
 10
639.6
 20
1144.9
 70
0
  0
SEQEND
  0
POLYLINE
  8
0
  6
CONTINUOUS
 62
1
 66
1
 70
0
  0
VERTEX
  8
0
 10
639.6
 20
1018.2
 70
0
 42
0.0
  0
VERTEX
  8
0
 10
639.6
 20
1018.2
 70
0
 42
0.0
  0
VERTEX
  8
0
 10
644.6
 20
1019.2
 70
0
  0
SEQEND
  0
POLYLINE
  8
0
  6
CONTINUOUS
 62
1
 66
1
 70
0
  0
VERTEX
  8
0
 10
639.6
 20
1001.9
 70
0
 42
0.0
  0
VERTEX
  8
0
 10
639.6
 20
1001.9
 70
0
 42
0.0
  0
VERTEX
  8
0
 10
643.1
 20
1003.4
 70
0
 42
0.0
  0
VERTEX
  8
0
 10
643.1
 20
1003.4
 70
0
 42
0.0
  0
VERTEX
  8
0
 10
644.6
 20
1007.0
 70
0
  0
SEQEND
  0
POLYLINE
  8
0
  6
CONTINUOUS
 62
1
 66
1
 70
0
  0
VERTEX
  8
0
 10
614.6
 20
1019.2
 70
0
 42
0.0
  0
VERTEX
  8
0
 10
614.6
 20
1019.2
 70
0
 42
0.0
  0
VERTEX
  8
0
 10
619.6
 20
1018.2
 70
0
  0
SEQEND
  0
POLYLINE
  8
0
  6
CONTINUOUS
 62
1
 66
1
 70
0
  0
VERTEX
  8
0
 10
827.5
 20
751.5
 70
0
 42
0.0
  0
VERTEX
  8
0
 10
827.5
 20
751.5
 70
0
 42
0.0
  0
VERTEX
  8
0
 10
829.1
 20
753.0
 70
0
  0
SEQEND
  0
POLYLINE
  8
0
  6
CONTINUOUS
 62
1
 66
1
 70
0
  0
VERTEX
  8
0
 10
430.1
 20
753.0
 70
0
 42
0.0
  0
VERTEX
  8
0
 10
430.1
 20
753.0
 70
0
 42
0.0
  0
VERTEX
  8
0
 10
431.7
 20
751.5
 70
0
  0
SEQEND
  0
LINE
  8
0
  6
CONTINUOUS
 62
1
 10
575.2
 20
1496.5
 11
576.4
 21
1496.5
  0
LINE
  8
0
  6
CONTINUOUS
 62
1
 10
577.6
 20
1496.5
 11
578.4
 21
1496.5
  0
LINE
  8
0
  6
CONTINUOUS
 62
1
 10
575.2
 20
1497.0
 11
576.4
 21
1497.0
  0
LINE
  8
0
  6
CONTINUOUS
 62
1
 10
577.6
 20
1497.0
 11
578.4
 21
1497.0
  0
ARC
  8
0
  6
CONTINUOUS
 62
1
 10
799.6
 20
1504.0
 40
11.5
 50
148.0
 51
182.0
  0
ARC
  8
0
  6
CONTINUOUS
 62
1
 10
799.6
 20
1504.0
 40
11.5
 50
328.0
 51
2.0
  0
ARC
  8
0
  6
CONTINUOUS
 62
1
 10
786.5
 20
1414.9
 40
0.5
 50
255.0
 51
345.0
  0
ARC
  8
0
  6
CONTINUOUS
 62
1
 10
786.3
 20
1413.9
 40
0.5
 50
75.0
 51
165.0
  0
LINE
  8
0
  6
CONTINUOUS
 62
1
 10
785.8
 20
1414.0
 11
783.7
 21
1406.1
  0
LINE
  8
0
  6
CONTINUOUS
 62
1
 10
771.4
 20
1427.7
 11
771.9
 21
1429.7
  0
ARC
  8
0
  6
CONTINUOUS
 62
1
 10
779.1
 20
1427.7
 40
7.5
 50
128.1
 51
165.0
  0
ARC
  8
0
  6
CONTINUOUS
 62
1
 10
779.1
 20
1427.7
 40
7.5
 50
345.0
 51
21.9
  0
LINE
  8
0
  6
CONTINUOUS
 62
1
 10
765.8
 20
1420.4
 11
788.2
 21
1504.0
  0
LINE
  8
0
  6
CONTINUOUS
 62
1
 10
789.7
 20
1509.7
 11
790.6
 21
1513.1
  0
ARC
  8
0
  6
CONTINUOUS
 62
1
 10
795.1
 20
1510.4
 40
5.0
 50
75.0
 51
165.0
  0
LINE
  8
0
  6
CONTINUOUS
 62
1
 10
796.4
 20
1515.2
 11
796.9
 21
1515.1
  0
LINE
  8
0
  6
CONTINUOUS
 62
1
 10
807.4
 20
1512.3
 11
807.9
 21
1512.1
  0
ARC
  8
0
  6
CONTINUOUS
 62
1
 10
778.6
 20
1425.8
 40
7.5
 50
165.0
 51
345.0
  0
LINE
  8
0
  6
CONTINUOUS
 62
1
 10
765.1
 20
1413.9
 11
784.4
 21
1408.7
  0
ARC
  8
0
  6
CONTINUOUS
 62
1
 10
766.0
 20
1419.3
 40
0.5
 50
345.0
 51
75.0
  0
ARC
  8
0
  6
CONTINUOUS
 62
1
 10
806.7
 20
1507.3
 40
5.0
 50
345.0
 51
75.0
  0
LINE
  8
0
  6
CONTINUOUS
 62
1
 10
786.4
 20
1425.8
 11
785.8
 21
1423.9
  0
ARC
  8
0
  6
CONTINUOUS
 62
1
 10
766.3
 20
1420.3
 40
0.5
 50
165.0
 51
255.0
  0
LINE
  8
0
  6
CONTINUOUS
 62
1
 10
811.8
 20
1507.4
 11
811.0
 21
1504.1
  0
LINE
  8
0
  6
CONTINUOUS
 62
1
 10
809.4
 20
1498.3
 11
787.0
 21
1414.7
  0
LINE
  8
0
  6
CONTINUOUS
 62
1
 10
786.8
 20
1495.0
 11
806.1
 21
1489.9
  0
LINE
  8
0
  6
CONTINUOUS
 62
1
 10
800.9
 20
1511.4
 11
794.1
 21
1510.4
  0
LINE
  8
0
  6
CONTINUOUS
 62
1
 10
797.8
 20
1495.2
 11
797.7
 21
1495.2
  0
LINE
  8
0
  6
CONTINUOUS
 62
1
 10
797.7
 20
1495.2
 11
797.6
 21
1495.2
  0
ARC
  8
0
  6
CONTINUOUS
 62
1
 10
799.6
 20
1504.0
 40
7.5
 50
79.1
 51
117.2
  0
ARC
  8
0
  6
CONTINUOUS
 62
1
 10
806.8
 20
1506.1
 40
1.0
 50
345.0
 51
51.8
  0
LINE
  8
0
  6
CONTINUOUS
 62
1
 10
797.6
 20
1495.2
 11
796.8
 21
1495.4
  0
LINE
  8
0
  6
CONTINUOUS
 62
1
 10
807.5
 20
1506.8
 11
803.8
 21
1493.4
  0
ARC
  8
0
  6
CONTINUOUS
 62
1
 10
809.6
 20
1506.7
 40
1.0
 50
345.0
 51
45.0
  0
LINE
  8
0
  6
CONTINUOUS
 62
1
 10
804.9
 20
1495.1
 11
807.2
 21
1495.7
  0
LINE
  8
0
  6
CONTINUOUS
 62
1
 10
797.6
 20
1495.2
 11
796.8
 21
1492.3
  0
ARC
  8
0
  6
CONTINUOUS
 62
1
 10
794.3
 20
1509.4
 40
1.0
 50
98.2
 51
165.0
  0
LINE
  8
0
  6
CONTINUOUS
 62
1
 10
806.9
 20
1502.6
 11
792.4
 21
1506.5
  0
ARC
  8
0
  6
CONTINUOUS
 62
1
 10
792.2
 20
1511.4
 40
1.0
 50
105.0
 51
165.0
  0
ARC
  8
0
  6
CONTINUOUS
 62
1
 10
789.5
 20
1501.3
 40
1.0
 50
165.0
 51
225.0
  0
ARC
  8
0
  6
CONTINUOUS
 62
1
 10
799.6
 20
1504.0
 40
8.5
 50
136.7
 51
193.1
  0
ARC
  8
0
  6
CONTINUOUS
 62
1
 10
799.6
 20
1504.0
 40
8.5
 50
17.8
 51
132.2
  0
ARC
  8
0
  6
CONTINUOUS
 62
1
 10
799.6
 20
1504.0
 40
8.5
 50
316.9
 51
13.3
  0
LINE
  8
0
  6
CONTINUOUS
 62
1
 10
796.8
 20
1495.4
 11
796.7
 21
1495.4
  0
LINE
  8
0
  6
CONTINUOUS
 62
1
 10
796.7
 20
1495.4
 11
796.7
 21
1495.5
  0
LINE
  8
0
  6
CONTINUOUS
 62
1
 10
802.0
 20
1515.0
 11
792.0
 21
1512.4
  0
LINE
  8
0
  6
CONTINUOUS
 62
1
 10
784.3
 20
1478.1
 11
799.8
 21
1474.0
  0
LINE
  8
0
  6
CONTINUOUS
 62
1
 10
802.1
 20
1511.1
 11
807.5
 21
1506.8
  0
LINE
  8
0
  6
CONTINUOUS
 62
1
 10
807.9
 20
1496.4
 11
810.6
 21
1506.5
  0
LINE
  8
0
  6
CONTINUOUS
 62
1
 10
810.3
 20
1507.4
 11
803.0
 21
1514.8
  0
ARC
  8
0
  6
CONTINUOUS
 62
1
 10
801.8
 20
1510.7
 40
0.5
 50
51.8
 51
75.0
  0
ARC
  8
0
  6
CONTINUOUS
 62
1
 10
806.9
 20
1496.7
 40
1.0
 50
285.0
 51
345.0
  0
LINE
  8
0
  6
CONTINUOUS
 62
1
 10
791.2
 20
1511.6
 11
788.6
 21
1501.6
  0
LINE
  8
0
  6
CONTINUOUS
 62
1
 10
796.7
 20
1495.5
 11
795.3
 21
1495.8
  0
LINE
  8
0
  6
CONTINUOUS
 62
1
 10
795.3
 20
1495.8
 11
793.2
 21
1496.4
  0
LINE
  8
0
  6
CONTINUOUS
 62
1
 10
793.2
 20
1496.4
 11
790.5
 21
1497.0
  0
LINE
  8
0
  6
CONTINUOUS
 62
1
 10
801.9
 20
1511.2
 11
801.1
 21
1511.4
  0
LINE
  8
0
  6
CONTINUOUS
 62
1
 10
796.8
 20
1495.4
 11
796.1
 21
1492.5
  0
LINE
  8
0
  6
CONTINUOUS
 62
1
 10
786.1
 20
1485.7
 11
802.0
 21
1481.4
  0
LINE
  8
0
  6
CONTINUOUS
 62
1
 10
804.4
 20
1493.2
 11
804.3
 21
1493.0
  0
LINE
  8
0
  6
CONTINUOUS
 62
1
 10
804.3
 20
1493.0
 11
804.0
 21
1493.2
  0
LINE
  8
0
  6
CONTINUOUS
 62
1
 10
804.0
 20
1493.2
 11
803.8
 21
1493.4
  0
ARC
  8
0
  6
CONTINUOUS
 62
1
 10
801.0
 20
1510.9
 40
0.5
 50
75.0
 51
98.2
  0
LINE
  8
0
  6
CONTINUOUS
 62
1
 10
790.5
 20
1497.0
 11
794.1
 21
1510.4
  0
LINE
  8
0
  6
CONTINUOUS
 62
1
 10
801.9
 20
1511.2
 11
797.6
 21
1495.2
  0
LINE
  8
0
  6
CONTINUOUS
 62
1
 10
803.8
 20
1493.4
 11
801.2
 21
1494.3
  0
LINE
  8
0
  6
CONTINUOUS
 62
1
 10
801.2
 20
1494.3
 11
799.1
 21
1494.8
  0
LINE
  8
0
  6
CONTINUOUS
 62
1
 10
799.1
 20
1494.8
 11
797.8
 21
1495.2
  0
ARC
  8
0
  6
CONTINUOUS
 62
1
 10
799.6
 20
1504.0
 40
7.5
 50
32.8
 51
70.9
  0
LINE
  8
0
  6
CONTINUOUS
 62
1
 10
785.9
 20
1484.1
 11
801.4
 21
1479.9
  0
LINE
  8
0
  6
CONTINUOUS
 62
1
 10
785.8
 20
1490.4
 11
804.6
 21
1485.3
  0
LINE
  8
0
  6
CONTINUOUS
 62
1
 10
788.8
 20
1500.6
 11
790.4
 21
1499.0
  0
LINE
  8
0
  6
CONTINUOUS
 62
1
 10
790.5
 20
1497.0
 11
790.2
 21
1496.9
  0
LINE
  8
0
  6
CONTINUOUS
 62
1
 10
790.2
 20
1496.9
 11
789.9
 21
1496.9
  0
LINE
  8
0
  6
CONTINUOUS
 62
1
 10
789.9
 20
1496.9
 11
789.9
 21
1497.1
  0
LINE
  8
0
  6
CONTINUOUS
 62
1
 10
786.0
 20
1492.0
 11
805.3
 21
1486.8
  0
LINE
  8
0
  6
CONTINUOUS
 62
1
 10
783.8
 20
1475.1
 11
798.8
 21
1471.1
  0
ARC
  8
0
  6
CONTINUOUS
 62
1
 10
802.3
 20
1514.1
 40
1.0
 50
45.0
 51
105.0
  0
ARC
  8
0
  6
CONTINUOUS
 62
1
 10
800.5
 20
1488.1
 40
5.0
 50
326.6
 51
345.0
  0
ARC
  8
0
  6
CONTINUOUS
 62
1
 10
790.8
 20
1490.7
 40
5.0
 50
165.0
 51
183.4
  0
ARC
  8
0
  6
CONTINUOUS
 62
1
 10
806.2
 20
1478.6
 40
5.0
 50
146.6
 51
165.0
  0
ARC
  8
0
  6
CONTINUOUS
 62
1
 10
781.1
 20
1485.4
 40
5.0
 50
345.0
 51
3.4
  0
LINE
  8
0
  6
CONTINUOUS
 62
1
 10
786.0
 20
1492.0
 11
786.8
 21
1495.0
  0
LINE
  8
0
  6
CONTINUOUS
 62
1
 10
805.3
 20
1486.8
 11
806.1
 21
1489.9
  0
LINE
  8
0
  6
CONTINUOUS
 62
1
 10
784.3
 20
1478.1
 11
785.9
 21
1484.1
  0
LINE
  8
0
  6
CONTINUOUS
 62
1
 10
799.8
 20
1474.0
 11
801.4
 21
1479.9
  0
LINE
  8
0
  6
CONTINUOUS
 62
1
 10
786.1
 20
1485.7
 11
785.8
 21
1490.4
  0
LINE
  8
0
  6
CONTINUOUS
 62
1
 10
802.0
 20
1481.4
 11
804.6
 21
1485.3
  0
LINE
  8
0
  6
CONTINUOUS
 62
1
 10
783.8
 20
1475.1
 11
784.6
 21
1478.0
  0
LINE
  8
0
  6
CONTINUOUS
 62
1
 10
798.8
 20
1471.1
 11
799.5
 21
1474.0
  0
LINE
  8
0
  6
CONTINUOUS
 62
1
 10
804.5
 20
1493.4
 11
804.4
 21
1493.2
  0
LINE
  8
0
  6
CONTINUOUS
 62
1
 10
804.4
 20
1493.2
 11
804.4
 21
1493.1
  0
LINE
  8
0
  6
CONTINUOUS
 62
1
 10
804.4
 20
1493.1
 11
804.4
 21
1492.9
  0
LINE
  8
0
  6
CONTINUOUS
 62
1
 10
804.4
 20
1492.9
 11
804.4
 21
1492.7
  0
LINE
  8
0
  6
CONTINUOUS
 62
1
 10
804.4
 20
1492.7
 11
804.4
 21
1492.5
  0
LINE
  8
0
  6
CONTINUOUS
 62
1
 10
804.4
 20
1492.5
 11
804.4
 21
1492.3
  0
LINE
  8
0
  6
CONTINUOUS
 62
1
 10
804.4
 20
1492.3
 11
804.4
 21
1492.1
  0
LINE
  8
0
  6
CONTINUOUS
 62
1
 10
804.4
 20
1492.1
 11
804.4
 21
1491.9
  0
LINE
  8
0
  6
CONTINUOUS
 62
1
 10
804.4
 20
1491.9
 11
804.5
 21
1491.8
  0
LINE
  8
0
  6
CONTINUOUS
 62
1
 10
804.5
 20
1491.8
 11
804.5
 21
1491.6
  0
LINE
  8
0
  6
CONTINUOUS
 62
1
 10
804.5
 20
1491.6
 11
804.6
 21
1491.4
  0
LINE
  8
0
  6
CONTINUOUS
 62
1
 10
804.6
 20
1491.4
 11
804.7
 21
1491.2
  0
LINE
  8
0
  6
CONTINUOUS
 62
1
 10
804.7
 20
1491.2
 11
804.8
 21
1491.0
  0
LINE
  8
0
  6
CONTINUOUS
 62
1
 10
804.8
 20
1491.0
 11
804.9
 21
1490.9
  0
LINE
  8
0
  6
CONTINUOUS
 62
1
 10
804.9
 20
1490.9
 11
805.0
 21
1490.7
  0
LINE
  8
0
  6
CONTINUOUS
 62
1
 10
805.0
 20
1490.7
 11
805.1
 21
1490.6
  0
LINE
  8
0
  6
CONTINUOUS
 62
1
 10
805.1
 20
1490.6
 11
805.3
 21
1490.4
  0
LINE
  8
0
  6
CONTINUOUS
 62
1
 10
805.3
 20
1490.4
 11
805.4
 21
1490.3
  0
LINE
  8
0
  6
CONTINUOUS
 62
1
 10
805.4
 20
1490.3
 11
805.6
 21
1490.2
  0
LINE
  8
0
  6
CONTINUOUS
 62
1
 10
805.6
 20
1490.2
 11
805.8
 21
1490.1
  0
LINE
  8
0
  6
CONTINUOUS
 62
1
 10
805.8
 20
1490.1
 11
805.9
 21
1489.9
  0
LINE
  8
0
  6
CONTINUOUS
 62
1
 10
805.9
 20
1489.9
 11
806.1
 21
1489.9
  0
LINE
  8
0
  6
CONTINUOUS
 62
1
 10
786.8
 20
1495.0
 11
787.0
 21
1495.0
  0
LINE
  8
0
  6
CONTINUOUS
 62
1
 10
787.0
 20
1495.0
 11
787.2
 21
1495.0
  0
LINE
  8
0
  6
CONTINUOUS
 62
1
 10
787.2
 20
1495.0
 11
787.4
 21
1495.0
  0
LINE
  8
0
  6
CONTINUOUS
 62
1
 10
787.4
 20
1495.0
 11
787.6
 21
1495.1
  0
LINE
  8
0
  6
CONTINUOUS
 62
1
 10
787.6
 20
1495.1
 11
787.8
 21
1495.1
  0
LINE
  8
0
  6
CONTINUOUS
 62
1
 10
787.8
 20
1495.1
 11
788.0
 21
1495.2
  0
LINE
  8
0
  6
CONTINUOUS
 62
1
 10
788.0
 20
1495.2
 11
788.1
 21
1495.2
  0
LINE
  8
0
  6
CONTINUOUS
 62
1
 10
788.1
 20
1495.2
 11
788.3
 21
1495.3
  0
LINE
  8
0
  6
CONTINUOUS
 62
1
 10
788.3
 20
1495.3
 11
788.5
 21
1495.4
  0
LINE
  8
0
  6
CONTINUOUS
 62
1
 10
788.5
 20
1495.4
 11
788.7
 21
1495.5
  0
LINE
  8
0
  6
CONTINUOUS
 62
1
 10
788.7
 20
1495.5
 11
788.8
 21
1495.6
  0
LINE
  8
0
  6
CONTINUOUS
 62
1
 10
788.8
 20
1495.6
 11
789.0
 21
1495.7
  0
LINE
  8
0
  6
CONTINUOUS
 62
1
 10
789.0
 20
1495.7
 11
789.1
 21
1495.8
  0
LINE
  8
0
  6
CONTINUOUS
 62
1
 10
789.1
 20
1495.8
 11
789.3
 21
1496.0
  0
LINE
  8
0
  6
CONTINUOUS
 62
1
 10
789.3
 20
1496.0
 11
789.4
 21
1496.1
  0
LINE
  8
0
  6
CONTINUOUS
 62
1
 10
789.4
 20
1496.1
 11
789.5
 21
1496.3
  0
LINE
  8
0
  6
CONTINUOUS
 62
1
 10
789.5
 20
1496.3
 11
789.6
 21
1496.4
  0
LINE
  8
0
  6
CONTINUOUS
 62
1
 10
789.6
 20
1496.4
 11
789.7
 21
1496.6
  0
LINE
  8
0
  6
CONTINUOUS
 62
1
 10
789.7
 20
1496.6
 11
789.8
 21
1496.8
  0
LINE
  8
0
  6
CONTINUOUS
 62
1
 10
789.8
 20
1496.8
 11
789.9
 21
1497.0
  0
LINE
  8
0
  6
CONTINUOUS
 62
1
 10
789.9
 20
1497.0
 11
789.9
 21
1497.1
  0
LINE
  8
0
  6
CONTINUOUS
 62
1
 10
789.9
 20
1497.1
 11
790.0
 21
1497.2
  0
ARC
  8
0
  6
CONTINUOUS
 62
1
 10
799.6
 20
1504.0
 40
11.4
 50
296.2
 51
213.8
  0
LINE
  8
0
  6
CONTINUOUS
 62
1
 10
798.2
 20
1518.3
 11
797.9
 21
1517.3
  0
LINE
  8
0
  6
CONTINUOUS
 62
1
 10
807.6
 20
1514.7
 11
807.9
 21
1515.7
  0
ARC
  8
0
  6
CONTINUOUS
 62
1
 10
779.5
 20
1429.2
 40
8.3
 50
190.6
 51
319.4
  0
LINE
  8
0
  6
CONTINUOUS
 62
1
 10
807.9
 20
1515.7
 11
798.2
 21
1518.3
  0
ARC
  8
0
  6
CONTINUOUS
 62
1
 10
806.0
 20
1508.9
 40
6.0
 50
345.0
 51
75.0
  0
ARC
  8
0
  6
CONTINUOUS
 62
1
 10
796.4
 20
1511.5
 40
6.0
 50
75.0
 51
165.0
  0
LINE
  8
0
  6
CONTINUOUS
 62
1
 10
785.0
 20
1472.7
 11
796.6
 21
1469.6
  0
LINE
  8
0
  6
CONTINUOUS
 62
1
 10
797.1
 20
1471.6
 11
783.8
 21
1422.0
  0
LINE
  8
0
  6
CONTINUOUS
 62
1
 10
785.5
 20
1474.7
 11
772.2
 21
1425.1
  0
LINE
  8
0
  6
CONTINUOUS
 62
1
 10
763.8
 20
1405.4
 11
781.2
 21
1400.8
  0
LINE
  8
0
  6
CONTINUOUS
 62
1
 10
782.8
 20
1406.6
 11
765.4
 21
1411.2
  0
ARC
  8
0
  6
CONTINUOUS
 62
1
 10
764.5
 20
1407.8
 40
2.5
 50
165.0
 51
255.0
  0
LINE
  8
0
  6
CONTINUOUS
 62
1
 10
777.3
 20
1401.8
 11
778.9
 21
1407.6
  0
LINE
  8
0
  6
CONTINUOUS
 62
1
 10
784.5
 20
1403.5
 11
784.3
 21
1402.5
  0
LINE
  8
0
  6
CONTINUOUS
 62
1
 10
762.3
 20
1409.5
 11
762.1
 21
1408.5
  0
ARC
  8
0
  6
CONTINUOUS
 62
1
 10
764.7
 20
1408.8
 40
2.5
 50
75.0
 51
165.0
  0
LINE
  8
0
  6
CONTINUOUS
 62
1
 10
784.3
 20
1402.5
 11
762.1
 21
1408.5
  0
ARC
  8
0
  6
CONTINUOUS
 62
1
 10
782.1
 20
1404.1
 40
2.5
 50
345.0
 51
75.0
  0
ARC
  8
0
  6
CONTINUOUS
 62
1
 10
781.9
 20
1403.2
 40
2.5
 50
255.0
 51
345.0
  0
LINE
  8
0
  6
CONTINUOUS
 62
1
 10
558.3
 20
1531.8
 11
555.8
 21
1531.8
  0
LINE
  8
0
  6
CONTINUOUS
 62
1
 10
485.8
 20
1531.8
 11
483.6
 21
1531.8
  0
LINE
  8
0
  6
CONTINUOUS
 62
1
 10
558.3
 20
1531.8
 11
558.3
 21
1531.6
  0
LINE
  8
0
  6
CONTINUOUS
 62
1
 10
577.6
 20
1502.8
 11
577.9
 21
1502.8
  0
LINE
  8
0
  6
CONTINUOUS
 62
1
 10
681.3
 20
1502.8
 11
681.6
 21
1502.8
  0
LINE
  8
0
  6
CONTINUOUS
 62
1
 10
725.6
 20
1531.6
 11
725.6
 21
1532.1
  0
LINE
  8
0
  6
CONTINUOUS
 62
1
 10
725.6
 20
1533.3
 11
725.6
 21
1536.0
  0
LINE
  8
0
  6
CONTINUOUS
 62
1
 10
723.6
 20
1541.6
 11
723.6
 21
1541.4
  0
LINE
  8
0
  6
CONTINUOUS
 62
1
 10
723.6
 20
1536.2
 11
723.6
 21
1536.0
  0
LINE
  8
0
  6
CONTINUOUS
 62
1
 10
719.6
 20
1544.2
 11
734.6
 21
1544.2
  0
LINE
  8
0
  6
CONTINUOUS
 62
1
 10
719.6
 20
1531.6
 11
719.6
 21
1532.1
  0
LINE
  8
0
  6
CONTINUOUS
 62
1
 10
719.6
 20
1533.3
 11
719.6
 21
1536.0
  0
LINE
  8
0
  6
CONTINUOUS
 62
1
 10
723.6
 20
1531.6
 11
723.6
 21
1532.1
  0
LINE
  8
0
  6
CONTINUOUS
 62
1
 10
723.6
 20
1533.3
 11
723.6
 21
1536.0
  0
LINE
  8
0
  6
CONTINUOUS
 62
1
 10
719.6
 20
1544.2
 11
719.6
 21
1544.2
  0
LINE
  8
0
  6
CONTINUOUS
 62
1
 10
733.5
 20
1531.6
 11
733.5
 21
1532.1
  0
LINE
  8
0
  6
CONTINUOUS
 62
1
 10
733.5
 20
1533.3
 11
733.5
 21
1536.0
  0
LINE
  8
0
  6
CONTINUOUS
 62
1
 10
719.6
 20
1541.6
 11
719.6
 21
1544.2
  0
LINE
  8
0
  6
CONTINUOUS
 62
1
 10
719.6
 20
1536.0
 11
719.6
 21
1536.2
  0
LINE
  8
0
  6
CONTINUOUS
 62
1
 10
719.6
 20
1541.4
 11
719.6
 21
1541.6
  0
LINE
  8
0
  6
CONTINUOUS
 62
1
 10
733.5
 20
1541.6
 11
733.5
 21
1544.2
  0
LINE
  8
0
  6
CONTINUOUS
 62
1
 10
719.6
 20
1541.6
 11
719.6
 21
1541.6
  0
LINE
  8
0
  6
CONTINUOUS
 62
1
 10
723.6
 20
1541.6
 11
723.6
 21
1544.2
  0
LINE
  8
0
  6
CONTINUOUS
 62
1
 10
725.6
 20
1541.6
 11
725.6
 21
1544.2
  0
LINE
  8
0
  6
CONTINUOUS
 62
1
 10
719.6
 20
1531.6
 11
719.6
 21
1532.1
  0
LINE
  8
0
  6
CONTINUOUS
 62
1
 10
719.6
 20
1533.3
 11
719.6
 21
1537.3
  0
LINE
  8
0
  6
CONTINUOUS
 62
1
 10
719.6
 20
1540.3
 11
719.6
 21
1544.2
  0
LINE
  8
0
  6
CONTINUOUS
 62
1
 10
719.6
 20
1541.4
 11
734.6
 21
1541.4
  0
LINE
  8
0
  6
CONTINUOUS
 62
1
 10
727.7
 20
1536.2
 11
727.7
 21
1541.4
  0
LINE
  8
0
  6
CONTINUOUS
 62
1
 10
724.4
 20
1536.2
 11
724.4
 21
1541.4
  0
LINE
  8
0
  6
CONTINUOUS
 62
1
 10
731.4
 20
1536.2
 11
731.4
 21
1541.4
  0
LINE
  8
0
  6
CONTINUOUS
 62
1
 10
722.1
 20
1540.2
 11
722.1
 21
1539.3
  0
LINE
  8
0
  6
CONTINUOUS
 62
1
 10
720.1
 20
1539.3
 11
721.1
 21
1539.3
  0
LINE
  8
0
  6
CONTINUOUS
 62
1
 10
722.1
 20
1539.3
 11
722.0
 21
1539.2
  0
LINE
  8
0
  6
CONTINUOUS
 62
1
 10
721.1
 20
1539.2
 11
721.1
 21
1539.3
  0
LINE
  8
0
  6
CONTINUOUS
 62
1
 10
721.1
 20
1539.3
 11
721.1
 21
1540.2
  0
LINE
  8
0
  6
CONTINUOUS
 62
1
 10
722.1
 20
1538.3
 11
722.1
 21
1537.3
  0
LINE
  8
0
  6
CONTINUOUS
 62
1
 10
721.1
 20
1537.3
 11
721.1
 21
1538.3
  0
LINE
  8
0
  6
CONTINUOUS
 62
1
 10
721.1
 20
1538.3
 11
720.1
 21
1538.3
  0
CIRCLE
  8
0
  6
CONTINUOUS
 62
1
 10
721.6
 20
1538.8
 40
2.5
  0
LINE
  8
0
  6
CONTINUOUS
 62
1
 10
723.0
 20
1538.3
 11
722.1
 21
1538.3
  0
LINE
  8
0
  6
CONTINUOUS
 62
1
 10
722.0
 20
1538.3
 11
722.1
 21
1538.3
  0
LINE
  8
0
  6
CONTINUOUS
 62
1
 10
721.1
 20
1538.3
 11
721.1
 21
1539.2
  0
CIRCLE
  8
0
  6
CONTINUOUS
 62
1
 10
721.6
 20
1538.8
 40
2.3
  0
LINE
  8
0
  6
CONTINUOUS
 62
1
 10
722.1
 20
1539.3
 11
723.0
 21
1539.3
  0
LINE
  8
0
  6
CONTINUOUS
 62
1
 10
722.0
 20
1539.2
 11
721.1
 21
1539.2
  0
LINE
  8
0
  6
CONTINUOUS
 62
1
 10
722.0
 20
1538.3
 11
722.0
 21
1539.2
  0
LINE
  8
0
  6
CONTINUOUS
 62
1
 10
721.1
 20
1538.3
 11
722.0
 21
1538.3
  0
LINE
  8
0
  6
CONTINUOUS
 62
1
 10
721.1
 20
1538.3
 11
721.1
 21
1538.3
  0
LINE
  8
0
  6
CONTINUOUS
 62
1
 10
785.3
 20
1534.5
 11
785.3
 21
1533.3
  0
LINE
  8
0
  6
CONTINUOUS
 62
1
 10
785.3
 20
1532.1
 11
785.3
 21
1531.6
  0
LINE
  8
0
  6
CONTINUOUS
 62
1
 10
784.6
 20
1535.1
 11
784.9
 21
1534.9
  0
LINE
  8
0
  6
CONTINUOUS
 62
1
 10
784.9
 20
1534.9
 11
785.3
 21
1534.5
  0
LINE
  8
0
  6
CONTINUOUS
 62
1
 10
784.6
 20
1535.3
 11
785.3
 21
1534.5
  0
LINE
  8
0
  6
CONTINUOUS
 62
1
 10
784.6
 20
1540.1
 11
784.9
 21
1539.9
  0
LINE
  8
0
  6
CONTINUOUS
 62
1
 10
784.9
 20
1539.9
 11
785.3
 21
1539.5
  0
LINE
  8
0
  6
CONTINUOUS
 62
1
 10
785.3
 20
1539.5
 11
785.3
 21
1536.5
  0
LINE
  8
0
  6
CONTINUOUS
 62
1
 10
785.3
 20
1536.5
 11
784.9
 21
1536.2
  0
LINE
  8
0
  6
CONTINUOUS
 62
1
 10
784.9
 20
1536.2
 11
784.6
 21
1536.0
  0
LINE
  8
0
  6
CONTINUOUS
 62
1
 10
784.6
 20
1535.8
 11
785.3
 21
1536.5
  0
LINE
  8
0
  6
CONTINUOUS
 62
1
 10
784.6
 20
1540.3
 11
785.3
 21
1539.5
  0
LINE
  8
0
  6
CONTINUOUS
 62
1
 10
790.3
 20
1536.6
 11
790.3
 21
1543.1
  0
LINE
  8
0
  6
CONTINUOUS
 62
1
 10
787.7
 20
1541.8
 11
787.7
 21
1543.1
  0
LINE
  8
0
  6
CONTINUOUS
 62
1
 10
790.3
 20
1536.6
 11
788.8
 21
1536.6
  0
LINE
  8
0
  6
CONTINUOUS
 62
1
 10
788.8
 20
1536.6
 11
788.8
 21
1541.8
  0
LINE
  8
0
  6
CONTINUOUS
 62
1
 10
788.3
 20
1540.5
 11
788.3
 21
1541.8
  0
LINE
  8
0
  6
CONTINUOUS
 62
1
 10
785.3
 20
1544.1
 11
784.9
 21
1543.8
  0
LINE
  8
0
  6
CONTINUOUS
 62
1
 10
784.9
 20
1543.8
 11
784.6
 21
1543.6
  0
LINE
  8
0
  6
CONTINUOUS
 62
1
 10
784.6
 20
1547.7
 11
784.9
 21
1547.5
  0
LINE
  8
0
  6
CONTINUOUS
 62
1
 10
784.9
 20
1547.5
 11
785.3
 21
1547.1
  0
LINE
  8
0
  6
CONTINUOUS
 62
1
 10
785.3
 20
1547.1
 11
785.3
 21
1544.1
  0
LINE
  8
0
  6
CONTINUOUS
 62
1
 10
784.6
 20
1547.9
 11
785.3
 21
1547.1
  0
LINE
  8
0
  6
CONTINUOUS
 62
1
 10
784.6
 20
1543.4
 11
785.3
 21
1544.1
  0
LINE
  8
0
  6
CONTINUOUS
 62
1
 10
496.0
 20
1584.0
 11
501.1
 21
1575.2
  0
LINE
  8
0
  6
CONTINUOUS
 62
1
 10
501.5
 20
1605.6
 11
496.0
 21
1596.1
  0
LINE
  8
0
  6
CONTINUOUS
 62
1
 10
530.4
 20
1614.5
 11
511.2
 21
1614.5
  0
LINE
  8
0
  6
CONTINUOUS
 62
1
 10
512.5
 20
1565.5
 11
529.1
 21
1565.5
  0
ARC
  8
0
  6
CONTINUOUS
 62
1
 10
520.8
 20
1590.0
 40
24.2
 50
57.3
 51
122.7
  0
ARC
  8
0
  6
CONTINUOUS
 62
1
 10
520.8
 20
1590.0
 40
24.2
 50
141.5
 51
165.6
  0
ARC
  8
0
  6
CONTINUOUS
 62
1
 10
520.8
 20
1590.0
 40
24.2
 50
194.4
 51
217.0
  0
ARC
  8
0
  6
CONTINUOUS
 62
1
 10
520.8
 20
1590.0
 40
24.2
 50
240.3
 51
299.7
  0
ARC
  8
0
  6
CONTINUOUS
 62
1
 10
536.0
 20
1603.0
 40
13.8
 50
19.0
 51
33.2
  0
ARC
  8
0
  6
CONTINUOUS
 62
1
 10
499.2
 20
1603.3
 40
3.2
 50
0.0
 51
180.0
  0
ARC
  8
0
  6
CONTINUOUS
 62
1
 10
547.8
 20
1573.3
 40
2.0
 50
270.0
 51
336.4
  0
LINE
  8
0
  6
CONTINUOUS
 62
1
 10
539.8
 20
1533.3
 11
539.8
 21
1533.3
  0
ARC
  8
0
  6
CONTINUOUS
 62
1
 10
520.8
 20
1581.0
 40
42.0
 50
70.9
 51
109.1
  0
LINE
  8
0
  6
CONTINUOUS
 62
1
 10
487.8
 20
1531.6
 11
487.8
 21
1532.1
  0
LINE
  8
0
  6
CONTINUOUS
 62
1
 10
501.8
 20
1533.3
 11
501.8
 21
1533.3
  0
LINE
  8
0
  6
CONTINUOUS
 62
1
 10
528.3
 20
1553.3
 11
513.3
 21
1553.3
  0
LINE
  8
0
  6
CONTINUOUS
 62
1
 10
553.8
 20
1532.1
 11
553.8
 21
1531.6
  0
ARC
  8
0
  6
CONTINUOUS
 62
1
 10
513.3
 20
1548.3
 40
5.0
 50
90.0
 51
270.0
  0
LINE
  8
0
  6
CONTINUOUS
 62
1
 10
501.8
 20
1533.3
 11
501.8
 21
1569.3
  0
LINE
  8
0
  6
CONTINUOUS
 62
1
 10
499.8
 20
1532.1
 11
499.8
 21
1531.6
  0
ARC
  8
0
  6
CONTINUOUS
 62
1
 10
493.8
 20
1573.3
 40
2.0
 50
180.0
 51
270.0
  0
LINE
  8
0
  6
CONTINUOUS
 62
1
 10
547.8
 20
1571.3
 11
541.8
 21
1571.3
  0
LINE
  8
0
  6
CONTINUOUS
 62
1
 10
541.8
 20
1531.6
 11
541.8
 21
1532.1
  0
LINE
  8
0
  6
CONTINUOUS
 62
1
 10
501.8
 20
1533.3
 11
539.8
 21
1533.3
  0
ARC
  8
0
  6
CONTINUOUS
 62
1
 10
505.6
 20
1603.0
 40
13.8
 50
146.8
 51
180.0
  0
LINE
  8
0
  6
CONTINUOUS
 62
1
 10
496.0
 20
1603.3
 11
496.0
 21
1596.0
  0
LINE
  8
0
  6
CONTINUOUS
 62
1
 10
496.0
 20
1584.0
 11
496.0
 21
1577.7
  0
ARC
  8
0
  6
CONTINUOUS
 62
1
 10
528.3
 20
1548.3
 40
5.0
 50
270.0
 51
90.0
  0
LINE
  8
0
  6
CONTINUOUS
 62
1
 10
499.8
 20
1571.3
 11
493.8
 21
1571.3
  0
LINE
  8
0
  6
CONTINUOUS
 62
1
 10
539.8
 20
1531.6
 11
539.8
 21
1532.1
  0
LINE
  8
0
  6
CONTINUOUS
 62
1
 10
513.3
 20
1543.3
 11
528.3
 21
1543.3
  0
ARC
  8
0
  6
CONTINUOUS
 62
1
 10
526.2
 20
1596.6
 40
25.5
 50
33.2
 51
70.9
  0
ARC
  8
0
  6
CONTINUOUS
 62
1
 10
520.8
 20
1578.0
 40
15.0
 50
191.1
 51
338.5
  0
ARC
  8
0
  6
CONTINUOUS
 62
1
 10
520.8
 20
1603.0
 40
15.0
 50
17.5
 51
174.2
  0
ARC
  8
0
  6
CONTINUOUS
 62
1
 10
499.2
 20
1577.7
 40
3.2
 50
180.0
 51
0.0
  0
LINE
  8
0
  6
CONTINUOUS
 62
1
 10
502.4
 20
1577.7
 11
502.4
 21
1584.0
  0
LINE
  8
0
  6
CONTINUOUS
 62
1
 10
502.4
 20
1596.1
 11
502.4
 21
1603.3
  0
ARC
  8
0
  6
CONTINUOUS
 62
1
 10
541.8
 20
1569.3
 40
2.0
 50
90.0
 51
180.0
  0
LINE
  8
0
  6
CONTINUOUS
 62
1
 10
485.8
 20
1532.1
 11
485.8
 21
1531.6
  0
ARC
  8
0
  6
CONTINUOUS
 62
1
 10
515.4
 20
1596.6
 40
25.5
 50
109.1
 51
146.8
  0
ARC
  8
0
  6
CONTINUOUS
 62
1
 10
499.8
 20
1569.3
 40
2.0
 50
0.0
 51
90.0
  0
LINE
  8
0
  6
CONTINUOUS
 62
1
 10
491.8
 20
1573.3
 11
491.8
 21
1584.5
  0
LINE
  8
0
  6
CONTINUOUS
 62
1
 10
491.8
 20
1595.5
 11
491.8
 21
1603.0
  0
LINE
  8
0
  6
CONTINUOUS
 62
1
 10
555.8
 20
1531.6
 11
555.8
 21
1532.1
  0
ARC
  8
0
  6
CONTINUOUS
 62
1
 10
526.8
 20
1580.0
 40
10.0
 50
270.0
 51
311.4
  0
LINE
  8
0
  6
CONTINUOUS
 62
1
 10
526.8
 20
1610.0
 11
514.8
 21
1610.0
  0
ARC
  8
0
  6
CONTINUOUS
 62
1
 10
502.3
 20
1598.5
 40
2.5
 50
270.0
 51
274.8
  0
ARC
  8
0
  6
CONTINUOUS
 62
1
 10
493.3
 20
1586.5
 40
2.5
 50
180.0
 51
270.0
  0
ARC
  8
0
  6
CONTINUOUS
 62
1
 10
514.8
 20
1580.0
 40
10.0
 50
184.3
 51
270.0
  0
LINE
  8
0
  6
CONTINUOUS
 62
1
 10
502.3
 20
1596.0
 11
493.3
 21
1596.0
  0
LINE
  8
0
  6
CONTINUOUS
 62
1
 10
514.8
 20
1570.0
 11
526.8
 21
1570.0
  0
ARC
  8
0
  6
CONTINUOUS
 62
1
 10
493.3
 20
1593.5
 40
2.5
 50
90.0
 51
180.0
  0
LINE
  8
0
  6
CONTINUOUS
 62
1
 10
493.3
 20
1584.0
 11
502.3
 21
1584.0
  0
ARC
  8
0
  6
CONTINUOUS
 62
1
 10
526.8
 20
1600.0
 40
10.0
 50
48.6
 51
90.0
  0
ARC
  8
0
  6
CONTINUOUS
 62
1
 10
502.3
 20
1581.5
 40
2.5
 50
85.2
 51
90.0
  0
ARC
  8
0
  6
CONTINUOUS
 62
1
 10
514.8
 20
1600.0
 40
10.0
 50
90.0
 51
175.7
  0
LINE
  8
0
  6
CONTINUOUS
 62
1
 10
490.8
 20
1593.5
 11
490.8
 21
1586.5
  0
ARC
  8
0
  6
CONTINUOUS
 62
1
 10
499.2
 20
1590.0
 40
2.3
 50
2.4
 51
357.6
  0
LINE
  8
0
  6
CONTINUOUS
 62
1
 10
510.9
 20
1552.5
 11
530.7
 21
1552.5
  0
LINE
  8
0
  6
CONTINUOUS
 62
1
 10
512.9
 20
1543.4
 11
512.9
 21
1550.0
  0
LINE
  8
0
  6
CONTINUOUS
 62
1
 10
511.4
 20
1553.0
 11
530.2
 21
1553.0
  0
LINE
  8
0
  6
CONTINUOUS
 62
1
 10
509.6
 20
1551.0
 11
532.0
 21
1551.0
  0
LINE
  8
0
  6
CONTINUOUS
 62
1
 10
510.0
 20
1552.1
 11
531.7
 21
1552.1
  0
LINE
  8
0
  6
CONTINUOUS
 62
1
 10
528.7
 20
1550.0
 11
528.7
 21
1543.4
  0
LINE
  8
0
  6
CONTINUOUS
 62
1
 10
512.1
 20
1550.0
 11
512.1
 21
1543.5
  0
LINE
  8
0
  6
CONTINUOUS
 62
1
 10
529.5
 20
1543.5
 11
529.5
 21
1550.0
  0
LINE
  8
0
  6
CONTINUOUS
 62
1
 10
509.7
 20
1551.9
 11
531.9
 21
1551.9
  0
LINE
  8
0
  6
CONTINUOUS
 62
1
 10
531.9
 20
1551.8
 11
532.0
 21
1551.0
  0
LINE
  8
0
  6
CONTINUOUS
 62
1
 10
509.7
 20
1551.8
 11
509.6
 21
1551.0
  0
ARC
  8
0
  6
CONTINUOUS
 62
1
 10
533.0
 20
1551.0
 40
1.0
 50
185.4
 51
270.0
  0
ARC
  8
0
  6
CONTINUOUS
 62
1
 10
508.6
 20
1551.0
 40
1.0
 50
270.0
 51
354.6
  0
ARC
  8
0
  6
CONTINUOUS
 62
1
 10
530.8
 20
1552.8
 40
0.3
 50
169.2
 51
245.1
  0
ARC
  8
0
  6
CONTINUOUS
 62
1
 10
510.8
 20
1552.8
 40
0.2
 50
294.9
 51
10.3
  0
LINE
  8
0
  6
CONTINUOUS
 62
1
 10
530.7
 20
1552.5
 11
531.6
 21
1552.1
  0
LINE
  8
0
  6
CONTINUOUS
 62
1
 10
510.9
 20
1552.5
 11
510.0
 21
1552.1
  0
ARC
  8
0
  6
CONTINUOUS
 62
1
 10
520.8
 20
1590.0
 40
17.5
 50
90.0
 51
270.0
  0
ARC
  8
0
  6
CONTINUOUS
 62
1
 10
570.8
 20
1590.0
 40
18.0
 50
256.5
 51
103.5
  0
ARC
  8
0
  6
CONTINUOUS
 62
1
 10
570.8
 20
1590.0
 40
17.5
 50
270.0
 51
90.0
  0
ARC
  8
0
  6
CONTINUOUS
 62
1
 10
570.8
 20
1590.0
 40
19.3
 50
245.4
 51
114.6
  0
ARC
  8
0
  6
CONTINUOUS
 62
1
 10
520.8
 20
1590.0
 40
19.3
 50
65.4
 51
294.6
  0
ARC
  8
0
  6
CONTINUOUS
 62
1
 10
520.8
 20
1590.0
 40
18.7
 50
69.0
 51
291.0
  0
ARC
  8
0
  6
CONTINUOUS
 62
1
 10
520.8
 20
1590.0
 40
18.0
 50
76.5
 51
283.5
  0
ARC
  8
0
  6
CONTINUOUS
 62
1
 10
570.8
 20
1590.0
 40
18.7
 50
249.0
 51
111.0
  0
LINE
  8
0
  6
CONTINUOUS
 62
1
 10
520.8
 20
1607.5
 11
570.8
 21
1607.5
  0
LINE
  8
0
  6
CONTINUOUS
 62
1
 10
570.8
 20
1572.5
 11
520.8
 21
1572.5
  0
LINE
  8
0
  6
CONTINUOUS
 62
1
 10
533.6
 20
750.1
 11
433.6
 21
750.1
  0
LINE
  8
0
  6
CONTINUOUS
 62
1
 10
433.6
 20
751.5
 11
433.6
 21
750.1
  0
LINE
  8
0
  6
CONTINUOUS
 62
1
 10
524.5
 20
739.5
 11
533.6
 21
750.1
  0
LINE
  8
0
  6
CONTINUOUS
 62
1
 10
433.6
 20
750.1
 11
442.7
 21
739.5
  0
LINE
  8
0
  6
CONTINUOUS
 62
1
 10
533.6
 20
751.5
 11
533.6
 21
750.1
  0
ARC
  8
0
  6
CONTINUOUS
 62
1
 10
431.6
 20
1528.6
 40
1.3
 50
90.0
 51
131.8
  0
LINE
  8
0
  6
CONTINUOUS
 62
1
 10
431.6
 20
1529.8
 11
431.8
 21
1529.8
  0
ARC
  8
0
  6
CONTINUOUS
 62
1
 10
827.8
 20
793.0
 40
1.8
 50
358.7
 51
0.0
  0
LINE
  8
0
  6
CONTINUOUS
 62
1
 10
829.6
 20
792.0
 11
829.6
 21
792.0
  0
LINE
  8
0
  6
CONTINUOUS
 62
1
 10
829.6
 20
1531.6
 11
829.6
 21
753.0
  0
LINE
  8
0
  6
CONTINUOUS
 62
1
 10
482.9
 20
1424.7
 11
482.9
 21
1423.7
  0
LINE
  8
0
  6
CONTINUOUS
 62
1
 10
571.6
 20
961.5
 11
619.6
 21
961.5
  0
LINE
  8
0
  6
CONTINUOUS
 62
1
 10
733.6
 20
1405.5
 11
733.6
 21
1402.5
  0
LINE
  8
0
  6
CONTINUOUS
 62
1
 10
720.8
 20
961.5
 11
735.3
 21
961.5
  0
LINE
  8
0
  6
CONTINUOUS
 62
1
 10
639.6
 20
961.5
 11
687.6
 21
961.5
  0
LINE
  8
0
  6
CONTINUOUS
 62
1
 10
721.6
 20
1402.5
 11
721.6
 21
1405.5
  0
LINE
  8
0
  6
CONTINUOUS
 62
1
 10
483.9
 20
1423.7
 11
483.9
 21
1424.7
  0
LINE
  8
0
  6
CONTINUOUS
 62
1
 10
619.6
 20
949.5
 11
571.6
 21
949.5
  0
LINE
  8
0
  6
CONTINUOUS
 62
1
 10
621.6
 20
1405.5
 11
621.6
 21
1402.5
  0
LINE
  8
0
  6
CONTINUOUS
 62
1
 10
687.6
 20
949.5
 11
639.6
 21
949.5
  0
LINE
  8
0
  6
CONTINUOUS
 62
1
 10
665.6
 20
1402.5
 11
665.6
 21
1405.5
  0
ARC
  8
0
  6
CONTINUOUS
 62
1
 10
503.6
 20
1405.5
 40
6.0
 50
0.0
 51
180.0
  0
LINE
  8
0
  6
CONTINUOUS
 62
1
 10
677.6
 20
1405.5
 11
677.6
 21
1402.5
  0
LINE
  8
0
  6
CONTINUOUS
 62
1
 10
539.8
 20
949.5
 11
521.6
 21
949.5
  0
ARC
  8
0
  6
CONTINUOUS
 62
1
 10
643.6
 20
1405.5
 40
6.0
 50
0.0
 51
180.0
  0
LINE
  8
0
  6
CONTINUOUS
 62
1
 10
637.6
 20
1402.5
 11
637.6
 21
1405.5
  0
LINE
  8
0
  6
CONTINUOUS
 62
1
 10
747.1
 20
1424.7
 11
747.1
 21
1402.5
  0
LINE
  8
0
  6
CONTINUOUS
 62
1
 10
609.6
 20
1402.5
 11
609.6
 21
1405.5
  0
LINE
  8
0
  6
CONTINUOUS
 62
1
 10
737.6
 20
949.5
 11
720.8
 21
949.5
  0
LINE
  8
0
  6
CONTINUOUS
 62
1
 10
509.6
 20
1405.5
 11
509.6
 21
1402.5
  0
LINE
  8
0
  6
CONTINUOUS
 62
1
 10
484.1
 20
1423.5
 11
484.1
 21
1402.5
  0
LINE
  8
0
  6
CONTINUOUS
 62
1
 10
523.9
 20
961.5
 11
539.8
 21
961.5
  0
ARC
  8
0
  6
CONTINUOUS
 62
1
 10
615.6
 20
1405.5
 40
6.0
 50
0.0
 51
180.0
  0
LINE
  8
0
  6
CONTINUOUS
 62
1
 10
693.6
 20
1402.5
 11
693.6
 21
1405.5
  0
LINE
  8
0
  6
CONTINUOUS
 62
1
 10
581.6
 20
1402.5
 11
581.6
 21
1405.5
  0
LINE
  8
0
  6
CONTINUOUS
 62
1
 10
525.6
 20
1402.5
 11
525.6
 21
1405.5
  0
ARC
  8
0
  6
CONTINUOUS
 62
1
 10
671.6
 20
1405.5
 40
6.0
 50
133.1
 51
180.0
  0
ARC
  8
0
  6
CONTINUOUS
 62
1
 10
671.6
 20
1405.5
 40
6.0
 50
0.0
 51
81.4
  0
LINE
  8
0
  6
CONTINUOUS
 62
1
 10
553.6
 20
1402.5
 11
553.6
 21
1405.5
  0
LINE
  8
0
  6
CONTINUOUS
 62
1
 10
484.1
 20
1423.7
 11
482.1
 21
1423.7
  0
LINE
  8
0
  6
CONTINUOUS
 62
1
 10
497.6
 20
1402.5
 11
497.6
 21
1405.5
  0
LINE
  8
0
  6
CONTINUOUS
 62
1
 10
482.1
 20
1424.7
 11
482.1
 21
1424.7
  0
LINE
  8
0
  6
CONTINUOUS
 62
1
 10
705.6
 20
1405.5
 11
705.6
 21
1402.5
  0
ARC
  8
0
  6
CONTINUOUS
 62
1
 10
687.6
 20
955.5
 40
6.0
 50
68.5
 51
90.0
  0
ARC
  8
0
  6
CONTINUOUS
 62
1
 10
687.6
 20
955.5
 40
6.0
 50
270.0
 51
291.5
  0
ARC
  8
0
  6
CONTINUOUS
 62
1
 10
559.6
 20
1405.5
 40
6.0
 50
0.0
 51
180.0
  0
ARC
  8
0
  6
CONTINUOUS
 62
1
 10
587.6
 20
1405.5
 40
6.0
 50
79.4
 51
180.0
  0
LINE
  8
0
  6
CONTINUOUS
 62
1
 10
747.1
 20
1423.5
 11
484.1
 21
1423.5
  0
ARC
  8
0
  6
CONTINUOUS
 62
1
 10
619.6
 20
955.5
 40
6.0
 50
270.0
 51
90.0
  0
ARC
  8
0
  6
CONTINUOUS
 62
1
 10
727.6
 20
1405.5
 40
6.0
 50
0.0
 51
180.0
  0
LINE
  8
0
  6
CONTINUOUS
 62
1
 10
537.6
 20
1405.5
 11
537.6
 21
1402.5
  0
LINE
  8
0
  6
CONTINUOUS
 62
1
 10
649.6
 20
1405.5
 11
649.6
 21
1402.5
  0
ARC
  8
0
  6
CONTINUOUS
 62
1
 10
639.6
 20
955.5
 40
6.0
 50
90.0
 51
270.0
  0
LINE
  8
0
  6
CONTINUOUS
 62
1
 10
565.6
 20
1405.5
 11
565.6
 21
1402.5
  0
ARC
  8
0
  6
CONTINUOUS
 62
1
 10
571.6
 20
955.5
 40
6.0
 50
262.3
 51
270.0
  0
ARC
  8
0
  6
CONTINUOUS
 62
1
 10
571.6
 20
955.5
 40
6.0
 50
90.0
 51
97.7
  0
ARC
  8
0
  6
CONTINUOUS
 62
1
 10
531.6
 20
1405.5
 40
6.0
 50
0.0
 51
180.0
  0
ARC
  8
0
  6
CONTINUOUS
 62
1
 10
699.6
 20
1405.5
 40
6.0
 50
0.0
 51
180.0
  0
LINE
  8
0
  6
CONTINUOUS
 62
1
 10
484.1
 20
1402.5
 11
484.1
 21
1401.6
  0
LINE
  8
0
  6
CONTINUOUS
 62
1
 10
627.1
 20
1402.5
 11
627.1
 21
1401.6
  0
LINE
  8
0
  6
CONTINUOUS
 62
1
 10
627.1
 20
1402.5
 11
593.7
 21
1402.5
  0
LINE
  8
0
  6
CONTINUOUS
 62
1
 10
588.7
 20
1402.5
 11
522.5
 21
1402.5
  0
LINE
  8
0
  6
CONTINUOUS
 62
1
 10
517.5
 20
1402.5
 11
484.1
 21
1402.5
  0
LINE
  8
0
  6
CONTINUOUS
 62
1
 10
560.9
 20
699.9
 11
549.6
 21
699.9
  0
LINE
  8
0
  6
CONTINUOUS
 62
1
 10
570.8
 20
956.9
 11
539.8
 21
956.9
  0
ARC
  8
0
  6
CONTINUOUS
 62
1
 10
555.3
 20
723.2
 40
24.0
 50
169.2
 51
10.8
  0
LINE
  8
0
  6
CONTINUOUS
 62
1
 10
570.8
 20
944.5
 11
539.8
 21
944.5
  0
LINE
  8
0
  6
CONTINUOUS
 62
1
 10
570.8
 20
770.6
 11
578.8
 21
727.7
  0
LINE
  8
0
  6
CONTINUOUS
 62
1
 10
531.7
 20
727.7
 11
539.8
 21
770.6
  0
LINE
  8
0
  6
CONTINUOUS
 62
1
 10
527.3
 20
1417.0
 11
527.3
 21
1422.0
  0
LINE
  8
0
  6
CONTINUOUS
 62
1
 10
522.5
 20
1401.6
 11
522.5
 21
1418.9
  0
LINE
  8
0
  6
CONTINUOUS
 62
1
 10
583.9
 20
1417.0
 11
583.9
 21
1422.0
  0
LINE
  8
0
  6
CONTINUOUS
 62
1
 10
588.7
 20
1418.9
 11
588.7
 21
1401.6
  0
LINE
  8
0
  6
CONTINUOUS
 62
1
 10
588.7
 20
1416.9
 11
588.5
 21
1416.9
  0
LINE
  8
0
  6
CONTINUOUS
 62
1
 10
588.5
 20
1416.9
 11
588.1
 21
1416.9
  0
LINE
  8
0
  6
CONTINUOUS
 62
1
 10
588.1
 20
1416.9
 11
587.7
 21
1416.9
  0
LINE
  8
0
  6
CONTINUOUS
 62
1
 10
587.7
 20
1416.9
 11
587.3
 21
1417.0
  0
LINE
  8
0
  6
CONTINUOUS
 62
1
 10
587.3
 20
1417.0
 11
586.8
 21
1417.0
  0
LINE
  8
0
  6
CONTINUOUS
 62
1
 10
586.8
 20
1417.0
 11
586.4
 21
1417.0
  0
LINE
  8
0
  6
CONTINUOUS
 62
1
 10
586.4
 20
1417.0
 11
586.0
 21
1417.0
  0
LINE
  8
0
  6
CONTINUOUS
 62
1
 10
586.0
 20
1417.0
 11
585.6
 21
1417.0
  0
LINE
  8
0
  6
CONTINUOUS
 62
1
 10
585.6
 20
1417.0
 11
585.2
 21
1417.0
  0
LINE
  8
0
  6
CONTINUOUS
 62
1
 10
585.2
 20
1417.0
 11
584.8
 21
1417.0
  0
LINE
  8
0
  6
CONTINUOUS
 62
1
 10
584.8
 20
1417.0
 11
584.3
 21
1417.0
  0
LINE
  8
0
  6
CONTINUOUS
 62
1
 10
584.3
 20
1417.0
 11
583.9
 21
1417.0
  0
LINE
  8
0
  6
CONTINUOUS
 62
1
 10
583.9
 20
1422.0
 11
584.4
 21
1422.0
  0
LINE
  8
0
  6
CONTINUOUS
 62
1
 10
584.4
 20
1422.0
 11
584.9
 21
1422.0
  0
LINE
  8
0
  6
CONTINUOUS
 62
1
 10
584.9
 20
1422.0
 11
585.4
 21
1422.0
  0
LINE
  8
0
  6
CONTINUOUS
 62
1
 10
585.4
 20
1422.0
 11
585.8
 21
1422.0
  0
LINE
  8
0
  6
CONTINUOUS
 62
1
 10
585.8
 20
1422.0
 11
586.3
 21
1422.0
  0
LINE
  8
0
  6
CONTINUOUS
 62
1
 10
586.3
 20
1422.0
 11
586.8
 21
1422.0
  0
LINE
  8
0
  6
CONTINUOUS
 62
1
 10
586.8
 20
1422.0
 11
587.3
 21
1422.0
  0
LINE
  8
0
  6
CONTINUOUS
 62
1
 10
587.3
 20
1422.0
 11
587.7
 21
1421.9
  0
LINE
  8
0
  6
CONTINUOUS
 62
1
 10
587.7
 20
1421.9
 11
588.1
 21
1421.9
  0
LINE
  8
0
  6
CONTINUOUS
 62
1
 10
588.1
 20
1421.9
 11
588.6
 21
1421.9
  0
LINE
  8
0
  6
CONTINUOUS
 62
1
 10
588.6
 20
1421.9
 11
589.0
 21
1421.9
  0
LINE
  8
0
  6
CONTINUOUS
 62
1
 10
589.0
 20
1421.9
 11
589.3
 21
1421.8
  0
LINE
  8
0
  6
CONTINUOUS
 62
1
 10
589.3
 20
1421.8
 11
589.7
 21
1421.8
  0
LINE
  8
0
  6
CONTINUOUS
 62
1
 10
589.7
 20
1421.8
 11
590.0
 21
1421.8
  0
LINE
  8
0
  6
CONTINUOUS
 62
1
 10
590.0
 20
1421.8
 11
590.4
 21
1421.7
  0
LINE
  8
0
  6
CONTINUOUS
 62
1
 10
590.4
 20
1421.7
 11
590.6
 21
1421.7
  0
LINE
  8
0
  6
CONTINUOUS
 62
1
 10
590.6
 20
1421.7
 11
590.9
 21
1421.6
  0
LINE
  8
0
  6
CONTINUOUS
 62
1
 10
590.9
 20
1421.6
 11
591.2
 21
1421.6
  0
LINE
  8
0
  6
CONTINUOUS
 62
1
 10
591.2
 20
1421.6
 11
591.7
 21
1421.4
  0
LINE
  8
0
  6
CONTINUOUS
 62
1
 10
591.7
 20
1421.4
 11
591.9
 21
1421.4
  0
LINE
  8
0
  6
CONTINUOUS
 62
1
 10
591.9
 20
1421.4
 11
592.2
 21
1421.2
  0
LINE
  8
0
  6
CONTINUOUS
 62
1
 10
592.2
 20
1421.2
 11
592.3
 21
1421.2
  0
LINE
  8
0
  6
CONTINUOUS
 62
1
 10
592.3
 20
1421.2
 11
592.5
 21
1421.1
  0
LINE
  8
0
  6
CONTINUOUS
 62
1
 10
592.5
 20
1421.1
 11
592.6
 21
1421.0
  0
LINE
  8
0
  6
CONTINUOUS
 62
1
 10
592.6
 20
1421.0
 11
592.7
 21
1420.9
  0
LINE
  8
0
  6
CONTINUOUS
 62
1
 10
592.7
 20
1420.9
 11
592.8
 21
1420.8
  0
LINE
  8
0
  6
CONTINUOUS
 62
1
 10
592.8
 20
1420.8
 11
592.9
 21
1420.7
  0
LINE
  8
0
  6
CONTINUOUS
 62
1
 10
592.9
 20
1420.7
 11
593.0
 21
1420.6
  0
LINE
  8
0
  6
CONTINUOUS
 62
1
 10
593.0
 20
1420.6
 11
593.1
 21
1420.5
  0
LINE
  8
0
  6
CONTINUOUS
 62
1
 10
593.1
 20
1420.5
 11
593.2
 21
1420.4
  0
LINE
  8
0
  6
CONTINUOUS
 62
1
 10
593.2
 20
1420.4
 11
593.3
 21
1420.2
  0
LINE
  8
0
  6
CONTINUOUS
 62
1
 10
593.3
 20
1420.2
 11
593.4
 21
1420.0
  0
LINE
  8
0
  6
CONTINUOUS
 62
1
 10
593.4
 20
1420.0
 11
593.5
 21
1419.8
  0
LINE
  8
0
  6
CONTINUOUS
 62
1
 10
593.5
 20
1419.8
 11
593.5
 21
1419.7
  0
LINE
  8
0
  6
CONTINUOUS
 62
1
 10
593.5
 20
1419.7
 11
593.6
 21
1419.5
  0
LINE
  8
0
  6
CONTINUOUS
 62
1
 10
593.6
 20
1419.5
 11
593.6
 21
1419.4
  0
LINE
  8
0
  6
CONTINUOUS
 62
1
 10
593.6
 20
1419.4
 11
593.6
 21
1419.2
  0
LINE
  8
0
  6
CONTINUOUS
 62
1
 10
593.6
 20
1419.2
 11
593.7
 21
1419.0
  0
LINE
  8
0
  6
CONTINUOUS
 62
1
 10
593.7
 20
1419.0
 11
593.7
 21
1418.9
  0
LINE
  8
0
  6
CONTINUOUS
 62
1
 10
583.9
 20
1417.0
 11
527.3
 21
1417.0
  0
LINE
  8
0
  6
CONTINUOUS
 62
1
 10
527.3
 20
1422.0
 11
583.9
 21
1422.0
  0
LINE
  8
0
  6
CONTINUOUS
 62
1
 10
517.5
 20
1401.6
 11
517.5
 21
1418.9
  0
LINE
  8
0
  6
CONTINUOUS
 62
1
 10
593.7
 20
1418.9
 11
593.7
 21
1401.6
  0
LINE
  8
0
  6
CONTINUOUS
 62
1
 10
527.3
 20
1417.0
 11
526.8
 21
1417.0
  0
LINE
  8
0
  6
CONTINUOUS
 62
1
 10
526.8
 20
1417.0
 11
526.4
 21
1417.0
  0
LINE
  8
0
  6
CONTINUOUS
 62
1
 10
526.4
 20
1417.0
 11
525.9
 21
1417.0
  0
LINE
  8
0
  6
CONTINUOUS
 62
1
 10
525.9
 20
1417.0
 11
525.5
 21
1417.0
  0
LINE
  8
0
  6
CONTINUOUS
 62
1
 10
525.5
 20
1417.0
 11
525.1
 21
1417.0
  0
LINE
  8
0
  6
CONTINUOUS
 62
1
 10
525.1
 20
1417.0
 11
524.6
 21
1417.0
  0
LINE
  8
0
  6
CONTINUOUS
 62
1
 10
524.6
 20
1417.0
 11
524.2
 21
1417.0
  0
LINE
  8
0
  6
CONTINUOUS
 62
1
 10
524.2
 20
1417.0
 11
523.8
 21
1417.0
  0
LINE
  8
0
  6
CONTINUOUS
 62
1
 10
523.8
 20
1417.0
 11
523.4
 21
1416.9
  0
LINE
  8
0
  6
CONTINUOUS
 62
1
 10
523.4
 20
1416.9
 11
523.1
 21
1416.9
  0
LINE
  8
0
  6
CONTINUOUS
 62
1
 10
523.1
 20
1416.9
 11
522.7
 21
1416.9
  0
LINE
  8
0
  6
CONTINUOUS
 62
1
 10
522.7
 20
1416.9
 11
522.5
 21
1416.9
  0
LINE
  8
0
  6
CONTINUOUS
 62
1
 10
517.5
 20
1418.9
 11
517.5
 21
1419.1
  0
LINE
  8
0
  6
CONTINUOUS
 62
1
 10
517.5
 20
1419.1
 11
517.5
 21
1419.3
  0
LINE
  8
0
  6
CONTINUOUS
 62
1
 10
517.5
 20
1419.3
 11
517.5
 21
1419.4
  0
LINE
  8
0
  6
CONTINUOUS
 62
1
 10
517.5
 20
1419.4
 11
517.6
 21
1419.6
  0
LINE
  8
0
  6
CONTINUOUS
 62
1
 10
517.6
 20
1419.6
 11
517.6
 21
1419.8
  0
LINE
  8
0
  6
CONTINUOUS
 62
1
 10
517.6
 20
1419.8
 11
517.7
 21
1419.9
  0
LINE
  8
0
  6
CONTINUOUS
 62
1
 10
517.7
 20
1419.9
 11
517.7
 21
1420.1
  0
LINE
  8
0
  6
CONTINUOUS
 62
1
 10
517.7
 20
1420.1
 11
517.8
 21
1420.2
  0
LINE
  8
0
  6
CONTINUOUS
 62
1
 10
517.8
 20
1420.2
 11
517.9
 21
1420.4
  0
LINE
  8
0
  6
CONTINUOUS
 62
1
 10
517.9
 20
1420.4
 11
518.0
 21
1420.5
  0
LINE
  8
0
  6
CONTINUOUS
 62
1
 10
518.0
 20
1420.5
 11
518.1
 21
1420.6
  0
LINE
  8
0
  6
CONTINUOUS
 62
1
 10
518.1
 20
1420.6
 11
518.2
 21
1420.7
  0
LINE
  8
0
  6
CONTINUOUS
 62
1
 10
518.2
 20
1420.7
 11
518.3
 21
1420.8
  0
LINE
  8
0
  6
CONTINUOUS
 62
1
 10
518.3
 20
1420.8
 11
518.4
 21
1420.9
  0
LINE
  8
0
  6
CONTINUOUS
 62
1
 10
518.4
 20
1420.9
 11
518.6
 21
1421.0
  0
LINE
  8
0
  6
CONTINUOUS
 62
1
 10
518.6
 20
1421.0
 11
518.7
 21
1421.1
  0
LINE
  8
0
  6
CONTINUOUS
 62
1
 10
518.7
 20
1421.1
 11
518.8
 21
1421.2
  0
LINE
  8
0
  6
CONTINUOUS
 62
1
 10
518.8
 20
1421.2
 11
518.9
 21
1421.2
  0
LINE
  8
0
  6
CONTINUOUS
 62
1
 10
518.9
 20
1421.2
 11
519.0
 21
1421.3
  0
LINE
  8
0
  6
CONTINUOUS
 62
1
 10
519.0
 20
1421.3
 11
519.1
 21
1421.3
  0
LINE
  8
0
  6
CONTINUOUS
 62
1
 10
519.1
 20
1421.3
 11
519.2
 21
1421.4
  0
LINE
  8
0
  6
CONTINUOUS
 62
1
 10
519.2
 20
1421.4
 11
519.3
 21
1421.4
  0
LINE
  8
0
  6
CONTINUOUS
 62
1
 10
519.3
 20
1421.4
 11
519.4
 21
1421.5
  0
LINE
  8
0
  6
CONTINUOUS
 62
1
 10
519.4
 20
1421.5
 11
519.6
 21
1421.5
  0
LINE
  8
0
  6
CONTINUOUS
 62
1
 10
519.6
 20
1421.5
 11
519.8
 21
1421.6
  0
LINE
  8
0
  6
CONTINUOUS
 62
1
 10
519.8
 20
1421.6
 11
520.1
 21
1421.6
  0
LINE
  8
0
  6
CONTINUOUS
 62
1
 10
520.1
 20
1421.6
 11
520.3
 21
1421.7
  0
LINE
  8
0
  6
CONTINUOUS
 62
1
 10
520.3
 20
1421.7
 11
520.7
 21
1421.7
  0
LINE
  8
0
  6
CONTINUOUS
 62
1
 10
520.7
 20
1421.7
 11
521.1
 21
1421.8
  0
LINE
  8
0
  6
CONTINUOUS
 62
1
 10
521.1
 20
1421.8
 11
521.5
 21
1421.8
  0
LINE
  8
0
  6
CONTINUOUS
 62
1
 10
521.5
 20
1421.8
 11
521.9
 21
1421.8
  0
LINE
  8
0
  6
CONTINUOUS
 62
1
 10
521.9
 20
1421.8
 11
522.3
 21
1421.9
  0
LINE
  8
0
  6
CONTINUOUS
 62
1
 10
522.3
 20
1421.9
 11
522.8
 21
1421.9
  0
LINE
  8
0
  6
CONTINUOUS
 62
1
 10
522.8
 20
1421.9
 11
523.3
 21
1421.9
  0
LINE
  8
0
  6
CONTINUOUS
 62
1
 10
523.3
 20
1421.9
 11
523.7
 21
1422.0
  0
LINE
  8
0
  6
CONTINUOUS
 62
1
 10
523.7
 20
1422.0
 11
524.2
 21
1422.0
  0
LINE
  8
0
  6
CONTINUOUS
 62
1
 10
524.2
 20
1422.0
 11
524.8
 21
1422.0
  0
LINE
  8
0
  6
CONTINUOUS
 62
1
 10
524.8
 20
1422.0
 11
525.3
 21
1422.0
  0
LINE
  8
0
  6
CONTINUOUS
 62
1
 10
525.3
 20
1422.0
 11
525.8
 21
1422.0
  0
LINE
  8
0
  6
CONTINUOUS
 62
1
 10
525.8
 20
1422.0
 11
526.3
 21
1422.0
  0
LINE
  8
0
  6
CONTINUOUS
 62
1
 10
526.3
 20
1422.0
 11
526.8
 21
1422.0
  0
LINE
  8
0
  6
CONTINUOUS
 62
1
 10
526.8
 20
1422.0
 11
527.3
 21
1422.0
  0
LINE
  8
0
  6
CONTINUOUS
 62
1
 10
634.1
 20
1402.5
 11
634.1
 21
1401.6
  0
LINE
  8
0
  6
CONTINUOUS
 62
1
 10
777.1
 20
1401.9
 11
777.1
 21
1401.6
  0
LINE
  8
0
  6
CONTINUOUS
 62
1
 10
774.6
 20
1402.5
 11
743.7
 21
1402.5
  0
LINE
  8
0
  6
CONTINUOUS
 62
1
 10
738.7
 20
1402.5
 11
672.5
 21
1402.5
  0
LINE
  8
0
  6
CONTINUOUS
 62
1
 10
667.5
 20
1402.5
 11
634.1
 21
1402.5
  0
LINE
  8
0
  6
CONTINUOUS
 62
1
 10
720.8
 20
944.5
 11
689.8
 21
944.5
  0
LINE
  8
0
  6
CONTINUOUS
 62
1
 10
720.8
 20
770.6
 11
728.8
 21
727.7
  0
LINE
  8
0
  6
CONTINUOUS
 62
1
 10
681.7
 20
727.7
 11
689.8
 21
770.6
  0
LINE
  8
0
  6
CONTINUOUS
 62
1
 10
689.8
 20
965.2
 11
689.8
 21
770.6
  0
ARC
  8
0
  6
CONTINUOUS
 62
1
 10
705.3
 20
723.2
 40
24.0
 50
169.2
 51
10.8
  0
LINE
  8
0
  6
CONTINUOUS
 62
1
 10
720.8
 20
956.9
 11
689.8
 21
956.9
  0
LINE
  8
0
  6
CONTINUOUS
 62
1
 10
710.9
 20
699.9
 11
699.6
 21
699.9
  0
LINE
  8
0
  6
CONTINUOUS
 62
1
 10
738.7
 20
1418.9
 11
738.7
 21
1401.6
  0
LINE
  8
0
  6
CONTINUOUS
 62
1
 10
677.3
 20
1417.0
 11
677.3
 21
1422.0
  0
LINE
  8
0
  6
CONTINUOUS
 62
1
 10
733.9
 20
1417.0
 11
733.9
 21
1422.0
  0
LINE
  8
0
  6
CONTINUOUS
 62
1
 10
672.5
 20
1401.6
 11
672.5
 21
1418.9
  0
LINE
  8
0
  6
CONTINUOUS
 62
1
 10
743.7
 20
1418.9
 11
743.7
 21
1401.6
  0
LINE
  8
0
  6
CONTINUOUS
 62
1
 10
738.7
 20
1416.9
 11
738.5
 21
1416.9
  0
LINE
  8
0
  6
CONTINUOUS
 62
1
 10
738.5
 20
1416.9
 11
738.1
 21
1416.9
  0
LINE
  8
0
  6
CONTINUOUS
 62
1
 10
738.1
 20
1416.9
 11
737.7
 21
1416.9
  0
LINE
  8
0
  6
CONTINUOUS
 62
1
 10
737.7
 20
1416.9
 11
737.3
 21
1417.0
  0
LINE
  8
0
  6
CONTINUOUS
 62
1
 10
737.3
 20
1417.0
 11
736.8
 21
1417.0
  0
LINE
  8
0
  6
CONTINUOUS
 62
1
 10
736.8
 20
1417.0
 11
736.4
 21
1417.0
  0
LINE
  8
0
  6
CONTINUOUS
 62
1
 10
736.4
 20
1417.0
 11
736.0
 21
1417.0
  0
LINE
  8
0
  6
CONTINUOUS
 62
1
 10
736.0
 20
1417.0
 11
735.6
 21
1417.0
  0
LINE
  8
0
  6
CONTINUOUS
 62
1
 10
735.6
 20
1417.0
 11
735.2
 21
1417.0
  0
LINE
  8
0
  6
CONTINUOUS
 62
1
 10
735.2
 20
1417.0
 11
734.8
 21
1417.0
  0
LINE
  8
0
  6
CONTINUOUS
 62
1
 10
734.8
 20
1417.0
 11
734.3
 21
1417.0
  0
LINE
  8
0
  6
CONTINUOUS
 62
1
 10
734.3
 20
1417.0
 11
733.9
 21
1417.0
  0
LINE
  8
0
  6
CONTINUOUS
 62
1
 10
733.9
 20
1422.0
 11
734.4
 21
1422.0
  0
LINE
  8
0
  6
CONTINUOUS
 62
1
 10
734.4
 20
1422.0
 11
734.9
 21
1422.0
  0
LINE
  8
0
  6
CONTINUOUS
 62
1
 10
734.9
 20
1422.0
 11
735.4
 21
1422.0
  0
LINE
  8
0
  6
CONTINUOUS
 62
1
 10
735.4
 20
1422.0
 11
735.8
 21
1422.0
  0
LINE
  8
0
  6
CONTINUOUS
 62
1
 10
735.8
 20
1422.0
 11
736.3
 21
1422.0
  0
LINE
  8
0
  6
CONTINUOUS
 62
1
 10
736.3
 20
1422.0
 11
736.8
 21
1422.0
  0
LINE
  8
0
  6
CONTINUOUS
 62
1
 10
736.8
 20
1422.0
 11
737.3
 21
1422.0
  0
LINE
  8
0
  6
CONTINUOUS
 62
1
 10
737.3
 20
1422.0
 11
737.7
 21
1421.9
  0
LINE
  8
0
  6
CONTINUOUS
 62
1
 10
737.7
 20
1421.9
 11
738.1
 21
1421.9
  0
LINE
  8
0
  6
CONTINUOUS
 62
1
 10
738.1
 20
1421.9
 11
738.6
 21
1421.9
  0
LINE
  8
0
  6
CONTINUOUS
 62
1
 10
738.6
 20
1421.9
 11
739.0
 21
1421.9
  0
LINE
  8
0
  6
CONTINUOUS
 62
1
 10
739.0
 20
1421.9
 11
739.3
 21
1421.8
  0
LINE
  8
0
  6
CONTINUOUS
 62
1
 10
739.3
 20
1421.8
 11
739.7
 21
1421.8
  0
LINE
  8
0
  6
CONTINUOUS
 62
1
 10
739.7
 20
1421.8
 11
740.0
 21
1421.8
  0
LINE
  8
0
  6
CONTINUOUS
 62
1
 10
740.0
 20
1421.8
 11
740.4
 21
1421.7
  0
LINE
  8
0
  6
CONTINUOUS
 62
1
 10
740.4
 20
1421.7
 11
740.6
 21
1421.7
  0
LINE
  8
0
  6
CONTINUOUS
 62
1
 10
740.6
 20
1421.7
 11
740.9
 21
1421.6
  0
LINE
  8
0
  6
CONTINUOUS
 62
1
 10
740.9
 20
1421.6
 11
741.2
 21
1421.6
  0
LINE
  8
0
  6
CONTINUOUS
 62
1
 10
741.2
 20
1421.6
 11
741.7
 21
1421.4
  0
LINE
  8
0
  6
CONTINUOUS
 62
1
 10
741.7
 20
1421.4
 11
741.9
 21
1421.4
  0
LINE
  8
0
  6
CONTINUOUS
 62
1
 10
741.9
 20
1421.4
 11
742.2
 21
1421.2
  0
LINE
  8
0
  6
CONTINUOUS
 62
1
 10
742.2
 20
1421.2
 11
742.3
 21
1421.2
  0
LINE
  8
0
  6
CONTINUOUS
 62
1
 10
742.3
 20
1421.2
 11
742.5
 21
1421.1
  0
LINE
  8
0
  6
CONTINUOUS
 62
1
 10
742.5
 20
1421.1
 11
742.6
 21
1421.0
  0
LINE
  8
0
  6
CONTINUOUS
 62
1
 10
742.6
 20
1421.0
 11
742.7
 21
1420.9
  0
LINE
  8
0
  6
CONTINUOUS
 62
1
 10
742.7
 20
1420.9
 11
742.8
 21
1420.8
  0
LINE
  8
0
  6
CONTINUOUS
 62
1
 10
742.8
 20
1420.8
 11
742.9
 21
1420.7
  0
LINE
  8
0
  6
CONTINUOUS
 62
1
 10
742.9
 20
1420.7
 11
743.0
 21
1420.6
  0
LINE
  8
0
  6
CONTINUOUS
 62
1
 10
743.0
 20
1420.6
 11
743.1
 21
1420.5
  0
LINE
  8
0
  6
CONTINUOUS
 62
1
 10
743.1
 20
1420.5
 11
743.2
 21
1420.4
  0
LINE
  8
0
  6
CONTINUOUS
 62
1
 10
743.2
 20
1420.4
 11
743.3
 21
1420.2
  0
LINE
  8
0
  6
CONTINUOUS
 62
1
 10
743.3
 20
1420.2
 11
743.4
 21
1420.0
  0
LINE
  8
0
  6
CONTINUOUS
 62
1
 10
743.4
 20
1420.0
 11
743.5
 21
1419.8
  0
LINE
  8
0
  6
CONTINUOUS
 62
1
 10
743.5
 20
1419.8
 11
743.5
 21
1419.7
  0
LINE
  8
0
  6
CONTINUOUS
 62
1
 10
743.5
 20
1419.7
 11
743.6
 21
1419.5
  0
LINE
  8
0
  6
CONTINUOUS
 62
1
 10
743.6
 20
1419.5
 11
743.6
 21
1419.4
  0
LINE
  8
0
  6
CONTINUOUS
 62
1
 10
743.6
 20
1419.4
 11
743.6
 21
1419.2
  0
LINE
  8
0
  6
CONTINUOUS
 62
1
 10
743.6
 20
1419.2
 11
743.7
 21
1419.0
  0
LINE
  8
0
  6
CONTINUOUS
 62
1
 10
743.7
 20
1419.0
 11
743.7
 21
1418.9
  0
LINE
  8
0
  6
CONTINUOUS
 62
1
 10
677.3
 20
1417.0
 11
676.8
 21
1417.0
  0
LINE
  8
0
  6
CONTINUOUS
 62
1
 10
676.8
 20
1417.0
 11
676.4
 21
1417.0
  0
LINE
  8
0
  6
CONTINUOUS
 62
1
 10
676.4
 20
1417.0
 11
675.9
 21
1417.0
  0
LINE
  8
0
  6
CONTINUOUS
 62
1
 10
675.9
 20
1417.0
 11
675.5
 21
1417.0
  0
LINE
  8
0
  6
CONTINUOUS
 62
1
 10
675.5
 20
1417.0
 11
675.1
 21
1417.0
  0
LINE
  8
0
  6
CONTINUOUS
 62
1
 10
675.1
 20
1417.0
 11
674.6
 21
1417.0
  0
LINE
  8
0
  6
CONTINUOUS
 62
1
 10
674.6
 20
1417.0
 11
674.2
 21
1417.0
  0
LINE
  8
0
  6
CONTINUOUS
 62
1
 10
674.2
 20
1417.0
 11
673.8
 21
1417.0
  0
LINE
  8
0
  6
CONTINUOUS
 62
1
 10
673.8
 20
1417.0
 11
673.4
 21
1416.9
  0
LINE
  8
0
  6
CONTINUOUS
 62
1
 10
673.4
 20
1416.9
 11
673.1
 21
1416.9
  0
LINE
  8
0
  6
CONTINUOUS
 62
1
 10
673.1
 20
1416.9
 11
672.7
 21
1416.9
  0
LINE
  8
0
  6
CONTINUOUS
 62
1
 10
672.7
 20
1416.9
 11
672.5
 21
1416.9
  0
LINE
  8
0
  6
CONTINUOUS
 62
1
 10
667.5
 20
1418.9
 11
667.5
 21
1419.1
  0
LINE
  8
0
  6
CONTINUOUS
 62
1
 10
667.5
 20
1419.1
 11
667.5
 21
1419.3
  0
LINE
  8
0
  6
CONTINUOUS
 62
1
 10
667.5
 20
1419.3
 11
667.5
 21
1419.4
  0
LINE
  8
0
  6
CONTINUOUS
 62
1
 10
667.5
 20
1419.4
 11
667.6
 21
1419.6
  0
LINE
  8
0
  6
CONTINUOUS
 62
1
 10
667.6
 20
1419.6
 11
667.6
 21
1419.8
  0
LINE
  8
0
  6
CONTINUOUS
 62
1
 10
667.6
 20
1419.8
 11
667.7
 21
1419.9
  0
LINE
  8
0
  6
CONTINUOUS
 62
1
 10
667.7
 20
1419.9
 11
667.7
 21
1420.1
  0
LINE
  8
0
  6
CONTINUOUS
 62
1
 10
667.7
 20
1420.1
 11
667.8
 21
1420.2
  0
LINE
  8
0
  6
CONTINUOUS
 62
1
 10
667.8
 20
1420.2
 11
667.9
 21
1420.4
  0
LINE
  8
0
  6
CONTINUOUS
 62
1
 10
667.9
 20
1420.4
 11
668.0
 21
1420.5
  0
LINE
  8
0
  6
CONTINUOUS
 62
1
 10
668.0
 20
1420.5
 11
668.1
 21
1420.6
  0
LINE
  8
0
  6
CONTINUOUS
 62
1
 10
668.1
 20
1420.6
 11
668.2
 21
1420.7
  0
LINE
  8
0
  6
CONTINUOUS
 62
1
 10
668.2
 20
1420.7
 11
668.3
 21
1420.8
  0
LINE
  8
0
  6
CONTINUOUS
 62
1
 10
668.3
 20
1420.8
 11
668.4
 21
1420.9
  0
LINE
  8
0
  6
CONTINUOUS
 62
1
 10
668.4
 20
1420.9
 11
668.6
 21
1421.0
  0
LINE
  8
0
  6
CONTINUOUS
 62
1
 10
668.6
 20
1421.0
 11
668.7
 21
1421.1
  0
LINE
  8
0
  6
CONTINUOUS
 62
1
 10
668.7
 20
1421.1
 11
668.8
 21
1421.2
  0
LINE
  8
0
  6
CONTINUOUS
 62
1
 10
668.8
 20
1421.2
 11
668.9
 21
1421.2
  0
LINE
  8
0
  6
CONTINUOUS
 62
1
 10
668.9
 20
1421.2
 11
669.0
 21
1421.3
  0
LINE
  8
0
  6
CONTINUOUS
 62
1
 10
669.0
 20
1421.3
 11
669.1
 21
1421.3
  0
LINE
  8
0
  6
CONTINUOUS
 62
1
 10
669.1
 20
1421.3
 11
669.2
 21
1421.4
  0
LINE
  8
0
  6
CONTINUOUS
 62
1
 10
669.2
 20
1421.4
 11
669.3
 21
1421.4
  0
LINE
  8
0
  6
CONTINUOUS
 62
1
 10
669.3
 20
1421.4
 11
669.4
 21
1421.5
  0
LINE
  8
0
  6
CONTINUOUS
 62
1
 10
669.4
 20
1421.5
 11
669.6
 21
1421.5
  0
LINE
  8
0
  6
CONTINUOUS
 62
1
 10
669.6
 20
1421.5
 11
669.8
 21
1421.6
  0
LINE
  8
0
  6
CONTINUOUS
 62
1
 10
669.8
 20
1421.6
 11
670.1
 21
1421.6
  0
LINE
  8
0
  6
CONTINUOUS
 62
1
 10
670.1
 20
1421.6
 11
670.3
 21
1421.7
  0
LINE
  8
0
  6
CONTINUOUS
 62
1
 10
670.3
 20
1421.7
 11
670.7
 21
1421.7
  0
LINE
  8
0
  6
CONTINUOUS
 62
1
 10
670.7
 20
1421.7
 11
671.1
 21
1421.8
  0
LINE
  8
0
  6
CONTINUOUS
 62
1
 10
671.1
 20
1421.8
 11
671.5
 21
1421.8
  0
LINE
  8
0
  6
CONTINUOUS
 62
1
 10
671.5
 20
1421.8
 11
671.9
 21
1421.8
  0
LINE
  8
0
  6
CONTINUOUS
 62
1
 10
671.9
 20
1421.8
 11
672.3
 21
1421.9
  0
LINE
  8
0
  6
CONTINUOUS
 62
1
 10
672.3
 20
1421.9
 11
672.8
 21
1421.9
  0
LINE
  8
0
  6
CONTINUOUS
 62
1
 10
672.8
 20
1421.9
 11
673.3
 21
1421.9
  0
LINE
  8
0
  6
CONTINUOUS
 62
1
 10
673.3
 20
1421.9
 11
673.7
 21
1422.0
  0
LINE
  8
0
  6
CONTINUOUS
 62
1
 10
673.7
 20
1422.0
 11
674.2
 21
1422.0
  0
LINE
  8
0
  6
CONTINUOUS
 62
1
 10
674.2
 20
1422.0
 11
674.8
 21
1422.0
  0
LINE
  8
0
  6
CONTINUOUS
 62
1
 10
674.8
 20
1422.0
 11
675.3
 21
1422.0
  0
LINE
  8
0
  6
CONTINUOUS
 62
1
 10
675.3
 20
1422.0
 11
675.8
 21
1422.0
  0
LINE
  8
0
  6
CONTINUOUS
 62
1
 10
675.8
 20
1422.0
 11
676.3
 21
1422.0
  0
LINE
  8
0
  6
CONTINUOUS
 62
1
 10
676.3
 20
1422.0
 11
676.8
 21
1422.0
  0
LINE
  8
0
  6
CONTINUOUS
 62
1
 10
676.8
 20
1422.0
 11
677.3
 21
1422.0
  0
LINE
  8
0
  6
CONTINUOUS
 62
1
 10
733.9
 20
1417.0
 11
677.3
 21
1417.0
  0
LINE
  8
0
  6
CONTINUOUS
 62
1
 10
677.3
 20
1422.0
 11
733.9
 21
1422.0
  0
LINE
  8
0
  6
CONTINUOUS
 62
1
 10
449.1
 20
819.8
 11
449.2
 21
816.9
  0
LINE
  8
0
  6
CONTINUOUS
 62
1
 10
827.4
 20
763.5
 11
827.4
 21
761.4
  0
LINE
  8
0
  6
CONTINUOUS
 62
1
 10
453.1
 20
805.8
 11
451.4
 21
810.8
  0
LINE
  8
0
  6
CONTINUOUS
 62
1
 10
792.0
 20
1433.5
 11
809.5
 21
1433.5
  0
LINE
  8
0
  6
CONTINUOUS
 62
1
 10
431.8
 20
1530.3
 11
431.8
 21
1529.4
  0
LINE
  8
0
  6
CONTINUOUS
 62
1
 10
459.7
 20
796.0
 11
456.1
 21
800.3
  0
LINE
  8
0
  6
CONTINUOUS
 62
1
 10
793.8
 20
791.5
 11
793.7
 21
791.5
  0
LINE
  8
0
  6
CONTINUOUS
 62
1
 10
459.8
 20
795.9
 11
459.8
 21
796.0
  0
LINE
  8
0
  6
CONTINUOUS
 62
1
 10
809.0
 20
810.6
 11
807.8
 21
810.9
  0
LINE
  8
0
  6
CONTINUOUS
 62
1
 10
430.8
 20
762.5
 11
431.8
 21
762.5
  0
LINE
  8
0
  6
CONTINUOUS
 62
1
 10
788.3
 20
788.8
 11
788.3
 21
788.8
  0
LINE
  8
0
  6
CONTINUOUS
 62
1
 10
810.0
 20
819.5
 11
808.8
 21
819.5
  0
LINE
  8
0
  6
CONTINUOUS
 62
1
 10
809.5
 20
1433.5
 11
809.5
 21
1433.5
  0
LINE
  8
0
  6
CONTINUOUS
 62
1
 10
776.9
 20
785.5
 11
776.9
 21
786.7
  0
LINE
  8
0
  6
CONTINUOUS
 62
1
 10
805.8
 20
805.2
 11
805.6
 21
804.8
  0
LINE
  8
0
  6
CONTINUOUS
 62
1
 10
452.1
 20
805.0
 11
453.2
 21
805.5
  0
LINE
  8
0
  6
CONTINUOUS
 62
1
 10
451.2
 20
811.5
 11
451.4
 21
810.8
  0
LINE
  8
0
  6
CONTINUOUS
 62
1
 10
464.6
 20
792.0
 11
464.6
 21
792.0
  0
LINE
  8
0
  6
CONTINUOUS
 62
1
 10
809.9
 20
816.9
 11
808.7
 21
817.0
  0
LINE
  8
0
  6
CONTINUOUS
 62
1
 10
828.4
 20
763.2
 11
827.4
 21
763.2
  0
LINE
  8
0
  6
CONTINUOUS
 62
1
 10
807.7
 20
810.4
 11
807.9
 21
811.5
  0
LINE
  8
0
  6
CONTINUOUS
 62
1
 10
798.5
 20
795.2
 11
798.6
 21
795.3
  0
LINE
  8
0
  6
CONTINUOUS
 62
1
 10
458.9
 20
795.1
 11
459.8
 21
796.0
  0
LINE
  8
0
  6
CONTINUOUS
 62
1
 10
430.8
 20
763.2
 11
431.8
 21
763.2
  0
LINE
  8
0
  6
CONTINUOUS
 62
1
 10
798.6
 20
795.3
 11
798.5
 21
795.2
  0
LINE
  8
0
  6
CONTINUOUS
 62
1
 10
458.9
 20
795.1
 11
463.9
 21
791.0
  0
LINE
  8
0
  6
CONTINUOUS
 62
1
 10
449.6
 20
1433.5
 11
449.6
 21
1433.5
  0
LINE
  8
0
  6
CONTINUOUS
 62
1
 10
806.9
 20
804.6
 11
805.8
 21
805.2
  0
LINE
  8
0
  6
CONTINUOUS
 62
1
 10
482.2
 20
785.5
 11
482.2
 21
786.7
  0
ARC
  8
0
  6
CONTINUOUS
 62
1
 10
776.9
 20
1433.5
 40
32.6
 50
0.0
 51
20.1
  0
LINE
  8
0
  6
CONTINUOUS
 62
1
 10
431.8
 20
1448.5
 11
431.8
 21
763.5
  0
LINE
  8
0
  6
CONTINUOUS
 62
1
 10
828.4
 20
751.9
 11
828.4
 21
763.5
  0
LINE
  8
0
  6
CONTINUOUS
 62
1
 10
802.8
 20
800.1
 11
802.7
 21
799.9
  0
LINE
  8
0
  6
CONTINUOUS
 62
1
 10
794.4
 20
790.5
 11
793.8
 21
791.5
  0
LINE
  8
0
  6
CONTINUOUS
 62
1
 10
451.3
 20
811.1
 11
451.2
 21
811.5
  0
ARC
  8
0
  6
CONTINUOUS
 62
1
 10
776.9
 20
1433.5
 40
32.6
 50
0.0
 51
20.2
  0
LINE
  8
0
  6
CONTINUOUS
 62
1
 10
810.7
 20
1433.5
 11
809.5
 21
1433.5
  0
LINE
  8
0
  6
CONTINUOUS
 62
1
 10
828.4
 20
753.0
 11
829.6
 21
753.0
  0
LINE
  8
0
  6
CONTINUOUS
 62
1
 10
450.5
 20
816.5
 11
450.4
 21
817.0
  0
LINE
  8
0
  6
CONTINUOUS
 62
1
 10
448.4
 20
1433.5
 11
449.6
 21
1433.5
  0
LINE
  8
0
  6
CONTINUOUS
 62
1
 10
810.0
 20
819.5
 11
810.0
 21
827.2
  0
LINE
  8
0
  6
CONTINUOUS
 62
1
 10
810.7
 20
1400.7
 11
810.7
 21
1433.5
  0
LINE
  8
0
  6
CONTINUOUS
 62
1
 10
450.3
 20
820.6
 11
450.3
 21
827.2
  0
LINE
  8
0
  6
CONTINUOUS
 62
1
 10
449.6
 20
1400.7
 11
449.6
 21
1433.5
  0
LINE
  8
0
  6
CONTINUOUS
 62
1
 10
482.2
 20
786.7
 11
476.1
 21
787.3
  0
LINE
  8
0
  6
CONTINUOUS
 62
1
 10
798.6
 20
795.3
 11
798.8
 21
795.4
  0
LINE
  8
0
  6
CONTINUOUS
 62
1
 10
782.7
 20
787.2
 11
782.7
 21
787.2
  0
LINE
  8
0
  6
CONTINUOUS
 62
1
 10
448.4
 20
1433.5
 11
448.4
 21
1400.7
  0
LINE
  8
0
  6
CONTINUOUS
 62
1
 10
449.1
 20
827.2
 11
449.1
 21
819.8
  0
LINE
  8
0
  6
CONTINUOUS
 62
1
 10
431.8
 20
763.5
 11
431.8
 21
761.4
  0
LINE
  8
0
  6
CONTINUOUS
 62
1
 10
808.6
 20
816.3
 11
807.9
 21
811.5
  0
LINE
  8
0
  6
CONTINUOUS
 62
1
 10
827.4
 20
763.5
 11
827.4
 21
1448.5
  0
LINE
  8
0
  6
CONTINUOUS
 62
1
 10
788.3
 20
788.8
 11
788.2
 21
788.8
  0
LINE
  8
0
  6
CONTINUOUS
 62
1
 10
793.8
 20
791.6
 11
793.8
 21
791.5
  0
LINE
  8
0
  6
CONTINUOUS
 62
1
 10
807.9
 20
811.5
 11
807.8
 21
810.9
  0
LINE
  8
0
  6
CONTINUOUS
 62
1
 10
776.9
 20
793.3
 11
776.9
 21
786.7
  0
LINE
  8
0
  6
CONTINUOUS
 62
1
 10
802.7
 20
799.9
 11
802.5
 21
799.7
  0
LINE
  8
0
  6
CONTINUOUS
 62
1
 10
808.8
 20
820.4
 11
808.8
 21
820.4
  0
ARC
  8
0
  6
CONTINUOUS
 62
1
 10
482.2
 20
1433.5
 40
33.8
 50
159.9
 51
180.0
  0
LINE
  8
0
  6
CONTINUOUS
 62
1
 10
464.6
 20
792.0
 11
464.6
 21
792.0
  0
LINE
  8
0
  6
CONTINUOUS
 62
1
 10
475.6
 20
1401.6
 11
475.6
 21
1429.5
  0
LINE
  8
0
  6
CONTINUOUS
 62
1
 10
688.0
 20
761.4
 11
572.5
 21
761.4
  0
LINE
  8
0
  6
CONTINUOUS
 62
1
 10
459.7
 20
796.0
 11
459.8
 21
796.0
  0
LINE
  8
0
  6
CONTINUOUS
 62
1
 10
456.1
 20
800.3
 11
456.0
 21
800.4
  0
LINE
  8
0
  6
CONTINUOUS
 62
1
 10
793.7
 20
791.5
 11
788.3
 21
788.8
  0
LINE
  8
0
  6
CONTINUOUS
 62
1
 10
431.8
 20
762.7
 11
430.8
 21
762.7
  0
LINE
  8
0
  6
CONTINUOUS
 62
1
 10
455.0
 20
799.8
 11
456.0
 21
800.4
  0
LINE
  8
0
  6
CONTINUOUS
 62
1
 10
798.8
 20
795.4
 11
798.6
 21
795.3
  0
LINE
  8
0
  6
CONTINUOUS
 62
1
 10
782.7
 20
787.2
 11
776.9
 21
786.7
  0
LINE
  8
0
  6
CONTINUOUS
 62
1
 10
482.2
 20
793.3
 11
482.2
 21
786.7
  0
LINE
  8
0
  6
CONTINUOUS
 62
1
 10
449.6
 20
1433.5
 11
470.2
 21
1433.5
  0
LINE
  8
0
  6
CONTINUOUS
 62
1
 10
464.6
 20
792.0
 11
459.8
 21
795.9
  0
LINE
  8
0
  6
CONTINUOUS
 62
1
 10
828.4
 20
762.5
 11
829.6
 21
762.5
  0
LINE
  8
0
  6
CONTINUOUS
 62
1
 10
482.2
 20
785.5
 11
539.8
 21
785.5
  0
LINE
  8
0
  6
CONTINUOUS
 62
1
 10
570.8
 20
785.5
 11
689.8
 21
785.5
  0
LINE
  8
0
  6
CONTINUOUS
 62
1
 10
720.8
 20
785.5
 11
776.9
 21
785.5
  0
LINE
  8
0
  6
CONTINUOUS
 62
1
 10
453.2
 20
805.5
 11
453.1
 21
805.8
  0
LINE
  8
0
  6
CONTINUOUS
 62
1
 10
521.6
 20
805.8
 11
539.8
 21
805.8
  0
LINE
  8
0
  6
CONTINUOUS
 62
1
 10
570.8
 20
805.8
 11
689.8
 21
805.8
  0
LINE
  8
0
  6
CONTINUOUS
 62
1
 10
720.8
 20
805.8
 11
737.6
 21
805.8
  0
LINE
  8
0
  6
CONTINUOUS
 62
1
 10
828.4
 20
761.4
 11
722.5
 21
761.4
  0
LINE
  8
0
  6
CONTINUOUS
 62
1
 10
794.4
 20
790.5
 11
799.5
 21
794.4
  0
LINE
  8
0
  6
CONTINUOUS
 62
1
 10
459.8
 20
796.0
 11
459.8
 21
795.9
  0
LINE
  8
0
  6
CONTINUOUS
 62
1
 10
807.7
 20
810.4
 11
805.9
 21
805.5
  0
LINE
  8
0
  6
CONTINUOUS
 62
1
 10
737.6
 20
936.5
 11
720.8
 21
936.5
  0
LINE
  8
0
  6
CONTINUOUS
 62
1
 10
689.8
 20
936.5
 11
570.8
 21
936.5
  0
LINE
  8
0
  6
CONTINUOUS
 62
1
 10
539.8
 20
936.5
 11
521.6
 21
936.5
  0
LINE
  8
0
  6
CONTINUOUS
 62
1
 10
450.1
 20
810.8
 11
452.1
 21
805.0
  0
LINE
  8
0
  6
CONTINUOUS
 62
1
 10
802.5
 20
799.7
 11
802.8
 21
800.1
  0
LINE
  8
0
  6
CONTINUOUS
 62
1
 10
788.2
 20
788.8
 11
788.3
 21
788.8
  0
LINE
  8
0
  6
CONTINUOUS
 62
1
 10
808.8
 20
820.4
 11
808.8
 21
820.6
  0
LINE
  8
0
  6
CONTINUOUS
 62
1
 10
776.9
 20
785.5
 11
782.9
 21
786.1
  0
LINE
  8
0
  6
CONTINUOUS
 62
1
 10
788.7
 20
787.7
 11
788.3
 21
788.8
  0
LINE
  8
0
  6
CONTINUOUS
 62
1
 10
475.8
 20
786.1
 11
482.2
 21
785.5
  0
LINE
  8
0
  6
CONTINUOUS
 62
1
 10
456.0
 20
800.4
 11
456.0
 21
800.6
  0
LINE
  8
0
  6
CONTINUOUS
 62
1
 10
802.5
 20
799.7
 11
798.8
 21
795.4
  0
LINE
  8
0
  6
CONTINUOUS
 62
1
 10
452.1
 20
805.0
 11
455.0
 21
799.8
  0
LINE
  8
0
  6
CONTINUOUS
 62
1
 10
449.2
 20
816.9
 11
450.1
 21
810.8
  0
LINE
  8
0
  6
CONTINUOUS
 62
1
 10
456.0
 20
800.6
 11
453.3
 21
805.3
  0
LINE
  8
0
  6
CONTINUOUS
 62
1
 10
793.7
 20
791.5
 11
793.8
 21
791.6
  0
ARC
  8
0
  6
CONTINUOUS
 62
1
 10
431.8
 20
1529.3
 40
2.2
 50
178.8
 51
180.0
  0
ARC
  8
0
  6
CONTINUOUS
 62
1
 10
431.8
 20
1529.3
 40
2.2
 50
118.8
 51
152.6
  0
LINE
  8
0
  6
CONTINUOUS
 62
1
 10
737.6
 20
926.3
 11
720.8
 21
926.3
  0
LINE
  8
0
  6
CONTINUOUS
 62
1
 10
689.8
 20
926.3
 11
570.8
 21
926.3
  0
LINE
  8
0
  6
CONTINUOUS
 62
1
 10
539.8
 20
926.3
 11
521.6
 21
926.3
  0
LINE
  8
0
  6
CONTINUOUS
 62
1
 10
469.7
 20
788.0
 11
470.1
 21
789.1
  0
LINE
  8
0
  6
CONTINUOUS
 62
1
 10
805.6
 20
804.8
 11
805.7
 21
805.1
  0
LINE
  8
0
  6
CONTINUOUS
 62
1
 10
828.4
 20
751.9
 11
828.4
 21
751.9
  0
ARC
  8
0
  6
CONTINUOUS
 62
1
 10
431.8
 20
1529.3
 40
1.0
 50
90.0
 51
179.3
  0
LINE
  8
0
  6
CONTINUOUS
 62
1
 10
453.1
 20
805.8
 11
453.2
 21
805.5
  0
LINE
  8
0
  6
CONTINUOUS
 62
1
 10
475.8
 20
786.1
 11
476.1
 21
787.3
  0
LINE
  8
0
  6
CONTINUOUS
 62
1
 10
828.4
 20
762.7
 11
827.4
 21
762.7
  0
LINE
  8
0
  6
CONTINUOUS
 62
1
 10
805.7
 20
805.1
 11
805.9
 21
805.5
  0
LINE
  8
0
  6
CONTINUOUS
 62
1
 10
827.4
 20
762.5
 11
828.4
 21
762.5
  0
LINE
  8
0
  6
CONTINUOUS
 62
1
 10
431.8
 20
763.5
 11
538.4
 21
763.5
  0
LINE
  8
0
  6
CONTINUOUS
 62
1
 10
572.1
 20
763.5
 11
688.4
 21
763.5
  0
LINE
  8
0
  6
CONTINUOUS
 62
1
 10
722.1
 20
763.5
 11
827.4
 21
763.5
  0
LINE
  8
0
  6
CONTINUOUS
 62
1
 10
450.5
 20
816.9
 11
450.5
 21
816.5
  0
LINE
  8
0
  6
CONTINUOUS
 62
1
 10
430.8
 20
752.0
 11
536.2
 21
752.0
  0
LINE
  8
0
  6
CONTINUOUS
 62
1
 10
574.3
 20
752.0
 11
686.2
 21
752.0
  0
LINE
  8
0
  6
CONTINUOUS
 62
1
 10
724.3
 20
752.0
 11
828.4
 21
752.0
  0
LINE
  8
0
  6
CONTINUOUS
 62
1
 10
782.9
 20
786.1
 11
782.7
 21
787.2
  0
LINE
  8
0
  6
CONTINUOUS
 62
1
 10
809.5
 20
1433.5
 11
809.5
 21
1400.7
  0
LINE
  8
0
  6
CONTINUOUS
 62
1
 10
808.8
 20
827.2
 11
808.8
 21
820.6
  0
LINE
  8
0
  6
CONTINUOUS
 62
1
 10
803.7
 20
799.2
 11
802.7
 21
799.9
  0
LINE
  8
0
  6
CONTINUOUS
 62
1
 10
805.6
 20
804.8
 11
802.8
 21
800.1
  0
LINE
  8
0
  6
CONTINUOUS
 62
1
 10
450.3
 20
820.6
 11
450.3
 21
820.4
  0
LINE
  8
0
  6
CONTINUOUS
 62
1
 10
449.2
 20
816.9
 11
450.4
 21
817.0
  0
LINE
  8
0
  6
CONTINUOUS
 62
1
 10
463.9
 20
791.0
 11
464.6
 21
792.0
  0
LINE
  8
0
  6
CONTINUOUS
 62
1
 10
430.8
 20
762.5
 11
429.6
 21
762.5
  0
LINE
  8
0
  6
CONTINUOUS
 62
1
 10
827.4
 20
763.5
 11
829.6
 21
763.5
  0
LINE
  8
0
  6
CONTINUOUS
 62
1
 10
788.7
 20
787.7
 11
794.4
 21
790.5
  0
LINE
  8
0
  6
CONTINUOUS
 62
1
 10
451.2
 20
811.5
 11
450.5
 21
816.5
  0
LINE
  8
0
  6
CONTINUOUS
 62
1
 10
449.1
 20
819.8
 11
450.3
 21
819.9
  0
ARC
  8
0
  6
CONTINUOUS
 62
1
 10
776.9
 20
1433.5
 40
33.8
 50
360.0
 51
20.1
  0
LINE
  8
0
  6
CONTINUOUS
 62
1
 10
470.1
 20
789.1
 11
464.6
 21
792.0
  0
LINE
  8
0
  6
CONTINUOUS
 62
1
 10
798.5
 20
795.2
 11
793.8
 21
791.6
  0
LINE
  8
0
  6
CONTINUOUS
 62
1
 10
431.8
 20
763.5
 11
429.6
 21
763.5
  0
LINE
  8
0
  6
CONTINUOUS
 62
1
 10
788.2
 20
788.8
 11
782.7
 21
787.2
  0
LINE
  8
0
  6
CONTINUOUS
 62
1
 10
451.4
 20
810.8
 11
451.3
 21
811.1
  0
LINE
  8
0
  6
CONTINUOUS
 62
1
 10
782.7
 20
787.2
 11
782.7
 21
787.2
  0
LINE
  8
0
  6
CONTINUOUS
 62
1
 10
430.8
 20
753.0
 11
429.6
 21
753.0
  0
LINE
  8
0
  6
CONTINUOUS
 62
1
 10
807.8
 20
810.9
 11
807.7
 21
810.4
  0
LINE
  8
0
  6
CONTINUOUS
 62
1
 10
808.6
 20
816.3
 11
808.6
 21
816.9
  0
LINE
  8
0
  6
CONTINUOUS
 62
1
 10
450.1
 20
810.8
 11
451.3
 21
811.1
  0
LINE
  8
0
  6
CONTINUOUS
 62
1
 10
469.7
 20
788.0
 11
475.8
 21
786.1
  0
LINE
  8
0
  6
CONTINUOUS
 62
1
 10
782.9
 20
786.1
 11
788.7
 21
787.7
  0
LINE
  8
0
  6
CONTINUOUS
 62
1
 10
450.3
 20
819.9
 11
450.3
 21
820.6
  0
LINE
  8
0
  6
CONTINUOUS
 62
1
 10
803.7
 20
799.2
 11
806.9
 21
804.6
  0
LINE
  8
0
  6
CONTINUOUS
 62
1
 10
776.9
 20
786.7
 11
720.8
 21
786.7
  0
LINE
  8
0
  6
CONTINUOUS
 62
1
 10
689.8
 20
786.7
 11
570.8
 21
786.7
  0
LINE
  8
0
  6
CONTINUOUS
 62
1
 10
539.8
 20
786.7
 11
482.2
 21
786.7
  0
LINE
  8
0
  6
CONTINUOUS
 62
1
 10
464.6
 20
792.0
 11
464.6
 21
792.0
  0
LINE
  8
0
  6
CONTINUOUS
 62
1
 10
463.9
 20
791.0
 11
469.7
 21
788.0
  0
LINE
  8
0
  6
CONTINUOUS
 62
1
 10
809.0
 20
810.6
 11
809.9
 21
816.9
  0
LINE
  8
0
  6
CONTINUOUS
 62
1
 10
455.0
 20
799.8
 11
458.9
 21
795.1
  0
LINE
  8
0
  6
CONTINUOUS
 62
1
 10
450.3
 20
820.4
 11
450.3
 21
820.4
  0
ARC
  8
0
  6
CONTINUOUS
 62
1
 10
482.2
 20
1433.5
 40
32.6
 50
159.9
 51
180.0
  0
LINE
  8
0
  6
CONTINUOUS
 62
1
 10
808.8
 20
819.5
 11
808.7
 21
817.0
  0
LINE
  8
0
  6
CONTINUOUS
 62
1
 10
806.9
 20
804.6
 11
809.0
 21
810.6
  0
LINE
  8
0
  6
CONTINUOUS
 62
1
 10
808.7
 20
817.0
 11
808.6
 21
816.3
  0
LINE
  8
0
  6
CONTINUOUS
 62
1
 10
453.3
 20
805.3
 11
453.2
 21
805.5
  0
LINE
  8
0
  6
CONTINUOUS
 62
1
 10
808.8
 20
820.6
 11
808.8
 21
819.5
  0
LINE
  8
0
  6
CONTINUOUS
 62
1
 10
453.2
 20
805.5
 11
453.3
 21
805.3
  0
LINE
  8
0
  6
CONTINUOUS
 62
1
 10
456.0
 20
800.6
 11
456.1
 21
800.3
  0
LINE
  8
0
  6
CONTINUOUS
 62
1
 10
476.1
 20
787.3
 11
470.1
 21
789.1
  0
LINE
  8
0
  6
CONTINUOUS
 62
1
 10
805.9
 20
805.5
 11
805.8
 21
805.2
  0
LINE
  8
0
  6
CONTINUOUS
 62
1
 10
459.8
 20
796.0
 11
459.7
 21
796.0
  0
LINE
  8
0
  6
CONTINUOUS
 62
1
 10
450.4
 20
817.0
 11
450.3
 21
819.9
  0
ARC
  8
0
  6
CONTINUOUS
 62
1
 10
482.2
 20
1433.5
 40
32.6
 50
159.8
 51
180.0
  0
LINE
  8
0
  6
CONTINUOUS
 62
1
 10
799.5
 20
794.4
 11
803.7
 21
799.2
  0
LINE
  8
0
  6
CONTINUOUS
 62
1
 10
782.7
 20
787.2
 11
782.7
 21
787.2
  0
LINE
  8
0
  6
CONTINUOUS
 62
1
 10
799.5
 20
794.4
 11
798.6
 21
795.3
  0
LINE
  8
0
  6
CONTINUOUS
 62
1
 10
809.9
 20
816.9
 11
810.0
 21
819.5
  0
LINE
  8
0
  6
CONTINUOUS
 62
1
 10
430.8
 20
751.9
 11
536.2
 21
751.9
  0
LINE
  8
0
  6
CONTINUOUS
 62
1
 10
574.3
 20
751.9
 11
686.2
 21
751.9
  0
LINE
  8
0
  6
CONTINUOUS
 62
1
 10
724.3
 20
751.9
 11
828.4
 21
751.9
  0
LINE
  8
0
  6
CONTINUOUS
 62
1
 10
737.6
 20
938.0
 11
720.8
 21
938.0
  0
LINE
  8
0
  6
CONTINUOUS
 62
1
 10
689.8
 20
938.0
 11
570.8
 21
938.0
  0
LINE
  8
0
  6
CONTINUOUS
 62
1
 10
539.8
 20
938.0
 11
521.6
 21
938.0
  0
LINE
  8
0
  6
CONTINUOUS
 62
1
 10
582.1
 20
1403.1
 11
588.7
 21
1403.1
  0
LINE
  8
0
  6
CONTINUOUS
 62
1
 10
667.1
 20
1403.1
 11
667.5
 21
1402.9
  0
LINE
  8
0
  6
CONTINUOUS
 62
1
 10
667.1
 20
1403.1
 11
667.5
 21
1403.1
  0
LINE
  8
0
  6
CONTINUOUS
 62
1
 10
672.5
 20
1403.1
 11
677.1
 21
1403.1
  0
LINE
  8
0
  6
CONTINUOUS
 62
1
 10
582.5
 20
961.5
 11
582.1
 21
961.4
  0
LINE
  8
0
  6
CONTINUOUS
 62
1
 10
592.1
 20
961.4
 11
591.6
 21
961.5
  0
LINE
  8
0
  6
CONTINUOUS
 62
1
 10
677.1
 20
1403.1
 11
677.1
 21
1402.5
  0
LINE
  8
0
  6
CONTINUOUS
 62
1
 10
677.1
 20
961.5
 11
677.1
 21
961.4
  0
LINE
  8
0
  6
CONTINUOUS
 62
1
 10
676.0
 20
1402.5
 11
677.1
 21
1403.1
  0
LINE
  8
0
  6
CONTINUOUS
 62
1
 10
592.1
 20
961.4
 11
582.1
 21
961.4
  0
LINE
  8
0
  6
CONTINUOUS
 62
1
 10
677.1
 20
961.4
 11
667.1
 21
961.4
  0
LINE
  8
0
  6
CONTINUOUS
 62
1
 10
582.1
 20
1403.1
 11
583.1
 21
1402.5
  0
LINE
  8
0
  6
CONTINUOUS
 62
1
 10
667.1
 20
961.4
 11
667.1
 21
961.5
  0
LINE
  8
0
  6
CONTINUOUS
 62
1
 10
667.1
 20
1402.5
 11
667.1
 21
1403.1
  0
LINE
  8
0
  6
CONTINUOUS
 62
1
 10
667.5
 20
961.5
 11
667.1
 21
961.4
  0
LINE
  8
0
  6
CONTINUOUS
 62
1
 10
582.1
 20
961.4
 11
582.1
 21
961.5
  0
LINE
  8
0
  6
CONTINUOUS
 62
1
 10
582.1
 20
1402.5
 11
582.1
 21
1403.1
  0
LINE
  8
0
  6
CONTINUOUS
 62
1
 10
478.1
 20
1427.6
 11
477.1
 21
1427.6
  0
LINE
  8
0
  6
CONTINUOUS
 62
1
 10
592.1
 20
961.5
 11
592.1
 21
961.4
  0
LINE
  8
0
  6
CONTINUOUS
 62
1
 10
677.1
 20
961.4
 11
676.6
 21
961.5
  0
LINE
  8
0
  6
CONTINUOUS
 62
1
 10
477.1
 20
1428.1
 11
475.6
 21
1428.1
  0
LINE
  8
0
  6
CONTINUOUS
 62
1
 10
524.6
 20
956.0
 11
524.5
 21
955.3
  0
LINE
  8
0
  6
CONTINUOUS
 62
1
 10
539.8
 20
954.7
 11
524.5
 21
954.7
  0
LINE
  8
0
  6
CONTINUOUS
 62
1
 10
524.6
 20
956.0
 11
524.6
 21
956.0
  0
LINE
  8
0
  6
CONTINUOUS
 62
1
 10
522.3
 20
953.1
 11
522.4
 21
954.8
  0
LINE
  8
0
  6
CONTINUOUS
 62
1
 10
524.5
 20
954.7
 11
524.5
 21
954.7
  0
LINE
  8
0
  6
CONTINUOUS
 62
1
 10
524.9
 20
961.5
 11
524.6
 21
956.0
  0
LINE
  8
0
  6
CONTINUOUS
 62
1
 10
523.0
 20
956.1
 11
522.4
 21
956.1
  0
LINE
  8
0
  6
CONTINUOUS
 62
1
 10
524.6
 20
956.0
 11
524.6
 21
956.0
  0
LINE
  8
0
  6
CONTINUOUS
 62
1
 10
524.6
 20
956.0
 11
524.6
 21
956.0
  0
LINE
  8
0
  6
CONTINUOUS
 62
1
 10
524.5
 20
954.1
 11
524.2
 21
949.5
  0
LINE
  8
0
  6
CONTINUOUS
 62
1
 10
524.5
 20
954.7
 11
524.5
 21
954.1
  0
LINE
  8
0
  6
CONTINUOUS
 62
1
 10
522.4
 20
954.8
 11
523.6
 21
954.8
  0
LINE
  8
0
  6
CONTINUOUS
 62
1
 10
523.6
 20
954.8
 11
523.7
 21
955.9
  0
LINE
  8
0
  6
CONTINUOUS
 62
1
 10
522.5
 20
959.5
 11
522.4
 21
956.1
  0
LINE
  8
0
  6
CONTINUOUS
 62
1
 10
522.5
 20
956.0
 11
522.4
 21
954.8
  0
LINE
  8
0
  6
CONTINUOUS
 62
1
 10
523.7
 20
955.9
 11
522.5
 21
956.0
  0
LINE
  8
0
  6
CONTINUOUS
 62
1
 10
524.5
 20
955.3
 11
524.6
 21
956.0
  0
LINE
  8
0
  6
CONTINUOUS
 62
1
 10
524.5
 20
955.3
 11
539.8
 21
955.3
  0
LINE
  8
0
  6
CONTINUOUS
 62
1
 10
524.6
 20
956.0
 11
524.6
 21
956.0
  0
LINE
  8
0
  6
CONTINUOUS
 62
1
 10
523.6
 20
954.8
 11
523.5
 21
954.0
  0
LINE
  8
0
  6
CONTINUOUS
 62
1
 10
522.1
 20
949.5
 11
522.3
 21
953.1
  0
LINE
  8
0
  6
CONTINUOUS
 62
1
 10
523.4
 20
956.1
 11
522.6
 21
956.1
  0
LINE
  8
0
  6
CONTINUOUS
 62
1
 10
714.6
 20
1524.0
 11
697.8
 21
1523.9
  0
LINE
  8
0
  6
CONTINUOUS
 62
1
 10
693.5
 20
1523.9
 11
688.5
 21
1523.8
  0
LINE
  8
0
  6
CONTINUOUS
 62
1
 10
683.6
 20
1518.8
 11
683.8
 21
1518.8
  0
LINE
  8
0
  6
CONTINUOUS
 62
1
 10
575.2
 20
1518.8
 11
575.2
 21
1514.4
  0
LINE
  8
0
  6
CONTINUOUS
 62
1
 10
575.2
 20
1498.4
 11
575.2
 21
1488.4
  0
LINE
  8
0
  6
CONTINUOUS
 62
1
 10
570.2
 20
1523.8
 11
570.0
 21
1523.8
  0
LINE
  8
0
  6
CONTINUOUS
 62
1
 10
683.8
 20
1518.8
 11
683.8
 21
1514.4
  0
LINE
  8
0
  6
CONTINUOUS
 62
1
 10
683.8
 20
1498.4
 11
683.8
 21
1488.4
  0
LINE
  8
0
  6
CONTINUOUS
 62
1
 10
683.6
 20
1488.4
 11
683.6
 21
1498.4
  0
LINE
  8
0
  6
CONTINUOUS
 62
1
 10
683.6
 20
1514.4
 11
683.6
 21
1518.8
  0
LINE
  8
0
  6
CONTINUOUS
 62
1
 10
688.7
 20
1523.8
 11
688.5
 21
1523.8
  0
LINE
  8
0
  6
CONTINUOUS
 62
1
 10
570.2
 20
1523.8
 11
566.4
 21
1523.9
  0
LINE
  8
0
  6
CONTINUOUS
 62
1
 10
562.1
 20
1523.9
 11
543.9
 21
1524.0
  0
LINE
  8
0
  6
CONTINUOUS
 62
1
 10
575.0
 20
1488.4
 11
575.0
 21
1498.4
  0
LINE
  8
0
  6
CONTINUOUS
 62
1
 10
575.0
 20
1514.4
 11
575.0
 21
1518.8
  0
LINE
  8
0
  6
CONTINUOUS
 62
1
 10
688.7
 20
1523.8
 11
693.5
 21
1523.8
  0
LINE
  8
0
  6
CONTINUOUS
 62
1
 10
697.8
 20
1523.8
 11
714.7
 21
1523.9
  0
LINE
  8
0
  6
CONTINUOUS
 62
1
 10
575.0
 20
1518.8
 11
575.2
 21
1518.8
  0
LINE
  8
0
  6
CONTINUOUS
 62
1
 10
543.9
 20
1523.9
 11
562.1
 21
1523.8
  0
LINE
  8
0
  6
CONTINUOUS
 62
1
 10
566.3
 20
1523.8
 11
570.0
 21
1523.8
  0
LINE
  8
0
  6
CONTINUOUS
 62
1
 10
678.1
 20
1524.4
 11
678.1
 21
1523.6
  0
LINE
  8
0
  6
CONTINUOUS
 62
1
 10
680.8
 20
1488.4
 11
680.8
 21
1498.4
  0
ARC
  8
0
  6
CONTINUOUS
 62
1
 10
581.1
 20
1523.5
 40
1.5
 50
143.7
 51
180.0
  0
LINE
  8
0
  6
CONTINUOUS
 62
1
 10
680.8
 20
1488.4
 11
676.4
 21
1488.4
  0
LINE
  8
0
  6
CONTINUOUS
 62
1
 10
579.6
 20
1523.6
 11
581.1
 21
1523.6
  0
LINE
  8
0
  6
CONTINUOUS
 62
1
 10
679.6
 20
1523.5
 11
679.6
 21
1514.4
  0
LINE
  8
0
  6
CONTINUOUS
 62
1
 10
679.6
 20
1511.4
 11
679.6
 21
1501.4
  0
LINE
  8
0
  6
CONTINUOUS
 62
1
 10
679.6
 20
1498.4
 11
679.6
 21
1488.4
  0
LINE
  8
0
  6
CONTINUOUS
 62
1
 10
678.1
 20
1523.6
 11
679.6
 21
1523.6
  0
LINE
  8
0
  6
CONTINUOUS
 62
1
 10
679.6
 20
1523.6
 11
675.0
 21
1523.6
  0
LINE
  8
0
  6
CONTINUOUS
 62
1
 10
680.8
 20
1523.5
 11
680.8
 21
1514.4
  0
LINE
  8
0
  6
CONTINUOUS
 62
1
 10
680.8
 20
1511.4
 11
680.8
 21
1501.4
  0
LINE
  8
0
  6
CONTINUOUS
 62
1
 10
579.6
 20
1488.4
 11
579.6
 21
1498.4
  0
LINE
  8
0
  6
CONTINUOUS
 62
1
 10
579.6
 20
1501.4
 11
579.6
 21
1511.4
  0
LINE
  8
0
  6
CONTINUOUS
 62
1
 10
579.6
 20
1514.4
 11
579.6
 21
1523.5
  0
LINE
  8
0
  6
CONTINUOUS
 62
1
 10
671.2
 20
1523.6
 11
653.7
 21
1523.6
  0
ARC
  8
0
  6
CONTINUOUS
 62
1
 10
678.1
 20
1523.5
 40
2.7
 50
0.0
 51
19.2
  0
LINE
  8
0
  6
CONTINUOUS
 62
1
 10
578.4
 20
1488.4
 11
582.2
 21
1488.4
  0
LINE
  8
0
  6
CONTINUOUS
 62
1
 10
581.1
 20
1524.4
 11
581.1
 21
1523.6
  0
LINE
  8
0
  6
CONTINUOUS
 62
1
 10
578.4
 20
1488.4
 11
578.4
 21
1498.4
  0
ARC
  8
0
  6
CONTINUOUS
 62
1
 10
581.1
 20
1523.5
 40
2.7
 50
160.8
 51
180.0
  0
LINE
  8
0
  6
CONTINUOUS
 62
1
 10
650.0
 20
1523.6
 11
631.2
 21
1523.6
  0
LINE
  8
0
  6
CONTINUOUS
 62
1
 10
627.4
 20
1523.6
 11
609.9
 21
1523.6
  0
LINE
  8
0
  6
CONTINUOUS
 62
1
 10
606.2
 20
1523.6
 11
587.4
 21
1523.6
  0
LINE
  8
0
  6
CONTINUOUS
 62
1
 10
578.4
 20
1523.5
 11
578.4
 21
1514.4
  0
LINE
  8
0
  6
CONTINUOUS
 62
1
 10
578.4
 20
1511.4
 11
578.4
 21
1501.4
  0
ARC
  8
0
  6
CONTINUOUS
 62
1
 10
678.1
 20
1523.5
 40
1.5
 50
0.0
 51
36.3
  0
LINE
  8
0
  6
CONTINUOUS
 62
1
 10
577.9
 20
1502.2
 11
577.9
 21
1510.2
  0
LINE
  8
0
  6
CONTINUOUS
 62
1
 10
586.0
 20
1502.8
 11
586.0
 21
1509.7
  0
LINE
  8
0
  6
CONTINUOUS
 62
1
 10
585.9
 20
1502.7
 11
585.9
 21
1509.8
  0
LINE
  8
0
  6
CONTINUOUS
 62
1
 10
579.9
 20
1501.6
 11
579.9
 21
1510.8
  0
LINE
  8
0
  6
CONTINUOUS
 62
1
 10
580.9
 20
1502.6
 11
580.9
 21
1509.8
  0
LINE
  8
0
  6
CONTINUOUS
 62
1
 10
580.6
 20
1501.9
 11
580.6
 21
1510.5
  0
LINE
  8
0
  6
CONTINUOUS
 62
1
 10
580.3
 20
1501.6
 11
580.3
 21
1510.8
  0
ARC
  8
0
  6
CONTINUOUS
 62
1
 10
580.3
 20
1510.5
 40
0.3
 50
0.0
 51
90.0
  0
ARC
  8
0
  6
CONTINUOUS
 62
1
 10
580.3
 20
1501.9
 40
0.3
 50
270.0
 51
0.0
  0
ARC
  8
0
  6
CONTINUOUS
 62
1
 10
585.9
 20
1509.7
 40
0.1
 50
0.0
 51
89.5
  0
ARC
  8
0
  6
CONTINUOUS
 62
1
 10
585.9
 20
1502.8
 40
0.1
 50
270.5
 51
0.0
  0
ARC
  8
0
  6
CONTINUOUS
 62
1
 10
580.9
 20
1510.1
 40
0.3
 50
180.0
 51
269.5
  0
ARC
  8
0
  6
CONTINUOUS
 62
1
 10
580.9
 20
1502.3
 40
0.3
 50
90.5
 51
180.0
  0
ARC
  8
0
  6
CONTINUOUS
 62
1
 10
579.9
 20
1510.5
 40
0.3
 50
90.0
 51
180.0
  0
ARC
  8
0
  6
CONTINUOUS
 62
1
 10
579.9
 20
1501.9
 40
0.3
 50
180.0
 51
270.0
  0
LINE
  8
0
  6
CONTINUOUS
 62
1
 10
585.9
 20
1502.7
 11
580.9
 21
1502.6
  0
LINE
  8
0
  6
CONTINUOUS
 62
1
 10
585.9
 20
1509.8
 11
580.9
 21
1509.8
  0
LINE
  8
0
  6
CONTINUOUS
 62
1
 10
578.4
 20
1502.2
 11
577.9
 21
1502.2
  0
LINE
  8
0
  6
CONTINUOUS
 62
1
 10
578.4
 20
1510.2
 11
577.9
 21
1510.2
  0
LINE
  8
0
  6
CONTINUOUS
 62
1
 10
580.3
 20
1501.6
 11
579.9
 21
1501.6
  0
LINE
  8
0
  6
CONTINUOUS
 62
1
 10
580.3
 20
1510.8
 11
579.9
 21
1510.8
  0
LINE
  8
0
  6
CONTINUOUS
 62
1
 10
673.2
 20
1509.8
 11
673.2
 21
1502.7
  0
LINE
  8
0
  6
CONTINUOUS
 62
1
 10
679.3
 20
1510.8
 11
679.3
 21
1501.6
  0
LINE
  8
0
  6
CONTINUOUS
 62
1
 10
673.1
 20
1509.7
 11
673.1
 21
1502.8
  0
LINE
  8
0
  6
CONTINUOUS
 62
1
 10
681.3
 20
1510.2
 11
681.3
 21
1502.2
  0
LINE
  8
0
  6
CONTINUOUS
 62
1
 10
678.3
 20
1509.8
 11
678.3
 21
1502.6
  0
LINE
  8
0
  6
CONTINUOUS
 62
1
 10
678.9
 20
1510.8
 11
678.9
 21
1501.6
  0
LINE
  8
0
  6
CONTINUOUS
 62
1
 10
678.6
 20
1510.5
 11
678.6
 21
1501.9
  0
ARC
  8
0
  6
CONTINUOUS
 62
1
 10
678.3
 20
1502.3
 40
0.3
 50
0.0
 51
89.5
  0
ARC
  8
0
  6
CONTINUOUS
 62
1
 10
678.3
 20
1510.1
 40
0.3
 50
270.5
 51
0.0
  0
LINE
  8
0
  6
CONTINUOUS
 62
1
 10
680.8
 20
1510.2
 11
681.3
 21
1510.2
  0
LINE
  8
0
  6
CONTINUOUS
 62
1
 10
680.8
 20
1502.2
 11
681.3
 21
1502.2
  0
LINE
  8
0
  6
CONTINUOUS
 62
1
 10
673.2
 20
1509.8
 11
678.3
 21
1509.8
  0
LINE
  8
0
  6
CONTINUOUS
 62
1
 10
673.2
 20
1502.7
 11
678.3
 21
1502.6
  0
ARC
  8
0
  6
CONTINUOUS
 62
1
 10
679.3
 20
1501.9
 40
0.3
 50
270.0
 51
0.0
  0
ARC
  8
0
  6
CONTINUOUS
 62
1
 10
679.3
 20
1510.5
 40
0.3
 50
0.0
 51
90.0
  0
LINE
  8
0
  6
CONTINUOUS
 62
1
 10
678.9
 20
1510.8
 11
679.3
 21
1510.8
  0
LINE
  8
0
  6
CONTINUOUS
 62
1
 10
678.9
 20
1501.6
 11
679.3
 21
1501.6
  0
ARC
  8
0
  6
CONTINUOUS
 62
1
 10
673.2
 20
1502.8
 40
0.1
 50
180.0
 51
269.5
  0
ARC
  8
0
  6
CONTINUOUS
 62
1
 10
673.2
 20
1509.7
 40
0.1
 50
90.5
 51
180.0
  0
ARC
  8
0
  6
CONTINUOUS
 62
1
 10
678.9
 20
1501.9
 40
0.3
 50
180.0
 51
270.0
  0
ARC
  8
0
  6
CONTINUOUS
 62
1
 10
678.9
 20
1510.5
 40
0.3
 50
90.0
 51
180.0
  0
LINE
  8
0
  6
CONTINUOUS
 62
1
 10
669.8
 20
1488.4
 11
655.1
 21
1488.4
  0
LINE
  8
0
  6
CONTINUOUS
 62
1
 10
648.5
 20
1488.4
 11
632.6
 21
1488.4
  0
LINE
  8
0
  6
CONTINUOUS
 62
1
 10
626.0
 20
1488.4
 11
611.3
 21
1488.4
  0
LINE
  8
0
  6
CONTINUOUS
 62
1
 10
604.7
 20
1488.4
 11
588.8
 21
1488.4
  0
LINE
  8
0
  6
CONTINUOUS
 62
1
 10
576.4
 20
1524.4
 11
576.4
 21
1514.4
  0
LINE
  8
0
  6
CONTINUOUS
 62
1
 10
576.4
 20
1510.6
 11
576.4
 21
1505.9
  0
LINE
  8
0
  6
CONTINUOUS
 62
1
 10
576.4
 20
1498.4
 11
576.4
 21
1488.4
  0
LINE
  8
0
  6
CONTINUOUS
 62
1
 10
577.6
 20
1488.4
 11
577.6
 21
1498.4
  0
LINE
  8
0
  6
CONTINUOUS
 62
1
 10
577.6
 20
1501.7
 11
577.6
 21
1511.4
  0
LINE
  8
0
  6
CONTINUOUS
 62
1
 10
577.6
 20
1514.4
 11
577.6
 21
1524.4
  0
LINE
  8
0
  6
CONTINUOUS
 62
1
 10
682.8
 20
1488.4
 11
682.8
 21
1498.4
  0
LINE
  8
0
  6
CONTINUOUS
 62
1
 10
682.8
 20
1505.9
 11
682.8
 21
1510.6
  0
LINE
  8
0
  6
CONTINUOUS
 62
1
 10
682.8
 20
1514.4
 11
682.8
 21
1524.4
  0
LINE
  8
0
  6
CONTINUOUS
 62
1
 10
681.6
 20
1524.4
 11
681.6
 21
1514.4
  0
LINE
  8
0
  6
CONTINUOUS
 62
1
 10
681.6
 20
1511.4
 11
681.6
 21
1501.7
  0
LINE
  8
0
  6
CONTINUOUS
 62
1
 10
681.6
 20
1498.4
 11
681.6
 21
1488.4
  0
LINE
  8
0
  6
CONTINUOUS
 62
1
 10
644.4
 20
1511.4
 11
658.6
 21
1511.4
  0
LINE
  8
0
  6
CONTINUOUS
 62
1
 10
680.5
 20
1501.4
 11
666.3
 21
1501.4
  0
ARC
  8
0
  6
CONTINUOUS
 62
1
 10
676.6
 20
1522.4
 40
2.0
 50
90.0
 51
186.3
  0
LINE
  8
0
  6
CONTINUOUS
 62
1
 10
560.1
 20
1514.4
 11
545.9
 21
1514.4
  0
ARC
  8
0
  6
CONTINUOUS
 62
1
 10
610.9
 20
1496.4
 40
2.0
 50
90.0
 51
186.3
  0
ARC
  8
0
  6
CONTINUOUS
 62
1
 10
666.3
 20
1503.4
 40
2.0
 50
186.3
 51
270.0
  0
ARC
  8
0
  6
CONTINUOUS
 62
1
 10
643.7
 20
1503.4
 40
2.0
 50
173.7
 51
270.0
  0
LINE
  8
0
  6
CONTINUOUS
 62
1
 10
431.8
 20
1529.4
 11
429.6
 21
1529.4
  0
ARC
  8
0
  6
CONTINUOUS
 62
1
 10
545.9
 20
1516.4
 40
2.0
 50
186.3
 51
270.0
  0
LINE
  8
0
  6
CONTINUOUS
 62
1
 10
429.6
 20
1477.5
 11
431.6
 21
1477.5
  0
LINE
  8
0
  6
CONTINUOUS
 62
1
 10
827.6
 20
1477.3
 11
829.6
 21
1477.3
  0
LINE
  8
0
  6
CONTINUOUS
 62
1
 10
659.2
 20
1501.4
 11
643.7
 21
1501.4
  0
ARC
  8
0
  6
CONTINUOUS
 62
1
 10
669.6
 20
1490.4
 40
2.0
 50
270.0
 51
353.7
  0
LINE
  8
0
  6
CONTINUOUS
 62
1
 10
600.6
 20
1511.4
 11
614.8
 21
1511.4
  0
LINE
  8
0
  6
CONTINUOUS
 62
1
 10
674.6
 20
1490.6
 11
675.3
 21
1496.6
  0
ARC
  8
0
  6
CONTINUOUS
 62
1
 10
615.4
 20
1503.4
 40
2.0
 50
270.0
 51
6.3
  0
LINE
  8
0
  6
CONTINUOUS
 62
1
 10
633.5
 20
1498.4
 11
647.7
 21
1498.4
  0
ARC
  8
0
  6
CONTINUOUS
 62
1
 10
647.7
 20
1496.4
 40
2.0
 50
6.3
 51
90.0
  0
ARC
  8
0
  6
CONTINUOUS
 62
1
 10
654.7
 20
1516.4
 40
2.0
 50
173.7
 51
270.0
  0
LINE
  8
0
  6
CONTINUOUS
 62
1
 10
543.2
 20
1490.6
 11
543.9
 21
1496.6
  0
ARC
  8
0
  6
CONTINUOUS
 62
1
 10
677.3
 20
1516.4
 40
2.0
 50
186.3
 51
270.0
  0
LINE
  8
0
  6
CONTINUOUS
 62
1
 10
709.4
 20
1511.4
 11
724.9
 21
1511.4
  0
LINE
  8
0
  6
CONTINUOUS
 62
1
 10
632.8
 20
1524.4
 11
648.3
 21
1524.4
  0
LINE
  8
0
  6
CONTINUOUS
 62
1
 10
655.4
 20
1524.4
 11
669.6
 21
1524.4
  0
ARC
  8
0
  6
CONTINUOUS
 62
1
 10
560.7
 20
1522.4
 40
2.0
 50
353.7
 51
90.0
  0
ARC
  8
0
  6
CONTINUOUS
 62
1
 10
611.6
 20
1490.4
 40
2.0
 50
186.3
 51
270.0
  0
LINE
  8
0
  6
CONTINUOUS
 62
1
 10
627.8
 20
1522.6
 11
628.4
 21
1516.6
  0
ARC
  8
0
  6
CONTINUOUS
 62
1
 10
625.8
 20
1522.4
 40
2.0
 50
6.3
 51
90.0
  0
LINE
  8
0
  6
CONTINUOUS
 62
1
 10
625.8
 20
1488.4
 11
611.6
 21
1488.4
  0
LINE
  8
0
  6
CONTINUOUS
 62
1
 10
827.4
 20
1479.9
 11
827.4
 21
1529.4
  0
LINE
  8
0
  6
CONTINUOUS
 62
1
 10
429.6
 20
1530.4
 11
430.7
 21
1530.4
  0
ARC
  8
0
  6
CONTINUOUS
 62
1
 10
699.2
 20
1522.4
 40
2.0
 50
90.0
 51
173.7
  0
LINE
  8
0
  6
CONTINUOUS
 62
1
 10
582.6
 20
1514.4
 11
567.1
 21
1514.4
  0
LINE
  8
0
  6
CONTINUOUS
 62
1
 10
430.7
 20
1530.4
 11
430.7
 21
1531.6
  0
LINE
  8
0
  6
CONTINUOUS
 62
1
 10
616.8
 20
1509.6
 11
617.4
 21
1503.6
  0
LINE
  8
0
  6
CONTINUOUS
 62
1
 10
708.1
 20
1503.2
 11
707.4
 21
1509.2
  0
LINE
  8
0
  6
CONTINUOUS
 62
1
 10
670.2
 20
1514.4
 11
654.7
 21
1514.4
  0
LINE
  8
0
  6
CONTINUOUS
 62
1
 10
652.7
 20
1516.6
 11
653.4
 21
1522.6
  0
ARC
  8
0
  6
CONTINUOUS
 62
1
 10
592.9
 20
1503.4
 40
2.0
 50
270.0
 51
353.7
  0
ARC
  8
0
  6
CONTINUOUS
 62
1
 10
571.6
 20
1503.4
 40
2.0
 50
270.0
 51
6.3
  0
ARC
  8
0
  6
CONTINUOUS
 62
1
 10
648.3
 20
1490.4
 40
2.0
 50
270.0
 51
6.3
  0
ARC
  8
0
  6
CONTINUOUS
 62
1
 10
600.6
 20
1509.4
 40
2.0
 50
90.0
 51
173.7
  0
ARC
  8
0
  6
CONTINUOUS
 62
1
 10
603.9
 20
1496.4
 40
2.0
 50
6.3
 51
90.0
  0
LINE
  8
0
  6
CONTINUOUS
 62
1
 10
431.8
 20
1529.4
 11
431.8
 21
1479.9
  0
ARC
  8
0
  6
CONTINUOUS
 62
1
 10
556.8
 20
1509.4
 40
2.0
 50
90.0
 51
173.7
  0
ARC
  8
0
  6
CONTINUOUS
 62
1
 10
626.4
 20
1516.4
 40
2.0
 50
270.0
 51
6.3
  0
ARC
  8
0
  6
CONTINUOUS
 62
1
 10
589.0
 20
1490.4
 40
2.0
 50
173.7
 51
270.0
  0
LINE
  8
0
  6
CONTINUOUS
 62
1
 10
676.6
 20
1524.4
 11
692.1
 21
1524.4
  0
LINE
  8
0
  6
CONTINUOUS
 62
1
 10
565.8
 20
1490.2
 11
565.1
 21
1496.2
  0
LINE
  8
0
  6
CONTINUOUS
 62
1
 10
567.1
 20
1498.4
 11
582.6
 21
1498.4
  0
ARC
  8
0
  6
CONTINUOUS
 62
1
 10
658.6
 20
1509.4
 40
2.0
 50
6.3
 51
90.0
  0
LINE
  8
0
  6
CONTINUOUS
 62
1
 10
714.0
 20
1514.4
 11
698.5
 21
1514.4
  0
LINE
  8
0
  6
CONTINUOUS
 62
1
 10
554.1
 20
1503.6
 11
554.8
 21
1509.6
  0
LINE
  8
0
  6
CONTINUOUS
 62
1
 10
584.0
 20
1522.6
 11
584.6
 21
1516.6
  0
LINE
  8
0
  6
CONTINUOUS
 62
1
 10
660.6
 20
1509.6
 11
661.2
 21
1503.6
  0
ARC
  8
0
  6
CONTINUOUS
 62
1
 10
724.3
 20
1503.4
 40
2.0
 50
270.0
 51
353.7
  0
LINE
  8
0
  6
CONTINUOUS
 62
1
 10
620.5
 20
1503.2
 11
619.8
 21
1509.2
  0
ARC
  8
0
  6
CONTINUOUS
 62
1
 10
582.6
 20
1516.4
 40
2.0
 50
270.0
 51
6.3
  0
ARC
  8
0
  6
CONTINUOUS
 62
1
 10
680.5
 20
1503.4
 40
2.0
 50
270.0
 51
353.7
  0
ARC
  8
0
  6
CONTINUOUS
 62
1
 10
647.7
 20
1516.4
 40
2.0
 50
270.0
 51
353.7
  0
ARC
  8
0
  6
CONTINUOUS
 62
1
 10
669.6
 20
1522.4
 40
2.0
 50
6.3
 51
90.0
  0
LINE
  8
0
  6
CONTINUOUS
 62
1
 10
649.7
 20
1496.6
 11
650.3
 21
1490.6
  0
ARC
  8
0
  6
CONTINUOUS
 62
1
 10
626.4
 20
1496.4
 40
2.0
 50
353.7
 51
90.0
  0
ARC
  8
0
  6
CONTINUOUS
 62
1
 10
676.6
 20
1490.4
 40
2.0
 50
173.7
 51
270.0
  0
LINE
  8
0
  6
CONTINUOUS
 62
1
 10
828.4
 20
1529.4
 11
828.4
 21
1531.6
  0
LINE
  8
0
  6
CONTINUOUS
 62
1
 10
724.3
 20
1501.4
 11
710.1
 21
1501.4
  0
LINE
  8
0
  6
CONTINUOUS
 62
1
 10
562.1
 20
1496.6
 11
562.7
 21
1490.6
  0
LINE
  8
0
  6
CONTINUOUS
 62
1
 10
698.5
 20
1498.4
 11
714.0
 21
1498.4
  0
LINE
  8
0
  6
CONTINUOUS
 62
1
 10
685.5
 20
1503.6
 11
686.2
 21
1509.6
  0
LINE
  8
0
  6
CONTINUOUS
 62
1
 10
647.7
 20
1514.4
 11
633.5
 21
1514.4
  0
LINE
  8
0
  6
CONTINUOUS
 62
1
 10
688.2
 20
1511.4
 11
702.4
 21
1511.4
  0
LINE
  8
0
  6
CONTINUOUS
 62
1
 10
654.7
 20
1498.4
 11
670.2
 21
1498.4
  0
LINE
  8
0
  6
CONTINUOUS
 62
1
 10
628.4
 20
1496.2
 11
627.8
 21
1490.2
  0
LINE
  8
0
  6
CONTINUOUS
 62
1
 10
605.9
 20
1496.6
 11
606.5
 21
1490.6
  0
LINE
  8
0
  6
CONTINUOUS
 62
1
 10
621.8
 20
1511.4
 11
637.3
 21
1511.4
  0
ARC
  8
0
  6
CONTINUOUS
 62
1
 10
578.0
 20
1509.4
 40
2.0
 50
90.0
 51
186.3
  0
LINE
  8
0
  6
CONTINUOUS
 62
1
 10
639.3
 20
1509.2
 11
638.7
 21
1503.2
  0
LINE
  8
0
  6
CONTINUOUS
 62
1
 10
631.5
 20
1516.2
 11
630.8
 21
1522.2
  0
LINE
  8
0
  6
CONTINUOUS
 62
1
 10
589.7
 20
1498.4
 11
603.9
 21
1498.4
  0
ARC
  8
0
  6
CONTINUOUS
 62
1
 10
604.5
 20
1522.4
 40
2.0
 50
353.7
 51
90.0
  0
LINE
  8
0
  6
CONTINUOUS
 62
1
 10
716.0
 20
1496.2
 11
715.4
 21
1490.2
  0
ARC
  8
0
  6
CONTINUOUS
 62
1
 10
714.0
 20
1516.4
 40
2.0
 50
270.0
 51
6.3
  0
LINE
  8
0
  6
CONTINUOUS
 62
1
 10
560.7
 20
1488.4
 11
545.2
 21
1488.4
  0
ARC
  8
0
  6
CONTINUOUS
 62
1
 10
545.2
 20
1490.4
 40
2.0
 50
173.7
 51
270.0
  0
ARC
  8
0
  6
CONTINUOUS
 62
1
 10
632.8
 20
1522.4
 40
2.0
 50
90.0
 51
186.3
  0
LINE
  8
0
  6
CONTINUOUS
 62
1
 10
595.5
 20
1509.2
 11
594.9
 21
1503.2
  0
ARC
  8
0
  6
CONTINUOUS
 62
1
 10
703.0
 20
1503.4
 40
2.0
 50
270.0
 51
6.3
  0
LINE
  8
0
  6
CONTINUOUS
 62
1
 10
699.2
 20
1524.4
 11
713.4
 21
1524.4
  0
ARC
  8
0
  6
CONTINUOUS
 62
1
 10
545.9
 20
1496.4
 40
2.0
 50
90.0
 51
173.7
  0
ARC
  8
0
  6
CONTINUOUS
 62
1
 10
567.1
 20
1496.4
 40
2.0
 50
90.0
 51
186.3
  0
ARC
  8
0
  6
CONTINUOUS
 62
1
 10
692.1
 20
1522.4
 40
2.0
 50
353.7
 51
90.0
  0
LINE
  8
0
  6
CONTINUOUS
 62
1
 10
431.8
 20
1529.4
 11
431.8
 21
1531.6
  0
ARC
  8
0
  6
CONTINUOUS
 62
1
 10
582.6
 20
1496.4
 40
2.0
 50
353.7
 51
90.0
  0
ARC
  8
0
  6
CONTINUOUS
 62
1
 10
560.1
 20
1516.4
 40
2.0
 50
270.0
 51
353.7
  0
LINE
  8
0
  6
CONTINUOUS
 62
1
 10
715.4
 20
1522.6
 11
716.0
 21
1516.6
  0
LINE
  8
0
  6
CONTINUOUS
 62
1
 10
691.5
 20
1514.4
 11
677.3
 21
1514.4
  0
ARC
  8
0
  6
CONTINUOUS
 62
1
 10
578.7
 20
1503.4
 40
2.0
 50
186.3
 51
270.0
  0
LINE
  8
0
  6
CONTINUOUS
 62
1
 10
582.0
 20
1488.4
 11
567.8
 21
1488.4
  0
ARC
  8
0
  6
CONTINUOUS
 62
1
 10
654.7
 20
1496.4
 40
2.0
 50
90.0
 51
186.3
  0
ARC
  8
0
  6
CONTINUOUS
 62
1
 10
534.2
 20
1509.4
 40
2.0
 50
90.0
 51
186.3
  0
ARC
  8
0
  6
CONTINUOUS
 62
1
 10
560.7
 20
1490.4
 40
2.0
 50
270.0
 51
6.3
  0
ARC
  8
0
  6
CONTINUOUS
 62
1
 10
633.5
 20
1516.4
 40
2.0
 50
186.3
 51
270.0
  0
ARC
  8
0
  6
CONTINUOUS
 62
1
 10
599.9
 20
1503.4
 40
2.0
 50
173.7
 51
270.0
  0
LINE
  8
0
  6
CONTINUOUS
 62
1
 10
545.9
 20
1498.4
 11
560.1
 21
1498.4
  0
LINE
  8
0
  6
CONTINUOUS
 62
1
 10
431.8
 20
1530.4
 11
430.8
 21
1530.4
  0
LINE
  8
0
  6
CONTINUOUS
 62
1
 10
576.7
 20
1503.2
 11
576.0
 21
1509.2
  0
ARC
  8
0
  6
CONTINUOUS
 62
1
 10
582.0
 20
1522.4
 40
2.0
 50
6.3
 51
90.0
  0
ARC
  8
0
  6
CONTINUOUS
 62
1
 10
567.8
 20
1490.4
 40
2.0
 50
186.3
 51
270.0
  0
ARC
  8
0
  6
CONTINUOUS
 62
1
 10
549.7
 20
1509.4
 40
2.0
 50
353.7
 51
90.0
  0
LINE
  8
0
  6
CONTINUOUS
 62
1
 10
713.4
 20
1488.4
 11
699.2
 21
1488.4
  0
LINE
  8
0
  6
CONTINUOUS
 62
1
 10
430.7
 20
1531.6
 11
829.6
 21
1531.6
  0
LINE
  8
0
  6
CONTINUOUS
 62
1
 10
669.6
 20
1488.4
 11
655.4
 21
1488.4
  0
LINE
  8
0
  6
CONTINUOUS
 62
1
 10
429.6
 20
1477.3
 11
430.8
 21
1477.3
  0
LINE
  8
0
  6
CONTINUOUS
 62
1
 10
636.7
 20
1501.4
 11
622.5
 21
1501.4
  0
ARC
  8
0
  6
CONTINUOUS
 62
1
 10
611.6
 20
1522.4
 40
2.0
 50
90.0
 51
173.7
  0
ARC
  8
0
  6
CONTINUOUS
 62
1
 10
571.0
 20
1509.4
 40
2.0
 50
6.3
 51
90.0
  0
ARC
  8
0
  6
CONTINUOUS
 62
1
 10
702.4
 20
1509.4
 40
2.0
 50
6.3
 51
90.0
  0
LINE
  8
0
  6
CONTINUOUS
 62
1
 10
626.4
 20
1514.4
 11
610.9
 21
1514.4
  0
LINE
  8
0
  6
CONTINUOUS
 62
1
 10
650.3
 20
1522.2
 11
649.7
 21
1516.2
  0
ARC
  8
0
  6
CONTINUOUS
 62
1
 10
633.5
 20
1496.4
 40
2.0
 50
90.0
 51
173.7
  0
ARC
  8
0
  6
CONTINUOUS
 62
1
 10
655.4
 20
1490.4
 40
2.0
 50
186.3
 51
270.0
  0
ARC
  8
0
  6
CONTINUOUS
 62
1
 10
637.3
 20
1509.4
 40
2.0
 50
353.7
 51
90.0
  0
ARC
  8
0
  6
CONTINUOUS
 62
1
 10
827.4
 20
1529.4
 40
2.2
 50
89.9
 51
90.0
  0
ARC
  8
0
  6
CONTINUOUS
 62
1
 10
534.9
 20
1503.4
 40
2.0
 50
186.3
 51
270.0
  0
LINE
  8
0
  6
CONTINUOUS
 62
1
 10
615.4
 20
1501.4
 11
599.9
 21
1501.4
  0
LINE
  8
0
  6
CONTINUOUS
 62
1
 10
726.9
 20
1509.2
 11
726.3
 21
1503.2
  0
ARC
  8
0
  6
CONTINUOUS
 62
1
 10
659.2
 20
1503.4
 40
2.0
 50
270.0
 51
6.3
  0
ARC
  8
0
  6
CONTINUOUS
 62
1
 10
691.5
 20
1496.4
 40
2.0
 50
6.3
 51
90.0
  0
ARC
  8
0
  6
CONTINUOUS
 62
1
 10
625.8
 20
1490.4
 40
2.0
 50
270.0
 51
353.7
  0
ARC
  8
0
  6
CONTINUOUS
 62
1
 10
589.0
 20
1522.4
 40
2.0
 50
90.0
 51
186.3
  0
ARC
  8
0
  6
CONTINUOUS
 62
1
 10
556.1
 20
1503.4
 40
2.0
 50
173.7
 51
270.0
  0
ARC
  8
0
  6
CONTINUOUS
 62
1
 10
632.8
 20
1490.4
 40
2.0
 50
173.7
 51
270.0
  0
ARC
  8
0
  6
CONTINUOUS
 62
1
 10
560.1
 20
1496.4
 40
2.0
 50
6.3
 51
90.0
  0
LINE
  8
0
  6
CONTINUOUS
 62
1
 10
611.6
 20
1524.4
 11
625.8
 21
1524.4
  0
ARC
  8
0
  6
CONTINUOUS
 62
1
 10
589.7
 20
1496.4
 40
2.0
 50
90.0
 51
173.7
  0
LINE
  8
0
  6
CONTINUOUS
 62
1
 10
430.8
 20
1477.3
 11
430.8
 21
1477.5
  0
LINE
  8
0
  6
CONTINUOUS
 62
1
 10
571.6
 20
1501.4
 11
556.1
 21
1501.4
  0
LINE
  8
0
  6
CONTINUOUS
 62
1
 10
567.8
 20
1524.4
 11
582.0
 21
1524.4
  0
ARC
  8
0
  6
CONTINUOUS
 62
1
 10
714.0
 20
1496.4
 40
2.0
 50
353.7
 51
90.0
  0
ARC
  8
0
  6
CONTINUOUS
 62
1
 10
610.9
 20
1516.4
 40
2.0
 50
173.7
 51
270.0
  0
LINE
  8
0
  6
CONTINUOUS
 62
1
 10
608.9
 20
1516.6
 11
609.6
 21
1522.6
  0
LINE
  8
0
  6
CONTINUOUS
 62
1
 10
671.6
 20
1522.6
 11
672.2
 21
1516.6
  0
LINE
  8
0
  6
CONTINUOUS
 62
1
 10
589.0
 20
1524.4
 11
604.5
 21
1524.4
  0
ARC
  8
0
  6
CONTINUOUS
 62
1
 10
670.2
 20
1516.4
 40
2.0
 50
270.0
 51
6.3
  0
LINE
  8
0
  6
CONTINUOUS
 62
1
 10
675.3
 20
1516.2
 11
674.6
 21
1522.2
  0
LINE
  8
0
  6
CONTINUOUS
 62
1
 10
609.6
 20
1490.2
 11
608.9
 21
1496.2
  0
ARC
  8
0
  6
CONTINUOUS
 62
1
 10
603.9
 20
1516.4
 40
2.0
 50
270.0
 51
353.7
  0
LINE
  8
0
  6
CONTINUOUS
 62
1
 10
430.8
 20
1529.4
 11
430.8
 21
1530.4
  0
ARC
  8
0
  6
CONTINUOUS
 62
1
 10
644.4
 20
1509.4
 40
2.0
 50
90.0
 51
173.7
  0
LINE
  8
0
  6
CONTINUOUS
 62
1
 10
534.2
 20
1511.4
 11
549.7
 21
1511.4
  0
ARC
  8
0
  6
CONTINUOUS
 62
1
 10
567.1
 20
1516.4
 40
2.0
 50
173.7
 51
270.0
  0
LINE
  8
0
  6
CONTINUOUS
 62
1
 10
697.2
 20
1490.2
 11
696.5
 21
1496.2
  0
LINE
  8
0
  6
CONTINUOUS
 62
1
 10
597.9
 20
1503.6
 11
598.6
 21
1509.6
  0
ARC
  8
0
  6
CONTINUOUS
 62
1
 10
655.4
 20
1522.4
 40
2.0
 50
90.0
 51
173.7
  0
ARC
  8
0
  6
CONTINUOUS
 62
1
 10
589.7
 20
1516.4
 40
2.0
 50
186.3
 51
270.0
  0
LINE
  8
0
  6
CONTINUOUS
 62
1
 10
573.0
 20
1509.6
 11
573.6
 21
1503.6
  0
LINE
  8
0
  6
CONTINUOUS
 62
1
 10
693.5
 20
1496.6
 11
694.1
 21
1490.6
  0
LINE
  8
0
  6
CONTINUOUS
 62
1
 10
578.0
 20
1511.4
 11
593.5
 21
1511.4
  0
ARC
  8
0
  6
CONTINUOUS
 62
1
 10
691.5
 20
1516.4
 40
2.0
 50
270.0
 51
353.7
  0
ARC
  8
0
  6
CONTINUOUS
 62
1
 10
549.1
 20
1503.4
 40
2.0
 50
270.0
 51
353.7
  0
ARC
  8
0
  6
CONTINUOUS
 62
1
 10
713.4
 20
1522.4
 40
2.0
 50
6.3
 51
90.0
  0
ARC
  8
0
  6
CONTINUOUS
 62
1
 10
670.2
 20
1496.4
 40
2.0
 50
353.7
 51
90.0
  0
LINE
  8
0
  6
CONTINUOUS
 62
1
 10
703.0
 20
1501.4
 11
687.5
 21
1501.4
  0
LINE
  8
0
  6
CONTINUOUS
 62
1
 10
692.1
 20
1488.4
 11
676.6
 21
1488.4
  0
ARC
  8
0
  6
CONTINUOUS
 62
1
 10
582.0
 20
1490.4
 40
2.0
 50
270.0
 51
353.7
  0
LINE
  8
0
  6
CONTINUOUS
 62
1
 10
556.8
 20
1511.4
 11
571.0
 21
1511.4
  0
LINE
  8
0
  6
CONTINUOUS
 62
1
 10
604.5
 20
1488.4
 11
589.0
 21
1488.4
  0
ARC
  8
0
  6
CONTINUOUS
 62
1
 10
614.8
 20
1509.4
 40
2.0
 50
6.3
 51
90.0
  0
LINE
  8
0
  6
CONTINUOUS
 62
1
 10
665.6
 20
1511.4
 11
681.1
 21
1511.4
  0
ARC
  8
0
  6
CONTINUOUS
 62
1
 10
698.5
 20
1496.4
 40
2.0
 50
90.0
 51
186.3
  0
LINE
  8
0
  6
CONTINUOUS
 62
1
 10
704.4
 20
1509.6
 11
705.0
 21
1503.6
  0
ARC
  8
0
  6
CONTINUOUS
 62
1
 10
621.8
 20
1509.4
 40
2.0
 50
90.0
 51
186.3
  0
LINE
  8
0
  6
CONTINUOUS
 62
1
 10
565.1
 20
1516.6
 11
565.8
 21
1522.6
  0
LINE
  8
0
  6
CONTINUOUS
 62
1
 10
641.7
 20
1503.6
 11
642.4
 21
1509.6
  0
ARC
  8
0
  6
CONTINUOUS
 62
1
 10
698.5
 20
1516.4
 40
2.0
 50
173.7
 51
270.0
  0
LINE
  8
0
  6
CONTINUOUS
 62
1
 10
545.2
 20
1524.4
 11
560.7
 21
1524.4
  0
ARC
  8
0
  6
CONTINUOUS
 62
1
 10
687.5
 20
1503.4
 40
2.0
 50
173.7
 51
270.0
  0
ARC
  8
0
  6
CONTINUOUS
 62
1
 10
604.5
 20
1490.4
 40
2.0
 50
270.0
 51
6.3
  0
LINE
  8
0
  6
CONTINUOUS
 62
1
 10
653.4
 20
1490.2
 11
652.7
 21
1496.2
  0
ARC
  8
0
  6
CONTINUOUS
 62
1
 10
709.4
 20
1509.4
 40
2.0
 50
90.0
 51
186.3
  0
LINE
  8
0
  6
CONTINUOUS
 62
1
 10
532.9
 20
1503.2
 11
532.2
 21
1509.2
  0
ARC
  8
0
  6
CONTINUOUS
 62
1
 10
692.1
 20
1490.4
 40
2.0
 50
270.0
 51
6.3
  0
LINE
  8
0
  6
CONTINUOUS
 62
1
 10
630.8
 20
1490.6
 11
631.5
 21
1496.6
  0
LINE
  8
0
  6
CONTINUOUS
 62
1
 10
829.6
 20
1530.4
 11
828.4
 21
1530.4
  0
LINE
  8
0
  6
CONTINUOUS
 62
1
 10
606.5
 20
1522.2
 11
605.9
 21
1516.2
  0
LINE
  8
0
  6
CONTINUOUS
 62
1
 10
551.7
 20
1509.2
 11
551.1
 21
1503.2
  0
LINE
  8
0
  6
CONTINUOUS
 62
1
 10
587.0
 20
1490.6
 11
587.7
 21
1496.6
  0
LINE
  8
0
  6
CONTINUOUS
 62
1
 10
827.4
 20
1529.4
 11
431.8
 21
1529.4
  0
LINE
  8
0
  6
CONTINUOUS
 62
1
 10
603.9
 20
1514.4
 11
589.7
 21
1514.4
  0
ARC
  8
0
  6
CONTINUOUS
 62
1
 10
593.5
 20
1509.4
 40
2.0
 50
353.7
 51
90.0
  0
LINE
  8
0
  6
CONTINUOUS
 62
1
 10
664.3
 20
1503.2
 11
663.6
 21
1509.2
  0
ARC
  8
0
  6
CONTINUOUS
 62
1
 10
699.2
 20
1490.4
 40
2.0
 50
186.3
 51
270.0
  0
ARC
  8
0
  6
CONTINUOUS
 62
1
 10
636.7
 20
1503.4
 40
2.0
 50
270.0
 51
353.7
  0
ARC
  8
0
  6
CONTINUOUS
 62
1
 10
622.5
 20
1503.4
 40
2.0
 50
186.3
 51
270.0
  0
ARC
  8
0
  6
CONTINUOUS
 62
1
 10
677.3
 20
1496.4
 40
2.0
 50
90.0
 51
173.7
  0
LINE
  8
0
  6
CONTINUOUS
 62
1
 10
549.1
 20
1501.4
 11
534.9
 21
1501.4
  0
LINE
  8
0
  6
CONTINUOUS
 62
1
 10
683.1
 20
1509.2
 11
682.5
 21
1503.2
  0
LINE
  8
0
  6
CONTINUOUS
 62
1
 10
587.7
 20
1516.2
 11
587.0
 21
1522.2
  0
LINE
  8
0
  6
CONTINUOUS
 62
1
 10
694.1
 20
1522.2
 11
693.5
 21
1516.2
  0
ARC
  8
0
  6
CONTINUOUS
 62
1
 10
665.6
 20
1509.4
 40
2.0
 50
90.0
 51
186.3
  0
ARC
  8
0
  6
CONTINUOUS
 62
1
 10
710.1
 20
1503.4
 40
2.0
 50
186.3
 51
270.0
  0
LINE
  8
0
  6
CONTINUOUS
 62
1
 10
677.3
 20
1498.4
 11
691.5
 21
1498.4
  0
LINE
  8
0
  6
CONTINUOUS
 62
1
 10
672.2
 20
1496.2
 11
671.6
 21
1490.2
  0
ARC
  8
0
  6
CONTINUOUS
 62
1
 10
545.2
 20
1522.4
 40
2.0
 50
90.0
 51
186.3
  0
LINE
  8
0
  6
CONTINUOUS
 62
1
 10
610.9
 20
1498.4
 11
626.4
 21
1498.4
  0
ARC
  8
0
  6
CONTINUOUS
 62
1
 10
567.8
 20
1522.4
 40
2.0
 50
90.0
 51
173.7
  0
LINE
  8
0
  6
CONTINUOUS
 62
1
 10
592.9
 20
1501.4
 11
578.7
 21
1501.4
  0
LINE
  8
0
  6
CONTINUOUS
 62
1
 10
543.9
 20
1516.2
 11
543.2
 21
1522.2
  0
ARC
  8
0
  6
CONTINUOUS
 62
1
 10
724.9
 20
1509.4
 40
2.0
 50
353.7
 51
90.0
  0
LINE
  8
0
  6
CONTINUOUS
 62
1
 10
562.7
 20
1522.2
 11
562.1
 21
1516.2
  0
ARC
  8
0
  6
CONTINUOUS
 62
1
 10
681.1
 20
1509.4
 40
2.0
 50
353.7
 51
90.0
  0
ARC
  8
0
  6
CONTINUOUS
 62
1
 10
713.4
 20
1490.4
 40
2.0
 50
270.0
 51
353.7
  0
LINE
  8
0
  6
CONTINUOUS
 62
1
 10
584.6
 20
1496.2
 11
584.0
 21
1490.2
  0
LINE
  8
0
  6
CONTINUOUS
 62
1
 10
648.3
 20
1488.4
 11
632.8
 21
1488.4
  0
ARC
  8
0
  6
CONTINUOUS
 62
1
 10
648.3
 20
1522.4
 40
2.0
 50
353.7
 51
90.0
  0
LINE
  8
0
  6
CONTINUOUS
 62
1
 10
696.5
 20
1516.6
 11
697.2
 21
1522.6
  0
ARC
  8
0
  6
CONTINUOUS
 62
1
 10
688.2
 20
1509.4
 40
2.0
 50
90.0
 51
173.7
  0
LINE
  8
0
  6
CONTINUOUS
 62
1
 10
805.5
 20
1531.6
 11
805.5
 21
1532.1
  0
LINE
  8
0
  6
CONTINUOUS
 62
1
 10
813.6
 20
1531.6
 11
813.6
 21
1532.1
  0
LINE
  8
0
  6
CONTINUOUS
 62
1
 10
775.5
 20
1531.6
 11
775.5
 21
1532.1
  0
LINE
  8
0
  6
CONTINUOUS
 62
1
 10
783.6
 20
1531.6
 11
783.6
 21
1532.1
  0
LINE
  8
0
  6
CONTINUOUS
 62
1
 10
626.0
 20
1524.0
 11
626.9
 21
1524.0
  0
LINE
  8
0
  6
CONTINUOUS
 62
1
 10
631.6
 20
1524.0
 11
633.1
 21
1524.0
  0
LINE
  8
0
  6
CONTINUOUS
 62
1
 10
626.1
 20
1523.9
 11
627.1
 21
1523.9
  0
LINE
  8
0
  6
CONTINUOUS
 62
1
 10
631.5
 20
1523.9
 11
633.0
 21
1523.9
  0
LINE
  8
0
  6
CONTINUOUS
 62
1
 10
625.5
 20
1531.6
 11
625.5
 21
1532.1
  0
LINE
  8
0
  6
CONTINUOUS
 62
1
 10
633.6
 20
1531.6
 11
633.6
 21
1532.1
  0
ARC
  8
0
  6
CONTINUOUS
 62
1
 10
633.0
 20
1524.0
 40
0.1
 50
270.0
 51
359.5
  0
ARC
  8
0
  6
CONTINUOUS
 62
1
 10
626.1
 20
1524.0
 40
0.1
 50
180.5
 51
270.0
  0
LINE
  8
0
  6
CONTINUOUS
 62
1
 10
626.0
 20
1524.0
 11
626.0
 21
1524.4
  0
LINE
  8
0
  6
CONTINUOUS
 62
1
 10
633.1
 20
1524.0
 11
633.1
 21
1524.4
  0
LINE
  8
0
  6
CONTINUOUS
 62
1
 10
475.5
 20
1531.6
 11
475.5
 21
1532.1
  0
LINE
  8
0
  6
CONTINUOUS
 62
1
 10
483.6
 20
1531.6
 11
483.6
 21
1532.1
  0
LINE
  8
0
  6
CONTINUOUS
 62
1
 10
445.5
 20
1532.0
 11
453.6
 21
1532.0
  0
LINE
  8
0
  6
CONTINUOUS
 62
1
 10
445.5
 20
1531.6
 11
445.5
 21
1532.0
  0
LINE
  8
0
  6
CONTINUOUS
 62
1
 10
453.6
 20
1531.6
 11
453.6
 21
1532.0
  0
LINE
  8
0
  6
CONTINUOUS
 62
1
 10
433.5
 20
1532.1
 11
825.5
 21
1532.1
  0
LINE
  8
0
  6
CONTINUOUS
 62
1
 10
433.5
 20
1533.3
 11
433.5
 21
1532.1
  0
LINE
  8
0
  6
CONTINUOUS
 62
1
 10
825.5
 20
1533.3
 11
433.5
 21
1533.3
  0
LINE
  8
0
  6
CONTINUOUS
 62
1
 10
825.5
 20
1533.3
 11
825.5
 21
1532.1
  0
LINE
  8
0
  6
CONTINUOUS
 62
1
 10
820.5
 20
1533.3
 11
820.5
 21
1532.1
  0
LINE
  8
0
  6
CONTINUOUS
 62
1
 10
438.5
 20
1533.3
 11
438.5
 21
1532.1
  0
LINE
  8
0
  6
CONTINUOUS
 62
1
 10
827.6
 20
1449.6
 11
827.6
 21
1479.5
  0
LINE
  8
0
  6
CONTINUOUS
 62
1
 10
480.1
 20
1426.4
 11
480.1
 21
1425.0
  0
LINE
  8
0
  6
CONTINUOUS
 62
1
 10
792.8
 20
1436.4
 11
800.5
 21
1442.1
  0
LINE
  8
0
  6
CONTINUOUS
 62
1
 10
766.9
 20
1424.7
 11
485.1
 21
1424.7
  0
LINE
  8
0
  6
CONTINUOUS
 62
1
 10
458.6
 20
1442.1
 11
479.6
 21
1426.4
  0
LINE
  8
0
  6
CONTINUOUS
 62
1
 10
479.6
 20
1426.4
 11
480.1
 21
1426.4
  0
LINE
  8
0
  6
CONTINUOUS
 62
1
 10
480.1
 20
1426.4
 11
767.4
 21
1426.4
  0
LINE
  8
0
  6
CONTINUOUS
 62
1
 10
771.6
 20
1426.4
 11
772.6
 21
1426.4
  0
LINE
  8
0
  6
CONTINUOUS
 62
1
 10
810.5
 20
1445.8
 11
822.6
 21
1445.8
  0
LINE
  8
0
  6
CONTINUOUS
 62
1
 10
431.6
 20
1479.5
 11
431.6
 21
1449.6
  0
LINE
  8
0
  6
CONTINUOUS
 62
1
 10
436.6
 20
1445.8
 11
448.6
 21
1445.8
  0
LINE
  8
0
  6
CONTINUOUS
 62
1
 10
772.3
 20
1425.5
 11
772.0
 21
1425.5
  0
LINE
  8
0
  6
CONTINUOUS
 62
1
 10
767.1
 20
1425.5
 11
480.1
 21
1425.5
  0
LINE
  8
0
  6
CONTINUOUS
 62
1
 10
764.6
 20
1433.5
 11
494.6
 21
1433.5
  0
LINE
  8
0
  6
CONTINUOUS
 62
1
 10
772.2
 20
1458.0
 11
649.9
 21
1458.0
  0
LINE
  8
0
  6
CONTINUOUS
 62
1
 10
609.2
 20
1458.0
 11
486.9
 21
1458.0
  0
LINE
  8
0
  6
CONTINUOUS
 62
1
 10
649.9
 20
1445.5
 11
649.9
 21
1445.9
  0
LINE
  8
0
  6
CONTINUOUS
 62
1
 10
436.6
 20
1478.7
 11
781.4
 21
1478.7
  0
LINE
  8
0
  6
CONTINUOUS
 62
1
 10
804.2
 20
1478.7
 11
822.6
 21
1478.7
  0
LINE
  8
0
  6
CONTINUOUS
 62
1
 10
471.6
 20
1437.2
 11
434.8
 21
1451.0
  0
LINE
  8
0
  6
CONTINUOUS
 62
1
 10
609.2
 20
1445.9
 11
486.9
 21
1445.9
  0
LINE
  8
0
  6
CONTINUOUS
 62
1
 10
769.3
 20
1433.6
 11
767.4
 21
1433.5
  0
LINE
  8
0
  6
CONTINUOUS
 62
1
 10
769.5
 20
1434.4
 11
471.6
 21
1434.4
  0
LINE
  8
0
  6
CONTINUOUS
 62
1
 10
431.6
 20
1468.4
 11
778.6
 21
1468.4
  0
LINE
  8
0
  6
CONTINUOUS
 62
1
 10
801.4
 20
1468.4
 11
827.6
 21
1468.4
  0
LINE
  8
0
  6
CONTINUOUS
 62
1
 10
436.6
 20
1480.7
 11
436.6
 21
1478.7
  0
LINE
  8
0
  6
CONTINUOUS
 62
1
 10
824.4
 20
1451.0
 11
793.7
 21
1439.5
  0
LINE
  8
0
  6
CONTINUOUS
 62
1
 10
827.6
 20
1467.2
 11
801.1
 21
1467.2
  0
LINE
  8
0
  6
CONTINUOUS
 62
1
 10
778.3
 20
1467.2
 11
431.6
 21
1467.2
  0
LINE
  8
0
  6
CONTINUOUS
 62
1
 10
486.9
 20
1445.5
 11
486.9
 21
1445.9
  0
LINE
  8
0
  6
CONTINUOUS
 62
1
 10
827.6
 20
1471.2
 11
802.2
 21
1471.2
  0
LINE
  8
0
  6
CONTINUOUS
 62
1
 10
779.4
 20
1471.2
 11
431.6
 21
1471.2
  0
LINE
  8
0
  6
CONTINUOUS
 62
1
 10
491.7
 20
1433.5
 11
473.7
 21
1434.2
  0
LINE
  8
0
  6
CONTINUOUS
 62
1
 10
772.2
 20
1445.5
 11
772.2
 21
1445.9
  0
LINE
  8
0
  6
CONTINUOUS
 62
1
 10
649.9
 20
1445.5
 11
772.2
 21
1445.5
  0
LINE
  8
0
  6
CONTINUOUS
 62
1
 10
486.9
 20
1445.5
 11
609.2
 21
1445.5
  0
LINE
  8
0
  6
CONTINUOUS
 62
1
 10
609.2
 20
1445.5
 11
609.2
 21
1445.9
  0
LINE
  8
0
  6
CONTINUOUS
 62
1
 10
822.6
 20
1480.7
 11
822.6
 21
1478.7
  0
LINE
  8
0
  6
CONTINUOUS
 62
1
 10
772.2
 20
1445.9
 11
649.9
 21
1445.9
  0
LINE
  8
0
  6
CONTINUOUS
 62
1
 10
471.6
 20
1437.2
 11
770.3
 21
1437.2
  0
LINE
  8
0
  6
CONTINUOUS
 62
1
 10
436.6
 20
1480.7
 11
781.9
 21
1480.7
  0
LINE
  8
0
  6
CONTINUOUS
 62
1
 10
804.7
 20
1480.7
 11
822.6
 21
1480.7
  0
LINE
  8
0
  6
CONTINUOUS
 62
1
 10
431.6
 20
1471.3
 11
779.4
 21
1471.3
  0
LINE
  8
0
  6
CONTINUOUS
 62
1
 10
802.2
 20
1471.3
 11
827.6
 21
1471.3
  0
ARC
  8
0
  6
CONTINUOUS
 62
1
 10
747.6
 20
802.2
 40
10.0
 50
180.0
 51
270.0
  0
LINE
  8
0
  6
CONTINUOUS
 62
1
 10
456.3
 20
1400.7
 11
442.6
 21
1400.7
  0
LINE
  8
0
  6
CONTINUOUS
 62
1
 10
511.6
 20
792.2
 11
490.9
 21
792.2
  0
LINE
  8
0
  6
CONTINUOUS
 62
1
 10
521.6
 20
955.2
 11
521.6
 21
802.2
  0
ARC
  8
0
  6
CONTINUOUS
 62
1
 10
727.6
 20
955.2
 40
10.0
 50
0.0
 51
90.0
  0
LINE
  8
0
  6
CONTINUOUS
 62
1
 10
803.5
 20
1400.7
 11
803.5
 21
828.2
  0
ARC
  8
0
  6
CONTINUOUS
 62
1
 10
768.2
 20
827.2
 40
35.0
 50
270.0
 51
0.0
  0
LINE
  8
0
  6
CONTINUOUS
 62
1
 10
809.0
 20
1400.7
 11
809.0
 21
827.2
  0
LINE
  8
0
  6
CONTINUOUS
 62
1
 10
802.8
 20
828.2
 11
803.5
 21
828.2
  0
LINE
  8
0
  6
CONTINUOUS
 62
1
 10
451.4
 20
1400.7
 11
451.4
 21
827.2
  0
LINE
  8
0
  6
CONTINUOUS
 62
1
 10
803.2
 20
827.2
 11
802.8
 21
827.2
  0
LINE
  8
0
  6
CONTINUOUS
 62
1
 10
456.3
 20
1401.6
 11
456.3
 21
1400.7
  0
LINE
  8
0
  6
CONTINUOUS
 62
1
 10
450.1
 20
827.2
 11
450.1
 21
1400.7
  0
ARC
  8
0
  6
CONTINUOUS
 62
1
 10
442.6
 20
1395.7
 40
5.0
 50
90.0
 51
180.0
  0
LINE
  8
0
  6
CONTINUOUS
 62
1
 10
456.3
 20
828.2
 11
456.3
 21
1400.7
  0
ARC
  8
0
  6
CONTINUOUS
 62
1
 10
531.6
 20
955.2
 40
10.0
 50
90.0
 51
180.0
  0
LINE
  8
0
  6
CONTINUOUS
 62
1
 10
802.8
 20
827.2
 11
802.8
 21
828.2
  0
LINE
  8
0
  6
CONTINUOUS
 62
1
 10
768.2
 20
792.2
 11
747.6
 21
792.2
  0
LINE
  8
0
  6
CONTINUOUS
 62
1
 10
737.6
 20
802.2
 11
737.6
 21
955.2
  0
LINE
  8
0
  6
CONTINUOUS
 62
1
 10
802.8
 20
1400.7
 11
802.8
 21
1401.6
  0
LINE
  8
0
  6
CONTINUOUS
 62
1
 10
456.3
 20
827.2
 11
456.3
 21
828.2
  0
LINE
  8
0
  6
CONTINUOUS
 62
1
 10
455.6
 20
827.2
 11
455.6
 21
828.2
  0
LINE
  8
0
  6
CONTINUOUS
 62
1
 10
803.5
 20
828.2
 11
803.5
 21
827.2
  0
LINE
  8
0
  6
CONTINUOUS
 62
1
 10
807.7
 20
827.2
 11
807.7
 21
1400.7
  0
LINE
  8
0
  6
CONTINUOUS
 62
1
 10
727.6
 20
965.2
 11
531.6
 21
965.2
  0
LINE
  8
0
  6
CONTINUOUS
 62
1
 10
802.8
 20
828.2
 11
802.8
 21
1400.7
  0
ARC
  8
0
  6
CONTINUOUS
 62
1
 10
511.6
 20
802.2
 40
10.0
 50
270.0
 51
0.0
  0
ARC
  8
0
  6
CONTINUOUS
 62
1
 10
442.6
 20
832.2
 40
5.0
 50
180.0
 51
270.0
  0
LINE
  8
0
  6
CONTINUOUS
 62
1
 10
456.3
 20
828.2
 11
455.6
 21
828.2
  0
ARC
  8
0
  6
CONTINUOUS
 62
1
 10
816.6
 20
1395.7
 40
5.0
 50
0.0
 51
90.0
  0
LINE
  8
0
  6
CONTINUOUS
 62
1
 10
802.8
 20
1400.7
 11
456.3
 21
1400.7
  0
LINE
  8
0
  6
CONTINUOUS
 62
1
 10
821.6
 20
1395.7
 11
821.6
 21
832.2
  0
LINE
  8
0
  6
CONTINUOUS
 62
1
 10
437.6
 20
832.2
 11
437.6
 21
1395.7
  0
ARC
  8
0
  6
CONTINUOUS
 62
1
 10
490.9
 20
827.2
 40
35.0
 50
180.0
 51
270.0
  0
LINE
  8
0
  6
CONTINUOUS
 62
1
 10
456.3
 20
827.2
 11
455.9
 21
827.2
  0
LINE
  8
0
  6
CONTINUOUS
 62
1
 10
455.6
 20
828.2
 11
455.6
 21
1400.7
  0
ARC
  8
0
  6
CONTINUOUS
 62
1
 10
816.6
 20
832.2
 40
5.0
 50
270.0
 51
0.0
  0
LINE
  8
0
  6
CONTINUOUS
 62
1
 10
802.8
 20
1401.6
 11
783.8
 21
1401.6
  0
LINE
  8
0
  6
CONTINUOUS
 62
1
 10
778.3
 20
1401.6
 11
456.3
 21
1401.6
  0
LINE
  8
0
  6
CONTINUOUS
 62
1
 10
644.6
 20
1007.0
 11
644.6
 21
1139.8
  0
LINE
  8
0
  6
CONTINUOUS
 62
1
 10
619.6
 20
1018.2
 11
639.6
 21
1018.2
  0
LINE
  8
0
  6
CONTINUOUS
 62
1
 10
619.6
 20
1001.9
 11
639.6
 21
1001.9
  0
LINE
  8
0
  6
CONTINUOUS
 62
1
 10
619.6
 20
1123.7
 11
639.6
 21
1123.7
  0
LINE
  8
0
  6
CONTINUOUS
 62
1
 10
619.6
 20
1144.9
 11
639.6
 21
1144.9
  0
LINE
  8
0
  6
CONTINUOUS
 62
1
 10
644.6
 20
1124.1
 11
644.6
 21
1124.1
  0
LINE
  8
0
  6
CONTINUOUS
 62
1
 10
644.6
 20
1124.1
 11
644.2
 21
1124.0
  0
LINE
  8
0
  6
CONTINUOUS
 62
1
 10
644.2
 20
1124.0
 11
643.1
 21
1123.8
  0
LINE
  8
0
  6
CONTINUOUS
 62
1
 10
643.1
 20
1123.8
 11
641.5
 21
1123.8
  0
LINE
  8
0
  6
CONTINUOUS
 62
1
 10
641.5
 20
1123.8
 11
639.6
 21
1123.7
  0
LINE
  8
0
  6
CONTINUOUS
 62
1
 10
619.6
 20
1131.2
 11
639.6
 21
1131.2
  0
LINE
  8
0
  6
CONTINUOUS
 62
1
 10
619.6
 20
1131.2
 11
617.7
 21
1130.8
  0
LINE
  8
0
  6
CONTINUOUS
 62
1
 10
617.7
 20
1130.8
 11
616.0
 21
1129.8
  0
LINE
  8
0
  6
CONTINUOUS
 62
1
 10
616.0
 20
1129.8
 11
615.0
 21
1128.2
  0
LINE
  8
0
  6
CONTINUOUS
 62
1
 10
615.0
 20
1128.2
 11
614.7
 21
1127.3
  0
LINE
  8
0
  6
CONTINUOUS
 62
1
 10
614.7
 20
1127.3
 11
614.6
 21
1126.3
  0
LINE
  8
0
  6
CONTINUOUS
 62
1
 10
614.6
 20
1126.3
 11
614.6
 21
1126.3
  0
LINE
  8
0
  6
CONTINUOUS
 62
1
 10
644.6
 20
1126.3
 11
644.6
 21
1126.3
  0
LINE
  8
0
  6
CONTINUOUS
 62
1
 10
644.6
 20
1126.3
 11
644.5
 21
1127.3
  0
LINE
  8
0
  6
CONTINUOUS
 62
1
 10
644.5
 20
1127.3
 11
644.2
 21
1128.2
  0
LINE
  8
0
  6
CONTINUOUS
 62
1
 10
644.2
 20
1128.2
 11
643.1
 21
1129.8
  0
LINE
  8
0
  6
CONTINUOUS
 62
1
 10
643.1
 20
1129.8
 11
641.5
 21
1130.8
  0
LINE
  8
0
  6
CONTINUOUS
 62
1
 10
641.5
 20
1130.8
 11
639.6
 21
1131.2
  0
LINE
  8
0
  6
CONTINUOUS
 62
1
 10
614.6
 20
1124.1
 11
614.6
 21
1124.1
  0
LINE
  8
0
  6
CONTINUOUS
 62
1
 10
614.6
 20
1124.1
 11
615.0
 21
1124.0
  0
LINE
  8
0
  6
CONTINUOUS
 62
1
 10
615.0
 20
1124.0
 11
616.0
 21
1123.8
  0
LINE
  8
0
  6
CONTINUOUS
 62
1
 10
616.0
 20
1123.8
 11
617.7
 21
1123.8
  0
LINE
  8
0
  6
CONTINUOUS
 62
1
 10
617.7
 20
1123.8
 11
619.6
 21
1123.7
  0
LINE
  8
0
  6
CONTINUOUS
 62
1
 10
619.6
 20
1012.8
 11
639.6
 21
1012.8
  0
LINE
  8
0
  6
CONTINUOUS
 62
1
 10
829.1
 20
752.7
 11
829.0
 21
752.7
  0
LINE
  8
0
  6
CONTINUOUS
 62
1
 10
430.1
 20
752.7
 11
430.1
 21
752.7
  0
LINE
  8
0
  6
CONTINUOUS
 62
1
 10
828.3
 20
751.6
 11
828.1
 21
751.6
  0
LINE
  8
0
  6
CONTINUOUS
 62
1
 10
828.9
 20
752.4
 11
829.1
 21
752.4
  0
LINE
  8
0
  6
CONTINUOUS
 62
1
 10
431.7
 20
751.5
 11
431.7
 21
751.5
  0
LINE
  8
0
  6
CONTINUOUS
 62
1
 10
431.7
 20
763.2
 11
431.7
 21
762.7
  0
LINE
  8
0
  6
CONTINUOUS
 62
1
 10
431.7
 20
751.9
 11
431.7
 21
751.5
  0
LINE
  8
0
  6
CONTINUOUS
 62
1
 10
430.1
 20
753.0
 11
430.1
 21
752.4
  0
LINE
  8
0
  6
CONTINUOUS
 62
1
 10
827.5
 20
751.5
 11
827.5
 21
751.5
  0
LINE
  8
0
  6
CONTINUOUS
 62
1
 10
430.2
 20
752.4
 11
430.1
 21
752.4
  0
LINE
  8
0
  6
CONTINUOUS
 62
1
 10
828.3
 20
751.7
 11
828.3
 21
751.6
  0
LINE
  8
0
  6
CONTINUOUS
 62
1
 10
431.0
 20
751.6
 11
430.9
 21
751.6
  0
LINE
  8
0
  6
CONTINUOUS
 62
1
 10
431.7
 20
751.5
 11
536.2
 21
751.5
  0
LINE
  8
0
  6
CONTINUOUS
 62
1
 10
574.4
 20
751.5
 11
686.2
 21
751.5
  0
LINE
  8
0
  6
CONTINUOUS
 62
1
 10
724.4
 20
751.5
 11
827.5
 21
751.5
  0
LINE
  8
0
  6
CONTINUOUS
 62
1
 10
430.9
 20
751.6
 11
430.9
 21
751.7
  0
LINE
  8
0
  6
CONTINUOUS
 62
1
 10
430.1
 20
753.0
 11
430.1
 21
753.0
  0
LINE
  8
0
  6
CONTINUOUS
 62
1
 10
827.5
 20
751.5
 11
827.5
 21
751.9
  0
LINE
  8
0
  6
CONTINUOUS
 62
1
 10
827.5
 20
762.7
 11
827.5
 21
763.2
  0
LINE
  8
0
  6
CONTINUOUS
 62
1
 10
829.1
 20
753.0
 11
829.1
 21
753.0
  0
LINE
  8
0
  6
CONTINUOUS
 62
1
 10
431.7
 20
751.5
 11
536.2
 21
751.5
  0
LINE
  8
0
  6
CONTINUOUS
 62
1
 10
574.4
 20
751.5
 11
686.2
 21
751.5
  0
LINE
  8
0
  6
CONTINUOUS
 62
1
 10
724.4
 20
751.5
 11
827.5
 21
751.5
  0
POLYLINE
  8
0
  6
CONTINUOUS
 62
1
 66
1
 70
0
  0
VERTEX
  8
0
 10
734.4
 20
1560.1
 70
0
 42
0.0
  0
VERTEX
  8
0
 10
734.4
 20
1560.1
 70
0
 42
0.0
  0
VERTEX
  8
0
 10
734.4
 20
1560.1
 70
0
  0
SEQEND
  0
POLYLINE
  8
0
  6
CONTINUOUS
 62
1
 66
1
 70
0
  0
VERTEX
  8
0
 10
734.4
 20
1560.1
 70
0
 42
0.0
  0
VERTEX
  8
0
 10
734.4
 20
1560.1
 70
0
 42
0.0
  0
VERTEX
  8
0
 10
732.0
 20
1560.0
 70
0
 42
0.0
  0
VERTEX
  8
0
 10
732.0
 20
1560.0
 70
0
 42
0.0
  0
VERTEX
  8
0
 10
727.2
 20
1560.0
 70
0
 42
0.0
  0
VERTEX
  8
0
 10
727.2
 20
1560.0
 70
0
 42
0.0
  0
VERTEX
  8
0
 10
724.8
 20
1560.2
 70
0
  0
SEQEND
  0
POLYLINE
  8
0
  6
CONTINUOUS
 62
1
 66
1
 70
0
  0
VERTEX
  8
0
 10
724.8
 20
1560.2
 70
0
 42
0.0
  0
VERTEX
  8
0
 10
724.8
 20
1560.2
 70
0
 42
0.0
  0
VERTEX
  8
0
 10
724.8
 20
1560.2
 70
0
  0
SEQEND
  0
POLYLINE
  8
0
  6
CONTINUOUS
 62
1
 66
1
 70
0
  0
VERTEX
  8
0
 10
762.8
 20
1558.3
 70
0
 42
0.0
  0
VERTEX
  8
0
 10
762.8
 20
1558.3
 70
0
 42
0.0
  0
VERTEX
  8
0
 10
761.6
 20
1558.4
 70
0
  0
SEQEND
  0
POLYLINE
  8
0
  6
CONTINUOUS
 62
1
 66
1
 70
0
  0
VERTEX
  8
0
 10
761.6
 20
1558.4
 70
0
 42
0.0
  0
VERTEX
  8
0
 10
761.6
 20
1558.4
 70
0
 42
0.0
  0
VERTEX
  8
0
 10
762.8
 20
1558.6
 70
0
  0
SEQEND
  0
POLYLINE
  8
0
  6
CONTINUOUS
 62
1
 66
1
 70
0
  0
VERTEX
  8
0
 10
762.8
 20
1557.7
 70
0
 42
0.0
  0
VERTEX
  8
0
 10
762.8
 20
1557.7
 70
0
 42
0.0
  0
VERTEX
  8
0
 10
761.6
 20
1557.9
 70
0
  0
SEQEND
  0
POLYLINE
  8
0
  6
CONTINUOUS
 62
1
 66
1
 70
0
  0
VERTEX
  8
0
 10
761.6
 20
1557.9
 70
0
 42
0.0
  0
VERTEX
  8
0
 10
761.6
 20
1557.9
 70
0
 42
0.0
  0
VERTEX
  8
0
 10
762.8
 20
1558.0
 70
0
  0
SEQEND
  0
POLYLINE
  8
0
  6
CONTINUOUS
 62
1
 66
1
 70
0
  0
VERTEX
  8
0
 10
762.8
 20
1557.2
 70
0
 42
0.0
  0
VERTEX
  8
0
 10
762.8
 20
1557.2
 70
0
 42
0.0
  0
VERTEX
  8
0
 10
761.6
 20
1557.3
 70
0
  0
SEQEND
  0
POLYLINE
  8
0
  6
CONTINUOUS
 62
1
 66
1
 70
0
  0
VERTEX
  8
0
 10
761.6
 20
1557.3
 70
0
 42
0.0
  0
VERTEX
  8
0
 10
761.6
 20
1557.3
 70
0
 42
0.0
  0
VERTEX
  8
0
 10
762.8
 20
1557.5
 70
0
  0
SEQEND
  0
POLYLINE
  8
0
  6
CONTINUOUS
 62
1
 66
1
 70
0
  0
VERTEX
  8
0
 10
756.3
 20
1558.0
 70
0
 42
0.0
  0
VERTEX
  8
0
 10
756.3
 20
1558.0
 70
0
 42
0.0
  0
VERTEX
  8
0
 10
757.6
 20
1557.9
 70
0
  0
SEQEND
  0
POLYLINE
  8
0
  6
CONTINUOUS
 62
1
 66
1
 70
0
  0
VERTEX
  8
0
 10
757.6
 20
1557.9
 70
0
 42
0.0
  0
VERTEX
  8
0
 10
757.6
 20
1557.9
 70
0
 42
0.0
  0
VERTEX
  8
0
 10
756.3
 20
1557.7
 70
0
  0
SEQEND
  0
POLYLINE
  8
0
  6
CONTINUOUS
 62
1
 66
1
 70
0
  0
VERTEX
  8
0
 10
756.3
 20
1557.5
 70
0
 42
0.0
  0
VERTEX
  8
0
 10
756.3
 20
1557.5
 70
0
 42
0.0
  0
VERTEX
  8
0
 10
757.6
 20
1557.3
 70
0
  0
SEQEND
  0
POLYLINE
  8
0
  6
CONTINUOUS
 62
1
 66
1
 70
0
  0
VERTEX
  8
0
 10
757.6
 20
1557.3
 70
0
 42
0.0
  0
VERTEX
  8
0
 10
757.6
 20
1557.3
 70
0
 42
0.0
  0
VERTEX
  8
0
 10
756.3
 20
1557.2
 70
0
  0
SEQEND
  0
POLYLINE
  8
0
  6
CONTINUOUS
 62
1
 66
1
 70
0
  0
VERTEX
  8
0
 10
756.3
 20
1558.6
 70
0
 42
0.0
  0
VERTEX
  8
0
 10
756.3
 20
1558.6
 70
0
 42
0.0
  0
VERTEX
  8
0
 10
757.6
 20
1558.4
 70
0
  0
SEQEND
  0
POLYLINE
  8
0
  6
CONTINUOUS
 62
1
 66
1
 70
0
  0
VERTEX
  8
0
 10
757.6
 20
1558.4
 70
0
 42
0.0
  0
VERTEX
  8
0
 10
757.6
 20
1558.4
 70
0
 42
0.0
  0
VERTEX
  8
0
 10
756.3
 20
1558.3
 70
0
  0
SEQEND
  0
LINE
  8
0
  6
CONTINUOUS
 62
1
 10
766.5
 20
1419.2
 11
764.4
 21
1411.3
  0
LINE
  8
0
  6
CONTINUOUS
 62
1
 10
804.4
 20
1493.2
 11
807.8
 21
1505.8
  0
LINE
  8
0
  6
CONTINUOUS
 62
1
 10
793.3
 20
1509.7
 11
789.9
 21
1497.1
  0
LINE
  8
0
  6
CONTINUOUS
 62
1
 10
800.9
 20
1511.4
 11
796.7
 21
1495.5
  0
LINE
  8
0
  6
CONTINUOUS
 62
1
 10
797.8
 20
1495.2
 11
802.1
 21
1511.1
  0
LINE
  8
0
  6
CONTINUOUS
 62
1
 10
796.8
 20
1495.4
 11
801.1
 21
1511.4
  0
LINE
  8
0
  6
CONTINUOUS
 62
1
 10
769.2
 20
1410.2
 11
767.7
 21
1404.4
  0
LINE
  8
0
  6
CONTINUOUS
 62
1
 10
762.3
 20
1409.5
 11
784.5
 21
1403.5
  0
LINE
  8
0
  6
CONTINUOUS
 62
1
 10
719.6
 20
1541.6
 11
734.6
 21
1541.6
  0
LINE
  8
0
  6
CONTINUOUS
 62
1
 10
719.6
 20
1536.0
 11
719.6
 21
1536.0
  0
LINE
  8
0
  6
CONTINUOUS
 62
1
 10
734.6
 20
1536.0
 11
719.6
 21
1536.0
  0
LINE
  8
0
  6
CONTINUOUS
 62
1
 10
734.6
 20
1536.2
 11
719.6
 21
1536.2
  0
LINE
  8
0
  6
CONTINUOUS
 62
1
 10
784.6
 20
1541.8
 11
788.8
 21
1541.8
  0
LINE
  8
0
  6
CONTINUOUS
 62
1
 10
790.3
 20
1543.1
 11
784.6
 21
1543.1
  0
LINE
  8
0
  6
CONTINUOUS
 62
1
 10
784.6
 20
1540.5
 11
788.3
 21
1540.5
  0
LINE
  8
0
  6
CONTINUOUS
 62
1
 10
539.8
 20
1533.3
 11
539.8
 21
1569.3
  0
LINE
  8
0
  6
CONTINUOUS
 62
1
 10
501.8
 20
1531.6
 11
501.8
 21
1532.1
  0
LINE
  8
0
  6
CONTINUOUS
 62
1
 10
533.0
 20
1550.0
 11
508.6
 21
1550.0
  0
LINE
  8
0
  6
CONTINUOUS
 62
1
 10
431.6
 20
1530.3
 11
431.6
 21
1529.4
  0
LINE
  8
0
  6
CONTINUOUS
 62
1
 10
482.1
 20
1401.6
 11
482.1
 21
1424.7
  0
LINE
  8
0
  6
CONTINUOUS
 62
1
 10
484.1
 20
1423.5
 11
484.1
 21
1424.7
  0
LINE
  8
0
  6
CONTINUOUS
 62
1
 10
539.8
 20
965.2
 11
539.8
 21
770.6
  0
LINE
  8
0
  6
CONTINUOUS
 62
1
 10
570.8
 20
770.6
 11
570.8
 21
965.2
  0
LINE
  8
0
  6
CONTINUOUS
 62
1
 10
720.8
 20
770.6
 11
720.8
 21
965.2
  0
LINE
  8
0
  6
CONTINUOUS
 62
1
 10
667.5
 20
1401.6
 11
667.5
 21
1418.9
  0
LINE
  8
0
  6
CONTINUOUS
 62
1
 10
430.8
 20
751.9
 11
430.8
 21
763.5
  0
LINE
  8
0
  6
CONTINUOUS
 62
1
 10
429.6
 20
1530.4
 11
429.6
 21
753.0
  0
LINE
  8
0
  6
CONTINUOUS
 62
1
 10
538.0
 20
761.4
 11
430.8
 21
761.4
  0
LINE
  8
0
  6
CONTINUOUS
 62
1
 10
431.8
 20
1530.3
 11
431.8
 21
1530.3
  0
LINE
  8
0
  6
CONTINUOUS
 62
1
 10
475.6
 20
1428.0
 11
477.5
 21
1428.0
  0
LINE
  8
0
  6
CONTINUOUS
 62
1
 10
477.1
 20
1428.4
 11
477.1
 21
1401.6
  0
LINE
  8
0
  6
CONTINUOUS
 62
1
 10
522.4
 20
956.1
 11
522.5
 21
959.5
  0
LINE
  8
0
  6
CONTINUOUS
 62
1
 10
524.5
 20
954.7
 11
524.5
 21
955.3
  0
LINE
  8
0
  6
CONTINUOUS
 62
1
 10
583.6
 20
1523.6
 11
579.6
 21
1523.6
  0
LINE
  8
0
  6
CONTINUOUS
 62
1
 10
829.6
 20
1529.4
 11
827.4
 21
1529.4
  0
LINE
  8
0
  6
CONTINUOUS
 62
1
 10
471.6
 20
1437.2
 11
471.6
 21
1434.4
  0
LINE
  8
0
  6
CONTINUOUS
 62
1
 10
733.9
 20
1568.8
 11
733.5
 21
1569.9
  0
LINE
  8
0
  6
CONTINUOUS
 62
1
 10
733.5
 20
1569.9
 11
733.6
 21
1571.8
  0
LINE
  8
0
  6
CONTINUOUS
 62
1
 10
733.6
 20
1571.8
 11
734.3
 21
1573.4
  0
LINE
  8
0
  6
CONTINUOUS
 62
1
 10
734.3
 20
1573.4
 11
735.6
 21
1574.7
  0
LINE
  8
0
  6
CONTINUOUS
 62
1
 10
735.6
 20
1574.7
 11
737.4
 21
1575.4
  0
LINE
  8
0
  6
CONTINUOUS
 62
1
 10
737.4
 20
1575.4
 11
739.2
 21
1575.4
  0
LINE
  8
0
  6
CONTINUOUS
 62
1
 10
739.2
 20
1575.4
 11
740.9
 21
1574.8
  0
LINE
  8
0
  6
CONTINUOUS
 62
1
 10
740.9
 20
1574.8
 11
742.2
 21
1573.5
  0
LINE
  8
0
  6
CONTINUOUS
 62
1
 10
742.2
 20
1573.5
 11
742.4
 21
1573.2
  0
LINE
  8
0
  6
CONTINUOUS
 62
1
 10
742.4
 20
1573.2
 11
742.6
 21
1572.8
  0
LINE
  8
0
  6
CONTINUOUS
 62
1
 10
729.9
 20
1584.5
 11
729.9
 21
1585.1
  0
LINE
  8
0
  6
CONTINUOUS
 62
1
 10
729.9
 20
1585.1
 11
730.3
 21
1586.7
  0
LINE
  8
0
  6
CONTINUOUS
 62
1
 10
730.3
 20
1586.7
 11
731.3
 21
1588.0
  0
LINE
  8
0
  6
CONTINUOUS
 62
1
 10
731.3
 20
1588.0
 11
732.9
 21
1588.9
  0
LINE
  8
0
  6
CONTINUOUS
 62
1
 10
732.9
 20
1588.9
 11
734.7
 21
1589.3
  0
LINE
  8
0
  6
CONTINUOUS
 62
1
 10
734.7
 20
1589.3
 11
736.5
 21
1589.0
  0
LINE
  8
0
  6
CONTINUOUS
 62
1
 10
736.5
 20
1589.0
 11
738.0
 21
1588.2
  0
LINE
  8
0
  6
CONTINUOUS
 62
1
 10
738.0
 20
1588.2
 11
739.1
 21
1587.0
  0
LINE
  8
0
  6
CONTINUOUS
 62
1
 10
739.1
 20
1587.0
 11
739.4
 21
1586.1
  0
LINE
  8
0
  6
CONTINUOUS
 62
1
 10
739.4
 20
1586.1
 11
739.4
 21
1586.0
  0
LINE
  8
0
  6
CONTINUOUS
 62
1
 10
724.8
 20
1536.0
 11
724.8
 21
1536.2
  0
LINE
  8
0
  6
CONTINUOUS
 62
1
 10
724.8
 20
1541.4
 11
724.8
 21
1541.6
  0
LINE
  8
0
  6
CONTINUOUS
 62
1
 10
724.8
 20
1544.2
 11
724.8
 21
1560.2
  0
LINE
  8
0
  6
CONTINUOUS
 62
1
 10
734.4
 20
1536.0
 11
734.4
 21
1536.2
  0
LINE
  8
0
  6
CONTINUOUS
 62
1
 10
734.4
 20
1541.4
 11
734.4
 21
1541.6
  0
LINE
  8
0
  6
CONTINUOUS
 62
1
 10
734.4
 20
1544.2
 11
734.4
 21
1560.1
  0
LINE
  8
0
  6
CONTINUOUS
 62
1
 10
733.9
 20
1568.6
 11
733.7
 21
1569.0
  0
LINE
  8
0
  6
CONTINUOUS
 62
1
 10
733.7
 20
1569.0
 11
733.4
 21
1569.6
  0
LINE
  8
0
  6
CONTINUOUS
 62
1
 10
733.4
 20
1569.6
 11
733.2
 21
1570.2
  0
LINE
  8
0
  6
CONTINUOUS
 62
1
 10
733.2
 20
1570.2
 11
732.9
 21
1570.9
  0
LINE
  8
0
  6
CONTINUOUS
 62
1
 10
732.9
 20
1570.9
 11
732.7
 21
1571.5
  0
LINE
  8
0
  6
CONTINUOUS
 62
1
 10
732.7
 20
1571.5
 11
732.4
 21
1572.4
  0
LINE
  8
0
  6
CONTINUOUS
 62
1
 10
732.4
 20
1572.4
 11
732.1
 21
1573.2
  0
LINE
  8
0
  6
CONTINUOUS
 62
1
 10
732.1
 20
1573.2
 11
731.9
 21
1574.1
  0
LINE
  8
0
  6
CONTINUOUS
 62
1
 10
731.9
 20
1574.1
 11
731.6
 21
1575.1
  0
LINE
  8
0
  6
CONTINUOUS
 62
1
 10
731.6
 20
1575.1
 11
731.4
 21
1576.1
  0
LINE
  8
0
  6
CONTINUOUS
 62
1
 10
731.4
 20
1576.1
 11
731.2
 21
1577.2
  0
LINE
  8
0
  6
CONTINUOUS
 62
1
 10
731.2
 20
1577.2
 11
730.9
 21
1578.3
  0
LINE
  8
0
  6
CONTINUOUS
 62
1
 10
730.9
 20
1578.3
 11
730.7
 21
1579.4
  0
LINE
  8
0
  6
CONTINUOUS
 62
1
 10
730.7
 20
1579.4
 11
730.5
 21
1580.6
  0
LINE
  8
0
  6
CONTINUOUS
 62
1
 10
730.5
 20
1580.6
 11
730.3
 21
1581.9
  0
LINE
  8
0
  6
CONTINUOUS
 62
1
 10
730.3
 20
1581.9
 11
730.1
 21
1583.2
  0
LINE
  8
0
  6
CONTINUOUS
 62
1
 10
730.1
 20
1583.2
 11
729.9
 21
1584.5
  0
LINE
  8
0
  6
CONTINUOUS
 62
1
 10
739.4
 20
1586.0
 11
739.5
 21
1584.8
  0
LINE
  8
0
  6
CONTINUOUS
 62
1
 10
739.5
 20
1584.8
 11
739.7
 21
1583.8
  0
LINE
  8
0
  6
CONTINUOUS
 62
1
 10
739.7
 20
1583.8
 11
739.9
 21
1582.7
  0
LINE
  8
0
  6
CONTINUOUS
 62
1
 10
739.9
 20
1582.7
 11
740.1
 21
1581.7
  0
LINE
  8
0
  6
CONTINUOUS
 62
1
 10
740.1
 20
1581.7
 11
740.2
 21
1580.8
  0
LINE
  8
0
  6
CONTINUOUS
 62
1
 10
740.2
 20
1580.8
 11
740.4
 21
1579.9
  0
LINE
  8
0
  6
CONTINUOUS
 62
1
 10
740.4
 20
1579.9
 11
740.6
 21
1579.1
  0
LINE
  8
0
  6
CONTINUOUS
 62
1
 10
740.6
 20
1579.1
 11
740.7
 21
1578.4
  0
LINE
  8
0
  6
CONTINUOUS
 62
1
 10
740.7
 20
1578.4
 11
740.9
 21
1577.6
  0
LINE
  8
0
  6
CONTINUOUS
 62
1
 10
740.9
 20
1577.6
 11
741.1
 21
1577.0
  0
LINE
  8
0
  6
CONTINUOUS
 62
1
 10
741.1
 20
1577.0
 11
741.2
 21
1576.3
  0
LINE
  8
0
  6
CONTINUOUS
 62
1
 10
741.2
 20
1576.3
 11
741.4
 21
1575.8
  0
LINE
  8
0
  6
CONTINUOUS
 62
1
 10
741.4
 20
1575.8
 11
741.6
 21
1575.3
  0
LINE
  8
0
  6
CONTINUOUS
 62
1
 10
741.6
 20
1575.3
 11
741.7
 21
1574.8
  0
LINE
  8
0
  6
CONTINUOUS
 62
1
 10
741.7
 20
1574.8
 11
741.8
 21
1574.4
  0
LINE
  8
0
  6
CONTINUOUS
 62
1
 10
741.8
 20
1574.4
 11
742.0
 21
1574.1
  0
LINE
  8
0
  6
CONTINUOUS
 62
1
 10
742.0
 20
1574.1
 11
742.1
 21
1573.8
  0
LINE
  8
0
  6
CONTINUOUS
 62
1
 10
742.1
 20
1573.8
 11
742.2
 21
1573.5
  0
LINE
  8
0
  6
CONTINUOUS
 62
1
 10
742.2
 20
1573.5
 11
742.3
 21
1573.4
  0
LINE
  8
0
  6
CONTINUOUS
 62
1
 10
742.3
 20
1573.4
 11
742.4
 21
1573.2
  0
LINE
  8
0
  6
CONTINUOUS
 62
1
 10
729.9
 20
1584.5
 11
729.8
 21
1584.9
  0
LINE
  8
0
  6
CONTINUOUS
 62
1
 10
729.8
 20
1584.9
 11
729.7
 21
1585.3
  0
LINE
  8
0
  6
CONTINUOUS
 62
1
 10
729.7
 20
1585.3
 11
729.7
 21
1585.7
  0
LINE
  8
0
  6
CONTINUOUS
 62
1
 10
729.7
 20
1585.7
 11
729.6
 21
1586.0
  0
LINE
  8
0
  6
CONTINUOUS
 62
1
 10
729.6
 20
1586.0
 11
729.5
 21
1586.3
  0
LINE
  8
0
  6
CONTINUOUS
 62
1
 10
729.5
 20
1586.3
 11
729.4
 21
1586.5
  0
LINE
  8
0
  6
CONTINUOUS
 62
1
 10
729.4
 20
1586.5
 11
729.4
 21
1586.7
  0
LINE
  8
0
  6
CONTINUOUS
 62
1
 10
729.4
 20
1586.7
 11
729.3
 21
1586.8
  0
LINE
  8
0
  6
CONTINUOUS
 62
1
 10
729.3
 20
1586.8
 11
729.3
 21
1586.9
  0
LINE
  8
0
  6
CONTINUOUS
 62
1
 10
729.3
 20
1586.9
 11
729.3
 21
1586.9
  0
LINE
  8
0
  6
CONTINUOUS
 62
1
 10
734.5
 20
1567.4
 11
734.5
 21
1567.0
  0
LINE
  8
0
  6
CONTINUOUS
 62
1
 10
734.5
 20
1567.0
 11
734.5
 21
1565.8
  0
LINE
  8
0
  6
CONTINUOUS
 62
1
 10
734.5
 20
1565.8
 11
734.4
 21
1564.7
  0
LINE
  8
0
  6
CONTINUOUS
 62
1
 10
734.4
 20
1564.7
 11
734.4
 21
1563.5
  0
LINE
  8
0
  6
CONTINUOUS
 62
1
 10
734.4
 20
1563.5
 11
734.4
 21
1562.4
  0
LINE
  8
0
  6
CONTINUOUS
 62
1
 10
734.4
 20
1562.4
 11
734.4
 21
1561.3
  0
LINE
  8
0
  6
CONTINUOUS
 62
1
 10
734.4
 20
1561.3
 11
734.4
 21
1560.1
  0
LINE
  8
0
  6
CONTINUOUS
 62
1
 10
724.8
 20
1560.2
 11
724.8
 21
1561.4
  0
LINE
  8
0
  6
CONTINUOUS
 62
1
 10
724.8
 20
1561.4
 11
724.8
 21
1562.7
  0
LINE
  8
0
  6
CONTINUOUS
 62
1
 10
724.8
 20
1562.7
 11
724.8
 21
1564.0
  0
LINE
  8
0
  6
CONTINUOUS
 62
1
 10
724.8
 20
1564.0
 11
724.8
 21
1565.2
  0
LINE
  8
0
  6
CONTINUOUS
 62
1
 10
724.8
 20
1565.2
 11
724.9
 21
1566.4
  0
LINE
  8
0
  6
CONTINUOUS
 62
1
 10
724.9
 20
1566.4
 11
724.9
 21
1567.6
  0
LINE
  8
0
  6
CONTINUOUS
 62
1
 10
724.9
 20
1567.6
 11
725.0
 21
1568.8
  0
LINE
  8
0
  6
CONTINUOUS
 62
1
 10
725.0
 20
1568.8
 11
725.0
 21
1570.0
  0
LINE
  8
0
  6
CONTINUOUS
 62
1
 10
725.0
 20
1570.0
 11
725.1
 21
1571.1
  0
LINE
  8
0
  6
CONTINUOUS
 62
1
 10
725.1
 20
1571.1
 11
725.1
 21
1572.2
  0
LINE
  8
0
  6
CONTINUOUS
 62
1
 10
725.1
 20
1572.2
 11
725.2
 21
1573.3
  0
LINE
  8
0
  6
CONTINUOUS
 62
1
 10
725.2
 20
1573.3
 11
725.2
 21
1574.4
  0
LINE
  8
0
  6
CONTINUOUS
 62
1
 10
725.2
 20
1574.4
 11
725.3
 21
1575.4
  0
LINE
  8
0
  6
CONTINUOUS
 62
1
 10
725.3
 20
1575.4
 11
725.4
 21
1576.4
  0
LINE
  8
0
  6
CONTINUOUS
 62
1
 10
725.4
 20
1576.4
 11
725.5
 21
1577.4
  0
LINE
  8
0
  6
CONTINUOUS
 62
1
 10
725.5
 20
1577.4
 11
725.5
 21
1578.4
  0
LINE
  8
0
  6
CONTINUOUS
 62
1
 10
725.5
 20
1578.4
 11
725.6
 21
1579.3
  0
LINE
  8
0
  6
CONTINUOUS
 62
1
 10
725.6
 20
1579.3
 11
725.7
 21
1580.2
  0
LINE
  8
0
  6
CONTINUOUS
 62
1
 10
725.7
 20
1580.2
 11
725.8
 21
1581.1
  0
LINE
  8
0
  6
CONTINUOUS
 62
1
 10
725.8
 20
1581.1
 11
725.9
 21
1582.0
  0
LINE
  8
0
  6
CONTINUOUS
 62
1
 10
725.9
 20
1582.0
 11
726.0
 21
1582.8
  0
LINE
  8
0
  6
CONTINUOUS
 62
1
 10
726.0
 20
1582.8
 11
726.1
 21
1583.6
  0
LINE
  8
0
  6
CONTINUOUS
 62
1
 10
726.1
 20
1583.6
 11
726.2
 21
1584.4
  0
LINE
  8
0
  6
CONTINUOUS
 62
1
 10
726.2
 20
1584.4
 11
726.3
 21
1585.1
  0
LINE
  8
0
  6
CONTINUOUS
 62
1
 10
726.3
 20
1585.1
 11
726.4
 21
1585.8
  0
LINE
  8
0
  6
CONTINUOUS
 62
1
 10
726.4
 20
1585.8
 11
726.6
 21
1586.5
  0
LINE
  8
0
  6
CONTINUOUS
 62
1
 10
726.6
 20
1586.5
 11
726.7
 21
1587.1
  0
LINE
  8
0
  6
CONTINUOUS
 62
1
 10
726.7
 20
1587.1
 11
726.8
 21
1587.7
  0
LINE
  8
0
  6
CONTINUOUS
 62
1
 10
726.8
 20
1587.7
 11
726.9
 21
1588.2
  0
LINE
  8
0
  6
CONTINUOUS
 62
1
 10
726.9
 20
1588.2
 11
727.1
 21
1588.8
  0
LINE
  8
0
  6
CONTINUOUS
 62
1
 10
727.1
 20
1588.8
 11
727.2
 21
1589.3
  0
LINE
  8
0
  6
CONTINUOUS
 62
1
 10
727.2
 20
1589.3
 11
727.4
 21
1589.9
  0
LINE
  8
0
  6
CONTINUOUS
 62
1
 10
727.4
 20
1589.9
 11
727.6
 21
1590.4
  0
LINE
  8
0
  6
CONTINUOUS
 62
1
 10
727.6
 20
1590.4
 11
727.9
 21
1591.0
  0
LINE
  8
0
  6
CONTINUOUS
 62
1
 10
727.9
 20
1591.0
 11
728.1
 21
1591.4
  0
LINE
  8
0
  6
CONTINUOUS
 62
1
 10
728.1
 20
1591.4
 11
728.4
 21
1591.9
  0
LINE
  8
0
  6
CONTINUOUS
 62
1
 10
728.4
 20
1591.9
 11
728.7
 21
1592.3
  0
LINE
  8
0
  6
CONTINUOUS
 62
1
 10
728.7
 20
1592.3
 11
729.0
 21
1592.7
  0
LINE
  8
0
  6
CONTINUOUS
 62
1
 10
729.0
 20
1592.7
 11
729.3
 21
1593.0
  0
LINE
  8
0
  6
CONTINUOUS
 62
1
 10
729.3
 20
1593.0
 11
729.6
 21
1593.3
  0
LINE
  8
0
  6
CONTINUOUS
 62
1
 10
729.6
 20
1593.3
 11
730.0
 21
1593.6
  0
LINE
  8
0
  6
CONTINUOUS
 62
1
 10
730.0
 20
1593.6
 11
730.4
 21
1593.8
  0
LINE
  8
0
  6
CONTINUOUS
 62
1
 10
730.4
 20
1593.8
 11
730.7
 21
1594.0
  0
LINE
  8
0
  6
CONTINUOUS
 62
1
 10
730.7
 20
1594.0
 11
731.0
 21
1594.1
  0
LINE
  8
0
  6
CONTINUOUS
 62
1
 10
731.0
 20
1594.1
 11
731.4
 21
1594.2
  0
LINE
  8
0
  6
CONTINUOUS
 62
1
 10
731.4
 20
1594.2
 11
731.8
 21
1594.3
  0
LINE
  8
0
  6
CONTINUOUS
 62
1
 10
731.8
 20
1594.3
 11
732.2
 21
1594.4
  0
LINE
  8
0
  6
CONTINUOUS
 62
1
 10
732.2
 20
1594.4
 11
732.6
 21
1594.5
  0
LINE
  8
0
  6
CONTINUOUS
 62
1
 10
732.6
 20
1594.5
 11
733.0
 21
1594.5
  0
LINE
  8
0
  6
CONTINUOUS
 62
1
 10
733.0
 20
1594.5
 11
733.4
 21
1594.5
  0
LINE
  8
0
  6
CONTINUOUS
 62
1
 10
733.4
 20
1594.5
 11
733.8
 21
1594.4
  0
LINE
  8
0
  6
CONTINUOUS
 62
1
 10
733.8
 20
1594.4
 11
734.1
 21
1594.3
  0
LINE
  8
0
  6
CONTINUOUS
 62
1
 10
734.1
 20
1594.3
 11
734.5
 21
1594.2
  0
LINE
  8
0
  6
CONTINUOUS
 62
1
 10
734.5
 20
1594.2
 11
734.9
 21
1594.1
  0
LINE
  8
0
  6
CONTINUOUS
 62
1
 10
734.9
 20
1594.1
 11
735.2
 21
1593.9
  0
LINE
  8
0
  6
CONTINUOUS
 62
1
 10
735.2
 20
1593.9
 11
735.5
 21
1593.8
  0
LINE
  8
0
  6
CONTINUOUS
 62
1
 10
735.5
 20
1593.8
 11
735.8
 21
1593.6
  0
LINE
  8
0
  6
CONTINUOUS
 62
1
 10
735.8
 20
1593.6
 11
736.2
 21
1593.3
  0
LINE
  8
0
  6
CONTINUOUS
 62
1
 10
736.2
 20
1593.3
 11
736.5
 21
1593.1
  0
LINE
  8
0
  6
CONTINUOUS
 62
1
 10
736.5
 20
1593.1
 11
736.8
 21
1592.8
  0
LINE
  8
0
  6
CONTINUOUS
 62
1
 10
736.8
 20
1592.8
 11
737.0
 21
1592.5
  0
LINE
  8
0
  6
CONTINUOUS
 62
1
 10
737.0
 20
1592.5
 11
737.3
 21
1592.2
  0
LINE
  8
0
  6
CONTINUOUS
 62
1
 10
737.3
 20
1592.2
 11
737.5
 21
1591.9
  0
LINE
  8
0
  6
CONTINUOUS
 62
1
 10
737.5
 20
1591.9
 11
737.7
 21
1591.5
  0
LINE
  8
0
  6
CONTINUOUS
 62
1
 10
737.7
 20
1591.5
 11
737.9
 21
1591.2
  0
LINE
  8
0
  6
CONTINUOUS
 62
1
 10
737.9
 20
1591.2
 11
738.1
 21
1590.8
  0
LINE
  8
0
  6
CONTINUOUS
 62
1
 10
738.1
 20
1590.8
 11
738.2
 21
1590.4
  0
LINE
  8
0
  6
CONTINUOUS
 62
1
 10
738.2
 20
1590.4
 11
738.4
 21
1590.0
  0
LINE
  8
0
  6
CONTINUOUS
 62
1
 10
738.4
 20
1590.0
 11
738.5
 21
1589.6
  0
LINE
  8
0
  6
CONTINUOUS
 62
1
 10
738.5
 20
1589.6
 11
738.6
 21
1589.2
  0
LINE
  8
0
  6
CONTINUOUS
 62
1
 10
738.6
 20
1589.2
 11
738.8
 21
1588.5
  0
LINE
  8
0
  6
CONTINUOUS
 62
1
 10
738.8
 20
1588.5
 11
739.0
 21
1587.7
  0
LINE
  8
0
  6
CONTINUOUS
 62
1
 10
739.0
 20
1587.7
 11
739.2
 21
1586.9
  0
LINE
  8
0
  6
CONTINUOUS
 62
1
 10
739.2
 20
1586.9
 11
739.4
 21
1586.1
  0
LINE
  8
0
  6
CONTINUOUS
 62
1
 10
741.0
 20
1556.0
 11
741.0
 21
1556.1
  0
LINE
  8
0
  6
CONTINUOUS
 62
1
 10
741.0
 20
1556.1
 11
740.2
 21
1557.2
  0
LINE
  8
0
  6
CONTINUOUS
 62
1
 10
740.2
 20
1557.2
 11
739.5
 21
1558.3
  0
LINE
  8
0
  6
CONTINUOUS
 62
1
 10
739.5
 20
1558.3
 11
738.8
 21
1559.4
  0
LINE
  8
0
  6
CONTINUOUS
 62
1
 10
738.8
 20
1559.4
 11
738.1
 21
1560.6
  0
LINE
  8
0
  6
CONTINUOUS
 62
1
 10
738.1
 20
1560.6
 11
737.4
 21
1561.9
  0
LINE
  8
0
  6
CONTINUOUS
 62
1
 10
737.4
 20
1561.9
 11
736.6
 21
1563.2
  0
LINE
  8
0
  6
CONTINUOUS
 62
1
 10
736.6
 20
1563.2
 11
735.9
 21
1564.5
  0
LINE
  8
0
  6
CONTINUOUS
 62
1
 10
735.9
 20
1564.5
 11
735.2
 21
1565.9
  0
LINE
  8
0
  6
CONTINUOUS
 62
1
 10
735.2
 20
1565.9
 11
734.5
 21
1567.3
  0
LINE
  8
0
  6
CONTINUOUS
 62
1
 10
734.5
 20
1567.3
 11
733.9
 21
1568.8
  0
LINE
  8
0
  6
CONTINUOUS
 62
1
 10
742.6
 20
1572.8
 11
743.1
 21
1571.8
  0
LINE
  8
0
  6
CONTINUOUS
 62
1
 10
743.1
 20
1571.8
 11
743.5
 21
1570.8
  0
LINE
  8
0
  6
CONTINUOUS
 62
1
 10
743.5
 20
1570.8
 11
744.1
 21
1569.6
  0
LINE
  8
0
  6
CONTINUOUS
 62
1
 10
744.1
 20
1569.6
 11
744.7
 21
1568.5
  0
LINE
  8
0
  6
CONTINUOUS
 62
1
 10
744.7
 20
1568.5
 11
745.3
 21
1567.4
  0
LINE
  8
0
  6
CONTINUOUS
 62
1
 10
745.3
 20
1567.4
 11
745.9
 21
1566.3
  0
LINE
  8
0
  6
CONTINUOUS
 62
1
 10
745.9
 20
1566.3
 11
746.5
 21
1565.3
  0
LINE
  8
0
  6
CONTINUOUS
 62
1
 10
746.5
 20
1565.3
 11
747.0
 21
1564.4
  0
LINE
  8
0
  6
CONTINUOUS
 62
1
 10
747.0
 20
1564.4
 11
747.6
 21
1563.5
  0
LINE
  8
0
  6
CONTINUOUS
 62
1
 10
747.6
 20
1563.5
 11
748.2
 21
1562.6
  0
LINE
  8
0
  6
CONTINUOUS
 62
1
 10
748.2
 20
1562.6
 11
748.7
 21
1561.8
  0
LINE
  8
0
  6
CONTINUOUS
 62
1
 10
748.7
 20
1561.8
 11
749.3
 21
1561.0
  0
LINE
  8
0
  6
CONTINUOUS
 62
1
 10
749.3
 20
1561.0
 11
749.8
 21
1560.3
  0
LINE
  8
0
  6
CONTINUOUS
 62
1
 10
749.8
 20
1560.3
 11
750.4
 21
1559.6
  0
LINE
  8
0
  6
CONTINUOUS
 62
1
 10
750.4
 20
1559.6
 11
750.9
 21
1559.0
  0
LINE
  8
0
  6
CONTINUOUS
 62
1
 10
750.9
 20
1559.0
 11
751.5
 21
1558.4
  0
LINE
  8
0
  6
CONTINUOUS
 62
1
 10
751.5
 20
1558.4
 11
752.0
 21
1557.8
  0
LINE
  8
0
  6
CONTINUOUS
 62
1
 10
752.0
 20
1557.8
 11
752.5
 21
1557.4
  0
LINE
  8
0
  6
CONTINUOUS
 62
1
 10
752.5
 20
1557.4
 11
752.6
 21
1557.3
  0
LINE
  8
0
  6
CONTINUOUS
 62
1
 10
743.6
 20
1556.8
 11
734.6
 21
1553.8
  0
LINE
  8
0
  6
CONTINUOUS
 62
1
 10
740.0
 20
1553.8
 11
740.0
 21
1541.8
  0
LINE
  8
0
  6
CONTINUOUS
 62
1
 10
775.6
 20
1556.8
 11
743.6
 21
1556.8
  0
LINE
  8
0
  6
CONTINUOUS
 62
1
 10
735.1
 20
1541.8
 11
742.9
 21
1541.8
  0
LINE
  8
0
  6
CONTINUOUS
 62
1
 10
756.3
 20
1557.5
 11
756.3
 21
1557.2
  0
LINE
  8
0
  6
CONTINUOUS
 62
1
 10
766.6
 20
1556.8
 11
766.6
 21
1558.8
  0
LINE
  8
0
  6
CONTINUOUS
 62
1
 10
762.8
 20
1558.0
 11
762.8
 21
1557.7
  0
LINE
  8
0
  6
CONTINUOUS
 62
1
 10
734.6
 20
1553.8
 11
784.6
 21
1553.8
  0
LINE
  8
0
  6
CONTINUOUS
 62
1
 10
756.3
 20
1558.3
 11
752.6
 21
1558.3
  0
LINE
  8
0
  6
CONTINUOUS
 62
1
 10
775.6
 20
1556.8
 11
784.6
 21
1553.8
  0
LINE
  8
0
  6
CONTINUOUS
 62
1
 10
742.9
 20
1541.8
 11
742.9
 21
1533.3
  0
LINE
  8
0
  6
CONTINUOUS
 62
1
 10
742.9
 20
1532.1
 11
742.9
 21
1531.6
  0
LINE
  8
0
  6
CONTINUOUS
 62
1
 10
776.2
 20
1541.8
 11
784.0
 21
1541.8
  0
LINE
  8
0
  6
CONTINUOUS
 62
1
 10
762.8
 20
1558.0
 11
766.6
 21
1558.0
  0
LINE
  8
0
  6
CONTINUOUS
 62
1
 10
779.1
 20
1553.8
 11
779.1
 21
1541.8
  0
LINE
  8
0
  6
CONTINUOUS
 62
1
 10
756.3
 20
1558.6
 11
756.3
 21
1558.3
  0
LINE
  8
0
  6
CONTINUOUS
 62
1
 10
766.6
 20
1558.3
 11
762.8
 21
1558.3
  0
LINE
  8
0
  6
CONTINUOUS
 62
1
 10
769.5
 20
1556.8
 11
769.5
 21
1533.3
  0
LINE
  8
0
  6
CONTINUOUS
 62
1
 10
769.5
 20
1532.1
 11
769.5
 21
1531.6
  0
LINE
  8
0
  6
CONTINUOUS
 62
1
 10
752.6
 20
1556.8
 11
752.6
 21
1558.8
  0
LINE
  8
0
  6
CONTINUOUS
 62
1
 10
762.8
 20
1558.6
 11
762.8
 21
1558.3
  0
LINE
  8
0
  6
CONTINUOUS
 62
1
 10
766.6
 20
1557.7
 11
762.8
 21
1557.7
  0
LINE
  8
0
  6
CONTINUOUS
 62
1
 10
756.3
 20
1558.0
 11
756.3
 21
1557.7
  0
LINE
  8
0
  6
CONTINUOUS
 62
1
 10
749.7
 20
1556.8
 11
749.7
 21
1533.3
  0
LINE
  8
0
  6
CONTINUOUS
 62
1
 10
749.7
 20
1532.1
 11
749.7
 21
1531.6
  0
LINE
  8
0
  6
CONTINUOUS
 62
1
 10
752.6
 20
1557.5
 11
756.3
 21
1557.5
  0
LINE
  8
0
  6
CONTINUOUS
 62
1
 10
748.7
 20
1556.8
 11
740.0
 21
1553.8
  0
LINE
  8
0
  6
CONTINUOUS
 62
1
 10
752.6
 20
1558.0
 11
756.3
 21
1558.0
  0
LINE
  8
0
  6
CONTINUOUS
 62
1
 10
766.6
 20
1557.2
 11
762.8
 21
1557.2
  0
LINE
  8
0
  6
CONTINUOUS
 62
1
 10
737.1
 20
1541.8
 11
737.1
 21
1533.3
  0
LINE
  8
0
  6
CONTINUOUS
 62
1
 10
737.1
 20
1532.1
 11
737.1
 21
1531.6
  0
LINE
  8
0
  6
CONTINUOUS
 62
1
 10
762.8
 20
1558.6
 11
766.6
 21
1558.6
  0
LINE
  8
0
  6
CONTINUOUS
 62
1
 10
784.0
 20
1541.8
 11
784.0
 21
1533.3
  0
LINE
  8
0
  6
CONTINUOUS
 62
1
 10
784.0
 20
1532.1
 11
784.0
 21
1531.6
  0
LINE
  8
0
  6
CONTINUOUS
 62
1
 10
784.0
 20
1541.8
 11
784.0
 21
1533.3
  0
LINE
  8
0
  6
CONTINUOUS
 62
1
 10
784.0
 20
1532.1
 11
784.0
 21
1531.6
  0
LINE
  8
0
  6
CONTINUOUS
 62
1
 10
762.8
 20
1557.5
 11
762.8
 21
1557.2
  0
LINE
  8
0
  6
CONTINUOUS
 62
1
 10
735.2
 20
1541.8
 11
735.2
 21
1533.3
  0
LINE
  8
0
  6
CONTINUOUS
 62
1
 10
735.2
 20
1532.1
 11
735.2
 21
1531.6
  0
LINE
  8
0
  6
CONTINUOUS
 62
1
 10
752.6
 20
1558.6
 11
756.3
 21
1558.6
  0
LINE
  8
0
  6
CONTINUOUS
 62
1
 10
770.4
 20
1556.8
 11
779.1
 21
1553.8
  0
LINE
  8
0
  6
CONTINUOUS
 62
1
 10
735.1
 20
1531.6
 11
735.1
 21
1532.1
  0
LINE
  8
0
  6
CONTINUOUS
 62
1
 10
735.1
 20
1533.3
 11
735.1
 21
1541.8
  0
LINE
  8
0
  6
CONTINUOUS
 62
1
 10
782.0
 20
1541.8
 11
782.0
 21
1533.3
  0
LINE
  8
0
  6
CONTINUOUS
 62
1
 10
734.6
 20
1553.8
 11
734.6
 21
1533.3
  0
LINE
  8
0
  6
CONTINUOUS
 62
1
 10
734.6
 20
1532.1
 11
734.6
 21
1531.6
  0
LINE
  8
0
  6
CONTINUOUS
 62
1
 10
756.3
 20
1557.7
 11
752.6
 21
1557.7
  0
LINE
  8
0
  6
CONTINUOUS
 62
1
 10
776.2
 20
1533.3
 11
776.2
 21
1541.8
  0
LINE
  8
0
  6
CONTINUOUS
 62
1
 10
762.8
 20
1557.5
 11
766.6
 21
1557.5
  0
LINE
  8
0
  6
CONTINUOUS
 62
1
 10
766.6
 20
1558.8
 11
752.6
 21
1558.8
  0
LINE
  8
0
  6
CONTINUOUS
 62
1
 10
784.6
 20
1553.8
 11
784.6
 21
1533.3
  0
LINE
  8
0
  6
CONTINUOUS
 62
1
 10
784.6
 20
1532.1
 11
784.6
 21
1531.6
  0
LINE
  8
0
  6
CONTINUOUS
 62
1
 10
756.3
 20
1557.2
 11
752.6
 21
1557.2
  0
LINE
  8
0
  6
CONTINUOUS
 62
1
 10
803.5
 20
827.2
 11
816.6
 21
827.2
  0
LINE
  8
0
  6
CONTINUOUS
 62
1
 10
802.8
 20
1400.7
 11
816.6
 21
1400.7
  0
LINE
  8
0
  6
CONTINUOUS
 62
1
 10
455.6
 20
827.2
 11
442.6
 21
827.2
  0
LINE
  8
0
  6
CONTINUOUS
 62
1
 10
639.6
 20
1144.9
 11
639.6
 21
1001.9
  0
LINE
  8
0
  6
CONTINUOUS
 62
1
 10
619.6
 20
1001.9
 11
619.6
 21
1144.9
  0
LINE
  8
0
  6
CONTINUOUS
 62
1
 10
614.6
 20
1139.8
 11
614.6
 21
1007.0
  0
LINE
  8
0
  6
CONTINUOUS
 62
1
 10
829.1
 20
753.0
 11
829.1
 21
752.4
  0
LINE
  8
0
  6
CONTINUOUS
 62
7
 10
851.1
 20
479.3
 11
850.8
 21
480.3
  0
LINE
  8
0
  6
CONTINUOUS
 62
7
 10
850.8
 20
480.3
 11
850.7
 21
480.8
  0
LINE
  8
0
  6
CONTINUOUS
 62
7
 10
850.6
 20
481.1
 11
850.5
 21
481.3
  0
LINE
  8
0
  6
CONTINUOUS
 62
7
 10
850.4
 20
481.6
 11
850.1
 21
481.9
  0
LINE
  8
0
  6
CONTINUOUS
 62
7
 10
850.1
 20
481.9
 11
849.6
 21
482.5
  0
LINE
  8
0
  6
CONTINUOUS
 62
7
 10
849.6
 20
400.6
 11
850.1
 21
401.2
  0
LINE
  8
0
  6
CONTINUOUS
 62
7
 10
850.1
 20
401.2
 11
850.4
 21
401.5
  0
LINE
  8
0
  6
CONTINUOUS
 62
7
 10
850.5
 20
401.8
 11
850.6
 21
402.0
  0
LINE
  8
0
  6
CONTINUOUS
 62
7
 10
850.7
 20
402.3
 11
850.8
 21
402.8
  0
LINE
  8
0
  6
CONTINUOUS
 62
7
 10
850.8
 20
402.8
 11
851.1
 21
403.8
  0
LINE
  8
0
  6
CONTINUOUS
 62
7
 10
851.1
 20
403.8
 11
851.9
 21
409.9
  0
LINE
  8
0
  6
CONTINUOUS
 62
7
 10
851.9
 20
409.9
 11
853.2
 21
422.5
  0
LINE
  8
0
  6
CONTINUOUS
 62
7
 10
853.2
 20
422.5
 11
853.7
 21
432.7
  0
LINE
  8
0
  6
CONTINUOUS
 62
7
 10
853.8
 20
438.6
 11
853.8
 21
444.5
  0
LINE
  8
0
  6
CONTINUOUS
 62
7
 10
853.7
 20
450.4
 11
853.2
 21
460.6
  0
LINE
  8
0
  6
CONTINUOUS
 62
7
 10
853.2
 20
460.6
 11
851.9
 21
473.2
  0
LINE
  8
0
  6
CONTINUOUS
 62
7
 10
851.9
 20
473.2
 11
851.1
 21
479.3
  0
LINE
  8
0
  6
CENTER
 62
7
 10
849.6
 20
482.5
 11
839.0
 21
491.5
  0
LINE
  8
0
  6
CENTER
 62
7
 10
839.0
 20
391.5
 11
800.8
 21
391.5
  0
LINE
  8
0
  6
CENTER
 62
7
 10
839.0
 20
391.5
 11
849.6
 21
400.6
  0
LINE
  8
0
  6
CENTER
 62
7
 10
839.0
 20
491.5
 11
839.0
 21
391.5
  0
LINE
  8
0
  6
CENTER
 62
7
 10
796.7
 20
414.5
 11
796.7
 21
394.5
  0
LINE
  8
0
  6
CENTER
 62
7
 10
796.7
 20
414.5
 11
800.8
 21
414.5
  0
LINE
  8
0
  6
CENTER
 62
7
 10
796.7
 20
394.5
 11
800.8
 21
394.5
  0
LINE
  8
0
  6
CENTER
 62
7
 10
803.3
 20
751.5
 11
803.3
 21
491.5
  0
CIRCLE
  8
0
  6
CENTER
 62
7
 10
815.6
 20
482.5
 40
3.7
  0
LINE
  8
0
  6
CENTER
 62
7
 10
800.8
 20
491.5
 11
839.0
 21
491.5
  0
LINE
  8
0
  6
CENTER
 62
7
 10
803.3
 20
491.5
 11
803.3
 21
391.5
  0
CIRCLE
  8
0
  6
CENTER
 62
7
 10
815.6
 20
400.5
 40
3.7
  0
CIRCLE
  8
0
  6
CENTER
 62
7
 10
815.6
 20
400.5
 40
2.4
  0
CIRCLE
  8
0
  6
CENTER
 62
7
 10
815.6
 20
482.5
 40
2.4
  0
LINE
  8
0
  6
CENTER
 62
7
 10
836.8
 20
391.5
 11
836.8
 21
491.5
  0
LINE
  8
0
  6
CENTER
 62
7
 10
800.8
 20
391.5
 11
800.8
 21
491.5
  0
LINE
  8
0
  6
CENTER
 62
7
 10
823.8
 20
389.5
 11
804.9
 21
389.5
  0
LINE
  8
0
  6
CENTER
 62
7
 10
823.8
 20
391.3
 11
823.8
 21
391.5
  0
LINE
  8
0
  6
CENTER
 62
7
 10
823.8
 20
491.5
 11
823.8
 21
751.5
  0
LINE
  8
0
  6
CENTER
 62
7
 10
804.9
 20
391.3
 11
804.9
 21
389.5
  0
LINE
  8
0
  6
CENTER
 62
7
 10
825.6
 20
751.5
 11
825.6
 21
491.5
  0
LINE
  8
0
  6
CENTER
 62
7
 10
825.6
 20
391.5
 11
825.6
 21
391.3
  0
LINE
  8
0
  6
CENTER
 62
7
 10
823.7
 20
391.3
 11
825.6
 21
391.3
  0
ARC
  8
0
  6
CENTER
 62
7
 10
823.8
 20
391.3
 40
1.8
 50
270.0
 51
0.0
  0
LINE
  8
0
  6
CENTER
 62
7
 10
804.1
 20
391.3
 11
805.9
 21
391.3
  0
ARC
  8
0
  6
CENTER
 62
7
 10
805.9
 20
391.3
 40
1.0
 50
180.0
 51
270.0
  0
ARC
  8
0
  6
CENTER
 62
7
 10
805.9
 20
391.3
 40
1.8
 50
213.7
 51
236.3
  0
LINE
  8
0
  6
CENTER
 62
7
 10
823.7
 20
389.5
 11
823.7
 21
391.3
  0
LINE
  8
0
  6
CENTER
 62
7
 10
805.9
 20
390.3
 11
804.1
 21
390.3
  0
LINE
  8
0
  6
CENTER
 62
7
 10
823.8
 20
389.5
 11
823.8
 21
391.3
  0
LINE
  8
0
  6
CENTER
 62
7
 10
804.1
 20
390.3
 11
804.1
 21
391.5
  0
LINE
  8
0
  6
CENTER
 62
7
 10
804.1
 20
491.5
 11
804.1
 21
751.5
  0
LINE
  8
0
  6
CENTER
 62
7
 10
805.9
 20
391.3
 11
823.7
 21
391.3
  0
ARC
  8
0
  6
CENTER
 62
7
 10
823.8
 20
391.3
 40
1.0
 50
270.0
 51
0.0
  0
LINE
  8
0
  6
CENTER
 62
7
 10
823.7
 20
390.3
 11
823.8
 21
390.3
  0
LINE
  8
0
  6
CENTER
 62
7
 10
805.9
 20
391.3
 11
805.9
 21
389.5
  0
LINE
  8
0
  6
CENTER
 62
7
 10
805.9
 20
751.5
 11
805.9
 21
491.5
  0
LINE
  8
0
  6
CENTER
 62
7
 10
805.9
 20
391.5
 11
805.9
 21
391.3
  0
LINE
  8
0
  6
CENTER
 62
7
 10
825.7
 20
492.9
 11
825.7
 21
491.5
  0
LINE
  8
0
  6
CENTER
 62
7
 10
826.7
 20
560.9
 11
826.7
 21
583.1
  0
LINE
  8
0
  6
CENTER
 62
7
 10
825.7
 20
565.2
 11
826.7
 21
565.2
  0
LINE
  8
0
  6
CENTER
 62
7
 10
826.7
 20
519.5
 11
826.7
 21
555.6
  0
LINE
  8
0
  6
CENTER
 62
7
 10
825.7
 20
583.1
 11
826.7
 21
583.1
  0
LINE
  8
0
  6
CENTER
 62
7
 10
825.7
 20
647.3
 11
825.7
 21
612.3
  0
LINE
  8
0
  6
CENTER
 62
7
 10
825.7
 20
581.4
 11
825.7
 21
560.9
  0
LINE
  8
0
  6
CENTER
 62
7
 10
826.7
 20
497.0
 11
826.7
 21
514.1
  0
LINE
  8
0
  6
CENTER
 62
7
 10
825.7
 20
512.5
 11
825.7
 21
497.0
  0
LINE
  8
0
  6
CENTER
 62
7
 10
825.7
 20
555.6
 11
825.7
 21
519.5
  0
LINE
  8
0
  6
CENTER
 62
7
 10
826.7
 20
491.5
 11
826.7
 21
492.9
  0
LINE
  8
0
  6
CENTER
 62
7
 10
826.7
 20
612.3
 11
826.7
 21
647.3
  0
LINE
  8
0
  6
CENTER
 62
7
 10
825.7
 20
513.7
 11
826.7
 21
513.7
  0
LINE
  8
0
  6
CENTER
 62
7
 10
825.7
 20
511.4
 11
826.7
 21
511.4
  0
LINE
  8
0
  6
CENTER
 62
7
 10
825.7
 20
507.0
 11
826.7
 21
507.0
  0
LINE
  8
0
  6
CENTER
 62
7
 10
825.7
 20
576.0
 11
826.7
 21
576.0
  0
LINE
  8
0
  6
CENTER
 62
7
 10
825.7
 20
514.1
 11
825.7
 21
512.5
  0
LINE
  8
0
  6
CENTER
 62
7
 10
826.7
 20
588.4
 11
826.7
 21
608.3
  0
LINE
  8
0
  6
CENTER
 62
7
 10
825.7
 20
582.1
 11
826.7
 21
582.1
  0
LINE
  8
0
  6
CENTER
 62
7
 10
825.7
 20
583.1
 11
825.7
 21
581.4
  0
LINE
  8
0
  6
CENTER
 62
7
 10
825.7
 20
519.5
 11
826.7
 21
519.5
  0
LINE
  8
0
  6
CENTER
 62
7
 10
825.7
 20
505.0
 11
826.7
 21
505.0
  0
LINE
  8
0
  6
CENTER
 62
7
 10
825.7
 20
547.1
 11
826.7
 21
547.1
  0
LINE
  8
0
  6
CENTER
 62
7
 10
825.7
 20
561.7
 11
826.7
 21
561.7
  0
LINE
  8
0
  6
CENTER
 62
7
 10
825.7
 20
602.5
 11
826.7
 21
602.5
  0
LINE
  8
0
  6
CENTER
 62
7
 10
825.7
 20
545.6
 11
826.7
 21
545.6
  0
LINE
  8
0
  6
CENTER
 62
7
 10
825.7
 20
555.1
 11
826.7
 21
555.1
  0
LINE
  8
0
  6
CENTER
 62
7
 10
825.7
 20
582.6
 11
826.7
 21
582.6
  0
LINE
  8
0
  6
CENTER
 62
7
 10
825.7
 20
581.4
 11
826.7
 21
581.4
  0
LINE
  8
0
  6
CENTER
 62
7
 10
825.7
 20
540.6
 11
826.7
 21
540.6
  0
LINE
  8
0
  6
CENTER
 62
7
 10
825.7
 20
555.1
 11
826.7
 21
555.1
  0
LINE
  8
0
  6
CENTER
 62
7
 10
825.7
 20
549.7
 11
826.7
 21
549.7
  0
LINE
  8
0
  6
CENTER
 62
7
 10
825.7
 20
590.8
 11
826.7
 21
590.8
  0
LINE
  8
0
  6
CENTER
 62
7
 10
825.7
 20
508.8
 11
826.7
 21
508.8
  0
LINE
  8
0
  6
CENTER
 62
7
 10
825.7
 20
534.5
 11
826.7
 21
534.5
  0
LINE
  8
0
  6
CENTER
 62
7
 10
825.7
 20
497.7
 11
826.7
 21
497.7
  0
LINE
  8
0
  6
CENTER
 62
7
 10
825.7
 20
560.9
 11
826.7
 21
560.9
  0
LINE
  8
0
  6
CENTER
 62
7
 10
825.7
 20
608.3
 11
825.7
 21
588.4
  0
LINE
  8
0
  6
CENTER
 62
7
 10
825.7
 20
510.3
 11
826.7
 21
510.3
  0
LINE
  8
0
  6
CENTER
 62
7
 10
825.7
 20
512.7
 11
826.7
 21
512.7
  0
LINE
  8
0
  6
CENTER
 62
7
 10
825.7
 20
497.0
 11
826.7
 21
497.0
  0
LINE
  8
0
  6
CENTER
 62
7
 10
825.7
 20
491.8
 11
826.7
 21
491.8
  0
LINE
  8
0
  6
CENTER
 62
7
 10
825.7
 20
554.0
 11
826.7
 21
554.0
  0
LINE
  8
0
  6
CENTER
 62
7
 10
825.7
 20
581.3
 11
826.7
 21
581.3
  0
LINE
  8
0
  6
CENTER
 62
7
 10
825.7
 20
561.9
 11
826.7
 21
561.9
  0
LINE
  8
0
  6
CENTER
 62
7
 10
825.7
 20
543.9
 11
826.7
 21
543.9
  0
LINE
  8
0
  6
CENTER
 62
7
 10
825.7
 20
604.8
 11
826.7
 21
604.8
  0
LINE
  8
0
  6
CENTER
 62
7
 10
825.7
 20
520.5
 11
826.7
 21
520.5
  0
LINE
  8
0
  6
CENTER
 62
7
 10
825.7
 20
553.2
 11
826.7
 21
553.2
  0
LINE
  8
0
  6
CENTER
 62
7
 10
825.7
 20
553.8
 11
826.7
 21
553.8
  0
LINE
  8
0
  6
CENTER
 62
7
 10
825.7
 20
497.9
 11
826.7
 21
497.9
  0
LINE
  8
0
  6
CENTER
 62
7
 10
825.7
 20
554.3
 11
826.7
 21
554.3
  0
LINE
  8
0
  6
CENTER
 62
7
 10
825.7
 20
498.6
 11
826.7
 21
498.6
  0
LINE
  8
0
  6
CENTER
 62
7
 10
825.7
 20
536.0
 11
826.7
 21
536.0
  0
LINE
  8
0
  6
CENTER
 62
7
 10
825.7
 20
512.9
 11
826.7
 21
512.9
  0
LINE
  8
0
  6
CENTER
 62
7
 10
825.7
 20
542.2
 11
826.7
 21
542.2
  0
LINE
  8
0
  6
CENTER
 62
7
 10
825.7
 20
492.2
 11
826.7
 21
492.2
  0
LINE
  8
0
  6
CENTER
 62
7
 10
825.7
 20
579.2
 11
826.7
 21
579.2
  0
LINE
  8
0
  6
CENTER
 62
7
 10
825.7
 20
572.0
 11
826.7
 21
572.0
  0
LINE
  8
0
  6
CENTER
 62
7
 10
825.7
 20
537.4
 11
826.7
 21
537.4
  0
LINE
  8
0
  6
CENTER
 62
7
 10
825.7
 20
513.2
 11
826.7
 21
513.2
  0
LINE
  8
0
  6
CENTER
 62
7
 10
825.7
 20
548.5
 11
826.7
 21
548.5
  0
LINE
  8
0
  6
CENTER
 62
7
 10
825.7
 20
552.8
 11
826.7
 21
552.8
  0
LINE
  8
0
  6
CENTER
 62
7
 10
825.7
 20
551.6
 11
826.7
 21
551.6
  0
LINE
  8
0
  6
CENTER
 62
7
 10
825.7
 20
581.6
 11
826.7
 21
581.6
  0
LINE
  8
0
  6
CENTER
 62
7
 10
825.7
 20
533.5
 11
826.7
 21
533.5
  0
LINE
  8
0
  6
CENTER
 62
7
 10
825.7
 20
612.3
 11
826.7
 21
612.3
  0
LINE
  8
0
  6
CENTER
 62
7
 10
825.7
 20
512.1
 11
826.7
 21
512.1
  0
LINE
  8
0
  6
CENTER
 62
7
 10
825.7
 20
499.8
 11
826.7
 21
499.8
  0
LINE
  8
0
  6
CENTER
 62
7
 10
825.7
 20
513.6
 11
826.7
 21
513.6
  0
LINE
  8
0
  6
CENTER
 62
7
 10
825.7
 20
577.7
 11
826.7
 21
577.7
  0
LINE
  8
0
  6
CENTER
 62
7
 10
825.7
 20
580.4
 11
826.7
 21
580.4
  0
LINE
  8
0
  6
CENTER
 62
7
 10
825.7
 20
501.3
 11
826.7
 21
501.3
  0
LINE
  8
0
  6
CENTER
 62
7
 10
825.7
 20
590.0
 11
826.7
 21
590.0
  0
LINE
  8
0
  6
CENTER
 62
7
 10
825.7
 20
512.5
 11
826.7
 21
512.5
  0
LINE
  8
0
  6
CENTER
 62
7
 10
825.7
 20
514.1
 11
826.7
 21
514.1
  0
LINE
  8
0
  6
CENTER
 62
7
 10
825.7
 20
588.4
 11
826.7
 21
588.4
  0
LINE
  8
0
  6
CENTER
 62
7
 10
825.7
 20
539.0
 11
826.7
 21
539.0
  0
LINE
  8
0
  6
CENTER
 62
7
 10
825.7
 20
613.3
 11
826.7
 21
613.3
  0
LINE
  8
0
  6
CENTER
 62
7
 10
825.7
 20
554.2
 11
826.7
 21
554.2
  0
LINE
  8
0
  6
CENTER
 62
7
 10
825.7
 20
563.7
 11
826.7
 21
563.7
  0
LINE
  8
0
  6
CENTER
 62
7
 10
825.7
 20
550.8
 11
826.7
 21
550.8
  0
LINE
  8
0
  6
CENTER
 62
7
 10
825.7
 20
608.3
 11
826.7
 21
608.3
  0
LINE
  8
0
  6
CENTER
 62
7
 10
825.7
 20
554.6
 11
826.7
 21
554.6
  0
LINE
  8
0
  6
CENTER
 62
7
 10
825.7
 20
603.8
 11
826.7
 21
603.8
  0
LINE
  8
0
  6
CENTER
 62
7
 10
825.7
 20
512.5
 11
826.7
 21
512.5
  0
LINE
  8
0
  6
CENTER
 62
7
 10
825.7
 20
581.5
 11
826.7
 21
581.5
  0
LINE
  8
0
  6
CENTER
 62
7
 10
825.7
 20
554.0
 11
826.7
 21
554.0
  0
LINE
  8
0
  6
CENTER
 62
7
 10
825.7
 20
562.6
 11
826.7
 21
562.6
  0
LINE
  8
0
  6
CENTER
 62
7
 10
825.7
 20
503.0
 11
826.7
 21
503.0
  0
LINE
  8
0
  6
CENTER
 62
7
 10
825.7
 20
552.3
 11
826.7
 21
552.3
  0
LINE
  8
0
  6
CENTER
 62
7
 10
825.7
 20
574.0
 11
826.7
 21
574.0
  0
LINE
  8
0
  6
CENTER
 62
7
 10
825.7
 20
581.1
 11
826.7
 21
581.1
  0
LINE
  8
0
  6
CENTER
 62
7
 10
825.7
 20
607.3
 11
826.7
 21
607.3
  0
LINE
  8
0
  6
CENTER
 62
7
 10
825.7
 20
553.6
 11
826.7
 21
553.6
  0
LINE
  8
0
  6
CENTER
 62
7
 10
825.7
 20
555.6
 11
826.7
 21
555.6
  0
LINE
  8
0
  6
CENTER
 62
7
 10
825.7
 20
554.0
 11
826.7
 21
554.0
  0
LINE
  8
0
  6
CENTER
 62
7
 10
825.7
 20
582.5
 11
826.7
 21
582.5
  0
LINE
  8
0
  6
CENTER
 62
7
 10
825.7
 20
581.8
 11
826.7
 21
581.8
  0
LINE
  8
0
  6
CENTER
 62
7
 10
825.7
 20
492.9
 11
826.7
 21
492.9
  0
LINE
  8
0
  6
CENTER
 62
7
 10
825.7
 20
589.0
 11
826.7
 21
589.0
  0
LINE
  8
0
  6
CENTER
 62
7
 10
825.7
 20
512.4
 11
826.7
 21
512.4
  0
LINE
  8
0
  6
CENTER
 62
7
 10
814.1
 20
402.4
 11
814.1
 21
398.7
  0
LINE
  8
0
  6
CONTINUOUS
 62
1
 10
729.6
 20
1541.6
 11
729.6
 21
1544.2
  0
LINE
  8
0
  6
CONTINUOUS
 62
1
 10
519.6
 20
1543.3
 11
519.6
 21
1553.3
  0
ENDSEC
  0
EOF
