  0
SECTION
  2
HEADER
  9
$LIMMIN
 10
0.000000
 20
0.000000
  9
$LIMMAX
 10
840.896415
 20
594.603557
  9
$EXTMIN
 10
0.000000
 20
0.000000
  9
$EXTMAX
 10
3363.600000
 20
2378.420000
  9
$ANGBASE
 50
0.0
  9
$ANGDIR
 70
0
  9
$DIMRND
 40
0.100000
  9
$DIMSE1
 70
0
  9
$DIMSE2
 70
0
  9
$DIMTXT
 40
3.500000
  9
$LTSCALE
 40
1.000000
  9
$LUPREC
 70
5
  9
$AUPREC
 70
5
  9
$PDMODE
 70
2
  9
$PDSIZE
 40
16.818000
  0
ENDSEC
  0
SECTION
  2
TABLES
  0
TABLE
  2
VPORT
  70
1
  0
VPORT
  2
*ACTIVE
 70
0
  10
0.0
 20
0.0
 11
1.0
 21
1.0
 12
594.0
 22
420.0
 13
0.0
 23
0.0
 14
10.0
 24
10.0
 15
10.0
 25
10.0
 16
0.0
 26
0.0
 36
1.0
 17
594.0
 27
420.0
 37
100.0
 40
1000.0
 41
1.0
 42
50.0
 43
0.0
 44
0.0
 50
0.0
 51
0.0
 71
0
 72
2000
 73
1
 74
3
 75
0
 76
0
 77
0
 78
1
  0
ENDTAB
  0
TABLE
  2
LTYPE
 70
4
  0
LTYPE
  2
CONTINUOUS
 70
0
  3
Solid line
 72
65
 73
0
 40
0.0
  0
LTYPE
  2
DASHED
 70
0
  3
Dashed line
 72
65
 73
2
 40
6.000000
 49
3.000000
 49
-3.000000
  0
LTYPE
  2
CENTER
 70
0
  3
Chain line
 72
65
 73
4
 40
24.000000
 49
15.000000
 49
-3.000000
 49
3.000000
 49
-3.000000
  0
LTYPE
  2
RANDOM
 70
0
  3
Random line
 72
65
 73
4
 40
22.500000
 49
6.000000
 49
-3.000000
 49
4.500000
 49
-9.000000
  0
ENDTAB
  0
TABLE
  2
STYLE
 70
9
  0
STYLE
  2
STANDARD
 40
0
 41
1.0
 50
0.0
 71
0
 42
0
  3
simplex
  4

 70
0
  0
ENDTAB
  0
TABLE
  2
LAYER
 70
2
  0
LAYER
  2
0
 70
0
 62
7
  6
CONTINUOUS
  0
LAYER
  2
0
 62
1
  6
CONTINUOUS
 70
0
  0
ENDTAB
  0
ENDSEC
  0
SECTION
  2
BLOCKS
  0
BLOCK
  2
350-KNOB
  8
0
 70
0
 10
0.0
 20
0.0
 30
0.0
  0
CIRCLE
  8
0
  6
CONTINUOUS
 62
1
 10
28.000000
 20
28.000000
 40
28.000000
  0
ARC
  8
0
  6
CONTINUOUS
 62
1
 10
28.000011
 20
39.000000
 40
2.500000
 50
270.000000
 51
0.000000
  0
ARC
  8
0
  6
CONTINUOUS
 62
1
 10
28.000011
 20
39.000000
 40
2.500000
 50
180.000000
 51
270.000000
  0
LINE
  8
0
  6
CONTINUOUS
 62
1
 10
30.500011
 20
39.000000
 11
30.500011
 21
46.330292
  0
LINE
  8
0
  6
CONTINUOUS
 62
1
 10
25.500011
 20
39.000000
 11
25.500011
 21
46.330292
  0
ARC
  8
0
  6
CONTINUOUS
 62
1
 10
28.000000
 20
28.000000
 40
18.500000
 50
90.000000
 51
82.233551
  0
ARC
  8
0
  6
CONTINUOUS
 62
1
 10
28.000000
 20
28.000000
 40
18.500000
 50
82.233528
 51
90.000000
  0
ENDBLK
  0
ENDSEC
  0
SECTION
  2
ENTITIES
  0
LINE
  8
0
  6
CONTINUOUS
 62
1
 10
914.632649
 20
1082.322661
 11
932.632618
 21
1082.322661
  0
LINE
  8
0
  6
CONTINUOUS
 62
1
 10
914.632649
 20
1077.322661
 11
932.632618
 21
1077.322661
  0
LINE
  8
0
  6
CONTINUOUS
 62
1
 10
932.632618
 20
1082.322661
 11
932.632618
 21
1077.322661
  0
LINE
  8
0
  6
CONTINUOUS
 62
1
 10
914.632649
 20
1107.322661
 11
932.632618
 21
1107.322661
  0
LINE
  8
0
  6
CONTINUOUS
 62
1
 10
914.632649
 20
1102.322661
 11
932.632618
 21
1102.322661
  0
LINE
  8
0
  6
CONTINUOUS
 62
1
 10
932.632618
 20
1107.322661
 11
932.632618
 21
1102.322661
  0
LINE
  8
0
  6
CONTINUOUS
 62
1
 10
914.632649
 20
1132.322661
 11
932.632618
 21
1132.322661
  0
LINE
  8
0
  6
CONTINUOUS
 62
1
 10
914.632649
 20
1127.322661
 11
932.632618
 21
1127.322661
  0
LINE
  8
0
  6
CONTINUOUS
 62
1
 10
932.632618
 20
1132.322661
 11
932.632618
 21
1127.322661
  0
LINE
  8
0
  6
CONTINUOUS
 62
1
 10
914.632649
 20
1157.322661
 11
932.632618
 21
1157.322661
  0
LINE
  8
0
  6
CONTINUOUS
 62
1
 10
914.632649
 20
1152.322661
 11
932.632618
 21
1152.322661
  0
LINE
  8
0
  6
CONTINUOUS
 62
1
 10
932.632618
 20
1157.322661
 11
932.632618
 21
1152.322661
  0
LINE
  8
0
  6
CONTINUOUS
 62
1
 10
914.632649
 20
1182.322661
 11
932.632618
 21
1182.322661
  0
LINE
  8
0
  6
CONTINUOUS
 62
1
 10
914.632649
 20
1177.322661
 11
932.632618
 21
1177.322661
  0
LINE
  8
0
  6
CONTINUOUS
 62
1
 10
932.632618
 20
1182.322661
 11
932.632618
 21
1177.322661
  0
LINE
  8
0
  6
CONTINUOUS
 62
1
 10
914.632649
 20
1207.322661
 11
932.632618
 21
1207.322661
  0
LINE
  8
0
  6
CONTINUOUS
 62
1
 10
914.632649
 20
1202.322661
 11
932.632618
 21
1202.322661
  0
LINE
  8
0
  6
CONTINUOUS
 62
1
 10
932.632618
 20
1207.322661
 11
932.632618
 21
1202.322661
  0
LINE
  8
0
  6
CONTINUOUS
 62
1
 10
879.632618
 20
1473.204619
 11
879.632618
 21
998.204619
  0
LINE
  8
0
  6
CONTINUOUS
 62
1
 10
914.632649
 20
1283.204619
 11
914.632649
 21
998.204619
  0
LINE
  8
0
  6
CONTINUOUS
 62
1
 10
914.632649
 20
1232.322661
 11
932.632618
 21
1232.322661
  0
LINE
  8
0
  6
CONTINUOUS
 62
1
 10
914.632649
 20
1227.322661
 11
932.632618
 21
1227.322661
  0
LINE
  8
0
  6
CONTINUOUS
 62
1
 10
932.632618
 20
1232.322661
 11
932.632618
 21
1227.322661
  0
LINE
  8
0
  6
CONTINUOUS
 62
1
 10
898.132618
 20
1503.204619
 11
898.132618
 21
1473.204619
  0
LINE
  8
0
  6
CONTINUOUS
 62
1
 10
1679.632618
 20
998.204619
 11
879.632618
 21
998.204619
  0
LINE
  8
0
  6
CONTINUOUS
 62
1
 10
1524.632618
 20
1058.204619
 11
914.632649
 21
1058.204619
  0
LINE
  8
0
  6
CONTINUOUS
 62
1
 10
1524.632618
 20
1048.204619
 11
914.632649
 21
1048.204619
  0
LINE
  8
0
  6
CONTINUOUS
 62
1
 10
1679.632618
 20
1473.204619
 11
1679.632618
 21
998.204619
  0
LINE
  8
0
  6
CONTINUOUS
 62
1
 10
1524.632618
 20
1283.204619
 11
1524.632618
 21
998.204619
  0
LINE
  8
0
  6
CONTINUOUS
 62
1
 10
1524.632618
 20
1082.322661
 11
1506.632618
 21
1082.322661
  0
LINE
  8
0
  6
CONTINUOUS
 62
1
 10
1524.632618
 20
1077.322661
 11
1506.632618
 21
1077.322661
  0
LINE
  8
0
  6
CONTINUOUS
 62
1
 10
1506.632618
 20
1082.322661
 11
1506.632618
 21
1077.322661
  0
LINE
  8
0
  6
CONTINUOUS
 62
1
 10
1524.632618
 20
1107.322661
 11
1506.632618
 21
1107.322661
  0
LINE
  8
0
  6
CONTINUOUS
 62
1
 10
1524.632618
 20
1102.322661
 11
1506.632618
 21
1102.322661
  0
LINE
  8
0
  6
CONTINUOUS
 62
1
 10
1506.632618
 20
1107.322661
 11
1506.632618
 21
1102.322661
  0
LINE
  8
0
  6
CONTINUOUS
 62
1
 10
1524.632618
 20
1132.322661
 11
1506.632618
 21
1132.322661
  0
LINE
  8
0
  6
CONTINUOUS
 62
1
 10
1524.632618
 20
1127.322661
 11
1506.632618
 21
1127.322661
  0
LINE
  8
0
  6
CONTINUOUS
 62
1
 10
1506.632618
 20
1132.322661
 11
1506.632618
 21
1127.322661
  0
LINE
  8
0
  6
CONTINUOUS
 62
1
 10
1524.632618
 20
1157.322661
 11
1506.632618
 21
1157.322661
  0
LINE
  8
0
  6
CONTINUOUS
 62
1
 10
1524.632618
 20
1152.322661
 11
1506.632618
 21
1152.322661
  0
LINE
  8
0
  6
CONTINUOUS
 62
1
 10
1506.632618
 20
1157.322661
 11
1506.632618
 21
1152.322661
  0
LINE
  8
0
  6
CONTINUOUS
 62
1
 10
1524.632618
 20
1182.322661
 11
1506.632618
 21
1182.322661
  0
LINE
  8
0
  6
CONTINUOUS
 62
1
 10
1524.632618
 20
1177.322661
 11
1506.632618
 21
1177.322661
  0
LINE
  8
0
  6
CONTINUOUS
 62
1
 10
1506.632618
 20
1182.322661
 11
1506.632618
 21
1177.322661
  0
LINE
  8
0
  6
CONTINUOUS
 62
1
 10
1524.632618
 20
1207.322661
 11
1506.632618
 21
1207.322661
  0
LINE
  8
0
  6
CONTINUOUS
 62
1
 10
1524.632618
 20
1202.322661
 11
1506.632618
 21
1202.322661
  0
LINE
  8
0
  6
CONTINUOUS
 62
1
 10
1506.632618
 20
1207.322661
 11
1506.632618
 21
1202.322661
  0
LINE
  8
0
  6
CONTINUOUS
 62
1
 10
1679.632618
 20
1283.204619
 11
879.632618
 21
1283.204619
  0
LINE
  8
0
  6
CONTINUOUS
 62
1
 10
1661.132618
 20
1503.204619
 11
898.132618
 21
1503.204619
  0
LINE
  8
0
  6
CONTINUOUS
 62
1
 10
1679.632618
 20
1473.204619
 11
879.632618
 21
1473.204619
  0
LINE
  8
0
  6
CONTINUOUS
 62
1
 10
1524.632618
 20
1232.322661
 11
1506.632618
 21
1232.322661
  0
LINE
  8
0
  6
CONTINUOUS
 62
1
 10
1524.632618
 20
1227.322661
 11
1506.632618
 21
1227.322661
  0
LINE
  8
0
  6
CONTINUOUS
 62
1
 10
1506.632618
 20
1232.322661
 11
1506.632618
 21
1227.322661
  0
LINE
  8
0
  6
CONTINUOUS
 62
1
 10
1661.132618
 20
1503.204619
 11
1661.132618
 21
1473.204619
  0
LINE
  8
0
  6
CONTINUOUS
 62
7
 10
1026.489631
 20
1377.729181
 11
1026.411954
 21
1379.313058
  0
LINE
  8
0
  6
CONTINUOUS
 62
7
 10
1026.411954
 20
1379.313058
 11
1026.180820
 21
1380.540548
  0
LINE
  8
0
  6
CONTINUOUS
 62
7
 10
1026.180820
 20
1380.540548
 11
1025.798946
 21
1381.417257
  0
LINE
  8
0
  6
CONTINUOUS
 62
7
 10
1025.798946
 20
1381.417257
 11
1025.243452
 21
1382.001522
  0
LINE
  8
0
  6
CONTINUOUS
 62
7
 10
1025.243452
 20
1382.001522
 11
1024.487860
 21
1382.350066
  0
LINE
  8
0
  6
CONTINUOUS
 62
7
 10
1024.487860
 20
1382.350066
 11
1023.529452
 21
1382.465603
  0
LINE
  8
0
  6
CONTINUOUS
 62
7
 10
1023.529452
 20
1382.465603
 11
1022.570989
 21
1382.345930
  0
LINE
  8
0
  6
CONTINUOUS
 62
7
 10
1022.570989
 20
1382.345930
 11
1021.815397
 21
1381.985068
  0
LINE
  8
0
  6
CONTINUOUS
 62
7
 10
1021.815397
 20
1381.985068
 11
1021.259875
 21
1381.380244
  0
LINE
  8
0
  6
CONTINUOUS
 62
7
 10
1021.259875
 20
1381.380244
 11
1020.877973
 21
1380.496711
  0
LINE
  8
0
  6
CONTINUOUS
 62
7
 10
1020.877973
 20
1380.496711
 11
1020.646838
 21
1379.278765
  0
LINE
  8
0
  6
CONTINUOUS
 62
7
 10
1020.646838
 20
1379.278765
 11
1020.569189
 21
1377.729181
  0
LINE
  8
0
  6
CONTINUOUS
 62
7
 10
1020.569189
 20
1377.729181
 11
1020.569189
 21
1364.112050
  0
LINE
  8
0
  6
CONTINUOUS
 62
7
 10
1020.569189
 20
1364.112050
 11
1020.643184
 21
1362.504075
  0
LINE
  8
0
  6
CONTINUOUS
 62
7
 10
1020.643184
 20
1362.504075
 11
1020.865173
 21
1361.255093
  0
LINE
  8
0
  6
CONTINUOUS
 62
7
 10
1020.865173
 20
1361.255093
 11
1021.235209
 21
1360.362441
  0
LINE
  8
0
  6
CONTINUOUS
 62
7
 10
1021.235209
 20
1360.362441
 11
1021.786172
 21
1359.774946
  0
LINE
  8
0
  6
CONTINUOUS
 62
7
 10
1021.786172
 20
1359.774946
 11
1022.550910
 21
1359.420484
  0
LINE
  8
0
  6
CONTINUOUS
 62
7
 10
1022.550910
 20
1359.420484
 11
1023.529452
 21
1359.301717
  0
LINE
  8
0
  6
CONTINUOUS
 62
7
 10
1023.529452
 20
1359.301717
 11
1024.470955
 21
1359.421391
  0
LINE
  8
0
  6
CONTINUOUS
 62
7
 10
1024.470955
 20
1359.421391
 11
1025.223318
 21
1359.782252
  0
LINE
  8
0
  6
CONTINUOUS
 62
7
 10
1025.223318
 20
1359.782252
 11
1025.786571
 21
1360.387076
  0
LINE
  8
0
  6
CONTINUOUS
 62
7
 10
1025.786571
 20
1360.387076
 11
1026.177168
 21
1361.284318
  0
LINE
  8
0
  6
CONTINUOUS
 62
7
 10
1026.177168
 20
1361.284318
 11
1026.411501
 21
1362.524154
  0
LINE
  8
0
  6
CONTINUOUS
 62
7
 10
1026.411501
 20
1362.524154
 11
1026.489631
 21
1364.112050
  0
LINE
  8
0
  6
CONTINUOUS
 62
7
 10
1026.489631
 20
1364.112050
 11
1026.489631
 21
1366.626103
  0
LINE
  8
0
  6
CONTINUOUS
 62
7
 10
1027.589631
 20
1367.726103
 11
1039.302887
 21
1367.726103
  0
LINE
  8
0
  6
CONTINUOUS
 62
7
 10
1040.402887
 20
1366.626103
 11
1040.402887
 21
1355.760289
  0
LINE
  8
0
  6
CONTINUOUS
 62
7
 10
1039.973977
 20
1354.888718
 11
1039.308182
 21
1354.376071
  0
LINE
  8
0
  6
CONTINUOUS
 62
7
 10
1039.308182
 20
1354.376071
 11
1038.145656
 21
1353.610964
  0
LINE
  8
0
  6
CONTINUOUS
 62
7
 10
1038.145656
 20
1353.610964
 11
1036.915306
 21
1352.923282
  0
LINE
  8
0
  6
CONTINUOUS
 62
7
 10
1036.915306
 20
1352.923282
 11
1035.617106
 21
1352.312680
  0
LINE
  8
0
  6
CONTINUOUS
 62
7
 10
1035.617106
 20
1352.312680
 11
1034.251084
 21
1351.778848
  0
LINE
  8
0
  6
CONTINUOUS
 62
7
 10
1034.251084
 20
1351.778848
 11
1032.817236
 21
1351.321393
  0
LINE
  8
0
  6
CONTINUOUS
 62
7
 10
1032.817236
 20
1351.321393
 11
1031.528976
 21
1350.983018
  0
LINE
  8
0
  6
CONTINUOUS
 62
7
 10
1031.528976
 20
1350.983018
 11
1030.180736
 21
1350.697284
  0
LINE
  8
0
  6
CONTINUOUS
 62
7
 10
1030.180736
 20
1350.697284
 11
1028.772974
 21
1350.463998
  0
LINE
  8
0
  6
CONTINUOUS
 62
7
 10
1028.772974
 20
1350.463998
 11
1027.306109
 21
1350.282930
  0
LINE
  8
0
  6
CONTINUOUS
 62
7
 10
1027.306109
 20
1350.282930
 11
1025.780538
 21
1350.153853
  0
LINE
  8
0
  6
CONTINUOUS
 62
7
 10
1025.780538
 20
1350.153853
 11
1024.196690
 21
1350.076574
  0
LINE
  8
0
  6
CONTINUOUS
 62
7
 10
1024.196690
 20
1350.076574
 11
1022.555046
 21
1350.050860
  0
LINE
  8
0
  6
CONTINUOUS
 62
7
 10
1022.555046
 20
1350.050860
 11
1020.738532
 21
1350.083427
  0
LINE
  8
0
  6
CONTINUOUS
 62
7
 10
1020.738532
 20
1350.083427
 11
1019.033708
 21
1350.181210
  0
LINE
  8
0
  6
CONTINUOUS
 62
7
 10
1019.033708
 20
1350.181210
 11
1017.440486
 21
1350.344268
  0
LINE
  8
0
  6
CONTINUOUS
 62
7
 10
1017.440486
 20
1350.344268
 11
1015.958784
 21
1350.572654
  0
LINE
  8
0
  6
CONTINUOUS
 62
7
 10
1015.958784
 20
1350.572654
 11
1014.588540
 21
1350.866486
  0
LINE
  8
0
  6
CONTINUOUS
 62
7
 10
1014.588540
 20
1350.866486
 11
1013.329702
 21
1351.225790
  0
LINE
  8
0
  6
CONTINUOUS
 62
7
 10
1013.329702
 20
1351.225790
 11
1012.182127
 21
1351.650681
  0
LINE
  8
0
  6
CONTINUOUS
 62
7
 10
1012.182127
 20
1351.650681
 11
1011.145815
 21
1352.141212
  0
LINE
  8
0
  6
CONTINUOUS
 62
7
 10
1011.145815
 20
1352.141212
 11
1010.220653
 21
1352.697469
  0
LINE
  8
0
  6
CONTINUOUS
 62
7
 10
1010.220653
 20
1352.697469
 11
1009.406614
 21
1353.319513
  0
LINE
  8
0
  6
CONTINUOUS
 62
7
 10
1009.406614
 20
1353.319513
 11
1008.610357
 21
1354.107557
  0
LINE
  8
0
  6
CONTINUOUS
 62
7
 10
1008.610357
 20
1354.107557
 11
1007.907408
 21
1355.016293
  0
LINE
  8
0
  6
CONTINUOUS
 62
7
 10
1007.907408
 20
1355.016293
 11
1007.297854
 21
1356.045867
  0
LINE
  8
0
  6
CONTINUOUS
 62
7
 10
1007.297854
 20
1356.045867
 11
1006.781809
 21
1357.196328
  0
LINE
  8
0
  6
CONTINUOUS
 62
7
 10
1006.781809
 20
1357.196328
 11
1006.359354
 21
1358.467796
  0
LINE
  8
0
  6
CONTINUOUS
 62
7
 10
1006.359354
 20
1358.467796
 11
1006.030606
 21
1359.860383
  0
LINE
  8
0
  6
CONTINUOUS
 62
7
 10
1006.030606
 20
1359.860383
 11
1005.795677
 21
1361.374172
  0
LINE
  8
0
  6
CONTINUOUS
 62
7
 10
1005.795677
 20
1361.374172
 11
1005.654624
 21
1363.009276
  0
LINE
  8
0
  6
CONTINUOUS
 62
7
 10
1005.654624
 20
1363.009276
 11
1005.607586
 21
1364.765838
  0
LINE
  8
0
  6
CONTINUOUS
 62
7
 10
1005.607586
 20
1364.765838
 11
1005.607586
 21
1377.050871
  0
LINE
  8
0
  6
CONTINUOUS
 62
7
 10
1005.607586
 20
1377.050871
 11
1005.654171
 21
1378.781351
  0
LINE
  8
0
  6
CONTINUOUS
 62
7
 10
1005.654171
 20
1378.781351
 11
1005.793978
 21
1380.395784
  0
LINE
  8
0
  6
CONTINUOUS
 62
7
 10
1005.793978
 20
1380.395784
 11
1006.026954
 21
1381.894195
  0
LINE
  8
0
  6
CONTINUOUS
 62
7
 10
1006.026954
 20
1381.894195
 11
1006.353095
 21
1383.276558
  0
LINE
  8
0
  6
CONTINUOUS
 62
7
 10
1006.353095
 20
1383.276558
 11
1006.772464
 21
1384.542872
  0
LINE
  8
0
  6
CONTINUOUS
 62
7
 10
1006.772464
 20
1384.542872
 11
1007.285026
 21
1385.693166
  0
LINE
  8
0
  6
CONTINUOUS
 62
7
 10
1007.285026
 20
1385.693166
 11
1007.890757
 21
1386.727410
  0
LINE
  8
0
  6
CONTINUOUS
 62
7
 10
1007.890757
 20
1386.727410
 11
1008.589712
 21
1387.645635
  0
LINE
  8
0
  6
CONTINUOUS
 62
7
 10
1008.589712
 20
1387.645635
 11
1009.381862
 21
1388.447810
  0
LINE
  8
0
  6
CONTINUOUS
 62
7
 10
1009.381862
 20
1388.447810
 11
1010.188540
 21
1389.083898
  0
LINE
  8
0
  6
CONTINUOUS
 62
7
 10
1010.188540
 20
1389.083898
 11
1011.098891
 21
1389.652702
  0
LINE
  8
0
  6
CONTINUOUS
 62
7
 10
1011.098891
 20
1389.652702
 11
1012.113032
 21
1390.154333
  0
LINE
  8
0
  6
CONTINUOUS
 62
7
 10
1012.113032
 20
1390.154333
 11
1013.230984
 21
1390.588822
  0
LINE
  8
0
  6
CONTINUOUS
 62
7
 10
1013.230984
 20
1390.588822
 11
1014.452840
 21
1390.956281
  0
LINE
  8
0
  6
CONTINUOUS
 62
7
 10
1014.452840
 20
1390.956281
 11
1015.778707
 21
1391.256768
  0
LINE
  8
0
  6
CONTINUOUS
 62
7
 10
1015.778707
 20
1391.256768
 11
1017.208588
 21
1391.490340
  0
LINE
  8
0
  6
CONTINUOUS
 62
7
 10
1017.208588
 20
1391.490340
 11
1018.742624
 21
1391.657078
  0
LINE
  8
0
  6
CONTINUOUS
 62
7
 10
1018.742624
 20
1391.657078
 11
1020.380843
 21
1391.757070
  0
LINE
  8
0
  6
CONTINUOUS
 62
7
 10
1020.380843
 20
1391.757070
 11
1022.123360
 21
1391.790400
  0
LINE
  8
0
  6
CONTINUOUS
 62
7
 10
1022.123360
 20
1391.790400
 11
1023.655554
 21
1391.763243
  0
LINE
  8
0
  6
CONTINUOUS
 62
7
 10
1023.655554
 20
1391.763243
 11
1025.154561
 21
1391.681940
  0
LINE
  8
0
  6
CONTINUOUS
 62
7
 10
1025.154561
 20
1391.681940
 11
1026.620322
 21
1391.546721
  0
LINE
  8
0
  6
CONTINUOUS
 62
7
 10
1026.620322
 20
1391.546721
 11
1028.052863
 21
1391.357752
  0
LINE
  8
0
  6
CONTINUOUS
 62
7
 10
1028.052863
 20
1391.357752
 11
1029.452191
 21
1391.115290
  0
LINE
  8
0
  6
CONTINUOUS
 62
7
 10
1029.452191
 20
1391.115290
 11
1030.818299
 21
1390.819533
  0
LINE
  8
0
  6
CONTINUOUS
 62
7
 10
1030.818299
 20
1390.819533
 11
1032.151188
 21
1390.470677
  0
LINE
  8
0
  6
CONTINUOUS
 62
7
 10
1032.151188
 20
1390.470677
 11
1033.660078
 21
1389.997847
  0
LINE
  8
0
  6
CONTINUOUS
 62
7
 10
1033.660078
 20
1389.997847
 11
1035.115501
 21
1389.455124
  0
LINE
  8
0
  6
CONTINUOUS
 62
7
 10
1035.115501
 20
1389.455124
 11
1036.517517
 21
1388.842512
  0
LINE
  8
0
  6
CONTINUOUS
 62
7
 10
1036.517517
 20
1388.842512
 11
1037.866069
 21
1388.159982
  0
LINE
  8
0
  6
CONTINUOUS
 62
7
 10
1037.866069
 20
1388.159982
 11
1039.161211
 21
1387.407562
  0
LINE
  8
0
  6
CONTINUOUS
 62
7
 10
1039.161211
 20
1387.407562
 11
1039.910241
 21
1386.911528
  0
LINE
  8
0
  6
CONTINUOUS
 62
7
 10
1040.402887
 20
1385.994401
 11
1040.402887
 21
1376.880450
  0
LINE
  8
0
  6
CONTINUOUS
 62
7
 10
1039.302887
 20
1375.780450
 11
1027.589631
 21
1375.780450
  0
LINE
  8
0
  6
CONTINUOUS
 62
7
 10
1026.489631
 20
1376.880450
 11
1026.489631
 21
1377.729181
  0
LINE
  8
0
  6
CONTINUOUS
 62
7
 10
913.787893
 20
1365.518174
 11
913.853677
 21
1363.975501
  0
LINE
  8
0
  6
CONTINUOUS
 62
7
 10
913.853677
 20
1363.975501
 11
914.051057
 21
1362.772675
  0
LINE
  8
0
  6
CONTINUOUS
 62
7
 10
914.051057
 20
1362.772675
 11
914.380032
 21
1361.904207
  0
LINE
  8
0
  6
CONTINUOUS
 62
7
 10
914.380032
 20
1361.904207
 11
914.882032
 21
1361.280664
  0
LINE
  8
0
  6
CONTINUOUS
 62
7
 10
914.882032
 20
1361.280664
 11
915.575945
 21
1360.796873
  0
LINE
  8
0
  6
CONTINUOUS
 62
7
 10
915.575945
 20
1360.796873
 11
915.753298
 21
1360.729850
  0
LINE
  8
0
  6
CONTINUOUS
 62
7
 10
916.464435
 20
1359.700877
 11
916.464435
 21
1351.804619
  0
LINE
  8
0
  6
CONTINUOUS
 62
7
 10
915.364435
 20
1350.704619
 11
895.732618
 21
1350.704619
  0
LINE
  8
0
  6
CONTINUOUS
 62
7
 10
894.632618
 20
1351.804619
 11
894.632618
 21
1359.866004
  0
LINE
  8
0
  6
CONTINUOUS
 62
7
 10
895.130725
 20
1360.786724
 11
895.304190
 21
1360.900121
  0
LINE
  8
0
  6
CONTINUOUS
 62
7
 10
895.304190
 20
1360.900121
 11
895.819498
 21
1361.448761
  0
LINE
  8
0
  6
CONTINUOUS
 62
7
 10
895.819498
 20
1361.448761
 11
896.186788
 21
1362.101558
  0
LINE
  8
0
  6
CONTINUOUS
 62
7
 10
896.186788
 20
1362.101558
 11
896.424778
 21
1362.957226
  0
LINE
  8
0
  6
CONTINUOUS
 62
7
 10
896.424778
 20
1362.957226
 11
896.569597
 21
1364.095174
  0
LINE
  8
0
  6
CONTINUOUS
 62
7
 10
896.569597
 20
1364.095174
 11
896.618475
 21
1365.518174
  0
LINE
  8
0
  6
CONTINUOUS
 62
7
 10
896.618475
 20
1365.518174
 11
896.618475
 21
1391.025691
  0
LINE
  8
0
  6
CONTINUOUS
 62
7
 10
896.618475
 20
1391.025691
 11
896.569597
 21
1392.448237
  0
LINE
  8
0
  6
CONTINUOUS
 62
7
 10
896.569597
 20
1392.448237
 11
896.424778
 21
1393.583041
  0
LINE
  8
0
  6
CONTINUOUS
 62
7
 10
896.424778
 20
1393.583041
 11
896.186788
 21
1394.430015
  0
LINE
  8
0
  6
CONTINUOUS
 62
7
 10
896.186788
 20
1394.430015
 11
895.819498
 21
1395.079640
  0
LINE
  8
0
  6
CONTINUOUS
 62
7
 10
895.819498
 20
1395.079640
 11
895.304190
 21
1395.622334
  0
LINE
  8
0
  6
CONTINUOUS
 62
7
 10
895.304190
 20
1395.622334
 11
895.133864
 21
1395.732853
  0
LINE
  8
0
  6
CONTINUOUS
 62
7
 10
894.632618
 20
1396.655616
 11
894.632618
 21
1404.603655
  0
LINE
  8
0
  6
CONTINUOUS
 62
7
 10
895.732618
 20
1405.703655
 11
933.434379
 21
1405.703655
  0
LINE
  8
0
  6
CONTINUOUS
 62
7
 10
934.534379
 20
1404.603655
 11
934.534379
 21
1389.073422
  0
LINE
  8
0
  6
CONTINUOUS
 62
7
 10
933.434379
 20
1387.973422
 11
920.820712
 21
1387.973422
  0
LINE
  8
0
  6
CONTINUOUS
 62
7
 10
919.609704
 20
1390.175543
 11
919.276708
 21
1391.699102
  0
LINE
  8
0
  6
CONTINUOUS
 62
7
 10
919.276708
 20
1391.699102
 11
918.721668
 21
1392.715535
  0
LINE
  8
0
  6
CONTINUOUS
 62
7
 10
918.721668
 20
1392.715535
 11
917.876080
 21
1393.344091
  0
LINE
  8
0
  6
CONTINUOUS
 62
7
 10
917.876080
 20
1393.344091
 11
916.652214
 21
1393.723274
  0
LINE
  8
0
  6
CONTINUOUS
 62
7
 10
916.652214
 20
1393.723274
 11
915.058342
 21
1393.850282
  0
LINE
  8
0
  6
CONTINUOUS
 62
7
 10
915.058342
 20
1393.850282
 11
914.887893
 21
1393.850282
  0
LINE
  8
0
  6
CONTINUOUS
 62
7
 10
913.787893
 20
1392.750282
 11
913.787893
 21
1384.577053
  0
LINE
  8
0
  6
CONTINUOUS
 62
7
 10
914.887893
 20
1383.477053
 11
923.529849
 21
1383.477053
  0
LINE
  8
0
  6
CONTINUOUS
 62
7
 10
924.629849
 20
1382.377053
 11
924.629849
 21
1373.772110
  0
LINE
  8
0
  6
CONTINUOUS
 62
7
 10
923.529849
 20
1372.672110
 11
914.887893
 21
1372.672110
  0
LINE
  8
0
  6
CONTINUOUS
 62
7
 10
913.787893
 20
1371.572110
 11
913.787893
 21
1365.518174
  0
LINE
  8
0
  6
CONTINUOUS
 62
7
 10
982.517611
 20
1392.296110
 11
982.468734
 21
1393.522269
  0
LINE
  8
0
  6
CONTINUOUS
 62
7
 10
982.468734
 20
1393.522269
 11
982.323912
 21
1394.490731
  0
LINE
  8
0
  6
CONTINUOUS
 62
7
 10
982.323912
 20
1394.490731
 11
982.085925
 21
1395.206987
  0
LINE
  8
0
  6
CONTINUOUS
 62
7
 10
982.085925
 20
1395.206987
 11
981.718635
 21
1395.757526
  0
LINE
  8
0
  6
CONTINUOUS
 62
7
 10
981.718635
 20
1395.757526
 11
980.894365
 21
1396.502164
  0
LINE
  8
0
  6
CONTINUOUS
 62
7
 10
980.531755
 20
1397.318408
 11
980.531755
 21
1404.603655
  0
LINE
  8
0
  6
CONTINUOUS
 62
7
 10
981.631755
 20
1405.703655
 11
996.527262
 21
1405.703655
  0
LINE
  8
0
  6
CONTINUOUS
 62
7
 10
997.627262
 20
1404.603655
 11
997.627262
 21
1365.123500
  0
LINE
  8
0
  6
CONTINUOUS
 62
7
 10
997.627262
 20
1365.123500
 11
997.672940
 21
1363.643807
  0
LINE
  8
0
  6
CONTINUOUS
 62
7
 10
997.672940
 20
1363.643807
 11
997.811813
 21
1362.438235
  0
LINE
  8
0
  6
CONTINUOUS
 62
7
 10
997.811813
 20
1362.438235
 11
998.046573
 21
1361.509534
  0
LINE
  8
0
  6
CONTINUOUS
 62
7
 10
998.046573
 20
1361.509534
 11
998.379145
 21
1360.785941
  0
LINE
  8
0
  6
CONTINUOUS
 62
7
 10
998.379145
 20
1360.785941
 11
999.162888
 21
1359.804684
  0
LINE
  8
0
  6
CONTINUOUS
 62
7
 10
999.403392
 20
1359.118193
 11
999.403392
 21
1351.804619
  0
LINE
  8
0
  6
CONTINUOUS
 62
7
 10
998.303392
 20
1350.704619
 11
981.631755
 21
1350.704619
  0
LINE
  8
0
  6
CONTINUOUS
 62
7
 10
980.531755
 20
1351.804619
 11
980.531755
 21
1359.026222
  0
LINE
  8
0
  6
CONTINUOUS
 62
7
 10
980.842043
 20
1359.791959
 11
981.645518
 21
1360.620591
  0
LINE
  8
0
  6
CONTINUOUS
 62
7
 10
981.645518
 20
1360.620591
 11
982.024276
 21
1361.349222
  0
LINE
  8
0
  6
CONTINUOUS
 62
7
 10
982.024276
 20
1361.349222
 11
982.300183
 21
1362.294831
  0
LINE
  8
0
  6
CONTINUOUS
 62
7
 10
982.300183
 20
1362.294831
 11
982.463720
 21
1363.478937
  0
LINE
  8
0
  6
CONTINUOUS
 62
7
 10
982.463720
 20
1363.478937
 11
982.517611
 21
1364.901512
  0
LINE
  8
0
  6
CONTINUOUS
 62
7
 10
982.517611
 20
1364.901512
 11
982.517611
 21
1392.296110
  0
LINE
  8
0
  6
CONTINUOUS
 62
7
 10
958.500963
 20
1351.645803
 11
958.439753
 21
1352.065326
  0
LINE
  8
0
  6
CONTINUOUS
 62
7
 10
956.709257
 20
1352.799712
 11
955.333164
 21
1351.810594
  0
LINE
  8
0
  6
CONTINUOUS
 62
7
 10
955.333164
 20
1351.810594
 11
953.753931
 21
1351.025269
  0
LINE
  8
0
  6
CONTINUOUS
 62
7
 10
953.753931
 20
1351.025269
 11
952.456494
 21
1350.597263
  0
LINE
  8
0
  6
CONTINUOUS
 62
7
 10
952.456494
 20
1350.597263
 11
951.024915
 21
1350.292926
  0
LINE
  8
0
  6
CONTINUOUS
 62
7
 10
951.024915
 20
1350.292926
 11
949.459190
 21
1350.111178
  0
LINE
  8
0
  6
CONTINUOUS
 62
7
 10
949.459190
 20
1350.111178
 11
947.759349
 21
1350.050860
  0
LINE
  8
0
  6
CONTINUOUS
 62
7
 10
947.759349
 20
1350.050860
 11
946.043877
 21
1350.135136
  0
LINE
  8
0
  6
CONTINUOUS
 62
7
 10
946.043877
 20
1350.135136
 11
944.462011
 21
1350.387991
  0
LINE
  8
0
  6
CONTINUOUS
 62
7
 10
944.462011
 20
1350.387991
 11
943.013751
 21
1350.809425
  0
LINE
  8
0
  6
CONTINUOUS
 62
7
 10
943.013751
 20
1350.809425
 11
941.699126
 21
1351.399438
  0
LINE
  8
0
  6
CONTINUOUS
 62
7
 10
941.699126
 20
1351.399438
 11
940.518108
 21
1352.158005
  0
LINE
  8
0
  6
CONTINUOUS
 62
7
 10
940.518108
 20
1352.158005
 11
939.470752
 21
1353.085149
  0
LINE
  8
0
  6
CONTINUOUS
 62
7
 10
939.470752
 20
1353.085149
 11
938.689928
 21
1354.003402
  0
LINE
  8
0
  6
CONTINUOUS
 62
7
 10
938.689928
 20
1354.003402
 11
938.028608
 21
1355.024139
  0
LINE
  8
0
  6
CONTINUOUS
 62
7
 10
938.028608
 20
1355.024139
 11
937.487076
 21
1356.147133
  0
LINE
  8
0
  6
CONTINUOUS
 62
7
 10
937.487076
 20
1356.147133
 11
937.065499
 21
1357.372188
  0
LINE
  8
0
  6
CONTINUOUS
 62
7
 10
937.065499
 20
1357.372188
 11
936.764108
 21
1358.699102
  0
LINE
  8
0
  6
CONTINUOUS
 62
7
 10
936.764108
 20
1358.699102
 11
936.583096
 21
1360.127652
  0
LINE
  8
0
  6
CONTINUOUS
 62
7
 10
936.583096
 20
1360.127652
 11
936.522721
 21
1361.657609
  0
LINE
  8
0
  6
CONTINUOUS
 62
7
 10
936.522721
 20
1361.657609
 11
936.561404
 21
1362.443135
  0
LINE
  8
0
  6
CONTINUOUS
 62
7
 10
936.561404
 20
1362.443135
 11
936.677452
 21
1363.216624
  0
LINE
  8
0
  6
CONTINUOUS
 62
7
 10
936.677452
 20
1363.216624
 11
936.870838
 21
1363.978106
  0
LINE
  8
0
  6
CONTINUOUS
 62
7
 10
936.870838
 20
1363.978106
 11
937.141590
 21
1364.727580
  0
LINE
  8
0
  6
CONTINUOUS
 62
7
 10
937.141590
 20
1364.727580
 11
937.489652
 21
1365.465048
  0
LINE
  8
0
  6
CONTINUOUS
 62
7
 10
937.489652
 20
1365.465048
 11
937.915051
 21
1366.190509
  0
LINE
  8
0
  6
CONTINUOUS
 62
7
 10
937.915051
 20
1366.190509
 11
938.417817
 21
1366.903963
  0
LINE
  8
0
  6
CONTINUOUS
 62
7
 10
938.417817
 20
1366.903963
 11
938.997862
 21
1367.605437
  0
LINE
  8
0
  6
CONTINUOUS
 62
7
 10
938.997862
 20
1367.605437
 11
939.655246
 21
1368.294935
  0
LINE
  8
0
  6
CONTINUOUS
 62
7
 10
939.655246
 20
1368.294935
 11
940.389910
 21
1368.972451
  0
LINE
  8
0
  6
CONTINUOUS
 62
7
 10
940.389910
 20
1368.972451
 11
941.201912
 21
1369.638019
  0
LINE
  8
0
  6
CONTINUOUS
 62
7
 10
941.201912
 20
1369.638019
 11
942.091194
 21
1370.291580
  0
LINE
  8
0
  6
CONTINUOUS
 62
7
 10
942.091194
 20
1370.291580
 11
943.057758
 21
1370.933219
  0
LINE
  8
0
  6
CONTINUOUS
 62
7
 10
943.057758
 20
1370.933219
 11
944.101631
 21
1371.562878
  0
LINE
  8
0
  6
CONTINUOUS
 62
7
 10
944.101631
 20
1371.562878
 11
945.222758
 21
1372.180614
  0
LINE
  8
0
  6
CONTINUOUS
 62
7
 10
945.222758
 20
1372.180614
 11
946.421192
 21
1372.786402
  0
LINE
  8
0
  6
CONTINUOUS
 62
7
 10
946.421192
 20
1372.786402
 11
947.696851
 21
1373.380239
  0
LINE
  8
0
  6
CONTINUOUS
 62
7
 10
947.696851
 20
1373.380239
 11
949.049790
 21
1373.962183
  0
LINE
  8
0
  6
CONTINUOUS
 62
7
 10
949.049790
 20
1373.962183
 11
950.479983
 21
1374.532174
  0
LINE
  8
0
  6
CONTINUOUS
 62
7
 10
950.479983
 20
1374.532174
 11
951.987428
 21
1375.090275
  0
LINE
  8
0
  6
CONTINUOUS
 62
7
 10
951.987428
 20
1375.090275
 11
953.572125
 21
1375.636451
  0
LINE
  8
0
  6
CONTINUOUS
 62
7
 10
953.572125
 20
1375.636451
 11
955.234049
 21
1376.170734
  0
LINE
  8
0
  6
CONTINUOUS
 62
7
 10
955.234049
 20
1376.170734
 11
956.973195
 21
1376.693124
  0
LINE
  8
0
  6
CONTINUOUS
 62
7
 10
956.973195
 20
1376.693124
 11
957.175945
 21
1376.749999
  0
LINE
  8
0
  6
CONTINUOUS
 62
7
 10
957.977306
 20
1377.867258
 11
957.906512
 21
1379.204768
  0
LINE
  8
0
  6
CONTINUOUS
 62
7
 10
957.906512
 20
1379.204768
 11
957.672149
 21
1380.398050
  0
LINE
  8
0
  6
CONTINUOUS
 62
7
 10
957.672149
 20
1380.398050
 11
957.281554
 21
1381.306221
  0
LINE
  8
0
  6
CONTINUOUS
 62
7
 10
957.281554
 20
1381.306221
 11
956.726514
 21
1381.952163
  0
LINE
  8
0
  6
CONTINUOUS
 62
7
 10
956.726514
 20
1381.952163
 11
955.998758
 21
1382.337717
  0
LINE
  8
0
  6
CONTINUOUS
 62
7
 10
955.998758
 20
1382.337717
 11
955.098375
 21
1382.465603
  0
LINE
  8
0
  6
CONTINUOUS
 62
7
 10
949.677368
 20
1381.577597
 11
949.326860
 21
1379.792955
  0
LINE
  8
0
  6
CONTINUOUS
 62
7
 10
948.247481
 20
1378.904947
 11
939.398878
 21
1378.904947
  0
LINE
  8
0
  6
CONTINUOUS
 62
7
 10
938.298878
 20
1380.004947
 11
938.298878
 21
1385.945429
  0
LINE
  8
0
  6
CONTINUOUS
 62
7
 10
938.759301
 20
1386.840382
 11
939.437873
 21
1387.325324
  0
LINE
  8
0
  6
CONTINUOUS
 62
7
 10
939.437873
 20
1387.325324
 11
940.659813
 21
1388.077319
  0
LINE
  8
0
  6
CONTINUOUS
 62
7
 10
940.659813
 20
1388.077319
 11
941.965319
 21
1388.766958
  0
LINE
  8
0
  6
CONTINUOUS
 62
7
 10
941.965319
 20
1388.766958
 11
943.355101
 21
1389.393898
  0
LINE
  8
0
  6
CONTINUOUS
 62
7
 10
943.355101
 20
1389.393898
 11
944.829840
 21
1389.957804
  0
LINE
  8
0
  6
CONTINUOUS
 62
7
 10
944.829840
 20
1389.957804
 11
946.390241
 21
1390.458302
  0
LINE
  8
0
  6
CONTINUOUS
 62
7
 10
946.390241
 20
1390.458302
 11
947.779059
 21
1390.831369
  0
LINE
  8
0
  6
CONTINUOUS
 62
7
 10
947.779059
 20
1390.831369
 11
949.196763
 21
1391.147006
  0
LINE
  8
0
  6
CONTINUOUS
 62
7
 10
949.196763
 20
1391.147006
 11
950.643578
 21
1391.405270
  0
LINE
  8
0
  6
CONTINUOUS
 62
7
 10
950.643578
 20
1391.405270
 11
952.119760
 21
1391.606161
  0
LINE
  8
0
  6
CONTINUOUS
 62
7
 10
952.119760
 20
1391.606161
 11
953.625477
 21
1391.749623
  0
LINE
  8
0
  6
CONTINUOUS
 62
7
 10
953.625477
 20
1391.749623
 11
955.160959
 21
1391.835709
  0
LINE
  8
0
  6
CONTINUOUS
 62
7
 10
955.160959
 20
1391.835709
 11
956.726457
 21
1391.864426
  0
LINE
  8
0
  6
CONTINUOUS
 62
7
 10
956.726457
 20
1391.864426
 11
958.364251
 21
1391.828913
  0
LINE
  8
0
  6
CONTINUOUS
 62
7
 10
958.364251
 20
1391.828913
 11
959.910323
 21
1391.722435
  0
LINE
  8
0
  6
CONTINUOUS
 62
7
 10
959.910323
 20
1391.722435
 11
961.364785
 21
1391.545049
  0
LINE
  8
0
  6
CONTINUOUS
 62
7
 10
961.364785
 20
1391.545049
 11
962.727691
 21
1391.296839
  0
LINE
  8
0
  6
CONTINUOUS
 62
7
 10
962.727691
 20
1391.296839
 11
963.999131
 21
1390.977889
  0
LINE
  8
0
  6
CONTINUOUS
 62
7
 10
963.999131
 20
1390.977889
 11
965.179187
 21
1390.588256
  0
LINE
  8
0
  6
CONTINUOUS
 62
7
 10
965.179187
 20
1390.588256
 11
966.267890
 21
1390.128025
  0
LINE
  8
0
  6
CONTINUOUS
 62
7
 10
966.267890
 20
1390.128025
 11
967.265376
 21
1389.597282
  0
LINE
  8
0
  6
CONTINUOUS
 62
7
 10
967.265376
 20
1389.597282
 11
968.171677
 21
1388.996083
  0
LINE
  8
0
  6
CONTINUOUS
 62
7
 10
968.171677
 20
1388.996083
 11
968.986881
 21
1388.324511
  0
LINE
  8
0
  6
CONTINUOUS
 62
7
 10
968.986881
 20
1388.324511
 11
969.794520
 21
1387.482974
  0
LINE
  8
0
  6
CONTINUOUS
 62
7
 10
969.794520
 20
1387.482974
 11
970.507182
 21
1386.537082
  0
LINE
  8
0
  6
CONTINUOUS
 62
7
 10
970.507182
 20
1386.537082
 11
971.124805
 21
1385.486667
  0
LINE
  8
0
  6
CONTINUOUS
 62
7
 10
971.124805
 20
1385.486667
 11
971.647422
 21
1384.331447
  0
LINE
  8
0
  6
CONTINUOUS
 62
7
 10
971.647422
 20
1384.331447
 11
972.075001
 21
1383.071279
  0
LINE
  8
0
  6
CONTINUOUS
 62
7
 10
972.075001
 20
1383.071279
 11
972.407573
 21
1381.705934
  0
LINE
  8
0
  6
CONTINUOUS
 62
7
 10
972.407573
 20
1381.705934
 11
972.645135
 21
1380.235219
  0
LINE
  8
0
  6
CONTINUOUS
 62
7
 10
972.645135
 20
1380.235219
 11
972.787662
 21
1378.658932
  0
LINE
  8
0
  6
CONTINUOUS
 62
7
 10
972.787662
 20
1378.658932
 11
972.835180
 21
1376.976847
  0
LINE
  8
0
  6
CONTINUOUS
 62
7
 10
972.835180
 20
1376.976847
 11
972.835180
 21
1364.617762
  0
LINE
  8
0
  6
CONTINUOUS
 62
7
 10
972.835180
 20
1364.617762
 11
972.884964
 21
1363.285693
  0
LINE
  8
0
  6
CONTINUOUS
 62
7
 10
972.884964
 20
1363.285693
 11
973.036185
 21
1362.200248
  0
LINE
  8
0
  6
CONTINUOUS
 62
7
 10
973.036185
 20
1362.200248
 11
973.291504
 21
1361.361485
  0
LINE
  8
0
  6
CONTINUOUS
 62
7
 10
973.291504
 20
1361.361485
 11
973.649704
 21
1360.703676
  0
LINE
  8
0
  6
CONTINUOUS
 62
7
 10
973.649704
 20
1360.703676
 11
974.450607
 21
1359.846800
  0
LINE
  8
0
  6
CONTINUOUS
 62
7
 10
974.746984
 20
1359.095674
 11
974.746984
 21
1351.804619
  0
LINE
  8
0
  6
CONTINUOUS
 62
7
 10
973.646984
 20
1350.704619
 11
959.589440
 21
1350.704619
  0
LINE
  8
0
  6
CONTINUOUS
 62
7
 10
957.984615
 20
1362.294041
 11
957.984615
 21
1366.494422
  0
LINE
  8
0
  6
CONTINUOUS
 62
7
 10
956.454000
 20
1367.506633
 11
955.558831
 21
1367.125808
  0
LINE
  8
0
  6
CONTINUOUS
 62
7
 10
955.558831
 20
1367.125808
 11
953.832005
 21
1366.250063
  0
LINE
  8
0
  6
CONTINUOUS
 62
7
 10
953.832005
 20
1366.250063
 11
952.804132
 21
1365.530549
  0
LINE
  8
0
  6
CONTINUOUS
 62
7
 10
952.804132
 20
1365.530549
 11
952.228559
 21
1364.843940
  0
LINE
  8
0
  6
CONTINUOUS
 62
7
 10
952.228559
 20
1364.843940
 11
951.883187
 21
1364.042218
  0
LINE
  8
0
  6
CONTINUOUS
 62
7
 10
951.883187
 20
1364.042218
 11
951.768075
 21
1363.125353
  0
LINE
  8
0
  6
CONTINUOUS
 62
7
 10
951.768075
 20
1363.125353
 11
951.841616
 21
1362.261954
  0
LINE
  8
0
  6
CONTINUOUS
 62
7
 10
951.841616
 20
1362.261954
 11
952.060433
 21
1361.546545
  0
LINE
  8
0
  6
CONTINUOUS
 62
7
 10
952.060433
 20
1361.546545
 11
952.421833
 21
1360.979187
  0
LINE
  8
0
  6
CONTINUOUS
 62
7
 10
952.421833
 20
1360.979187
 11
952.914743
 21
1360.568004
  0
LINE
  8
0
  6
CONTINUOUS
 62
7
 10
952.914743
 20
1360.568004
 11
953.528233
 21
1360.321323
  0
LINE
  8
0
  6
CONTINUOUS
 62
7
 10
953.528233
 20
1360.321323
 11
954.259641
 21
1360.239113
  0
LINE
  8
0
  6
CONTINUOUS
 62
7
 10
954.259641
 20
1360.239113
 11
954.929343
 21
1360.283885
  0
LINE
  8
0
  6
CONTINUOUS
 62
7
 10
954.929343
 20
1360.283885
 11
955.579872
 21
1360.416358
  0
LINE
  8
0
  6
CONTINUOUS
 62
7
 10
955.579872
 20
1360.416358
 11
956.208484
 21
1360.633787
  0
LINE
  8
0
  6
CONTINUOUS
 62
7
 10
956.208484
 20
1360.633787
 11
956.825175
 21
1360.942627
  0
LINE
  8
0
  6
CONTINUOUS
 62
7
 10
956.825175
 20
1360.942627
 11
957.484911
 21
1361.372280
  0
LINE
  8
0
  6
CONTINUOUS
 62
7
 10
1105.590064
 20
1365.123500
 11
1105.638941
 21
1363.680846
  0
LINE
  8
0
  6
CONTINUOUS
 62
7
 10
1105.638941
 20
1363.680846
 11
1105.783763
 21
1362.487623
  0
LINE
  8
0
  6
CONTINUOUS
 62
7
 10
1105.783763
 20
1362.487623
 11
1106.021750
 21
1361.546545
  0
LINE
  8
0
  6
CONTINUOUS
 62
7
 10
1106.021750
 20
1361.546545
 11
1106.367150
 21
1360.802366
  0
LINE
  8
0
  6
CONTINUOUS
 62
7
 10
1106.367150
 20
1360.802366
 11
1106.835847
 21
1360.222659
  0
LINE
  8
0
  6
CONTINUOUS
 62
7
 10
1106.835847
 20
1360.222659
 11
1106.959504
 21
1360.135927
  0
LINE
  8
0
  6
CONTINUOUS
 62
7
 10
1107.427845
 20
1359.235368
 11
1107.427845
 21
1351.804619
  0
LINE
  8
0
  6
CONTINUOUS
 62
7
 10
1106.327845
 20
1350.704619
 11
1089.668695
 21
1350.704619
  0
LINE
  8
0
  6
CONTINUOUS
 62
7
 10
1088.568695
 20
1351.804619
 11
1088.568695
 21
1359.026328
  0
LINE
  8
0
  6
CONTINUOUS
 62
7
 10
1088.879005
 20
1359.792089
 11
1089.682401
 21
1360.620591
  0
LINE
  8
0
  6
CONTINUOUS
 62
7
 10
1089.682401
 20
1360.620591
 11
1090.061102
 21
1361.349222
  0
LINE
  8
0
  6
CONTINUOUS
 62
7
 10
1090.061102
 20
1361.349222
 11
1090.337008
 21
1362.294831
  0
LINE
  8
0
  6
CONTINUOUS
 62
7
 10
1090.337008
 20
1362.294831
 11
1090.500519
 21
1363.478937
  0
LINE
  8
0
  6
CONTINUOUS
 62
7
 10
1090.500519
 20
1363.478937
 11
1090.554437
 21
1364.901512
  0
LINE
  8
0
  6
CONTINUOUS
 62
7
 10
1090.554437
 20
1364.901512
 11
1090.554437
 21
1377.741556
  0
LINE
  8
0
  6
CONTINUOUS
 62
7
 10
1090.554437
 20
1377.741556
 11
1090.505559
 21
1378.942116
  0
LINE
  8
0
  6
CONTINUOUS
 62
7
 10
1090.505559
 20
1378.942116
 11
1090.360768
 21
1379.904205
  0
LINE
  8
0
  6
CONTINUOUS
 62
7
 10
1090.360768
 20
1379.904205
 11
1090.122753
 21
1380.627824
  0
LINE
  8
0
  6
CONTINUOUS
 62
7
 10
1090.122753
 20
1380.627824
 11
1089.755463
 21
1381.182836
  0
LINE
  8
0
  6
CONTINUOUS
 62
7
 10
1089.755463
 20
1381.182836
 11
1089.240181
 21
1381.639217
  0
LINE
  8
0
  6
CONTINUOUS
 62
7
 10
1089.240181
 20
1381.639217
 11
1089.151538
 21
1381.686434
  0
LINE
  8
0
  6
CONTINUOUS
 62
7
 10
1088.568695
 20
1382.657285
 11
1088.568695
 21
1389.999714
  0
LINE
  8
0
  6
CONTINUOUS
 62
7
 10
1089.668695
 20
1391.099714
 11
1103.910302
 21
1391.099714
  0
LINE
  8
0
  6
CONTINUOUS
 62
7
 10
1106.671626
 20
1389.393658
 11
1106.568098
 21
1389.328569
  0
LINE
  8
0
  6
CONTINUOUS
 62
7
 10
1106.568098
 20
1389.328569
 11
1108.205382
 21
1390.124373
  0
LINE
  8
0
  6
CONTINUOUS
 62
7
 10
1108.205382
 20
1390.124373
 11
1109.919439
 21
1390.742054
  0
LINE
  8
0
  6
CONTINUOUS
 62
7
 10
1109.919439
 20
1390.742054
 11
1111.696531
 21
1391.185633
  0
LINE
  8
0
  6
CONTINUOUS
 62
7
 10
1111.696531
 20
1391.185633
 11
1113.503728
 21
1391.453780
  0
LINE
  8
0
  6
CONTINUOUS
 62
7
 10
1113.503728
 20
1391.453780
 11
1115.346518
 21
1391.543776
  0
LINE
  8
0
  6
CONTINUOUS
 62
7
 10
1115.346518
 20
1391.543776
 11
1116.970833
 21
1391.481872
  0
LINE
  8
0
  6
CONTINUOUS
 62
7
 10
1116.970833
 20
1391.481872
 11
1118.460297
 21
1391.296357
  0
LINE
  8
0
  6
CONTINUOUS
 62
7
 10
1118.460297
 20
1391.296357
 11
1119.814454
 21
1390.987433
  0
LINE
  8
0
  6
CONTINUOUS
 62
7
 10
1119.814454
 20
1390.987433
 11
1121.032911
 21
1390.555294
  0
LINE
  8
0
  6
CONTINUOUS
 62
7
 10
1121.032911
 20
1390.555294
 11
1122.115183
 21
1390.000168
  0
LINE
  8
0
  6
CONTINUOUS
 62
7
 10
1122.115183
 20
1390.000168
 11
1123.060904
 21
1389.322282
  0
LINE
  8
0
  6
CONTINUOUS
 62
7
 10
1123.060904
 20
1389.322282
 11
1123.869593
 21
1388.521834
  0
LINE
  8
0
  6
CONTINUOUS
 62
7
 10
1123.869593
 20
1388.521834
 11
1124.480731
 21
1387.703715
  0
LINE
  8
0
  6
CONTINUOUS
 62
7
 10
1124.480731
 20
1387.703715
 11
1125.009946
 21
1386.757258
  0
LINE
  8
0
  6
CONTINUOUS
 62
7
 10
1125.009946
 20
1386.757258
 11
1125.457320
 21
1385.682404
  0
LINE
  8
0
  6
CONTINUOUS
 62
7
 10
1125.457320
 20
1385.682404
 11
1125.823052
 21
1384.479213
  0
LINE
  8
0
  6
CONTINUOUS
 62
7
 10
1125.823052
 20
1384.479213
 11
1126.107284
 21
1383.147680
  0
LINE
  8
0
  6
CONTINUOUS
 62
7
 10
1126.107284
 20
1383.147680
 11
1126.310102
 21
1381.687782
  0
LINE
  8
0
  6
CONTINUOUS
 62
7
 10
1126.310102
 20
1381.687782
 11
1126.431700
 21
1380.099545
  0
LINE
  8
0
  6
CONTINUOUS
 62
7
 10
1126.431700
 20
1380.099545
 11
1126.472195
 21
1378.382969
  0
LINE
  8
0
  6
CONTINUOUS
 62
7
 10
1126.472195
 20
1378.382969
 11
1126.472195
 21
1365.049446
  0
LINE
  8
0
  6
CONTINUOUS
 62
7
 10
1126.472195
 20
1365.049446
 11
1126.513767
 21
1363.372459
  0
LINE
  8
0
  6
CONTINUOUS
 62
7
 10
1126.513767
 20
1363.372459
 11
1126.640264
 21
1362.092921
  0
LINE
  8
0
  6
CONTINUOUS
 62
7
 10
1126.640264
 20
1362.092921
 11
1126.854494
 21
1361.213550
  0
LINE
  8
0
  6
CONTINUOUS
 62
7
 10
1126.854494
 20
1361.213550
 11
1127.174774
 21
1360.610537
  0
LINE
  8
0
  6
CONTINUOUS
 62
7
 10
1127.174774
 20
1360.610537
 11
1127.640272
 21
1360.139064
  0
LINE
  8
0
  6
CONTINUOUS
 62
7
 10
1127.640272
 20
1360.139064
 11
1127.675039
 21
1360.120104
  0
LINE
  8
0
  6
CONTINUOUS
 62
7
 10
1128.248354
 20
1359.154390
 11
1128.248354
 21
1351.804619
  0
LINE
  8
0
  6
CONTINUOUS
 62
7
 10
1127.148354
 20
1350.704619
 11
1113.593692
 21
1350.704619
  0
LINE
  8
0
  6
CONTINUOUS
 62
7
 10
1112.510514
 20
1351.612984
 11
1112.413071
 21
1352.163754
  0
LINE
  8
0
  6
CONTINUOUS
 62
7
 10
1112.413071
 20
1352.163754
 11
1112.209774
 21
1353.850368
  0
LINE
  8
0
  6
CONTINUOUS
 62
7
 10
1112.209774
 20
1353.850368
 11
1112.066851
 21
1355.761691
  0
LINE
  8
0
  6
CONTINUOUS
 62
7
 10
1112.066851
 20
1355.761691
 11
1112.023440
 21
1356.593685
  0
LINE
  8
0
  6
CONTINUOUS
 62
7
 10
1112.023440
 20
1356.593685
 11
1111.985860
 21
1357.572539
  0
LINE
  8
0
  6
CONTINUOUS
 62
7
 10
1111.985860
 20
1357.572539
 11
1111.954030
 21
1358.698253
  0
LINE
  8
0
  6
CONTINUOUS
 62
7
 10
1111.954030
 20
1358.698253
 11
1111.928035
 21
1359.970825
  0
LINE
  8
0
  6
CONTINUOUS
 62
7
 10
1111.928035
 20
1359.970825
 11
1111.907786
 21
1361.390228
  0
LINE
  8
0
  6
CONTINUOUS
 62
7
 10
1111.907786
 20
1361.390228
 11
1111.893317
 21
1362.956492
  0
LINE
  8
0
  6
CONTINUOUS
 62
7
 10
1111.893317
 20
1362.956492
 11
1111.884651
 21
1364.669612
  0
LINE
  8
0
  6
CONTINUOUS
 62
7
 10
1111.884651
 20
1364.669612
 11
1111.881762
 21
1366.529593
  0
LINE
  8
0
  6
CONTINUOUS
 62
7
 10
1111.881762
 20
1366.529593
 11
1111.881762
 21
1375.348652
  0
LINE
  8
0
  6
CONTINUOUS
 62
7
 10
1111.881762
 20
1375.348652
 11
1111.795419
 21
1377.222594
  0
LINE
  8
0
  6
CONTINUOUS
 62
7
 10
1111.795419
 20
1377.222594
 11
1111.536420
 21
1378.646982
  0
LINE
  8
0
  6
CONTINUOUS
 62
7
 10
1111.536420
 20
1378.646982
 11
1111.104676
 21
1379.616377
  0
LINE
  8
0
  6
CONTINUOUS
 62
7
 10
1111.104676
 20
1379.616377
 11
1110.467910
 21
1380.241817
  0
LINE
  8
0
  6
CONTINUOUS
 62
7
 10
1110.467910
 20
1380.241817
 11
1109.595364
 21
1380.615053
  0
LINE
  8
0
  6
CONTINUOUS
 62
7
 10
1109.595364
 20
1380.615053
 11
1108.489813
 21
1380.738861
  0
LINE
  8
0
  6
CONTINUOUS
 62
7
 10
1107.970594
 20
1380.738861
 11
1107.629811
 21
1380.726514
  0
LINE
  8
0
  6
CONTINUOUS
 62
7
 10
1107.629811
 20
1380.726514
 11
1107.275321
 21
1380.689501
  0
LINE
  8
0
  6
CONTINUOUS
 62
7
 10
1107.275321
 20
1380.689501
 11
1106.909872
 21
1380.627824
  0
LINE
  8
0
  6
CONTINUOUS
 62
7
 10
1106.909872
 20
1380.627824
 11
1106.515624
 21
1380.536441
  0
LINE
  8
0
  6
CONTINUOUS
 62
7
 10
1106.515624
 20
1380.536441
 11
1106.379545
 21
1380.496399
  0
LINE
  8
0
  6
CONTINUOUS
 62
7
 10
1105.590064
 20
1379.441138
 11
1105.590064
 21
1365.123500
  0
LINE
  8
0
  6
CONTINUOUS
 62
7
 10
1082.253350
 20
1377.050871
 11
1082.253350
 21
1364.753463
  0
LINE
  8
0
  6
CONTINUOUS
 62
7
 10
1082.253350
 20
1364.753463
 11
1082.205379
 21
1362.970451
  0
LINE
  8
0
  6
CONTINUOUS
 62
7
 10
1082.205379
 20
1362.970451
 11
1082.061352
 21
1361.313543
  0
LINE
  8
0
  6
CONTINUOUS
 62
7
 10
1082.061352
 20
1361.313543
 11
1081.821213
 21
1359.782706
  0
LINE
  8
0
  6
CONTINUOUS
 62
7
 10
1081.821213
 20
1359.782706
 11
1081.484818
 21
1358.377970
  0
LINE
  8
0
  6
CONTINUOUS
 62
7
 10
1081.484818
 20
1358.377970
 11
1081.052084
 21
1357.099311
  0
LINE
  8
0
  6
CONTINUOUS
 62
7
 10
1081.052084
 20
1357.099311
 11
1080.522927
 21
1355.946724
  0
LINE
  8
0
  6
CONTINUOUS
 62
7
 10
1080.522927
 20
1355.946724
 11
1079.897232
 21
1354.920237
  0
LINE
  8
0
  6
CONTINUOUS
 62
7
 10
1079.897232
 20
1354.920237
 11
1079.174886
 21
1354.019825
  0
LINE
  8
0
  6
CONTINUOUS
 62
7
 10
1079.174886
 20
1354.019825
 11
1078.355775
 21
1353.245487
  0
LINE
  8
0
  6
CONTINUOUS
 62
7
 10
1078.355775
 20
1353.245487
 11
1077.594294
 21
1352.690134
  0
LINE
  8
0
  6
CONTINUOUS
 62
7
 10
1077.594294
 20
1352.690134
 11
1076.729450
 21
1352.187910
  0
LINE
  8
0
  6
CONTINUOUS
 62
7
 10
1076.729450
 20
1352.187910
 11
1075.761245
 21
1351.738806
  0
LINE
  8
0
  6
CONTINUOUS
 62
7
 10
1075.761245
 20
1351.738806
 11
1074.689676
 21
1351.342747
  0
LINE
  8
0
  6
CONTINUOUS
 62
7
 10
1074.689676
 20
1351.342747
 11
1073.514746
 21
1350.999668
  0
LINE
  8
0
  6
CONTINUOUS
 62
7
 10
1073.514746
 20
1350.999668
 11
1072.236453
 21
1350.709518
  0
LINE
  8
0
  6
CONTINUOUS
 62
7
 10
1072.236453
 20
1350.709518
 11
1070.854827
 21
1350.472266
  0
LINE
  8
0
  6
CONTINUOUS
 62
7
 10
1070.854827
 20
1350.472266
 11
1069.369809
 21
1350.287800
  0
LINE
  8
0
  6
CONTINUOUS
 62
7
 10
1069.369809
 20
1350.287800
 11
1067.781429
 21
1350.156119
  0
LINE
  8
0
  6
CONTINUOUS
 62
7
 10
1067.781429
 20
1350.156119
 11
1066.089689
 21
1350.077168
  0
LINE
  8
0
  6
CONTINUOUS
 62
7
 10
1066.089689
 20
1350.077168
 11
1064.294585
 21
1350.050860
  0
LINE
  8
0
  6
CONTINUOUS
 62
7
 10
1064.294585
 20
1350.050860
 11
1062.499764
 21
1350.077168
  0
LINE
  8
0
  6
CONTINUOUS
 62
7
 10
1062.499764
 20
1350.077168
 11
1060.808872
 21
1350.156119
  0
LINE
  8
0
  6
CONTINUOUS
 62
7
 10
1060.808872
 20
1350.156119
 11
1059.221854
 21
1350.287800
  0
LINE
  8
0
  6
CONTINUOUS
 62
7
 10
1059.221854
 20
1350.287800
 11
1057.738621
 21
1350.472266
  0
LINE
  8
0
  6
CONTINUOUS
 62
7
 10
1057.738621
 20
1350.472266
 11
1056.359146
 21
1350.709518
  0
LINE
  8
0
  6
CONTINUOUS
 62
7
 10
1056.359146
 20
1350.709518
 11
1055.083375
 21
1350.999668
  0
LINE
  8
0
  6
CONTINUOUS
 62
7
 10
1055.083375
 20
1350.999668
 11
1053.911248
 21
1351.342747
  0
LINE
  8
0
  6
CONTINUOUS
 62
7
 10
1053.911248
 20
1351.342747
 11
1052.842708
 21
1351.738806
  0
LINE
  8
0
  6
CONTINUOUS
 62
7
 10
1052.842708
 20
1351.738806
 11
1051.877673
 21
1352.187910
  0
LINE
  8
0
  6
CONTINUOUS
 62
7
 10
1051.877673
 20
1352.187910
 11
1051.016142
 21
1352.690134
  0
LINE
  8
0
  6
CONTINUOUS
 62
7
 10
1051.016142
 20
1352.690134
 11
1050.258002
 21
1353.245487
  0
LINE
  8
0
  6
CONTINUOUS
 62
7
 10
1050.258002
 20
1353.245487
 11
1049.442575
 21
1354.019825
  0
LINE
  8
0
  6
CONTINUOUS
 62
7
 10
1049.442575
 20
1354.019825
 11
1048.723060
 21
1354.920237
  0
LINE
  8
0
  6
CONTINUOUS
 62
7
 10
1048.723060
 20
1354.920237
 11
1048.099490
 21
1355.946724
  0
LINE
  8
0
  6
CONTINUOUS
 62
7
 10
1048.099490
 20
1355.946724
 11
1047.571862
 21
1357.099311
  0
LINE
  8
0
  6
CONTINUOUS
 62
7
 10
1047.571862
 20
1357.099311
 11
1047.140176
 21
1358.377970
  0
LINE
  8
0
  6
CONTINUOUS
 62
7
 10
1047.140176
 20
1358.377970
 11
1046.804403
 21
1359.782706
  0
LINE
  8
0
  6
CONTINUOUS
 62
7
 10
1046.804403
 20
1359.782706
 11
1046.564576
 21
1361.313543
  0
LINE
  8
0
  6
CONTINUOUS
 62
7
 10
1046.564576
 20
1361.313543
 11
1046.420661
 21
1362.970451
  0
LINE
  8
0
  6
CONTINUOUS
 62
7
 10
1046.420661
 20
1362.970451
 11
1046.372719
 21
1364.753463
  0
LINE
  8
0
  6
CONTINUOUS
 62
7
 10
1046.372719
 20
1364.753463
 11
1046.372719
 21
1377.050871
  0
LINE
  8
0
  6
CONTINUOUS
 62
7
 10
1046.372719
 20
1377.050871
 11
1046.420661
 21
1378.833911
  0
LINE
  8
0
  6
CONTINUOUS
 62
7
 10
1046.420661
 20
1378.833911
 11
1046.564576
 21
1380.490934
  0
LINE
  8
0
  6
CONTINUOUS
 62
7
 10
1046.564576
 20
1380.490934
 11
1046.804403
 21
1382.022081
  0
LINE
  8
0
  6
CONTINUOUS
 62
7
 10
1046.804403
 20
1382.022081
 11
1047.140176
 21
1383.427439
  0
LINE
  8
0
  6
CONTINUOUS
 62
7
 10
1047.140176
 20
1383.427439
 11
1047.571862
 21
1384.707119
  0
LINE
  8
0
  6
CONTINUOUS
 62
7
 10
1047.571862
 20
1384.707119
 11
1048.099490
 21
1385.861235
  0
LINE
  8
0
  6
CONTINUOUS
 62
7
 10
1048.099490
 20
1385.861235
 11
1048.723060
 21
1386.889874
  0
LINE
  8
0
  6
CONTINUOUS
 62
7
 10
1048.723060
 20
1386.889874
 11
1049.442575
 21
1387.793117
  0
LINE
  8
0
  6
CONTINUOUS
 62
7
 10
1049.442575
 20
1387.793117
 11
1050.258002
 21
1388.571136
  0
LINE
  8
0
  6
CONTINUOUS
 62
7
 10
1050.258002
 20
1388.571136
 11
1051.016142
 21
1389.129830
  0
LINE
  8
0
  6
CONTINUOUS
 62
7
 10
1051.016142
 20
1389.129830
 11
1051.877673
 21
1389.635342
  0
LINE
  8
0
  6
CONTINUOUS
 62
7
 10
1051.877673
 20
1389.635342
 11
1052.842708
 21
1390.087644
  0
LINE
  8
0
  6
CONTINUOUS
 62
7
 10
1052.842708
 20
1390.087644
 11
1053.911248
 21
1390.486706
  0
LINE
  8
0
  6
CONTINUOUS
 62
7
 10
1053.911248
 20
1390.486706
 11
1055.083375
 21
1390.832588
  0
LINE
  8
0
  6
CONTINUOUS
 62
7
 10
1055.083375
 20
1390.832588
 11
1056.359146
 21
1391.125259
  0
LINE
  8
0
  6
CONTINUOUS
 62
7
 10
1056.359146
 20
1391.125259
 11
1057.738621
 21
1391.364689
  0
LINE
  8
0
  6
CONTINUOUS
 62
7
 10
1057.738621
 20
1391.364689
 11
1059.221854
 21
1391.550941
  0
LINE
  8
0
  6
CONTINUOUS
 62
7
 10
1059.221854
 20
1391.550941
 11
1060.808872
 21
1391.683979
  0
LINE
  8
0
  6
CONTINUOUS
 62
7
 10
1060.808872
 20
1391.683979
 11
1062.499764
 21
1391.763782
  0
LINE
  8
0
  6
CONTINUOUS
 62
7
 10
1062.499764
 20
1391.763782
 11
1064.294585
 21
1391.790400
  0
LINE
  8
0
  6
CONTINUOUS
 62
7
 10
1064.294585
 20
1391.790400
 11
1066.095805
 21
1391.763782
  0
LINE
  8
0
  6
CONTINUOUS
 62
7
 10
1066.095805
 20
1391.763782
 11
1067.792502
 21
1391.683979
  0
LINE
  8
0
  6
CONTINUOUS
 62
7
 10
1067.792502
 20
1391.683979
 11
1069.384706
 21
1391.550941
  0
LINE
  8
0
  6
CONTINUOUS
 62
7
 10
1069.384706
 20
1391.550941
 11
1070.872497
 21
1391.364689
  0
LINE
  8
0
  6
CONTINUOUS
 62
7
 10
1070.872497
 20
1391.364689
 11
1072.255937
 21
1391.125259
  0
LINE
  8
0
  6
CONTINUOUS
 62
7
 10
1072.255937
 20
1391.125259
 11
1073.535078
 21
1390.832588
  0
LINE
  8
0
  6
CONTINUOUS
 62
7
 10
1073.535078
 20
1390.832588
 11
1074.709951
 21
1390.486706
  0
LINE
  8
0
  6
CONTINUOUS
 62
7
 10
1074.709951
 20
1390.486706
 11
1075.780614
 21
1390.087644
  0
LINE
  8
0
  6
CONTINUOUS
 62
7
 10
1075.780614
 20
1390.087644
 11
1076.747149
 21
1389.635342
  0
LINE
  8
0
  6
CONTINUOUS
 62
7
 10
1076.747149
 20
1389.635342
 11
1077.609615
 21
1389.129830
  0
LINE
  8
0
  6
CONTINUOUS
 62
7
 10
1077.609615
 20
1389.129830
 11
1078.368038
 21
1388.571136
  0
LINE
  8
0
  6
CONTINUOUS
 62
7
 10
1078.368038
 20
1388.571136
 11
1079.183495
 21
1387.793117
  0
LINE
  8
0
  6
CONTINUOUS
 62
7
 10
1079.183495
 20
1387.793117
 11
1079.902980
 21
1386.889874
  0
LINE
  8
0
  6
CONTINUOUS
 62
7
 10
1079.902980
 20
1386.889874
 11
1080.526551
 21
1385.861235
  0
LINE
  8
0
  6
CONTINUOUS
 62
7
 10
1080.526551
 20
1385.861235
 11
1081.054207
 21
1384.707119
  0
LINE
  8
0
  6
CONTINUOUS
 62
7
 10
1081.054207
 20
1384.707119
 11
1081.485894
 21
1383.427439
  0
LINE
  8
0
  6
CONTINUOUS
 62
7
 10
1081.485894
 20
1383.427439
 11
1081.821664
 21
1382.022081
  0
LINE
  8
0
  6
CONTINUOUS
 62
7
 10
1081.821664
 20
1382.022081
 11
1082.061493
 21
1380.490934
  0
LINE
  8
0
  6
CONTINUOUS
 62
7
 10
1082.061493
 20
1380.490934
 11
1082.205379
 21
1378.833911
  0
LINE
  8
0
  6
CONTINUOUS
 62
7
 10
1082.205379
 20
1378.833911
 11
1082.253350
 21
1377.050871
  0
ARC
  8
0
  6
CONTINUOUS
 62
7
 10
933.434379
 20
1404.603655
 40
1.100000
 50
0.000000
 51
90.000000
  0
ARC
  8
0
  6
CONTINUOUS
 62
7
 10
895.732618
 20
1404.603655
 40
1.100000
 50
90.000000
 51
180.000000
  0
ARC
  8
0
  6
CONTINUOUS
 62
7
 10
895.732618
 20
1351.804619
 40
1.100000
 50
180.000000
 51
270.000000
  0
ARC
  8
0
  6
CONTINUOUS
 62
7
 10
915.364435
 20
1351.804619
 40
1.100000
 50
270.000000
 51
0.000000
  0
ARC
  8
0
  6
CONTINUOUS
 62
7
 10
923.529849
 20
1373.772110
 40
1.100000
 50
270.000000
 51
0.000000
  0
ARC
  8
0
  6
CONTINUOUS
 62
7
 10
923.529849
 20
1382.377053
 40
1.100000
 50
0.000000
 51
90.000000
  0
ARC
  8
0
  6
CONTINUOUS
 62
7
 10
914.887893
 20
1384.577053
 40
1.100000
 50
180.000000
 51
270.000000
  0
ARC
  8
0
  6
CONTINUOUS
 62
7
 10
914.887893
 20
1371.572110
 40
1.100000
 50
90.000000
 51
180.000000
  0
ARC
  8
0
  6
CONTINUOUS
 62
7
 10
933.434379
 20
1389.073422
 40
1.100000
 50
270.000000
 51
0.000000
  0
ARC
  8
0
  6
CONTINUOUS
 62
7
 10
914.887893
 20
1392.750282
 40
1.100000
 50
90.000000
 51
180.000000
  0
ARC
  8
0
  6
CONTINUOUS
 62
7
 10
920.820712
 20
1389.073422
 40
1.100000
 50
180.000000
 51
270.000000
  0
ARC
  8
0
  6
CONTINUOUS
 62
7
 10
915.364435
 20
1359.700877
 40
1.100000
 50
0.000000
 51
69.297802
  0
ARC
  8
0
  6
CONTINUOUS
 62
7
 10
895.732618
 20
1359.866004
 40
1.100000
 50
123.173499
 51
180.000000
  0
ARC
  8
0
  6
CONTINUOUS
 62
7
 10
895.732618
 20
1396.655616
 40
1.100000
 50
180.000000
 51
237.021589
  0
ARC
  8
0
  6
CONTINUOUS
 62
7
 10
939.398878
 20
1385.945429
 40
1.100000
 50
125.551555
 51
180.000000
  0
ARC
  8
0
  6
CONTINUOUS
 62
7
 10
956.884615
 20
1366.494422
 40
1.100000
 50
0.000000
 51
113.045927
  0
ARC
  8
0
  6
CONTINUOUS
 62
7
 10
956.884615
 20
1362.294041
 40
1.100000
 50
303.074124
 51
0.000000
  0
ARC
  8
0
  6
CONTINUOUS
 62
7
 10
959.589440
 20
1351.804619
 40
1.100000
 50
188.301213
 51
270.000000
  0
ARC
  8
0
  6
CONTINUOUS
 62
7
 10
973.646984
 20
1351.804619
 40
1.100000
 50
270.000000
 51
0.000000
  0
ARC
  8
0
  6
CONTINUOUS
 62
7
 10
973.646984
 20
1359.095674
 40
1.100000
 50
0.000000
 51
43.066215
  0
ARC
  8
0
  6
CONTINUOUS
 62
7
 10
956.878844
 20
1377.809118
 40
1.100000
 50
285.669793
 51
3.029812
  0
ARC
  8
0
  6
CONTINUOUS
 62
7
 10
957.351279
 20
1351.906512
 40
1.100000
 50
8.301213
 51
125.708090
  0
ARC
  8
0
  6
CONTINUOUS
 62
7
 10
981.631755
 20
1404.603655
 40
1.100000
 50
90.000000
 51
180.000000
  0
ARC
  8
0
  6
CONTINUOUS
 62
7
 10
996.527262
 20
1404.603655
 40
1.100000
 50
0.000000
 51
90.000000
  0
ARC
  8
0
  6
CONTINUOUS
 62
7
 10
998.303392
 20
1351.804619
 40
1.100000
 50
270.000000
 51
0.000000
  0
ARC
  8
0
  6
CONTINUOUS
 62
7
 10
981.631755
 20
1351.804619
 40
1.100000
 50
180.000000
 51
270.000000
  0
ARC
  8
0
  6
CONTINUOUS
 62
7
 10
981.631755
 20
1359.026222
 40
1.100000
 50
135.883037
 51
180.000000
  0
ARC
  8
0
  6
CONTINUOUS
 62
7
 10
998.303392
 20
1359.118193
 40
1.100000
 50
0.000000
 51
38.614793
  0
ARC
  8
0
  6
CONTINUOUS
 62
7
 10
981.631755
 20
1397.318408
 40
1.100000
 50
180.000000
 51
227.905636
  0
ARC
  8
0
  6
CONTINUOUS
 62
7
 10
1039.302887
 20
1385.994401
 40
1.100000
 50
0.000000
 51
56.486096
  0
ARC
  8
0
  6
CONTINUOUS
 62
7
 10
1039.302887
 20
1376.880450
 40
1.100000
 50
270.000000
 51
0.000000
  0
ARC
  8
0
  6
CONTINUOUS
 62
7
 10
1027.589631
 20
1376.880450
 40
1.100000
 50
180.000000
 51
270.000000
  0
ARC
  8
0
  6
CONTINUOUS
 62
7
 10
1027.589631
 20
1366.626103
 40
1.100000
 50
90.000000
 51
180.000000
  0
ARC
  8
0
  6
CONTINUOUS
 62
7
 10
1039.302887
 20
1366.626103
 40
1.100000
 50
0.000000
 51
90.000000
  0
ARC
  8
0
  6
CONTINUOUS
 62
7
 10
1039.302887
 20
1355.760289
 40
1.100000
 50
307.595443
 51
0.000000
  0
ARC
  8
0
  6
CONTINUOUS
 62
7
 10
1089.668695
 20
1389.999714
 40
1.100000
 50
90.000000
 51
180.000000
  0
ARC
  8
0
  6
CONTINUOUS
 62
7
 10
1103.910302
 20
1389.999714
 40
1.100000
 50
8.500025
 51
90.000000
  0
ARC
  8
0
  6
CONTINUOUS
 62
7
 10
1106.690064
 20
1379.441138
 40
1.100000
 50
106.396912
 51
180.000000
  0
ARC
  8
0
  6
CONTINUOUS
 62
7
 10
1106.327845
 20
1359.235368
 40
1.100000
 50
0.000000
 51
54.953752
  0
ARC
  8
0
  6
CONTINUOUS
 62
7
 10
1106.327845
 20
1351.804619
 40
1.100000
 50
270.000000
 51
0.000000
  0
ARC
  8
0
  6
CONTINUOUS
 62
7
 10
1113.593692
 20
1351.804619
 40
1.100000
 50
190.032971
 51
270.000000
  0
ARC
  8
0
  6
CONTINUOUS
 62
7
 10
1127.148354
 20
1351.804619
 40
1.100000
 50
270.000000
 51
0.000000
  0
ARC
  8
0
  6
CONTINUOUS
 62
7
 10
1127.148354
 20
1359.154390
 40
1.100000
 50
0.000000
 51
61.392719
  0
ARC
  8
0
  6
CONTINUOUS
 62
7
 10
1089.668695
 20
1351.804619
 40
1.100000
 50
180.000000
 51
270.000000
  0
ARC
  8
0
  6
CONTINUOUS
 62
7
 10
1089.668695
 20
1382.657285
 40
1.100000
 50
180.000000
 51
241.956492
  0
ARC
  8
0
  6
CONTINUOUS
 62
7
 10
1106.086137
 20
1390.324896
 40
1.100000
 50
188.500025
 51
302.158481
  0
ARC
  8
0
  6
CONTINUOUS
 62
7
 10
1089.668695
 20
1359.026328
 40
1.100000
 50
135.881404
 51
180.000000
  0
ARC
  8
0
  6
CONTINUOUS
 62
7
 10
948.247481
 20
1380.004947
 40
1.100000
 50
270.000000
 51
348.888409
  0
ARC
  8
0
  6
CONTINUOUS
 62
7
 10
939.398878
 20
1380.004947
 40
1.100000
 50
180.000000
 51
270.000000
  0
LINE
  8
0
  6
CONTINUOUS
 62
7
 10
1061.331639
 20
1379.690970
 11
1061.331639
 21
1362.167686
  0
ARC
  8
0
  6
CONTINUOUS
 62
7
 10
1064.191637
 20
1362.167684
 40
2.859998
 50
179.999957
 51
270.000043
  0
LINE
  8
0
  6
CONTINUOUS
 62
7
 10
1064.191639
 20
1359.307686
 11
1064.391581
 21
1359.307686
  0
ARC
  8
0
  6
CONTINUOUS
 62
7
 10
1064.391583
 20
1362.167684
 40
2.859998
 50
269.999957
 51
0.000043
  0
LINE
  8
0
  6
CONTINUOUS
 62
7
 10
1067.251581
 20
1362.167686
 11
1067.251581
 21
1379.690970
  0
ARC
  8
0
  6
CONTINUOUS
 62
7
 10
1064.391583
 20
1379.690972
 40
2.859998
 50
0.000000
 51
90.000043
  0
LINE
  8
0
  6
CONTINUOUS
 62
7
 10
1064.391581
 20
1382.550970
 11
1064.191639
 21
1382.550970
  0
ARC
  8
0
  6
CONTINUOUS
 62
7
 10
1064.191637
 20
1379.690972
 40
2.859998
 50
89.999957
 51
180.000043
  0
LINE
  8
0
  6
CONTINUOUS
 62
7
 10
919.609704
 20
1390.175543
 11
919.720712
 21
1389.073422
  0
LINE
  8
0
  6
CONTINUOUS
 62
7
 10
955.098375
 20
1382.465603
 11
950.756748
 21
1382.465603
  0
ARC
  8
0
  6
CONTINUOUS
 62
7
 10
950.756748
 20
1381.365603
 40
1.100000
 50
90.000000
 51
168.888409
  0
LINE
  8
0
  6
CONTINUOUS
 62
7
 10
1108.489813
 20
1380.738861
 11
1107.970594
 21
1380.738861
  0
LINE
  8
0
  6
CONTINUOUS
 62
1
 10
1633.919769
 20
1150.456370
 11
1633.884052
 21
1150.253809
  0
LINE
  8
0
  6
CONTINUOUS
 62
1
 10
1633.850915
 20
1150.374439
 11
1633.768762
 21
1149.908528
  0
LINE
  8
0
  6
CONTINUOUS
 62
1
 10
1633.783855
 20
1150.302685
 11
1633.663385
 21
1149.619467
  0
LINE
  8
0
  6
CONTINUOUS
 62
1
 10
1633.718437
 20
1150.240246
 11
1633.564759
 21
1149.368695
  0
LINE
  8
0
  6
CONTINUOUS
 62
1
 10
1633.654534
 20
1150.186396
 11
1633.471154
 21
1149.146395
  0
LINE
  8
0
  6
CONTINUOUS
 62
1
 10
1633.592048
 20
1150.140580
 11
1633.381491
 21
1148.946454
  0
LINE
  8
0
  6
CONTINUOUS
 62
1
 10
1633.530900
 20
1150.102353
 11
1633.295054
 21
1148.764808
  0
LINE
  8
0
  6
CONTINUOUS
 62
1
 10
1633.471023
 20
1150.071336
 11
1633.211333
 21
1148.598561
  0
LINE
  8
0
  6
CONTINUOUS
 62
1
 10
1633.412374
 20
1150.047281
 11
1633.129946
 21
1148.445554
  0
LINE
  8
0
  6
CONTINUOUS
 62
1
 10
1633.354902
 20
1150.029909
 11
1633.050606
 21
1148.304158
  0
LINE
  8
0
  6
CONTINUOUS
 62
1
 10
1633.298586
 20
1150.019082
 11
1632.973088
 21
1148.173094
  0
LINE
  8
0
  6
CONTINUOUS
 62
1
 10
1633.243398
 20
1150.014658
 11
1632.897210
 21
1148.051329
  0
LINE
  8
0
  6
CONTINUOUS
 62
1
 10
1633.189325
 20
1150.016555
 11
1632.822815
 21
1147.937974
  0
LINE
  8
0
  6
CONTINUOUS
 62
1
 10
1633.136356
 20
1150.024719
 11
1632.749789
 21
1147.832388
  0
LINE
  8
0
  6
CONTINUOUS
 62
1
 10
1633.084495
 20
1150.039160
 11
1632.678025
 21
1147.733958
  0
LINE
  8
0
  6
CONTINUOUS
 62
1
 10
1633.033743
 20
1150.059895
 11
1632.607435
 21
1147.642183
  0
LINE
  8
0
  6
CONTINUOUS
 62
1
 10
1632.984116
 20
1150.087006
 11
1632.537943
 21
1147.556632
  0
LINE
  8
0
  6
CONTINUOUS
 62
1
 10
1632.935630
 20
1150.120592
 11
1632.469486
 21
1147.476957
  0
LINE
  8
0
  6
CONTINUOUS
 62
1
 10
1632.888315
 20
1150.160818
 11
1632.402009
 21
1147.402835
  0
LINE
  8
0
  6
CONTINUOUS
 62
1
 10
1632.842208
 20
1150.207895
 11
1632.335459
 21
1147.333978
  0
LINE
  8
0
  6
CONTINUOUS
 62
1
 10
1632.797354
 20
1150.262072
 11
1632.269794
 21
1147.270132
  0
LINE
  8
0
  6
CONTINUOUS
 62
1
 10
1632.753814
 20
1150.323712
 11
1632.204980
 21
1147.211117
  0
LINE
  8
0
  6
CONTINUOUS
 62
1
 10
1632.711660
 20
1150.393204
 11
1632.140982
 21
1147.156725
  0
LINE
  8
0
  6
CONTINUOUS
 62
1
 10
1632.670981
 20
1150.471064
 11
1632.077766
 21
1147.106773
  0
LINE
  8
0
  6
CONTINUOUS
 62
1
 10
1632.631898
 20
1150.557974
 11
1632.015311
 21
1147.061138
  0
LINE
  8
0
  6
CONTINUOUS
 62
1
 10
1632.600705
 20
1150.689632
 11
1631.953594
 21
1147.019680
  0
LINE
  8
0
  6
CONTINUOUS
 62
1
 10
1632.575173
 20
1150.853395
 11
1631.892590
 21
1146.982275
  0
LINE
  8
0
  6
CONTINUOUS
 62
1
 10
1632.545522
 20
1150.993796
 11
1631.832284
 21
1146.948822
  0
LINE
  8
0
  6
CONTINUOUS
 62
1
 10
1632.512578
 20
1151.115525
 11
1631.772658
 21
1146.919226
  0
LINE
  8
0
  6
CONTINUOUS
 62
1
 10
1632.476890
 20
1151.221691
 11
1631.713696
 21
1146.893403
  0
LINE
  8
0
  6
CONTINUOUS
 62
1
 10
1632.438826
 20
1151.314378
 11
1631.655391
 21
1146.871298
  0
LINE
  8
0
  6
CONTINUOUS
 62
1
 10
1632.398660
 20
1151.395147
 11
1631.597726
 21
1146.852826
  0
LINE
  8
0
  6
CONTINUOUS
 62
1
 10
1632.356589
 20
1151.465114
 11
1631.540694
 21
1146.837946
  0
LINE
  8
0
  6
CONTINUOUS
 62
1
 10
1632.312765
 20
1151.525138
 11
1631.484289
 21
1146.826617
  0
LINE
  8
0
  6
CONTINUOUS
 62
1
 10
1632.267299
 20
1151.575849
 11
1631.428500
 21
1146.818782
  0
LINE
  8
0
  6
CONTINUOUS
 62
1
 10
1632.220281
 20
1151.617760
 11
1631.373324
 21
1146.814429
  0
LINE
  8
0
  6
CONTINUOUS
 62
1
 10
1632.171766
 20
1151.651178
 11
1631.318758
 21
1146.813528
  0
LINE
  8
0
  6
CONTINUOUS
 62
1
 10
1632.121807
 20
1151.676411
 11
1631.264793
 21
1146.816038
  0
LINE
  8
0
  6
CONTINUOUS
 62
1
 10
1632.070427
 20
1151.693581
 11
1631.727797
 21
1149.750426
  0
LINE
  8
0
  6
CONTINUOUS
 62
1
 10
1631.687253
 20
1149.520492
 11
1631.211431
 21
1146.821972
  0
LINE
  8
0
  6
CONTINUOUS
 62
1
 10
1632.017643
 20
1151.702788
 11
1631.663909
 21
1149.696661
  0
LINE
  8
0
  6
CONTINUOUS
 62
1
 10
1631.593437
 20
1149.296994
 11
1631.158792
 21
1146.832002
  0
LINE
  8
0
  6
CONTINUOUS
 62
1
 10
1631.963452
 20
1151.704017
 11
1631.604056
 21
1149.665784
  0
LINE
  8
0
  6
CONTINUOUS
 62
1
 10
1631.509673
 20
1149.130510
 11
1631.107478
 21
1146.849547
  0
LINE
  8
0
  6
CONTINUOUS
 62
1
 10
1631.907842
 20
1151.697198
 11
1631.547769
 21
1149.655122
  0
LINE
  8
0
  6
CONTINUOUS
 62
1
 10
1631.432150
 20
1148.999418
 11
1631.057588
 21
1146.875169
  0
LINE
  8
0
  6
CONTINUOUS
 62
1
 10
1631.850781
 20
1151.682152
 11
1631.494839
 21
1149.663508
  0
LINE
  8
0
  6
CONTINUOUS
 62
1
 10
1631.359132
 20
1148.893873
 11
1631.009146
 21
1146.909005
  0
LINE
  8
0
  6
CONTINUOUS
 62
1
 10
1631.792227
 20
1151.658640
 11
1631.445254
 21
1149.690857
  0
LINE
  8
0
  6
CONTINUOUS
 62
1
 10
1631.289654
 20
1148.808405
 11
1630.962202
 21
1146.951335
  0
LINE
  8
0
  6
CONTINUOUS
 62
1
 10
1631.732117
 20
1151.626302
 11
1631.399204
 21
1149.738254
  0
LINE
  8
0
  6
CONTINUOUS
 62
1
 10
1631.223120
 20
1148.739631
 11
1630.916820
 21
1147.002519
  0
LINE
  8
0
  6
CONTINUOUS
 62
1
 10
1631.670363
 20
1151.584635
 11
1631.357125
 21
1149.808177
  0
LINE
  8
0
  6
CONTINUOUS
 62
1
 10
1631.159138
 20
1148.685336
 11
1630.873087
 21
1147.063058
  0
LINE
  8
0
  6
CONTINUOUS
 62
1
 10
1631.606853
 20
1151.533013
 11
1631.325497
 21
1149.937369
  0
LINE
  8
0
  6
CONTINUOUS
 62
1
 10
1631.097435
 20
1148.643962
 11
1630.831116
 21
1147.133595
  0
LINE
  8
0
  6
CONTINUOUS
 62
1
 10
1631.541432
 20
1151.470559
 11
1631.292937
 21
1150.061273
  0
LINE
  8
0
  6
CONTINUOUS
 62
1
 10
1631.037826
 20
1148.614463
 11
1630.791058
 21
1147.214976
  0
LINE
  8
0
  6
CONTINUOUS
 62
1
 10
1631.473906
 20
1151.396161
 11
1631.253041
 21
1150.143574
  0
LINE
  8
0
  6
CONTINUOUS
 62
1
 10
1630.980181
 20
1148.596103
 11
1630.753122
 21
1147.308389
  0
LINE
  8
0
  6
CONTINUOUS
 62
1
 10
1631.403996
 20
1151.308242
 11
1631.207826
 21
1150.195704
  0
LINE
  8
0
  6
CONTINUOUS
 62
1
 10
1630.924408
 20
1148.588365
 11
1630.717576
 21
1147.415361
  0
LINE
  8
0
  6
CONTINUOUS
 62
1
 10
1631.331329
 20
1151.204688
 11
1631.158125
 21
1150.222398
  0
LINE
  8
0
  6
CONTINUOUS
 62
1
 10
1630.870465
 20
1148.591001
 11
1630.684809
 21
1147.538094
  0
LINE
  8
0
  6
CONTINUOUS
 62
1
 10
1631.255353
 20
1151.082368
 11
1631.104223
 21
1150.225270
  0
LINE
  8
0
  6
CONTINUOUS
 62
1
 10
1630.819201
 20
1148.608826
 11
1630.655374
 21
1147.679720
  0
LINE
  8
0
  6
CONTINUOUS
 62
1
 10
1631.175230
 20
1150.936531
 11
1631.046021
 21
1150.203750
  0
LINE
  8
0
  6
CONTINUOUS
 62
1
 10
1630.772288
 20
1148.651335
 11
1630.630132
 21
1147.845126
  0
LINE
  8
0
  6
CONTINUOUS
 62
1
 10
1631.089542
 20
1150.759131
 11
1630.982967
 21
1150.154717
  0
LINE
  8
0
  6
CONTINUOUS
 62
1
 10
1630.730377
 20
1148.722206
 11
1630.610524
 21
1148.042484
  0
LINE
  8
0
  6
CONTINUOUS
 62
1
 10
1630.995546
 20
1150.534617
 11
1630.913735
 21
1150.070641
  0
LINE
  8
0
  6
CONTINUOUS
 62
1
 10
1630.694964
 20
1148.829930
 11
1630.599385
 21
1148.287876
  0
LINE
  8
0
  6
CONTINUOUS
 62
1
 10
1630.886195
 20
1150.223016
 11
1630.834812
 21
1149.931613
  0
LINE
  8
0
  6
CONTINUOUS
 62
1
 10
1630.670190
 20
1148.997995
 11
1630.604103
 21
1148.623196
  0
POLYLINE
  8
0
  6
CONTINUOUS
 62
1
 66
1
 70
2
  0
VERTEX
  8
0
 10
1631.337149
 20
1149.854752
 70
0
 42
0.816343
  0
VERTEX
  8
0
 10
1631.788439
 20
1149.821256
 70
0
  0
SEQEND
  0
POLYLINE
  8
0
  6
CONTINUOUS
 62
1
 66
1
 70
2
  0
VERTEX
  8
0
 10
1630.862449
 20
1148.592286
 70
0
 42
0.305489
  0
VERTEX
  8
0
 10
1631.788439
 20
1149.821253
 70
0
  0
SEQEND
  0
LINE
  8
0
  6
CONTINUOUS
 62
1
 10
1630.723962
 20
1149.584789
 11
1630.722265
 21
1149.586151
  0
LINE
  8
0
  6
CONTINUOUS
 62
1
 10
1630.682700
 20
1149.359418
 11
1630.679951
 21
1149.355768
  0
POLYLINE
  8
0
  6
CONTINUOUS
 62
1
 66
1
 70
2
  0
VERTEX
  8
0
 10
1630.682700
 20
1149.359418
 70
0
 42
0.303187
  0
VERTEX
  8
0
 10
1630.862452
 20
1148.592282
 70
0
  0
SEQEND
  0
POLYLINE
  8
0
  6
CONTINUOUS
 62
1
 66
1
 70
2
  0
VERTEX
  8
0
 10
1632.609752
 20
1150.613501
 70
0
 42
0.292654
  0
VERTEX
  8
0
 10
1633.198309
 20
1150.015805
 70
0
 42
0.248090
  0
VERTEX
  8
0
 10
1633.963626
 20
1150.513020
 70
0
  0
SEQEND
  0
POLYLINE
  8
0
  6
CONTINUOUS
 62
1
 66
1
 70
2
  0
VERTEX
  8
0
 10
1631.337149
 20
1149.854751
 70
0
 42
0.529729
  0
VERTEX
  8
0
 10
1631.068879
 20
1150.205064
 70
0
 42
0.194364
  0
VERTEX
  8
0
 10
1630.723963
 20
1149.584790
 70
0
  0
SEQEND
  0
POLYLINE
  8
0
  6
CONTINUOUS
 62
1
 66
1
 70
2
  0
VERTEX
  8
0
 10
1631.185652
 20
1146.826102
 70
0
 42
0.276145
  0
VERTEX
  8
0
 10
1632.669871
 20
1147.723098
 70
0
 42
0.085847
  0
VERTEX
  8
0
 10
1633.963625
 20
1150.513009
 70
0
  0
SEQEND
  0
POLYLINE
  8
0
  6
CONTINUOUS
 62
1
 66
1
 70
2
  0
VERTEX
  8
0
 10
1630.679951
 20
1149.355769
 70
0
 42
0.086330
  0
VERTEX
  8
0
 10
1630.663601
 20
1147.628775
 70
0
 42
0.292522
  0
VERTEX
  8
0
 10
1631.185648
 20
1146.826084
 70
0
  0
SEQEND
  0
POLYLINE
  8
0
  6
CONTINUOUS
 62
1
 66
1
 70
2
  0
VERTEX
  8
0
 10
1632.609752
 20
1150.613501
 70
0
 42
0.231231
  0
VERTEX
  8
0
 10
1632.143972
 20
1151.666327
 70
0
 42
0.377203
  0
VERTEX
  8
0
 10
1631.351784
 20
1151.235146
 70
0
 42
0.094779
  0
VERTEX
  8
0
 10
1630.722264
 20
1149.586157
 70
0
  0
SEQEND
  0
LINE
  8
0
  6
CONTINUOUS
 62
1
 10
1609.621082
 20
1123.760487
 11
1609.495337
 21
1123.733759
  0
LINE
  8
0
  6
CONTINUOUS
 62
1
 10
1609.557483
 20
1123.781205
 11
1609.268258
 21
1123.719729
  0
LINE
  8
0
  6
CONTINUOUS
 62
1
 10
1609.500202
 20
1123.803266
 11
1609.076078
 21
1123.713116
  0
LINE
  8
0
  6
CONTINUOUS
 62
1
 10
1609.448702
 20
1123.826556
 11
1608.907667
 21
1123.711556
  0
LINE
  8
0
  6
CONTINUOUS
 62
1
 10
1609.402535
 20
1123.850980
 11
1608.756931
 21
1123.713752
  0
LINE
  8
0
  6
CONTINUOUS
 62
1
 10
1609.361356
 20
1123.876463
 11
1608.620074
 21
1123.718899
  0
LINE
  8
0
  6
CONTINUOUS
 62
1
 10
1609.324887
 20
1123.902948
 11
1608.494575
 21
1123.726459
  0
LINE
  8
0
  6
CONTINUOUS
 62
1
 10
1609.292894
 20
1123.930384
 11
1608.378635
 21
1123.736052
  0
LINE
  8
0
  6
CONTINUOUS
 62
1
 10
1609.265223
 20
1123.958738
 11
1608.270913
 21
1123.747391
  0
LINE
  8
0
  6
CONTINUOUS
 62
1
 10
1609.241701
 20
1123.987975
 11
1608.170400
 21
1123.760263
  0
LINE
  8
0
  6
CONTINUOUS
 62
1
 10
1609.222241
 20
1124.018075
 11
1608.076301
 21
1123.774498
  0
LINE
  8
0
  6
CONTINUOUS
 62
1
 10
1609.206756
 20
1124.049020
 11
1607.987974
 21
1123.789960
  0
LINE
  8
0
  6
CONTINUOUS
 62
1
 10
1609.195195
 20
1124.080799
 11
1607.904868
 21
1123.806531
  0
LINE
  8
0
  6
CONTINUOUS
 62
1
 10
1609.187525
 20
1124.113405
 11
1607.826585
 21
1123.824128
  0
LINE
  8
0
  6
CONTINUOUS
 62
1
 10
1609.183751
 20
1124.146840
 11
1607.752743
 21
1123.842669
  0
LINE
  8
0
  6
CONTINUOUS
 62
1
 10
1609.183884
 20
1124.181104
 11
1607.683033
 21
1123.862088
  0
LINE
  8
0
  6
CONTINUOUS
 62
1
 10
1609.187976
 20
1124.216210
 11
1607.617187
 21
1123.882329
  0
LINE
  8
0
  6
CONTINUOUS
 62
1
 10
1609.196086
 20
1124.252170
 11
1607.554989
 21
1123.903344
  0
LINE
  8
0
  6
CONTINUOUS
 62
1
 10
1609.208320
 20
1124.289007
 11
1607.496238
 21
1123.925093
  0
LINE
  8
0
  6
CONTINUOUS
 62
1
 10
1609.224805
 20
1124.326748
 11
1607.440754
 21
1123.947536
  0
LINE
  8
0
  6
CONTINUOUS
 62
1
 10
1609.245698
 20
1124.365425
 11
1607.388382
 21
1123.970640
  0
LINE
  8
0
  6
CONTINUOUS
 62
1
 10
1609.271224
 20
1124.405087
 11
1607.339008
 21
1123.994382
  0
LINE
  8
0
  6
CONTINUOUS
 62
1
 10
1609.301624
 20
1124.445785
 11
1607.292505
 21
1124.018734
  0
LINE
  8
0
  6
CONTINUOUS
 62
1
 10
1609.337219
 20
1124.487588
 11
1607.248758
 21
1124.043672
  0
LINE
  8
0
  6
CONTINUOUS
 62
1
 10
1609.378432
 20
1124.530584
 11
1607.207690
 21
1124.069179
  0
LINE
  8
0
  6
CONTINUOUS
 62
1
 10
1609.447423
 20
1124.579485
 11
1607.169216
 21
1124.095237
  0
LINE
  8
0
  6
CONTINUOUS
 62
1
 10
1609.536345
 20
1124.632622
 11
1607.133257
 21
1124.121830
  0
LINE
  8
0
  6
CONTINUOUS
 62
1
 10
1609.610763
 20
1124.682677
 11
1607.099752
 21
1124.148945
  0
LINE
  8
0
  6
CONTINUOUS
 62
1
 10
1609.673592
 20
1124.730268
 11
1607.068642
 21
1124.176569
  0
LINE
  8
0
  6
CONTINUOUS
 62
1
 10
1609.726758
 20
1124.775805
 11
1607.039873
 21
1124.204690
  0
LINE
  8
0
  6
CONTINUOUS
 62
1
 10
1609.771557
 20
1124.819564
 11
1607.013412
 21
1124.233302
  0
LINE
  8
0
  6
CONTINUOUS
 62
1
 10
1609.808958
 20
1124.861750
 11
1606.989207
 21
1124.262393
  0
LINE
  8
0
  6
CONTINUOUS
 62
1
 10
1609.839653
 20
1124.902511
 11
1606.967231
 21
1124.291959
  0
LINE
  8
0
  6
CONTINUOUS
 62
1
 10
1609.864176
 20
1124.941960
 11
1606.947460
 21
1124.321993
  0
LINE
  8
0
  6
CONTINUOUS
 62
1
 10
1609.882917
 20
1124.980180
 11
1606.929858
 21
1124.352488
  0
LINE
  8
0
  6
CONTINUOUS
 62
1
 10
1609.896196
 20
1125.017239
 11
1606.914417
 21
1124.383442
  0
LINE
  8
0
  6
CONTINUOUS
 62
1
 10
1609.904203
 20
1125.053177
 11
1606.901119
 21
1124.414852
  0
LINE
  8
0
  6
CONTINUOUS
 62
1
 10
1609.907128
 20
1125.088035
 11
1606.889939
 21
1124.446712
  0
LINE
  8
0
  6
CONTINUOUS
 62
1
 10
1609.905048
 20
1125.121829
 11
1608.698790
 21
1124.865431
  0
LINE
  8
0
  6
CONTINUOUS
 62
1
 10
1608.556053
 20
1124.835092
 11
1606.880884
 21
1124.479024
  0
LINE
  8
0
  6
CONTINUOUS
 62
1
 10
1609.898026
 20
1125.154573
 11
1608.652676
 21
1124.889866
  0
LINE
  8
0
  6
CONTINUOUS
 62
1
 10
1608.404573
 20
1124.837130
 11
1606.874372
 21
1124.511876
  0
LINE
  8
0
  6
CONTINUOUS
 62
1
 10
1609.886050
 20
1125.186264
 11
1608.620770
 21
1124.917320
  0
LINE
  8
0
  6
CONTINUOUS
 62
1
 10
1608.288486
 20
1124.846691
 11
1606.872525
 21
1124.545720
  0
LINE
  8
0
  6
CONTINUOUS
 62
1
 10
1609.869078
 20
1125.216893
 11
1608.601413
 21
1124.947442
  0
LINE
  8
0
  6
CONTINUOUS
 62
1
 10
1608.194369
 20
1124.860923
 11
1606.875692
 21
1124.580629
  0
LINE
  8
0
  6
CONTINUOUS
 62
1
 10
1609.847000
 20
1125.246437
 11
1608.593880
 21
1124.980078
  0
LINE
  8
0
  6
CONTINUOUS
 62
1
 10
1608.116111
 20
1124.878525
 11
1606.883958
 21
1124.616623
  0
LINE
  8
0
  6
CONTINUOUS
 62
1
 10
1609.819666
 20
1125.274863
 11
1608.598119
 21
1125.015215
  0
LINE
  8
0
  6
CONTINUOUS
 62
1
 10
1608.050316
 20
1124.898776
 11
1606.897497
 21
1124.653737
  0
LINE
  8
0
  6
CONTINUOUS
 62
1
 10
1609.786853
 20
1125.302125
 11
1608.614803
 21
1125.052998
  0
LINE
  8
0
  6
CONTINUOUS
 62
1
 10
1607.994885
 20
1124.921230
 11
1606.916532
 21
1124.692019
  0
LINE
  8
0
  6
CONTINUOUS
 62
1
 10
1609.748249
 20
1125.328156
 11
1608.645471
 21
1125.093753
  0
LINE
  8
0
  6
CONTINUOUS
 62
1
 10
1607.948441
 20
1124.945595
 11
1606.941375
 21
1124.731536
  0
LINE
  8
0
  6
CONTINUOUS
 62
1
 10
1609.703465
 20
1125.352873
 11
1608.712932
 21
1125.142328
  0
LINE
  8
0
  6
CONTINUOUS
 62
1
 10
1607.910019
 20
1124.971664
 11
1606.972424
 21
1124.772372
  0
LINE
  8
0
  6
CONTINUOUS
 62
1
 10
1609.651957
 20
1125.376161
 11
1608.777109
 21
1125.190206
  0
LINE
  8
0
  6
CONTINUOUS
 62
1
 10
1607.878969
 20
1124.999301
 11
1607.010205
 21
1124.814639
  0
LINE
  8
0
  6
CONTINUOUS
 62
1
 10
1609.593033
 20
1125.397873
 11
1608.815461
 21
1125.232595
  0
LINE
  8
0
  6
CONTINUOUS
 62
1
 10
1607.854833
 20
1125.028407
 11
1607.055454
 21
1124.858494
  0
LINE
  8
0
  6
CONTINUOUS
 62
1
 10
1609.525718
 20
1125.417801
 11
1608.835084
 21
1125.271002
  0
LINE
  8
0
  6
CONTINUOUS
 62
1
 10
1607.837291
 20
1125.058914
 11
1607.109122
 21
1124.904137
  0
LINE
  8
0
  6
CONTINUOUS
 62
1
 10
1609.448696
 20
1125.435666
 11
1608.838916
 21
1125.306053
  0
LINE
  8
0
  6
CONTINUOUS
 62
1
 10
1607.826189
 20
1125.090791
 11
1607.172572
 21
1124.951861
  0
LINE
  8
0
  6
CONTINUOUS
 62
1
 10
1609.360024
 20
1125.451054
 11
1608.827960
 21
1125.337961
  0
LINE
  8
0
  6
CONTINUOUS
 62
1
 10
1607.824516
 20
1125.124672
 11
1607.247751
 21
1125.002077
  0
LINE
  8
0
  6
CONTINUOUS
 62
1
 10
1609.256754
 20
1125.463340
 11
1608.801863
 21
1125.366650
  0
LINE
  8
0
  6
CONTINUOUS
 62
1
 10
1607.838166
 20
1125.161810
 11
1607.337692
 21
1125.055431
  0
LINE
  8
0
  6
CONTINUOUS
 62
1
 10
1609.133890
 20
1125.471461
 11
1608.758686
 21
1125.391709
  0
LINE
  8
0
  6
CONTINUOUS
 62
1
 10
1607.869422
 20
1125.202690
 11
1607.447469
 21
1125.113001
  0
LINE
  8
0
  6
CONTINUOUS
 62
1
 10
1608.981779
 20
1125.473365
 11
1608.693756
 21
1125.412144
  0
LINE
  8
0
  6
CONTINUOUS
 62
1
 10
1607.923556
 20
1125.248433
 11
1607.587063
 21
1125.176909
  0
LINE
  8
0
  6
CONTINUOUS
 62
1
 10
1608.775608
 20
1125.463778
 11
1608.594712
 21
1125.425328
  0
LINE
  8
0
  6
CONTINUOUS
 62
1
 10
1608.015148
 20
1125.302138
 11
1607.782482
 21
1125.252683
  0
POLYLINE
  8
0
  6
CONTINUOUS
 62
1
 66
1
 70
2
  0
VERTEX
  8
0
 10
1608.667784
 20
1125.116233
 70
0
 42
0.816343
  0
VERTEX
  8
0
 10
1608.754034
 20
1124.846873
 70
0
  0
SEQEND
  0
POLYLINE
  8
0
  6
CONTINUOUS
 62
1
 66
1
 70
2
  0
VERTEX
  8
0
 10
1607.825056
 20
1125.095737
 70
0
 42
0.305489
  0
VERTEX
  8
0
 10
1608.754032
 20
1124.846872
 70
0
  0
SEQEND
  0
LINE
  8
0
  6
CONTINUOUS
 62
1
 10
1608.367778
 20
1125.408363
 11
1608.368170
 21
1125.409665
  0
LINE
  8
0
  6
CONTINUOUS
 62
1
 10
1608.227517
 20
1125.379508
 11
1608.224759
 21
1125.380247
  0
POLYLINE
  8
0
  6
CONTINUOUS
 62
1
 66
1
 70
2
  0
VERTEX
  8
0
 10
1608.227517
 20
1125.379508
 70
0
 42
0.303187
  0
VERTEX
  8
0
 10
1607.825055
 20
1125.095735
 70
0
  0
SEQEND
  0
POLYLINE
  8
0
  6
CONTINUOUS
 62
1
 66
1
 70
2
  0
VERTEX
  8
0
 10
1609.405425
 20
1124.556418
 70
0
 42
0.816343
  0
VERTEX
  8
0
 10
1609.664178
 20
1123.748336
 70
0
  0
SEQEND
  0
POLYLINE
  8
0
  6
CONTINUOUS
 62
1
 66
1
 70
2
  0
VERTEX
  8
0
 10
1608.667783
 20
1125.116233
 70
0
 42
0.529729
  0
VERTEX
  8
0
 10
1608.807976
 20
1125.353712
 70
0
 42
0.194364
  0
VERTEX
  8
0
 10
1608.367779
 20
1125.408363
 70
0
  0
SEQEND
  0
POLYLINE
  8
0
  6
CONTINUOUS
 62
1
 66
1
 70
2
  0
VERTEX
  8
0
 10
1609.405425
 20
1124.556418
 70
0
 42
0.581584
  0
VERTEX
  8
0
 10
1609.802387
 20
1125.289961
 70
0
 42
0.183957
  0
VERTEX
  8
0
 10
1608.368174
 20
1125.409667
 70
0
  0
SEQEND
  0
POLYLINE
  8
0
  6
CONTINUOUS
 62
1
 66
1
 70
2
  0
VERTEX
  8
0
 10
1606.877242
 20
1124.494929
 70
0
 42
0.276145
  0
VERTEX
  8
0
 10
1607.744541
 20
1123.844852
 70
0
 42
0.085847
  0
VERTEX
  8
0
 10
1609.664172
 20
1123.748334
 70
0
  0
SEQEND
  0
POLYLINE
  8
0
  6
CONTINUOUS
 62
1
 66
1
 70
2
  0
VERTEX
  8
0
 10
1608.224759
 20
1125.380247
 70
0
 42
0.301739
  0
VERTEX
  8
0
 10
1606.877231
 20
1124.494927
 70
0
  0
SEQEND
  0
POLYLINE
  8
0
  6
CONTINUOUS
 62
1
 66
1
 70
2
  0
VERTEX
  8
0
 10
1604.632618
 20
1184.834972
 70
0
 42
0.305572
  0
VERTEX
  8
0
 10
1603.382618
 20
1185.655531
 70
0
 42
0.101553
  0
VERTEX
  8
0
 10
1600.882618
 20
1185.655531
 70
0
 42
0.305572
  0
VERTEX
  8
0
 10
1599.632618
 20
1184.834972
 70
0
 42
0.305572
  0
VERTEX
  8
0
 10
1600.882618
 20
1184.014413
 70
0
 42
0.101553
  0
VERTEX
  8
0
 10
1603.382618
 20
1184.014413
 70
0
 42
0.305572
  0
VERTEX
  8
0
 10
1604.632618
 20
1184.834972
 70
0
  0
SEQEND
  0
POLYLINE
  8
0
  6
CONTINUOUS
 62
1
 66
1
 70
2
  0
VERTEX
  8
0
 10
1604.432618
 20
1184.834972
 70
0
 42
0.305572
  0
VERTEX
  8
0
 10
1603.282618
 20
1185.589886
 70
0
 42
0.101553
  0
VERTEX
  8
0
 10
1600.982618
 20
1185.589886
 70
0
 42
0.305572
  0
VERTEX
  8
0
 10
1599.832618
 20
1184.834972
 70
0
 42
0.305572
  0
VERTEX
  8
0
 10
1600.982618
 20
1184.080057
 70
0
 42
0.101553
  0
VERTEX
  8
0
 10
1603.282618
 20
1184.080057
 70
0
 42
0.305572
  0
VERTEX
  8
0
 10
1604.432618
 20
1184.834972
 70
0
  0
SEQEND
  0
POLYLINE
  8
0
  6
CONTINUOUS
 62
1
 66
1
 70
2
  0
VERTEX
  8
0
 10
1604.232618
 20
1184.834972
 70
0
 42
0.305572
  0
VERTEX
  8
0
 10
1603.182618
 20
1185.524241
 70
0
 42
0.101553
  0
VERTEX
  8
0
 10
1601.082618
 20
1185.524241
 70
0
 42
0.305572
  0
VERTEX
  8
0
 10
1600.032618
 20
1184.834972
 70
0
 42
0.305572
  0
VERTEX
  8
0
 10
1601.082618
 20
1184.145702
 70
0
 42
0.101553
  0
VERTEX
  8
0
 10
1603.182618
 20
1184.145702
 70
0
 42
0.305572
  0
VERTEX
  8
0
 10
1604.232618
 20
1184.834972
 70
0
  0
SEQEND
  0
POLYLINE
  8
0
  6
CONTINUOUS
 62
1
 66
1
 70
2
  0
VERTEX
  8
0
 10
1604.032618
 20
1184.834972
 70
0
 42
0.305572
  0
VERTEX
  8
0
 10
1603.082618
 20
1185.458596
 70
0
 42
0.101553
  0
VERTEX
  8
0
 10
1601.182618
 20
1185.458596
 70
0
 42
0.305572
  0
VERTEX
  8
0
 10
1600.232618
 20
1184.834972
 70
0
 42
0.305572
  0
VERTEX
  8
0
 10
1601.182618
 20
1184.211347
 70
0
 42
0.101553
  0
VERTEX
  8
0
 10
1603.082618
 20
1184.211347
 70
0
 42
0.305572
  0
VERTEX
  8
0
 10
1604.032618
 20
1184.834972
 70
0
  0
SEQEND
  0
POLYLINE
  8
0
  6
CONTINUOUS
 62
1
 66
1
 70
2
  0
VERTEX
  8
0
 10
1603.832618
 20
1184.834972
 70
0
 42
0.305710
  0
VERTEX
  8
0
 10
1602.657947
 20
1185.447737
 70
0
 42
0.135164
  0
VERTEX
  8
0
 10
1600.757289
 20
1185.213682
 70
0
 42
0.857308
  0
VERTEX
  8
0
 10
1600.757289
 20
1184.456262
 70
0
 42
0.135164
  0
VERTEX
  8
0
 10
1602.657947
 20
1184.222206
 70
0
 42
0.305710
  0
VERTEX
  8
0
 10
1603.832618
 20
1184.834972
 70
0
  0
SEQEND
  0
POLYLINE
  8
0
  6
CONTINUOUS
 62
1
 66
1
 70
2
  0
VERTEX
  8
0
 10
1603.632618
 20
1184.834972
 70
0
 42
0.305710
  0
VERTEX
  8
0
 10
1602.596144
 20
1185.375647
 70
0
 42
0.135164
  0
VERTEX
  8
0
 10
1600.919093
 20
1185.169128
 70
0
 42
0.857308
  0
VERTEX
  8
0
 10
1600.919093
 20
1184.500816
 70
0
 42
0.135164
  0
VERTEX
  8
0
 10
1602.596144
 20
1184.294296
 70
0
 42
0.305710
  0
VERTEX
  8
0
 10
1603.632618
 20
1184.834972
 70
0
  0
SEQEND
  0
POLYLINE
  8
0
  6
CONTINUOUS
 62
1
 66
1
 70
2
  0
VERTEX
  8
0
 10
1603.432618
 20
1184.834972
 70
0
 42
0.305710
  0
VERTEX
  8
0
 10
1602.534340
 20
1185.303557
 70
0
 42
0.135164
  0
VERTEX
  8
0
 10
1601.080896
 20
1185.124573
 70
0
 42
0.857308
  0
VERTEX
  8
0
 10
1601.080896
 20
1184.545370
 70
0
 42
0.135164
  0
VERTEX
  8
0
 10
1602.534340
 20
1184.366386
 70
0
 42
0.305710
  0
VERTEX
  8
0
 10
1603.432618
 20
1184.834972
 70
0
  0
SEQEND
  0
POLYLINE
  8
0
  6
CONTINUOUS
 62
1
 66
1
 70
2
  0
VERTEX
  8
0
 10
1603.232618
 20
1184.834972
 70
0
 42
0.301311
  0
VERTEX
  8
0
 10
1602.132618
 20
1185.251872
 70
0
 42
0.301311
  0
VERTEX
  8
0
 10
1601.032618
 20
1184.834972
 70
0
 42
0.301311
  0
VERTEX
  8
0
 10
1602.132618
 20
1184.418072
 70
0
 42
0.301311
  0
VERTEX
  8
0
 10
1603.232618
 20
1184.834972
 70
0
  0
SEQEND
  0
POLYLINE
  8
0
  6
CONTINUOUS
 62
1
 66
1
 70
2
  0
VERTEX
  8
0
 10
1603.032618
 20
1184.834972
 70
0
 42
0.301311
  0
VERTEX
  8
0
 10
1602.132618
 20
1185.176072
 70
0
 42
0.301311
  0
VERTEX
  8
0
 10
1601.232618
 20
1184.834972
 70
0
 42
0.301311
  0
VERTEX
  8
0
 10
1602.132618
 20
1184.493872
 70
0
 42
0.301311
  0
VERTEX
  8
0
 10
1603.032618
 20
1184.834972
 70
0
  0
SEQEND
  0
POLYLINE
  8
0
  6
CONTINUOUS
 62
1
 66
1
 70
2
  0
VERTEX
  8
0
 10
1602.832618
 20
1184.834972
 70
0
 42
0.301311
  0
VERTEX
  8
0
 10
1602.132618
 20
1185.100272
 70
0
 42
0.301311
  0
VERTEX
  8
0
 10
1601.432618
 20
1184.834972
 70
0
 42
0.301311
  0
VERTEX
  8
0
 10
1602.132618
 20
1184.569672
 70
0
 42
0.301311
  0
VERTEX
  8
0
 10
1602.832618
 20
1184.834972
 70
0
  0
SEQEND
  0
POLYLINE
  8
0
  6
CONTINUOUS
 62
1
 66
1
 70
2
  0
VERTEX
  8
0
 10
1602.632618
 20
1184.834972
 70
0
 42
0.301311
  0
VERTEX
  8
0
 10
1602.132618
 20
1185.024472
 70
0
 42
0.301311
  0
VERTEX
  8
0
 10
1601.632618
 20
1184.834972
 70
0
 42
0.301311
  0
VERTEX
  8
0
 10
1602.132618
 20
1184.645472
 70
0
 42
0.301311
  0
VERTEX
  8
0
 10
1602.632618
 20
1184.834972
 70
0
  0
SEQEND
  0
POLYLINE
  8
0
  6
CONTINUOUS
 62
1
 66
1
 70
2
  0
VERTEX
  8
0
 10
1602.432618
 20
1184.834972
 70
0
 42
0.301311
  0
VERTEX
  8
0
 10
1602.132618
 20
1184.948672
 70
0
 42
0.301311
  0
VERTEX
  8
0
 10
1601.832618
 20
1184.834972
 70
0
 42
0.301311
  0
VERTEX
  8
0
 10
1602.132618
 20
1184.721272
 70
0
 42
0.301311
  0
VERTEX
  8
0
 10
1602.432618
 20
1184.834972
 70
0
  0
SEQEND
  0
ARC
  8
0
  6
CONTINUOUS
 62
1
 10
1602.132618
 20
1154.389433
 40
32.500000
 50
90.502596
 51
90.000000
  0
ARC
  8
0
  6
CONTINUOUS
 62
1
 10
1673.357618
 20
1154.389433
 40
61.225000
 50
156.778351
 51
203.221649
  0
ARC
  8
0
  6
CONTINUOUS
 62
1
 10
1530.907618
 20
1154.389433
 40
61.225000
 50
336.778351
 51
23.221649
  0
ARC
  8
0
  6
CONTINUOUS
 62
1
 10
1602.132618
 20
1182.789430
 40
0.250000
 50
180.251298
 51
359.748702
  0
LINE
  8
0
  6
CONTINUOUS
 62
1
 10
1600.633382
 20
1173.831704
 11
1601.882621
 21
1182.788333
  0
LINE
  8
0
  6
CONTINUOUS
 62
1
 10
1602.382616
 20
1182.788333
 11
1603.631854
 21
1173.831704
  0
LINE
  8
0
  6
CONTINUOUS
 62
1
 10
1600.632618
 20
1137.455739
 11
1600.632618
 21
1173.831655
  0
LINE
  8
0
  6
CONTINUOUS
 62
1
 10
1603.632618
 20
1137.323128
 11
1603.632618
 21
1173.831655
  0
ARC
  8
0
  6
CONTINUOUS
 62
1
 10
1602.132618
 20
1168.893115
 40
4.651237
 50
71.196073
 51
108.803927
  0
CIRCLE
  8
0
  6
CONTINUOUS
 62
1
 10
1602.132618
 20
1154.389433
 40
28.400000
  0
ARC
  8
0
  6
CONTINUOUS
 62
1
 10
1602.132618
 20
1154.389433
 40
19.500000
 50
232.141709
 51
270.000000
  0
ARC
  8
0
  6
CONTINUOUS
 62
1
 10
1602.132618
 20
1154.389433
 40
19.500000
 50
270.000000
 51
305.846828
  0
ARC
  8
0
  6
CONTINUOUS
 62
1
 10
1591.298641
 20
1139.393602
 40
1.000000
 50
166.054805
 51
234.153172
  0
ARC
  8
0
  6
CONTINUOUS
 62
1
 10
1612.966595
 20
1139.393602
 40
1.000000
 50
305.846828
 51
13.945195
  0
ARC
  8
0
  6
CONTINUOUS
 62
1
 10
1602.132618
 20
1137.389433
 40
1.501465
 50
177.468954
 51
0.000000
  0
ARC
  8
0
  6
CONTINUOUS
 62
1
 10
1602.132618
 20
1154.389433
 40
19.500000
 50
94.411726
 51
125.846828
  0
ARC
  8
0
  6
CONTINUOUS
 62
1
 10
1602.132618
 20
1154.389433
 40
19.500000
 50
54.153171
 51
85.588274
  0
ARC
  8
0
  6
CONTINUOUS
 62
1
 10
1591.298641
 20
1169.385264
 40
1.000000
 50
125.846828
 51
193.945195
  0
ARC
  8
0
  6
CONTINUOUS
 62
1
 10
1612.966595
 20
1169.385264
 40
1.000000
 50
346.054805
 51
54.153172
  0
LINE
  8
0
  6
CONTINUOUS
 62
1
 10
1614.339930
 20
1181.632116
 11
1616.585371
 21
1181.337937
  0
LINE
  8
0
  6
CONTINUOUS
 62
1
 10
1614.339930
 20
1181.632116
 11
1616.968283
 21
1180.702254
  0
LINE
  8
0
  6
CONTINUOUS
 62
1
 10
1617.670800
 20
1180.313144
 11
1618.892371
 21
1179.484187
  0
LINE
  8
0
  6
CONTINUOUS
 62
1
 10
1618.892371
 20
1179.484187
 11
1618.447945
 21
1180.213297
  0
LINE
  8
0
  6
CONTINUOUS
 62
1
 10
1616.968283
 20
1180.702254
 11
1617.276718
 21
1179.807095
  0
LINE
  8
0
  6
CONTINUOUS
 62
1
 10
1617.670800
 20
1180.313144
 11
1617.276718
 21
1179.807095
  0
LINE
  8
0
  6
CONTINUOUS
 62
1
 10
1618.447945
 20
1180.213297
 11
1619.462890
 21
1180.223257
  0
LINE
  8
0
  6
CONTINUOUS
 62
1
 10
1619.462890
 20
1180.223257
 11
1618.166195
 21
1180.758878
  0
LINE
  8
0
  6
CONTINUOUS
 62
1
 10
1618.166195
 20
1180.758878
 11
1617.705580
 21
1181.669541
  0
LINE
  8
0
  6
CONTINUOUS
 62
1
 10
1616.992657
 20
1181.359441
 11
1617.705580
 21
1181.669541
  0
LINE
  8
0
  6
CONTINUOUS
 62
1
 10
1616.992657
 20
1181.359441
 11
1615.970927
 21
1182.012664
  0
LINE
  8
0
  6
CONTINUOUS
 62
1
 10
1616.585371
 20
1181.337937
 11
1615.970927
 21
1182.012664
  0
LINE
  8
0
  6
CONTINUOUS
 62
1
 10
1614.339930
 20
1181.632116
 11
1616.503800
 21
1181.348623
  0
LINE
  8
0
  6
CONTINUOUS
 62
1
 10
1618.447945
 20
1180.213297
 11
1618.892371
 21
1179.484187
  0
LINE
  8
0
  6
CONTINUOUS
 62
1
 10
1616.968283
 20
1180.702254
 11
1614.339930
 21
1181.632116
  0
LINE
  8
0
  6
CONTINUOUS
 62
1
 10
1618.892371
 20
1179.484187
 11
1617.670800
 21
1180.313144
  0
LINE
  8
0
  6
CONTINUOUS
 62
1
 10
1617.670800
 20
1180.313144
 11
1617.276718
 21
1179.807095
  0
LINE
  8
0
  6
CONTINUOUS
 62
1
 10
1617.276718
 20
1179.807095
 11
1616.968283
 21
1180.702254
  0
LINE
  8
0
  6
CONTINUOUS
 62
1
 10
1615.970927
 20
1182.012664
 11
1616.992657
 21
1181.359441
  0
LINE
  8
0
  6
CONTINUOUS
 62
1
 10
1616.585371
 20
1181.337937
 11
1615.970927
 21
1182.012664
  0
LINE
  8
0
  6
CONTINUOUS
 62
1
 10
1618.166195
 20
1180.758878
 11
1619.462890
 21
1180.223257
  0
LINE
  8
0
  6
CONTINUOUS
 62
1
 10
1616.992657
 20
1181.359441
 11
1617.705580
 21
1181.669541
  0
LINE
  8
0
  6
CONTINUOUS
 62
1
 10
1617.705580
 20
1181.669541
 11
1618.166195
 21
1180.758878
  0
LINE
  8
0
  6
CONTINUOUS
 62
1
 10
1619.462890
 20
1180.223257
 11
1618.447945
 21
1180.213297
  0
LINE
  8
0
  6
CONTINUOUS
 62
1
 10
1617.681840
 20
1181.659215
 11
1617.722750
 21
1181.635595
  0
LINE
  8
0
  6
CONTINUOUS
 62
1
 10
1617.738837
 20
1181.603791
 11
1617.659597
 21
1181.649540
  0
LINE
  8
0
  6
CONTINUOUS
 62
1
 10
1617.637355
 20
1181.639865
 11
1617.754923
 21
1181.571987
  0
LINE
  8
0
  6
CONTINUOUS
 62
1
 10
1617.771010
 20
1181.540182
 11
1617.615112
 21
1181.630190
  0
LINE
  8
0
  6
CONTINUOUS
 62
1
 10
1617.592869
 20
1181.620515
 11
1617.787097
 21
1181.508378
  0
LINE
  8
0
  6
CONTINUOUS
 62
1
 10
1617.803183
 20
1181.476574
 11
1617.570627
 21
1181.610840
  0
LINE
  8
0
  6
CONTINUOUS
 62
1
 10
1617.548384
 20
1181.601165
 11
1617.819270
 21
1181.444769
  0
LINE
  8
0
  6
CONTINUOUS
 62
1
 10
1617.835356
 20
1181.412965
 11
1617.526142
 21
1181.591491
  0
LINE
  8
0
  6
CONTINUOUS
 62
1
 10
1617.503899
 20
1181.581816
 11
1617.851443
 21
1181.381161
  0
LINE
  8
0
  6
CONTINUOUS
 62
1
 10
1617.867530
 20
1181.349357
 11
1617.481656
 21
1181.572141
  0
LINE
  8
0
  6
CONTINUOUS
 62
1
 10
1617.459414
 20
1181.562466
 11
1617.883616
 21
1181.317552
  0
LINE
  8
0
  6
CONTINUOUS
 62
1
 10
1617.899703
 20
1181.285748
 11
1617.437171
 21
1181.552791
  0
LINE
  8
0
  6
CONTINUOUS
 62
1
 10
1617.414928
 20
1181.543116
 11
1617.915790
 21
1181.253944
  0
LINE
  8
0
  6
CONTINUOUS
 62
1
 10
1617.931876
 20
1181.222140
 11
1617.392686
 21
1181.533441
  0
LINE
  8
0
  6
CONTINUOUS
 62
1
 10
1617.370443
 20
1181.523766
 11
1617.947963
 21
1181.190335
  0
LINE
  8
0
  6
CONTINUOUS
 62
1
 10
1617.964050
 20
1181.158531
 11
1617.348200
 21
1181.514092
  0
LINE
  8
0
  6
CONTINUOUS
 62
1
 10
1617.325958
 20
1181.504417
 11
1617.980136
 21
1181.126727
  0
LINE
  8
0
  6
CONTINUOUS
 62
1
 10
1617.996223
 20
1181.094922
 11
1617.303715
 21
1181.494742
  0
LINE
  8
0
  6
CONTINUOUS
 62
1
 10
1617.281472
 20
1181.485067
 11
1618.012309
 21
1181.063118
  0
LINE
  8
0
  6
CONTINUOUS
 62
1
 10
1617.059046
 20
1181.388318
 11
1619.083441
 21
1180.219533
  0
LINE
  8
0
  6
CONTINUOUS
 62
1
 10
1618.968397
 20
1180.218404
 11
1616.093190
 21
1181.878406
  0
LINE
  8
0
  6
CONTINUOUS
 62
1
 10
1616.136428
 20
1181.830926
 11
1618.930048
 21
1180.218028
  0
LINE
  8
0
  6
CONTINUOUS
 62
1
 10
1618.891700
 20
1180.217652
 11
1616.179666
 21
1181.783446
  0
LINE
  8
0
  6
CONTINUOUS
 62
1
 10
1616.222904
 20
1181.735965
 11
1618.853352
 21
1180.217275
  0
LINE
  8
0
  6
CONTINUOUS
 62
1
 10
1618.815004
 20
1180.216899
 11
1616.266142
 21
1181.688485
  0
LINE
  8
0
  6
CONTINUOUS
 62
1
 10
1616.309380
 20
1181.641005
 11
1618.776656
 21
1180.216523
  0
LINE
  8
0
  6
CONTINUOUS
 62
1
 10
1618.738308
 20
1180.216146
 11
1616.352618
 21
1181.593525
  0
LINE
  8
0
  6
CONTINUOUS
 62
1
 10
1616.395856
 20
1181.546045
 11
1618.699960
 21
1180.215770
  0
LINE
  8
0
  6
CONTINUOUS
 62
1
 10
1618.661611
 20
1180.215394
 11
1616.439094
 21
1181.498565
  0
LINE
  8
0
  6
CONTINUOUS
 62
1
 10
1616.482332
 20
1181.451084
 11
1618.623263
 21
1180.215017
  0
LINE
  8
0
  6
CONTINUOUS
 62
1
 10
1618.584915
 20
1180.214641
 11
1616.525570
 21
1181.403604
  0
LINE
  8
0
  6
CONTINUOUS
 62
1
 10
1616.568808
 20
1181.356124
 11
1618.546567
 21
1180.214265
  0
LINE
  8
0
  6
CONTINUOUS
 62
1
 10
1618.508219
 20
1180.213888
 11
1616.554247
 21
1181.342014
  0
LINE
  8
0
  6
CONTINUOUS
 62
1
 10
1616.503800
 20
1181.348623
 11
1618.469871
 21
1180.213512
  0
LINE
  8
0
  6
CONTINUOUS
 62
1
 10
1618.457015
 20
1180.198418
 11
1616.453353
 21
1181.355232
  0
LINE
  8
0
  6
CONTINUOUS
 62
1
 10
1616.402905
 20
1181.361842
 11
1618.478193
 21
1180.163674
  0
LINE
  8
0
  6
CONTINUOUS
 62
1
 10
1618.499370
 20
1180.128930
 11
1616.352458
 21
1181.368451
  0
LINE
  8
0
  6
CONTINUOUS
 62
1
 10
1616.302010
 20
1181.375060
 11
1618.520548
 21
1180.094186
  0
LINE
  8
0
  6
CONTINUOUS
 62
1
 10
1618.541726
 20
1180.059443
 11
1616.251563
 21
1181.381669
  0
LINE
  8
0
  6
CONTINUOUS
 62
1
 10
1616.201115
 20
1181.388279
 11
1618.562904
 21
1180.024699
  0
LINE
  8
0
  6
CONTINUOUS
 62
1
 10
1618.584082
 20
1179.989955
 11
1616.150668
 21
1181.394888
  0
LINE
  8
0
  6
CONTINUOUS
 62
1
 10
1616.100220
 20
1181.401497
 11
1618.605260
 21
1179.955211
  0
LINE
  8
0
  6
CONTINUOUS
 62
1
 10
1618.626438
 20
1179.920468
 11
1616.049773
 21
1181.408106
  0
LINE
  8
0
  6
CONTINUOUS
 62
1
 10
1615.999325
 20
1181.414715
 11
1618.647616
 21
1179.885724
  0
LINE
  8
0
  6
CONTINUOUS
 62
1
 10
1618.668794
 20
1179.850980
 11
1615.948878
 21
1181.421325
  0
LINE
  8
0
  6
CONTINUOUS
 62
1
 10
1615.898430
 20
1181.427934
 11
1618.689972
 21
1179.816236
  0
LINE
  8
0
  6
CONTINUOUS
 62
1
 10
1618.711150
 20
1179.781493
 11
1615.847983
 21
1181.434543
  0
LINE
  8
0
  6
CONTINUOUS
 62
1
 10
1615.797535
 20
1181.441152
 11
1618.732328
 21
1179.746749
  0
LINE
  8
0
  6
CONTINUOUS
 62
1
 10
1618.753506
 20
1179.712005
 11
1615.747088
 21
1181.447761
  0
LINE
  8
0
  6
CONTINUOUS
 62
1
 10
1615.696640
 20
1181.454371
 11
1618.774684
 21
1179.677261
  0
LINE
  8
0
  6
CONTINUOUS
 62
1
 10
1619.428574
 20
1180.222920
 11
1619.340243
 21
1180.273919
  0
LINE
  8
0
  6
CONTINUOUS
 62
1
 10
1618.028396
 20
1181.031314
 11
1617.259230
 21
1181.475392
  0
LINE
  8
0
  6
CONTINUOUS
 62
1
 10
1617.236987
 20
1181.465717
 11
1618.044483
 21
1180.999510
  0
LINE
  8
0
  6
CONTINUOUS
 62
1
 10
1619.203184
 20
1180.330533
 11
1619.390226
 21
1180.222544
  0
LINE
  8
0
  6
CONTINUOUS
 62
1
 10
1619.351878
 20
1180.222168
 11
1619.066125
 21
1180.387147
  0
LINE
  8
0
  6
CONTINUOUS
 62
1
 10
1618.060569
 20
1180.967705
 11
1617.214745
 21
1181.456042
  0
LINE
  8
0
  6
CONTINUOUS
 62
1
 10
1617.192502
 20
1181.446368
 11
1618.076656
 21
1180.935901
  0
LINE
  8
0
  6
CONTINUOUS
 62
1
 10
1618.929066
 20
1180.443762
 11
1619.313530
 21
1180.221791
  0
LINE
  8
0
  6
CONTINUOUS
 62
1
 10
1619.275182
 20
1180.221415
 11
1618.792008
 21
1180.500376
  0
LINE
  8
0
  6
CONTINUOUS
 62
1
 10
1618.092743
 20
1180.904097
 11
1617.170259
 21
1181.436693
  0
LINE
  8
0
  6
CONTINUOUS
 62
1
 10
1617.148017
 20
1181.427018
 11
1618.108829
 21
1180.872292
  0
LINE
  8
0
  6
CONTINUOUS
 62
1
 10
1618.654949
 20
1180.556990
 11
1619.236834
 21
1180.221039
  0
LINE
  8
0
  6
CONTINUOUS
 62
1
 10
1619.198486
 20
1180.220662
 11
1618.517890
 21
1180.613604
  0
LINE
  8
0
  6
CONTINUOUS
 62
1
 10
1618.124916
 20
1180.840488
 11
1617.125774
 21
1181.417343
  0
LINE
  8
0
  6
CONTINUOUS
 62
1
 10
1617.103531
 20
1181.407668
 11
1618.141002
 21
1180.808684
  0
LINE
  8
0
  6
CONTINUOUS
 62
1
 10
1618.380831
 20
1180.670219
 11
1619.160137
 21
1180.220286
  0
LINE
  8
0
  6
CONTINUOUS
 62
1
 10
1619.121789
 20
1180.219910
 11
1618.243773
 21
1180.726833
  0
LINE
  8
0
  6
CONTINUOUS
 62
1
 10
1618.157089
 20
1180.776880
 11
1617.081289
 21
1181.397993
  0
LINE
  8
0
  6
CONTINUOUS
 62
1
 10
1618.795862
 20
1179.642518
 11
1617.878920
 21
1180.171914
  0
LINE
  8
0
  6
CONTINUOUS
 62
1
 10
1618.101310
 20
1180.021001
 11
1618.817039
 21
1179.607774
  0
LINE
  8
0
  6
CONTINUOUS
 62
1
 10
1618.838217
 20
1179.573030
 11
1618.323699
 21
1179.870087
  0
LINE
  8
0
  6
CONTINUOUS
 62
1
 10
1618.546089
 20
1179.719174
 11
1618.859395
 21
1179.538286
  0
LINE
  8
0
  6
CONTINUOUS
 62
1
 10
1618.880573
 20
1179.503543
 11
1618.768479
 21
1179.568260
  0
LINE
  8
0
  6
CONTINUOUS
 62
1
 10
1615.595745
 20
1181.467589
 11
1616.847068
 21
1180.745138
  0
LINE
  8
0
  6
CONTINUOUS
 62
1
 10
1616.979939
 20
1180.668424
 11
1617.647384
 21
1180.283075
  0
LINE
  8
0
  6
CONTINUOUS
 62
1
 10
1617.659480
 20
1180.298608
 11
1616.970254
 21
1180.696532
  0
LINE
  8
0
  6
CONTINUOUS
 62
1
 10
1616.947782
 20
1180.709507
 11
1615.646193
 21
1181.460980
  0
LINE
  8
0
  6
CONTINUOUS
 62
1
 10
1615.494850
 20
1181.480807
 11
1616.645639
 21
1180.816399
  0
LINE
  8
0
  6
CONTINUOUS
 62
1
 10
1616.999309
 20
1180.612208
 11
1617.623191
 21
1180.252009
  0
LINE
  8
0
  6
CONTINUOUS
 62
1
 10
1617.635287
 20
1180.267542
 11
1616.989624
 21
1180.640316
  0
LINE
  8
0
  6
CONTINUOUS
 62
1
 10
1616.746353
 20
1180.780768
 11
1615.545298
 21
1181.474198
  0
LINE
  8
0
  6
CONTINUOUS
 62
1
 10
1617.611095
 20
1180.236476
 11
1617.008994
 21
1180.584099
  0
LINE
  8
0
  6
CONTINUOUS
 62
1
 10
1616.544924
 20
1180.852030
 11
1615.444403
 21
1181.487417
  0
LINE
  8
0
  6
CONTINUOUS
 62
1
 10
1615.393955
 20
1181.494026
 11
1616.444210
 21
1180.887661
  0
LINE
  8
0
  6
CONTINUOUS
 62
1
 10
1617.018679
 20
1180.555991
 11
1617.598999
 21
1180.220943
  0
LINE
  8
0
  6
CONTINUOUS
 62
1
 10
1617.586903
 20
1180.205410
 11
1617.028364
 21
1180.527883
  0
LINE
  8
0
  6
CONTINUOUS
 62
1
 10
1616.343495
 20
1180.923292
 11
1615.343508
 21
1181.500635
  0
LINE
  8
0
  6
CONTINUOUS
 62
1
 10
1615.293060
 20
1181.507244
 11
1616.242781
 21
1180.958923
  0
LINE
  8
0
  6
CONTINUOUS
 62
1
 10
1617.038049
 20
1180.499774
 11
1617.574807
 21
1180.189877
  0
LINE
  8
0
  6
CONTINUOUS
 62
1
 10
1617.562710
 20
1180.174345
 11
1617.047734
 21
1180.471666
  0
LINE
  8
0
  6
CONTINUOUS
 62
1
 10
1616.142066
 20
1180.994554
 11
1615.242613
 21
1181.513854
  0
LINE
  8
0
  6
CONTINUOUS
 62
1
 10
1615.192165
 20
1181.520463
 11
1616.041352
 21
1181.030185
  0
LINE
  8
0
  6
CONTINUOUS
 62
1
 10
1617.057419
 20
1180.443558
 11
1617.550614
 21
1180.158812
  0
LINE
  8
0
  6
CONTINUOUS
 62
1
 10
1617.538518
 20
1180.143279
 11
1617.067104
 21
1180.415450
  0
LINE
  8
0
  6
CONTINUOUS
 62
1
 10
1615.940637
 20
1181.065815
 11
1615.141718
 21
1181.527072
  0
LINE
  8
0
  6
CONTINUOUS
 62
1
 10
1615.091270
 20
1181.533681
 11
1615.839923
 21
1181.101446
  0
LINE
  8
0
  6
CONTINUOUS
 62
1
 10
1617.076789
 20
1180.387341
 11
1617.526422
 21
1180.127746
  0
LINE
  8
0
  6
CONTINUOUS
 62
1
 10
1617.514326
 20
1180.112213
 11
1617.086474
 21
1180.359233
  0
LINE
  8
0
  6
CONTINUOUS
 62
1
 10
1615.739208
 20
1181.137077
 11
1615.040823
 21
1181.540290
  0
LINE
  8
0
  6
CONTINUOUS
 62
1
 10
1614.990375
 20
1181.546900
 11
1615.638494
 21
1181.172708
  0
LINE
  8
0
  6
CONTINUOUS
 62
1
 10
1617.096159
 20
1180.331125
 11
1617.502230
 21
1180.096680
  0
LINE
  8
0
  6
CONTINUOUS
 62
1
 10
1617.490134
 20
1180.081147
 11
1617.105844
 21
1180.303017
  0
LINE
  8
0
  6
CONTINUOUS
 62
1
 10
1615.537779
 20
1181.208339
 11
1614.939928
 21
1181.553509
  0
LINE
  8
0
  6
CONTINUOUS
 62
1
 10
1614.889480
 20
1181.560118
 11
1615.437065
 21
1181.243970
  0
LINE
  8
0
  6
CONTINUOUS
 62
1
 10
1617.115529
 20
1180.274908
 11
1617.478037
 21
1180.065614
  0
LINE
  8
0
  6
CONTINUOUS
 62
1
 10
1617.465941
 20
1180.050081
 11
1617.125214
 21
1180.246800
  0
LINE
  8
0
  6
CONTINUOUS
 62
1
 10
1615.336350
 20
1181.279601
 11
1614.839033
 21
1181.566727
  0
LINE
  8
0
  6
CONTINUOUS
 62
1
 10
1614.788585
 20
1181.573336
 11
1615.235636
 21
1181.315232
  0
LINE
  8
0
  6
CONTINUOUS
 62
1
 10
1617.134899
 20
1180.218692
 11
1617.453845
 21
1180.034548
  0
LINE
  8
0
  6
CONTINUOUS
 62
1
 10
1617.441749
 20
1180.019015
 11
1617.144584
 21
1180.190584
  0
LINE
  8
0
  6
CONTINUOUS
 62
1
 10
1615.134921
 20
1181.350863
 11
1614.738138
 21
1181.579946
  0
LINE
  8
0
  6
CONTINUOUS
 62
1
 10
1614.687690
 20
1181.586555
 11
1615.034207
 21
1181.386493
  0
LINE
  8
0
  6
CONTINUOUS
 62
1
 10
1617.154269
 20
1180.162475
 11
1617.429653
 21
1180.003482
  0
LINE
  8
0
  6
CONTINUOUS
 62
1
 10
1617.417557
 20
1179.987949
 11
1617.163954
 21
1180.134367
  0
LINE
  8
0
  6
CONTINUOUS
 62
1
 10
1614.933492
 20
1181.422124
 11
1614.637243
 21
1181.593164
  0
LINE
  8
0
  6
CONTINUOUS
 62
1
 10
1614.586795
 20
1181.599773
 11
1614.832778
 21
1181.457755
  0
LINE
  8
0
  6
CONTINUOUS
 62
1
 10
1617.173639
 20
1180.106259
 11
1617.405460
 21
1179.972416
  0
LINE
  8
0
  6
CONTINUOUS
 62
1
 10
1617.393364
 20
1179.956883
 11
1617.183323
 21
1180.078150
  0
LINE
  8
0
  6
CONTINUOUS
 62
1
 10
1614.732063
 20
1181.493386
 11
1614.536348
 21
1181.606382
  0
LINE
  8
0
  6
CONTINUOUS
 62
1
 10
1614.485900
 20
1181.612992
 11
1614.631349
 21
1181.529017
  0
LINE
  8
0
  6
CONTINUOUS
 62
1
 10
1617.193008
 20
1180.050042
 11
1617.381268
 21
1179.941350
  0
LINE
  8
0
  6
CONTINUOUS
 62
1
 10
1617.369172
 20
1179.925817
 11
1617.202693
 21
1180.021934
  0
LINE
  8
0
  6
CONTINUOUS
 62
1
 10
1614.530634
 20
1181.564648
 11
1614.435453
 21
1181.619601
  0
LINE
  8
0
  6
CONTINUOUS
 62
1
 10
1614.385005
 20
1181.626210
 11
1614.429920
 21
1181.600279
  0
LINE
  8
0
  6
CONTINUOUS
 62
1
 10
1617.212378
 20
1179.993826
 11
1617.357076
 21
1179.910284
  0
LINE
  8
0
  6
CONTINUOUS
 62
1
 10
1617.344980
 20
1179.894752
 11
1617.222063
 21
1179.965717
  0
LINE
  8
0
  6
CONTINUOUS
 62
1
 10
1617.231748
 20
1179.937609
 11
1617.332883
 21
1179.879219
  0
LINE
  8
0
  6
CONTINUOUS
 62
1
 10
1617.320787
 20
1179.863686
 11
1617.241433
 21
1179.909501
  0
LINE
  8
0
  6
CONTINUOUS
 62
1
 10
1617.251118
 20
1179.881393
 11
1617.308691
 21
1179.848153
  0
LINE
  8
0
  6
CONTINUOUS
 62
1
 10
1617.296595
 20
1179.832620
 11
1617.260803
 21
1179.853284
  0
LINE
  8
0
  6
CONTINUOUS
 62
1
 10
1617.270488
 20
1179.825176
 11
1617.284499
 21
1179.817087
  0
LINE
  8
0
  6
CONTINUOUS
 62
1
 10
1619.045093
 20
1180.219157
 11
1617.036803
 21
1181.378643
  0
LINE
  8
0
  6
CONTINUOUS
 62
1
 10
1616.271614
 20
1181.820426
 11
1616.006714
 21
1181.973366
  0
LINE
  8
0
  6
CONTINUOUS
 62
1
 10
1616.049952
 20
1181.925886
 11
1616.634906
 21
1181.588162
  0
LINE
  8
0
  6
CONTINUOUS
 62
1
 10
1617.014561
 20
1181.368969
 11
1619.006745
 21
1180.218781
  0
LINE
  8
0
  6
CONTINUOUS
 62
4
 10
1635.632618
 20
1405.204619
 11
1635.632618
 21
1356.204619
  0
LINE
  8
0
  6
CONTINUOUS
 62
4
 10
1636.382618
 20
1404.454619
 11
1636.382618
 21
1356.954619
  0
LINE
  8
0
  6
CONTINUOUS
 62
4
 10
1637.132618
 20
1403.704619
 11
1637.132618
 21
1357.704619
  0
LINE
  8
0
  6
CONTINUOUS
 62
4
 10
1637.132618
 20
1357.704619
 11
1665.132618
 21
1357.704619
  0
LINE
  8
0
  6
CONTINUOUS
 62
4
 10
1637.132618
 20
1403.704619
 11
1665.132618
 21
1403.704619
  0
LINE
  8
0
  6
CONTINUOUS
 62
4
 10
1665.132618
 20
1403.704619
 11
1665.132618
 21
1357.704619
  0
LINE
  8
0
  6
CONTINUOUS
 62
4
 10
1636.382618
 20
1404.454619
 11
1665.882618
 21
1404.454619
  0
LINE
  8
0
  6
CONTINUOUS
 62
4
 10
1635.632618
 20
1405.204619
 11
1666.632618
 21
1405.204619
  0
LINE
  8
0
  6
CONTINUOUS
 62
4
 10
1636.382618
 20
1356.954619
 11
1665.882618
 21
1356.954619
  0
LINE
  8
0
  6
CONTINUOUS
 62
4
 10
1665.882618
 20
1404.454619
 11
1665.882618
 21
1356.954619
  0
LINE
  8
0
  6
CONTINUOUS
 62
4
 10
1635.632618
 20
1356.204619
 11
1666.632618
 21
1356.204619
  0
LINE
  8
0
  6
CONTINUOUS
 62
4
 10
1666.632618
 20
1405.204619
 11
1666.632618
 21
1356.204619
  0
LINE
  8
0
  6
CONTINUOUS
 62
4
 10
1646.428600
 20
1403.696928
 11
1660.437061
 21
1403.696928
  0
LINE
  8
0
  6
CONTINUOUS
 62
4
 10
1661.294941
 20
1399.894270
 11
1661.564427
 21
1399.894270
  0
LINE
  8
0
  6
CONTINUOUS
 62
4
 10
1659.003117
 20
1393.638258
 11
1659.012119
 21
1393.638258
  0
LINE
  8
0
  6
CONTINUOUS
 62
4
 10
1642.252621
 20
1382.107588
 11
1642.260182
 21
1382.107588
  0
LINE
  8
0
  6
CONTINUOUS
 62
4
 10
1642.099293
 20
1397.706801
 11
1642.363270
 21
1397.706801
  0
LINE
  8
0
  6
CONTINUOUS
 62
4
 10
1642.363270
 20
1397.706801
 11
1644.607601
 21
1393.878340
  0
LINE
  8
0
  6
CONTINUOUS
 62
4
 10
1644.607601
 20
1393.878340
 11
1647.555958
 21
1390.695235
  0
LINE
  8
0
  6
CONTINUOUS
 62
4
 10
1647.555958
 20
1390.695235
 11
1649.052128
 21
1389.771147
  0
LINE
  8
0
  6
CONTINUOUS
 62
4
 10
1649.052128
 20
1389.771147
 11
1649.228199
 21
1389.463118
  0
LINE
  8
0
  6
CONTINUOUS
 62
4
 10
1649.228199
 20
1389.463118
 11
1649.096180
 21
1389.111067
  0
LINE
  8
0
  6
CONTINUOUS
 62
4
 10
1649.096180
 20
1389.111067
 11
1648.700108
 21
1388.538985
  0
LINE
  8
0
  6
CONTINUOUS
 62
4
 10
1648.700108
 20
1388.538985
 11
1648.568089
 21
1386.998793
  0
LINE
  8
0
  6
CONTINUOUS
 62
4
 10
1648.568089
 20
1386.998793
 11
1648.876118
 21
1384.710478
  0
LINE
  8
0
  6
CONTINUOUS
 62
4
 10
1648.876118
 20
1384.710478
 11
1648.436070
 21
1384.446440
  0
LINE
  8
0
  6
CONTINUOUS
 62
4
 10
1648.436070
 20
1384.446440
 11
1648.392079
 21
1383.874388
  0
LINE
  8
0
  6
CONTINUOUS
 62
4
 10
1648.392079
 20
1383.874388
 11
1648.568089
 21
1383.126280
  0
LINE
  8
0
  6
CONTINUOUS
 62
4
 10
1648.568089
 20
1383.126280
 11
1648.260060
 21
1382.774230
  0
LINE
  8
0
  6
CONTINUOUS
 62
4
 10
1648.260060
 20
1382.774230
 11
1648.260060
 21
1382.070158
  0
LINE
  8
0
  6
CONTINUOUS
 62
4
 10
1648.260060
 20
1382.070158
 11
1648.480053
 21
1381.542067
  0
LINE
  8
0
  6
CONTINUOUS
 62
4
 10
1648.480053
 20
1381.542067
 11
1648.348087
 21
1381.146040
  0
LINE
  8
0
  6
CONTINUOUS
 62
4
 10
1648.348087
 20
1381.146040
 11
1648.436070
 21
1380.661955
  0
LINE
  8
0
  6
CONTINUOUS
 62
4
 10
1648.436070
 20
1380.661955
 11
1648.788151
 21
1380.133894
  0
LINE
  8
0
  6
CONTINUOUS
 62
4
 10
1648.788151
 20
1380.133894
 11
1648.260060
 21
1379.253783
  0
LINE
  8
0
  6
CONTINUOUS
 62
4
 10
1648.260060
 20
1379.253783
 11
1647.379940
 21
1378.813735
  0
LINE
  8
0
  6
CONTINUOUS
 62
4
 10
1647.379940
 20
1378.813735
 11
1647.027859
 21
1378.901732
  0
LINE
  8
0
  6
CONTINUOUS
 62
4
 10
1647.027859
 20
1378.901732
 11
1647.555958
 21
1379.385802
  0
LINE
  8
0
  6
CONTINUOUS
 62
4
 10
1647.555958
 20
1379.385802
 11
1647.863980
 21
1379.913863
  0
LINE
  8
0
  6
CONTINUOUS
 62
4
 10
1647.863980
 20
1379.913863
 11
1647.908032
 21
1380.309905
  0
LINE
  8
0
  6
CONTINUOUS
 62
4
 10
1647.908032
 20
1380.309905
 11
1646.675839
 21
1378.857710
  0
LINE
  8
0
  6
CONTINUOUS
 62
4
 10
1646.675839
 20
1378.857710
 11
1645.575672
 21
1378.505690
  0
LINE
  8
0
  6
CONTINUOUS
 62
4
 10
1645.575672
 20
1378.505690
 11
1645.135616
 21
1378.769713
  0
LINE
  8
0
  6
CONTINUOUS
 62
4
 10
1645.135616
 20
1378.769713
 11
1645.135616
 21
1378.945754
  0
LINE
  8
0
  6
CONTINUOUS
 62
4
 10
1645.135616
 20
1378.945754
 11
1645.927761
 21
1379.429793
  0
LINE
  8
0
  6
CONTINUOUS
 62
4
 10
1645.927761
 20
1379.429793
 11
1646.763882
 21
1380.529936
  0
LINE
  8
0
  6
CONTINUOUS
 62
4
 10
1646.763882
 20
1380.529936
 11
1645.311703
 21
1379.341780
  0
LINE
  8
0
  6
CONTINUOUS
 62
4
 10
1645.311703
 20
1379.341780
 11
1644.123493
 21
1378.857710
  0
LINE
  8
0
  6
CONTINUOUS
 62
4
 10
1644.123493
 20
1378.857710
 11
1643.419453
 21
1379.209761
  0
LINE
  8
0
  6
CONTINUOUS
 62
4
 10
1643.419453
 20
1379.209761
 11
1645.707691
 21
1381.014006
  0
LINE
  8
0
  6
CONTINUOUS
 62
4
 10
1645.707691
 20
1381.014006
 11
1643.111363
 21
1379.561812
  0
LINE
  8
0
  6
CONTINUOUS
 62
4
 10
1643.111363
 20
1379.561812
 11
1642.143284
 21
1379.517836
  0
LINE
  8
0
  6
CONTINUOUS
 62
4
 10
1642.143284
 20
1379.517836
 11
1641.483158
 21
1380.133894
  0
LINE
  8
0
  6
CONTINUOUS
 62
4
 10
1641.483158
 20
1380.133894
 11
1641.571202
 21
1380.397948
  0
LINE
  8
0
  6
CONTINUOUS
 62
4
 10
1641.571202
 20
1380.397948
 11
1643.595463
 21
1380.925993
  0
LINE
  8
0
  6
CONTINUOUS
 62
4
 10
1643.595463
 20
1380.925993
 11
1644.827587
 21
1381.982131
  0
LINE
  8
0
  6
CONTINUOUS
 62
4
 10
1644.827587
 20
1381.982131
 11
1642.979397
 21
1381.014006
  0
LINE
  8
0
  6
CONTINUOUS
 62
4
 10
1642.979397
 20
1381.014006
 11
1641.835240
 21
1380.705977
  0
LINE
  8
0
  6
CONTINUOUS
 62
4
 10
1641.835240
 20
1380.705977
 11
1640.955128
 21
1380.970015
  0
LINE
  8
0
  6
CONTINUOUS
 62
4
 10
1640.955128
 20
1380.970015
 11
1640.691090
 21
1381.498076
  0
LINE
  8
0
  6
CONTINUOUS
 62
4
 10
1640.691090
 20
1381.498076
 11
1640.999119
 21
1381.762099
  0
LINE
  8
0
  6
CONTINUOUS
 62
4
 10
1640.999119
 20
1381.762099
 11
1644.211521
 21
1382.642241
  0
LINE
  8
0
  6
CONTINUOUS
 62
4
 10
1644.211521
 20
1382.642241
 11
1644.519558
 21
1382.994246
  0
LINE
  8
0
  6
CONTINUOUS
 62
4
 10
1644.519558
 20
1382.994246
 11
1642.234951
 21
1382.100691
  0
LINE
  8
0
  6
CONTINUOUS
 62
4
 10
1642.234951
 20
1382.100691
 11
1640.735081
 21
1382.202178
  0
LINE
  8
0
  6
CONTINUOUS
 62
4
 10
1640.735081
 20
1382.202178
 11
1640.030979
 21
1382.554198
  0
LINE
  8
0
  6
CONTINUOUS
 62
4
 10
1640.030979
 20
1382.554198
 11
1639.942997
 21
1383.038268
  0
LINE
  8
0
  6
CONTINUOUS
 62
4
 10
1639.942997
 20
1383.038268
 11
1640.647099
 21
1383.126280
  0
LINE
  8
0
  6
CONTINUOUS
 62
4
 10
1640.647099
 20
1383.126280
 11
1642.891361
 21
1383.434340
  0
LINE
  8
0
  6
CONTINUOUS
 62
4
 10
1642.891361
 20
1383.434340
 11
1644.035519
 21
1383.830382
  0
LINE
  8
0
  6
CONTINUOUS
 62
4
 10
1644.035519
 20
1383.830382
 11
1644.079502
 21
1384.006392
  0
LINE
  8
0
  6
CONTINUOUS
 62
4
 10
1644.079502
 20
1384.006392
 11
1640.823109
 21
1383.346312
  0
LINE
  8
0
  6
CONTINUOUS
 62
4
 10
1640.823109
 20
1383.346312
 11
1639.810978
 21
1383.566329
  0
LINE
  8
0
  6
CONTINUOUS
 62
4
 10
1639.810978
 20
1383.566329
 11
1639.546932
 21
1384.050398
  0
LINE
  8
0
  6
CONTINUOUS
 62
4
 10
1639.546932
 20
1384.050398
 11
1640.206982
 21
1384.358428
  0
LINE
  8
0
  6
CONTINUOUS
 62
4
 10
1640.206982
 20
1384.358428
 11
1643.683430
 21
1384.974532
  0
LINE
  8
0
  6
CONTINUOUS
 62
4
 10
1643.683430
 20
1384.974532
 11
1640.206982
 21
1384.534468
  0
LINE
  8
0
  6
CONTINUOUS
 62
4
 10
1640.206982
 20
1384.534468
 11
1639.106877
 21
1384.974532
  0
LINE
  8
0
  6
CONTINUOUS
 62
4
 10
1639.106877
 20
1384.974532
 11
1638.798840
 21
1385.370558
  0
LINE
  8
0
  6
CONTINUOUS
 62
4
 10
1638.798840
 20
1385.370558
 11
1640.251034
 21
1385.722609
  0
LINE
  8
0
  6
CONTINUOUS
 62
4
 10
1640.251034
 20
1385.722609
 11
1642.495289
 21
1386.074660
  0
LINE
  8
0
  6
CONTINUOUS
 62
4
 10
1642.495289
 20
1386.074660
 11
1643.067372
 21
1386.426711
  0
LINE
  8
0
  6
CONTINUOUS
 62
4
 10
1643.067372
 20
1386.426711
 11
1640.206982
 21
1386.250670
  0
LINE
  8
0
  6
CONTINUOUS
 62
4
 10
1640.206982
 20
1386.250670
 11
1639.326870
 21
1386.382689
  0
LINE
  8
0
  6
CONTINUOUS
 62
4
 10
1639.326870
 20
1386.382689
 11
1638.270748
 21
1387.042769
  0
LINE
  8
0
  6
CONTINUOUS
 62
4
 10
1640.206982
 20
1387.702864
 11
1642.231251
 21
1387.570830
  0
LINE
  8
0
  6
CONTINUOUS
 62
4
 10
1642.231251
 20
1387.570830
 11
1642.759342
 21
1387.702864
  0
LINE
  8
0
  6
CONTINUOUS
 62
4
 10
1642.759342
 20
1387.702864
 11
1638.798840
 21
1388.759016
  0
LINE
  8
0
  6
CONTINUOUS
 62
4
 10
1638.798840
 20
1388.759016
 11
1638.006710
 21
1389.463118
  0
LINE
  8
0
  6
CONTINUOUS
 62
4
 10
1638.226772
 20
1390.563246
 11
1641.703221
 21
1389.331099
  0
LINE
  8
0
  6
CONTINUOUS
 62
4
 10
1641.703221
 20
1389.331099
 11
1643.155407
 21
1389.155043
  0
LINE
  8
0
  6
CONTINUOUS
 62
4
 10
1643.155407
 20
1389.155043
 11
1639.458897
 21
1390.607237
  0
LINE
  8
0
  6
CONTINUOUS
 62
4
 10
1639.458897
 20
1390.607237
 11
1638.402783
 21
1391.414031
  0
LINE
  8
0
  6
CONTINUOUS
 62
4
 10
1638.402783
 20
1391.414031
 11
1638.006710
 21
1392.470152
  0
LINE
  8
0
  6
CONTINUOUS
 62
4
 10
1638.006710
 20
1392.470152
 11
1638.050762
 21
1393.438292
  0
LINE
  8
0
  6
CONTINUOUS
 62
4
 10
1638.050762
 20
1393.438292
 11
1640.206982
 21
1392.118102
  0
LINE
  8
0
  6
CONTINUOUS
 62
4
 10
1640.206982
 20
1392.118102
 11
1643.375401
 21
1390.519240
  0
LINE
  8
0
  6
CONTINUOUS
 62
4
 10
1643.375401
 20
1390.519240
 11
1641.307148
 21
1392.030089
  0
LINE
  8
0
  6
CONTINUOUS
 62
4
 10
1641.307148
 20
1392.030089
 11
1639.766934
 21
1393.790312
  0
LINE
  8
0
  6
CONTINUOUS
 62
4
 10
1639.766934
 20
1393.790312
 11
1639.546932
 21
1394.978438
  0
LINE
  8
0
  6
CONTINUOUS
 62
4
 10
1639.546932
 20
1394.978438
 11
1640.383053
 21
1395.990584
  0
LINE
  8
0
  6
CONTINUOUS
 62
4
 10
1640.383053
 20
1395.990584
 11
1641.571202
 21
1394.186369
  0
LINE
  8
0
  6
CONTINUOUS
 62
4
 10
1641.571202
 20
1394.186369
 11
1644.299557
 21
1391.678038
  0
LINE
  8
0
  6
CONTINUOUS
 62
4
 10
1644.299557
 20
1391.678038
 11
1643.243382
 21
1392.998229
  0
LINE
  8
0
  6
CONTINUOUS
 62
4
 10
1643.243382
 20
1392.998229
 11
1642.187260
 21
1394.582442
  0
LINE
  8
0
  6
CONTINUOUS
 62
4
 10
1642.187260
 20
1394.582442
 11
1641.659168
 21
1395.550520
  0
LINE
  8
0
  6
CONTINUOUS
 62
4
 10
1641.659168
 20
1395.550520
 11
1641.615193
 21
1396.518675
  0
LINE
  8
0
  6
CONTINUOUS
 62
4
 10
1641.615193
 20
1396.518675
 11
1641.879231
 21
1397.530806
  0
LINE
  8
0
  6
CONTINUOUS
 62
4
 10
1641.879231
 20
1397.530806
 11
1642.099293
 21
1397.706801
  0
LINE
  8
0
  6
CONTINUOUS
 62
4
 10
1661.564427
 20
1399.775069
 11
1660.992344
 21
1397.310744
  0
LINE
  8
0
  6
CONTINUOUS
 62
4
 10
1660.992344
 20
1397.310744
 11
1660.728291
 21
1395.066481
  0
LINE
  8
0
  6
CONTINUOUS
 62
4
 10
1660.728291
 20
1395.066481
 11
1660.684315
 21
1392.910201
  0
LINE
  8
0
  6
CONTINUOUS
 62
4
 10
1660.684315
 20
1392.910201
 11
1659.980213
 21
1391.854079
  0
LINE
  8
0
  6
CONTINUOUS
 62
4
 10
1659.980213
 20
1391.854079
 11
1660.024265
 21
1392.646178
  0
LINE
  8
0
  6
CONTINUOUS
 62
4
 10
1660.024265
 20
1392.646178
 11
1659.804203
 21
1393.086241
  0
LINE
  8
0
  6
CONTINUOUS
 62
4
 10
1659.804203
 20
1393.086241
 11
1658.968067
 21
1392.910201
  0
LINE
  8
0
  6
CONTINUOUS
 62
4
 10
1658.968067
 20
1392.910201
 11
1658.352009
 21
1391.678038
  0
LINE
  8
0
  6
CONTINUOUS
 62
4
 10
1658.352009
 20
1391.678038
 11
1657.427906
 21
1391.810057
  0
LINE
  8
0
  6
CONTINUOUS
 62
4
 10
1657.427906
 20
1391.810057
 11
1656.855839
 21
1391.267317
  0
LINE
  8
0
  6
CONTINUOUS
 62
4
 10
1656.855839
 20
1391.267317
 11
1656.635777
 21
1389.771147
  0
LINE
  8
0
  6
CONTINUOUS
 62
4
 10
1656.635777
 20
1389.771147
 11
1656.239781
 21
1390.475218
  0
LINE
  8
0
  6
CONTINUOUS
 62
4
 10
1656.239781
 20
1390.475218
 11
1655.491627
 21
1390.387221
  0
LINE
  8
0
  6
CONTINUOUS
 62
4
 10
1655.491627
 20
1390.387221
 11
1655.227635
 21
1389.683150
  0
LINE
  8
0
  6
CONTINUOUS
 62
4
 10
1655.227635
 20
1389.683150
 11
1655.315617
 21
1388.230956
  0
LINE
  8
0
  6
CONTINUOUS
 62
4
 10
1655.315617
 20
1388.230956
 11
1654.919544
 21
1388.538985
  0
LINE
  8
0
  6
CONTINUOUS
 62
4
 10
1654.919544
 20
1388.538985
 11
1654.288807
 21
1388.318953
  0
LINE
  8
0
  6
CONTINUOUS
 62
4
 10
1654.288807
 20
1388.318953
 11
1654.068806
 21
1387.878905
  0
LINE
  8
0
  6
CONTINUOUS
 62
4
 10
1654.068806
 20
1387.878905
 11
1652.880657
 21
1388.142912
  0
LINE
  8
0
  6
CONTINUOUS
 62
4
 10
1652.880657
 20
1388.142912
 11
1651.956501
 21
1388.759016
  0
LINE
  8
0
  6
CONTINUOUS
 62
4
 10
1651.956501
 20
1388.759016
 11
1650.944370
 21
1389.595107
  0
LINE
  8
0
  6
CONTINUOUS
 62
4
 10
1650.944370
 20
1389.595107
 11
1650.592350
 21
1390.695235
  0
LINE
  8
0
  6
CONTINUOUS
 62
4
 10
1650.592350
 20
1390.695235
 11
1650.724377
 21
1391.267317
  0
LINE
  8
0
  6
CONTINUOUS
 62
4
 10
1650.724377
 20
1391.267317
 11
1650.900379
 21
1391.326018
  0
LINE
  8
0
  6
CONTINUOUS
 62
4
 10
1650.900379
 20
1391.326018
 11
1652.660603
 21
1389.859145
  0
LINE
  8
0
  6
CONTINUOUS
 62
4
 10
1652.660603
 20
1389.859145
 11
1653.980763
 21
1389.155043
  0
LINE
  8
0
  6
CONTINUOUS
 62
4
 10
1653.980763
 20
1389.155043
 11
1654.919544
 21
1388.935027
  0
LINE
  8
0
  6
CONTINUOUS
 62
4
 10
1654.919544
 20
1388.935027
 11
1652.836613
 21
1390.475218
  0
LINE
  8
0
  6
CONTINUOUS
 62
4
 10
1652.836613
 20
1390.475218
 11
1651.384419
 21
1392.030089
  0
LINE
  8
0
  6
CONTINUOUS
 62
4
 10
1651.384419
 20
1392.030089
 11
1651.032398
 21
1393.394270
  0
LINE
  8
0
  6
CONTINUOUS
 62
4
 10
1651.032398
 20
1393.394270
 11
1651.164433
 21
1394.274413
  0
LINE
  8
0
  6
CONTINUOUS
 62
4
 10
1651.164433
 20
1394.274413
 11
1651.340443
 21
1394.450423
  0
LINE
  8
0
  6
CONTINUOUS
 62
4
 10
1651.340443
 20
1394.450423
 11
1652.308582
 21
1393.262251
  0
LINE
  8
0
  6
CONTINUOUS
 62
4
 10
1652.308582
 20
1393.262251
 11
1654.963597
 21
1390.783278
  0
LINE
  8
0
  6
CONTINUOUS
 62
4
 10
1654.963597
 20
1390.783278
 11
1652.792622
 21
1393.834349
  0
LINE
  8
0
  6
CONTINUOUS
 62
4
 10
1652.792622
 20
1393.834349
 11
1652.440602
 21
1395.110472
  0
LINE
  8
0
  6
CONTINUOUS
 62
4
 10
1652.440602
 20
1395.110472
 11
1652.528568
 21
1396.694685
  0
LINE
  8
0
  6
CONTINUOUS
 62
4
 10
1652.528568
 20
1396.694685
 11
1652.792622
 21
1397.486815
  0
LINE
  8
0
  6
CONTINUOUS
 62
4
 10
1652.792622
 20
1397.486815
 11
1653.056668
 21
1397.574782
  0
LINE
  8
0
  6
CONTINUOUS
 62
4
 10
1653.056668
 20
1397.574782
 11
1654.156834
 21
1394.758452
  0
LINE
  8
0
  6
CONTINUOUS
 62
4
 10
1654.156834
 20
1394.758452
 11
1656.503758
 21
1391.810057
  0
LINE
  8
0
  6
CONTINUOUS
 62
4
 10
1656.503758
 20
1391.810057
 11
1654.464863
 21
1396.078612
  0
LINE
  8
0
  6
CONTINUOUS
 62
4
 10
1654.464863
 20
1396.078612
 11
1654.244816
 21
1397.926878
  0
LINE
  8
0
  6
CONTINUOUS
 62
4
 10
1654.244816
 20
1397.926878
 11
1654.684864
 21
1398.894957
  0
LINE
  8
0
  6
CONTINUOUS
 62
4
 10
1654.684864
 20
1398.894957
 11
1655.227635
 21
1399.423048
  0
LINE
  8
0
  6
CONTINUOUS
 62
4
 10
1655.227635
 20
1399.423048
 11
1657.339863
 21
1393.438292
  0
LINE
  8
0
  6
CONTINUOUS
 62
4
 10
1657.339863
 20
1393.438292
 11
1656.723805
 21
1397.486815
  0
LINE
  8
0
  6
CONTINUOUS
 62
4
 10
1656.723805
 20
1397.486815
 11
1657.031849
 21
1399.071028
  0
LINE
  8
0
  6
CONTINUOUS
 62
4
 10
1657.031849
 20
1399.071028
 11
1657.647907
 21
1399.907088
  0
LINE
  8
0
  6
CONTINUOUS
 62
4
 10
1657.647907
 20
1399.907088
 11
1658.263966
 21
1400.303160
  0
LINE
  8
0
  6
CONTINUOUS
 62
4
 10
1658.263966
 20
1400.303160
 11
1658.484028
 21
1400.083159
  0
LINE
  8
0
  6
CONTINUOUS
 62
4
 10
1658.484028
 20
1400.083159
 11
1659.012119
 21
1393.526289
  0
LINE
  8
0
  6
CONTINUOUS
 62
4
 10
1659.012119
 20
1393.526289
 11
1659.012119
 21
1395.858550
  0
LINE
  8
0
  6
CONTINUOUS
 62
4
 10
1659.012119
 20
1395.858550
 11
1659.320164
 21
1397.618834
  0
LINE
  8
0
  6
CONTINUOUS
 62
4
 10
1659.320164
 20
1397.618834
 11
1659.760212
 21
1398.939009
  0
LINE
  8
0
  6
CONTINUOUS
 62
4
 10
1659.760212
 20
1398.939009
 11
1660.376270
 21
1399.511092
  0
LINE
  8
0
  6
CONTINUOUS
 62
4
 10
1660.376270
 20
1399.511092
 11
1661.124363
 21
1399.951140
  0
LINE
  8
0
  6
CONTINUOUS
 62
4
 10
1661.124363
 20
1399.951140
 11
1661.388416
 21
1399.863097
  0
LINE
  8
0
  6
CONTINUOUS
 62
4
 10
1661.388416
 20
1399.863097
 11
1661.564427
 21
1399.775069
  0
LINE
  8
0
  6
CONTINUOUS
 62
4
 10
1651.868527
 20
1373.533049
 11
1652.308582
 21
1373.753081
  0
LINE
  8
0
  6
CONTINUOUS
 62
4
 10
1652.308582
 20
1373.753081
 11
1652.440602
 21
1373.577071
  0
LINE
  8
0
  6
CONTINUOUS
 62
4
 10
1652.440602
 20
1373.577071
 11
1653.760777
 21
1374.061110
  0
LINE
  8
0
  6
CONTINUOUS
 62
4
 10
1653.760777
 20
1374.061110
 11
1653.716717
 21
1372.872969
  0
LINE
  8
0
  6
CONTINUOUS
 62
4
 10
1653.716717
 20
1372.872969
 11
1653.848744
 21
1372.080855
  0
LINE
  8
0
  6
CONTINUOUS
 62
4
 10
1653.848744
 20
1372.080855
 11
1654.068806
 21
1371.244765
  0
LINE
  8
0
  6
CONTINUOUS
 62
4
 10
1654.068806
 20
1371.244765
 11
1654.244816
 21
1370.584685
  0
LINE
  8
0
  6
CONTINUOUS
 62
4
 10
1654.244816
 20
1370.584685
 11
1654.684864
 21
1369.836562
  0
LINE
  8
0
  6
CONTINUOUS
 62
4
 10
1654.684864
 20
1369.836562
 11
1655.095616
 21
1369.337828
  0
LINE
  8
0
  6
CONTINUOUS
 62
4
 10
1655.095616
 20
1369.337828
 11
1655.623646
 21
1369.205809
  0
LINE
  8
0
  6
CONTINUOUS
 62
4
 10
1655.623646
 20
1369.205809
 11
1656.503758
 21
1369.249831
  0
LINE
  8
0
  6
CONTINUOUS
 62
4
 10
1656.503758
 20
1369.249831
 11
1657.207844
 21
1369.484511
  0
LINE
  8
0
  6
CONTINUOUS
 62
4
 10
1657.207844
 20
1369.484511
 11
1657.823918
 21
1369.484511
  0
LINE
  8
0
  6
CONTINUOUS
 62
4
 10
1657.823918
 20
1369.484511
 11
1658.352009
 21
1369.337828
  0
LINE
  8
0
  6
CONTINUOUS
 62
4
 10
1658.352009
 20
1369.337828
 11
1658.572071
 21
1369.205809
  0
LINE
  8
0
  6
CONTINUOUS
 62
4
 10
1658.572071
 20
1369.205809
 11
1658.616062
 21
1368.941802
  0
LINE
  8
0
  6
CONTINUOUS
 62
4
 10
1658.616062
 20
1368.941802
 11
1658.528019
 21
1368.633742
  0
LINE
  8
0
  6
CONTINUOUS
 62
4
 10
1658.528019
 20
1368.633742
 11
1658.263966
 21
1368.457732
  0
LINE
  8
0
  6
CONTINUOUS
 62
4
 10
1658.263966
 20
1368.457732
 11
1658.352009
 21
1368.677748
  0
LINE
  8
0
  6
CONTINUOUS
 62
4
 10
1658.352009
 20
1368.677748
 11
1658.175999
 21
1369.029799
  0
LINE
  8
0
  6
CONTINUOUS
 62
4
 10
1658.175999
 20
1369.029799
 11
1657.867970
 21
1369.073790
  0
LINE
  8
0
  6
CONTINUOUS
 62
4
 10
1657.867970
 20
1369.073790
 11
1657.427906
 21
1368.809782
  0
LINE
  8
0
  6
CONTINUOUS
 62
4
 10
1657.427906
 20
1368.809782
 11
1656.855839
 21
1368.721770
  0
LINE
  8
0
  6
CONTINUOUS
 62
4
 10
1656.855839
 20
1368.721770
 11
1656.503758
 21
1368.677748
  0
LINE
  8
0
  6
CONTINUOUS
 62
4
 10
1656.503758
 20
1368.677748
 11
1655.315617
 21
1368.633742
  0
LINE
  8
0
  6
CONTINUOUS
 62
4
 10
1655.315617
 20
1368.633742
 11
1654.640873
 21
1368.193678
  0
LINE
  8
0
  6
CONTINUOUS
 62
4
 10
1654.640873
 20
1368.193678
 11
1654.112797
 21
1367.533598
  0
LINE
  8
0
  6
CONTINUOUS
 62
4
 10
1654.112797
 20
1367.533598
 11
1653.980763
 21
1367.269591
  0
LINE
  8
0
  6
CONTINUOUS
 62
4
 10
1653.980763
 20
1367.269591
 11
1653.584759
 21
1367.225569
  0
LINE
  8
0
  6
CONTINUOUS
 62
4
 10
1653.584759
 20
1367.225569
 11
1653.452740
 21
1367.093550
  0
LINE
  8
0
  6
CONTINUOUS
 62
4
 10
1653.452740
 20
1367.093550
 11
1653.408688
 21
1366.873518
  0
LINE
  8
0
  6
CONTINUOUS
 62
4
 10
1653.408688
 20
1366.873518
 11
1653.584759
 21
1366.565489
  0
LINE
  8
0
  6
CONTINUOUS
 62
4
 10
1653.584759
 20
1366.565489
 11
1653.848744
 21
1366.389449
  0
LINE
  8
0
  6
CONTINUOUS
 62
4
 10
1653.848744
 20
1366.389449
 11
1653.496723
 21
1366.345458
  0
LINE
  8
0
  6
CONTINUOUS
 62
4
 10
1653.496723
 20
1366.345458
 11
1653.056668
 21
1366.609480
  0
LINE
  8
0
  6
CONTINUOUS
 62
4
 10
1653.056668
 20
1366.609480
 11
1653.056668
 21
1367.093550
  0
LINE
  8
0
  6
CONTINUOUS
 62
4
 10
1653.056668
 20
1367.093550
 11
1653.276661
 21
1367.577620
  0
LINE
  8
0
  6
CONTINUOUS
 62
4
 10
1653.276661
 20
1367.577620
 11
1653.804768
 21
1368.105681
  0
LINE
  8
0
  6
CONTINUOUS
 62
4
 10
1653.804768
 20
1368.105681
 11
1654.068806
 21
1368.545729
  0
LINE
  8
0
  6
CONTINUOUS
 62
4
 10
1654.068806
 20
1368.545729
 11
1654.156834
 21
1368.985793
  0
LINE
  8
0
  6
CONTINUOUS
 62
4
 10
1654.156834
 20
1368.985793
 11
1654.156834
 21
1369.249831
  0
LINE
  8
0
  6
CONTINUOUS
 62
4
 10
1654.156834
 20
1369.249831
 11
1653.892796
 21
1370.056593
  0
LINE
  8
0
  6
CONTINUOUS
 62
4
 10
1653.892796
 20
1370.056593
 11
1653.584759
 21
1370.584685
  0
LINE
  8
0
  6
CONTINUOUS
 62
4
 10
1653.584759
 20
1370.584685
 11
1652.968632
 21
1370.056593
  0
LINE
  8
0
  6
CONTINUOUS
 62
4
 10
1652.968632
 20
1370.056593
 11
1652.704647
 21
1370.584685
  0
LINE
  8
0
  6
CONTINUOUS
 62
4
 10
1652.704647
 20
1370.584685
 11
1652.220547
 21
1370.012602
  0
LINE
  8
0
  6
CONTINUOUS
 62
4
 10
1652.220547
 20
1370.012602
 11
1652.044537
 21
1371.156722
  0
LINE
  8
0
  6
CONTINUOUS
 62
4
 10
1652.044537
 20
1371.156722
 11
1651.472462
 21
1370.804701
  0
LINE
  8
0
  6
CONTINUOUS
 62
4
 10
1651.472462
 20
1370.804701
 11
1651.340443
 21
1371.332777
  0
LINE
  8
0
  6
CONTINUOUS
 62
4
 10
1651.340443
 20
1371.332777
 11
1651.428478
 21
1371.992857
  0
LINE
  8
0
  6
CONTINUOUS
 62
4
 10
1651.428478
 20
1371.992857
 11
1651.032398
 21
1371.904845
  0
LINE
  8
0
  6
CONTINUOUS
 62
4
 10
1651.032398
 20
1371.904845
 11
1651.736500
 21
1373.489058
  0
LINE
  8
0
  6
CONTINUOUS
 62
4
 10
1651.736500
 20
1373.489058
 11
1651.868527
 21
1373.533049
  0
LINE
  8
0
  6
CONTINUOUS
 62
4
 10
1650.592350
 20
1389.639128
 11
1650.460331
 21
1389.551131
  0
LINE
  8
0
  6
CONTINUOUS
 62
4
 10
1650.460331
 20
1389.551131
 11
1650.680393
 21
1388.274931
  0
LINE
  8
0
  6
CONTINUOUS
 62
4
 10
1650.680393
 20
1388.274931
 11
1650.944370
 21
1387.790892
  0
LINE
  8
0
  6
CONTINUOUS
 62
4
 10
1650.944370
 20
1387.790892
 11
1652.484593
 21
1386.954771
  0
LINE
  8
0
  6
CONTINUOUS
 62
4
 10
1652.484593
 20
1386.954771
 11
1653.848744
 21
1386.470702
  0
LINE
  8
0
  6
CONTINUOUS
 62
4
 10
1653.848744
 20
1386.470702
 11
1654.508854
 21
1386.426711
  0
LINE
  8
0
  6
CONTINUOUS
 62
4
 10
1654.508854
 20
1386.426711
 11
1654.156834
 21
1387.086791
  0
LINE
  8
0
  6
CONTINUOUS
 62
4
 10
1654.156834
 20
1387.086791
 11
1654.156834
 21
1387.438841
  0
LINE
  8
0
  6
CONTINUOUS
 62
4
 10
1654.156834
 20
1387.438841
 11
1652.748638
 21
1387.922896
  0
LINE
  8
0
  6
CONTINUOUS
 62
4
 10
1652.748638
 20
1387.922896
 11
1651.868527
 21
1388.406966
  0
LINE
  8
0
  6
CONTINUOUS
 62
4
 10
1651.868527
 20
1388.406966
 11
1651.032398
 21
1389.067046
  0
LINE
  8
0
  6
CONTINUOUS
 62
4
 10
1651.032398
 20
1389.067046
 11
1650.592350
 21
1389.639128
  0
LINE
  8
0
  6
CONTINUOUS
 62
4
 10
1653.760777
 20
1386.294692
 11
1653.760777
 21
1385.986662
  0
LINE
  8
0
  6
CONTINUOUS
 62
4
 10
1653.760777
 20
1385.986662
 11
1653.848744
 21
1385.370558
  0
LINE
  8
0
  6
CONTINUOUS
 62
4
 10
1653.848744
 20
1385.370558
 11
1652.528568
 21
1385.590590
  0
LINE
  8
0
  6
CONTINUOUS
 62
4
 10
1652.528568
 20
1385.590590
 11
1651.516453
 21
1386.030638
  0
LINE
  8
0
  6
CONTINUOUS
 62
4
 10
1651.516453
 20
1386.030638
 11
1650.680393
 21
1386.690718
  0
LINE
  8
0
  6
CONTINUOUS
 62
4
 10
1650.680393
 20
1386.690718
 11
1650.284321
 21
1387.306822
  0
LINE
  8
0
  6
CONTINUOUS
 62
4
 10
1650.284321
 20
1387.306822
 11
1650.196278
 21
1387.746870
  0
LINE
  8
0
  6
CONTINUOUS
 62
4
 10
1650.196278
 20
1387.746870
 11
1650.240330
 21
1388.142912
  0
LINE
  8
0
  6
CONTINUOUS
 62
4
 10
1650.240330
 20
1388.142912
 11
1650.724377
 21
1387.570830
  0
LINE
  8
0
  6
CONTINUOUS
 62
4
 10
1650.724377
 20
1387.570830
 11
1651.824467
 21
1386.910750
  0
LINE
  8
0
  6
CONTINUOUS
 62
4
 10
1651.824467
 20
1386.910750
 11
1652.748638
 21
1386.514723
  0
LINE
  8
0
  6
CONTINUOUS
 62
4
 10
1652.748638
 20
1386.514723
 11
1653.760777
 21
1386.294692
  0
LINE
  8
0
  6
CONTINUOUS
 62
4
 10
1662.620533
 20
1393.746321
 11
1662.708576
 21
1393.746321
  0
LINE
  8
0
  6
CONTINUOUS
 62
4
 10
1662.708576
 20
1393.746321
 11
1662.004475
 21
1392.778212
  0
LINE
  8
0
  6
CONTINUOUS
 62
4
 10
1662.004475
 20
1392.778212
 11
1661.432392
 21
1391.634047
  0
LINE
  8
0
  6
CONTINUOUS
 62
4
 10
1661.432392
 20
1391.634047
 11
1661.124363
 21
1389.859145
  0
LINE
  8
0
  6
CONTINUOUS
 62
4
 10
1661.124363
 20
1389.859145
 11
1661.124363
 21
1388.671019
  0
LINE
  8
0
  6
CONTINUOUS
 62
4
 10
1661.124363
 20
1388.671019
 11
1661.168339
 21
1387.306822
  0
LINE
  8
0
  6
CONTINUOUS
 62
4
 10
1661.168339
 20
1387.306822
 11
1661.124363
 21
1386.778761
  0
LINE
  8
0
  6
CONTINUOUS
 62
4
 10
1661.124363
 20
1386.778761
 11
1660.992344
 21
1386.382689
  0
LINE
  8
0
  6
CONTINUOUS
 62
4
 10
1660.992344
 20
1386.382689
 11
1660.640324
 21
1386.206679
  0
LINE
  8
0
  6
CONTINUOUS
 62
4
 10
1660.640324
 20
1386.206679
 11
1659.980213
 21
1386.030638
  0
LINE
  8
0
  6
CONTINUOUS
 62
4
 10
1659.980213
 20
1386.030638
 11
1659.056111
 21
1385.414580
  0
LINE
  8
0
  6
CONTINUOUS
 62
4
 10
1659.056111
 20
1385.414580
 11
1657.471897
 21
1384.006392
  0
LINE
  8
0
  6
CONTINUOUS
 62
4
 10
1657.471897
 20
1384.006392
 11
1656.415775
 21
1382.818251
  0
LINE
  8
0
  6
CONTINUOUS
 62
4
 10
1656.415775
 20
1382.818251
 11
1655.579655
 21
1381.366057
  0
LINE
  8
0
  6
CONTINUOUS
 62
4
 10
1655.579655
 20
1381.366057
 11
1655.227635
 21
1380.133894
  0
LINE
  8
0
  6
CONTINUOUS
 62
4
 10
1655.227635
 20
1380.133894
 11
1655.315617
 21
1379.429793
  0
LINE
  8
0
  6
CONTINUOUS
 62
4
 10
1655.315617
 20
1379.429793
 11
1655.667683
 21
1380.397948
  0
LINE
  8
0
  6
CONTINUOUS
 62
4
 10
1655.667683
 20
1380.397948
 11
1657.031849
 21
1380.177916
  0
LINE
  8
0
  6
CONTINUOUS
 62
4
 10
1657.031849
 20
1380.177916
 11
1659.364140
 21
1379.605834
  0
LINE
  8
0
  6
CONTINUOUS
 62
4
 10
1659.364140
 20
1379.605834
 11
1660.200260
 21
1379.253783
  0
LINE
  8
0
  6
CONTINUOUS
 62
4
 10
1660.200260
 20
1379.253783
 11
1660.904377
 21
1378.593703
  0
LINE
  8
0
  6
CONTINUOUS
 62
4
 10
1660.904377
 20
1378.593703
 11
1661.124363
 21
1377.933623
  0
LINE
  8
0
  6
CONTINUOUS
 62
4
 10
1661.124363
 20
1377.933623
 11
1661.300373
 21
1377.097502
  0
LINE
  8
0
  6
CONTINUOUS
 62
4
 10
1661.300373
 20
1377.097502
 11
1661.432392
 21
1376.349410
  0
LINE
  8
0
  6
CONTINUOUS
 62
4
 10
1661.432392
 20
1376.349410
 11
1661.432392
 21
1375.865340
  0
LINE
  8
0
  6
CONTINUOUS
 62
4
 10
1661.432392
 20
1375.865340
 11
1661.300373
 21
1375.821349
  0
LINE
  8
0
  6
CONTINUOUS
 62
4
 10
1661.300373
 20
1375.821349
 11
1661.124363
 21
1375.073241
  0
LINE
  8
0
  6
CONTINUOUS
 62
4
 10
1661.124363
 20
1375.073241
 11
1660.640324
 21
1374.501158
  0
LINE
  8
0
  6
CONTINUOUS
 62
4
 10
1660.640324
 20
1374.501158
 11
1660.288243
 21
1374.501158
  0
LINE
  8
0
  6
CONTINUOUS
 62
4
 10
1660.288243
 20
1374.501158
 11
1660.068241
 21
1374.677199
  0
LINE
  8
0
  6
CONTINUOUS
 62
4
 10
1660.068241
 20
1374.677199
 11
1660.244251
 21
1374.809218
  0
LINE
  8
0
  6
CONTINUOUS
 62
4
 10
1660.244251
 20
1374.809218
 11
1660.552281
 21
1375.249281
  0
LINE
  8
0
  6
CONTINUOUS
 62
4
 10
1660.552281
 20
1375.249281
 11
1660.420262
 21
1375.821349
  0
LINE
  8
0
  6
CONTINUOUS
 62
4
 10
1660.420262
 20
1375.821349
 11
1660.444737
 21
1375.715254
  0
LINE
  8
0
  6
CONTINUOUS
 62
4
 10
1660.444737
 20
1375.715254
 11
1660.497379
 21
1375.487090
  0
LINE
  8
0
  6
CONTINUOUS
 62
4
 10
1660.497379
 20
1375.487090
 11
1660.156285
 21
1375.469298
  0
LINE
  8
0
  6
CONTINUOUS
 62
4
 10
1660.156285
 20
1375.469298
 11
1659.100102
 21
1376.085371
  0
LINE
  8
0
  6
CONTINUOUS
 62
4
 10
1659.100102
 20
1376.085371
 11
1658.263966
 21
1376.393431
  0
LINE
  8
0
  6
CONTINUOUS
 62
4
 10
1658.263966
 20
1376.393431
 11
1657.999989
 21
1376.481429
  0
LINE
  8
0
  6
CONTINUOUS
 62
4
 10
1657.999989
 20
1376.481429
 11
1657.251896
 21
1376.129378
  0
LINE
  8
0
  6
CONTINUOUS
 62
4
 10
1657.251896
 20
1376.129378
 11
1656.459767
 21
1375.601332
  0
LINE
  8
0
  6
CONTINUOUS
 62
4
 10
1656.459767
 20
1375.601332
 11
1656.327748
 21
1374.677199
  0
LINE
  8
0
  6
CONTINUOUS
 62
4
 10
1656.327748
 20
1374.677199
 11
1656.635777
 21
1374.105116
  0
LINE
  8
0
  6
CONTINUOUS
 62
4
 10
1656.635777
 20
1374.105116
 11
1657.163868
 21
1372.784956
  0
LINE
  8
0
  6
CONTINUOUS
 62
4
 10
1657.163868
 20
1372.784956
 11
1657.427906
 21
1371.816847
  0
LINE
  8
0
  6
CONTINUOUS
 62
4
 10
1657.427906
 20
1371.816847
 11
1658.263966
 21
1370.716673
  0
LINE
  8
0
  6
CONTINUOUS
 62
4
 10
1658.263966
 20
1370.716673
 11
1658.880100
 21
1370.276610
  0
LINE
  8
0
  6
CONTINUOUS
 62
4
 10
1658.880100
 20
1370.276610
 11
1659.496159
 21
1369.968581
  0
LINE
  8
0
  6
CONTINUOUS
 62
4
 10
1659.496159
 20
1369.968581
 11
1660.816334
 21
1369.660552
  0
LINE
  8
0
  6
CONTINUOUS
 62
4
 10
1660.816334
 20
1369.660552
 11
1662.400547
 21
1369.968581
  0
LINE
  8
0
  6
CONTINUOUS
 62
4
 10
1662.400547
 20
1369.968581
 11
1663.148625
 21
1370.012602
  0
LINE
  8
0
  6
CONTINUOUS
 62
4
 10
1663.148625
 20
1370.012602
 11
1663.808735
 21
1369.968581
  0
LINE
  8
0
  6
CONTINUOUS
 62
4
 10
1663.808735
 20
1369.968581
 11
1664.204746
 21
1369.572554
  0
LINE
  8
0
  6
CONTINUOUS
 62
4
 10
1664.204746
 20
1369.572554
 11
1664.248783
 21
1369.205809
  0
LINE
  8
0
  6
CONTINUOUS
 62
4
 10
1664.248783
 20
1369.205809
 11
1664.160755
 21
1368.897780
  0
LINE
  8
0
  6
CONTINUOUS
 62
4
 10
1664.160755
 20
1368.897780
 11
1663.808735
 21
1368.765761
  0
LINE
  8
0
  6
CONTINUOUS
 62
4
 10
1663.808735
 20
1368.765761
 11
1663.940754
 21
1369.073790
  0
LINE
  8
0
  6
CONTINUOUS
 62
4
 10
1663.940754
 20
1369.073790
 11
1663.940754
 21
1369.337828
  0
LINE
  8
0
  6
CONTINUOUS
 62
4
 10
1663.940754
 20
1369.337828
 11
1663.632664
 21
1369.528532
  0
LINE
  8
0
  6
CONTINUOUS
 62
4
 10
1663.632664
 20
1369.528532
 11
1663.104634
 21
1369.616530
  0
LINE
  8
0
  6
CONTINUOUS
 62
4
 10
1663.104634
 20
1369.616530
 11
1662.928623
 21
1369.249831
  0
LINE
  8
0
  6
CONTINUOUS
 62
4
 10
1662.928623
 20
1369.249831
 11
1662.048527
 21
1369.161818
  0
LINE
  8
0
  6
CONTINUOUS
 62
4
 10
1662.048527
 20
1369.161818
 11
1661.168339
 21
1369.073790
  0
LINE
  8
0
  6
CONTINUOUS
 62
4
 10
1661.168339
 20
1369.073790
 11
1660.508305
 21
1369.029799
  0
LINE
  8
0
  6
CONTINUOUS
 62
4
 10
1660.508305
 20
1369.029799
 11
1659.936222
 21
1368.853758
  0
LINE
  8
0
  6
CONTINUOUS
 62
4
 10
1659.936222
 20
1368.853758
 11
1659.584202
 21
1368.545729
  0
LINE
  8
0
  6
CONTINUOUS
 62
4
 10
1659.584202
 20
1368.545729
 11
1658.968067
 21
1367.401579
  0
LINE
  8
0
  6
CONTINUOUS
 62
4
 10
1658.968067
 20
1367.401579
 11
1658.440052
 21
1367.401579
  0
LINE
  8
0
  6
CONTINUOUS
 62
4
 10
1658.440052
 20
1367.401579
 11
1658.352009
 21
1366.653502
  0
LINE
  8
0
  6
CONTINUOUS
 62
4
 10
1658.352009
 20
1366.653502
 11
1658.043965
 21
1366.565489
  0
LINE
  8
0
  6
CONTINUOUS
 62
4
 10
1658.043965
 20
1366.565489
 11
1657.867970
 21
1367.005537
  0
LINE
  8
0
  6
CONTINUOUS
 62
4
 10
1657.867970
 20
1367.005537
 11
1658.132008
 21
1367.753630
  0
LINE
  8
0
  6
CONTINUOUS
 62
4
 10
1658.132008
 20
1367.753630
 11
1658.352009
 21
1368.149703
  0
LINE
  8
0
  6
CONTINUOUS
 62
4
 10
1658.352009
 20
1368.149703
 11
1658.968067
 21
1368.897780
  0
LINE
  8
0
  6
CONTINUOUS
 62
4
 10
1658.968067
 20
1368.897780
 11
1658.792057
 21
1369.572554
  0
LINE
  8
0
  6
CONTINUOUS
 62
4
 10
1658.792057
 20
1369.572554
 11
1656.943806
 21
1371.112746
  0
LINE
  8
0
  6
CONTINUOUS
 62
4
 10
1656.943806
 20
1371.112746
 11
1656.239781
 21
1371.376753
  0
LINE
  8
0
  6
CONTINUOUS
 62
4
 10
1656.239781
 20
1371.376753
 11
1655.579655
 21
1370.760695
  0
LINE
  8
0
  6
CONTINUOUS
 62
4
 10
1655.579655
 20
1370.760695
 11
1655.403645
 21
1370.804701
  0
LINE
  8
0
  6
CONTINUOUS
 62
4
 10
1655.403645
 20
1370.804701
 11
1655.139607
 21
1371.860823
  0
LINE
  8
0
  6
CONTINUOUS
 62
4
 10
1655.139607
 20
1371.860823
 11
1654.596897
 21
1371.464797
  0
LINE
  8
0
  6
CONTINUOUS
 62
4
 10
1654.596897
 20
1371.464797
 11
1654.332844
 21
1371.508772
  0
LINE
  8
0
  6
CONTINUOUS
 62
4
 10
1654.332844
 20
1371.508772
 11
1654.288807
 21
1372.520903
  0
LINE
  8
0
  6
CONTINUOUS
 62
4
 10
1654.288807
 20
1372.520903
 11
1654.068806
 21
1374.457182
  0
LINE
  8
0
  6
CONTINUOUS
 62
4
 10
1654.068806
 20
1374.457182
 11
1652.836613
 21
1373.885100
  0
LINE
  8
0
  6
CONTINUOUS
 62
4
 10
1652.836613
 20
1373.885100
 11
1651.384419
 21
1373.753081
  0
LINE
  8
0
  6
CONTINUOUS
 62
4
 10
1651.384419
 20
1373.753081
 11
1650.064259
 21
1373.797087
  0
LINE
  8
0
  6
CONTINUOUS
 62
4
 10
1650.064259
 20
1373.797087
 11
1649.888249
 21
1374.061110
  0
LINE
  8
0
  6
CONTINUOUS
 62
4
 10
1649.888249
 20
1374.061110
 11
1647.467922
 21
1374.149138
  0
LINE
  8
0
  6
CONTINUOUS
 62
4
 10
1647.467922
 20
1374.149138
 11
1646.719830
 21
1374.061110
  0
LINE
  8
0
  6
CONTINUOUS
 62
4
 10
1646.719830
 20
1374.061110
 11
1645.311703
 21
1371.464797
  0
LINE
  8
0
  6
CONTINUOUS
 62
4
 10
1645.311703
 20
1371.464797
 11
1644.827587
 21
1369.880583
  0
LINE
  8
0
  6
CONTINUOUS
 62
4
 10
1644.827587
 20
1369.880583
 11
1643.947483
 21
1368.457732
  0
LINE
  8
0
  6
CONTINUOUS
 62
4
 10
1643.947483
 20
1368.457732
 11
1643.155407
 21
1368.545729
  0
LINE
  8
0
  6
CONTINUOUS
 62
4
 10
1643.155407
 20
1368.545729
 11
1643.155407
 21
1369.792586
  0
LINE
  8
0
  6
CONTINUOUS
 62
4
 10
1643.155407
 20
1369.792586
 11
1644.035519
 21
1371.728804
  0
LINE
  8
0
  6
CONTINUOUS
 62
4
 10
1644.035519
 20
1371.728804
 11
1642.847378
 21
1369.748564
  0
LINE
  8
0
  6
CONTINUOUS
 62
4
 10
1642.847378
 20
1369.748564
 11
1642.363270
 21
1369.029799
  0
LINE
  8
0
  6
CONTINUOUS
 62
4
 10
1642.363270
 20
1369.029799
 11
1641.527210
 21
1369.440520
  0
LINE
  8
0
  6
CONTINUOUS
 62
4
 10
1641.527210
 20
1369.440520
 11
1641.659168
 21
1370.408644
  0
LINE
  8
0
  6
CONTINUOUS
 62
4
 10
1641.659168
 20
1370.408644
 11
1642.231251
 21
1371.288756
  0
LINE
  8
0
  6
CONTINUOUS
 62
4
 10
1642.231251
 20
1371.288756
 11
1641.747212
 21
1370.980711
  0
LINE
  8
0
  6
CONTINUOUS
 62
4
 10
1641.747212
 20
1370.980711
 11
1641.395191
 21
1370.364653
  0
LINE
  8
0
  6
CONTINUOUS
 62
4
 10
1641.395191
 20
1370.364653
 11
1640.867100
 21
1370.012602
  0
LINE
  8
0
  6
CONTINUOUS
 62
4
 10
1640.867100
 20
1370.012602
 11
1640.206982
 21
1370.056593
  0
LINE
  8
0
  6
CONTINUOUS
 62
4
 10
1640.206982
 20
1370.056593
 11
1640.162998
 21
1371.112746
  0
LINE
  8
0
  6
CONTINUOUS
 62
4
 10
1640.162998
 20
1371.112746
 11
1640.647099
 21
1371.640791
  0
LINE
  8
0
  6
CONTINUOUS
 62
4
 10
1640.647099
 20
1371.640791
 11
1642.143284
 21
1372.872969
  0
LINE
  8
0
  6
CONTINUOUS
 62
4
 10
1642.143284
 20
1372.872969
 11
1640.559063
 21
1371.860823
  0
LINE
  8
0
  6
CONTINUOUS
 62
4
 10
1640.559063
 20
1371.860823
 11
1639.854962
 21
1371.420775
  0
LINE
  8
0
  6
CONTINUOUS
 62
4
 10
1639.854962
 20
1371.420775
 11
1639.106877
 21
1371.596816
  0
LINE
  8
0
  6
CONTINUOUS
 62
4
 10
1639.106877
 20
1371.596816
 11
1641.131138
 21
1373.665068
  0
LINE
  8
0
  6
CONTINUOUS
 62
4
 10
1641.131138
 20
1373.665068
 11
1639.194920
 21
1372.916991
  0
LINE
  8
0
  6
CONTINUOUS
 62
4
 10
1639.194920
 20
1372.916991
 11
1638.314739
 21
1373.137007
  0
LINE
  8
0
  6
CONTINUOUS
 62
4
 10
1638.314739
 20
1373.137007
 11
1638.798840
 21
1374.017119
  0
LINE
  8
0
  6
CONTINUOUS
 62
4
 10
1638.798840
 20
1374.017119
 11
1640.955128
 21
1374.765212
  0
LINE
  8
0
  6
CONTINUOUS
 62
4
 10
1640.955128
 20
1374.765212
 11
1639.457768
 21
1374.245711
  0
LINE
  8
0
  6
CONTINUOUS
 62
4
 10
1639.457768
 20
1374.245711
 11
1638.622837
 21
1374.589201
  0
LINE
  8
0
  6
CONTINUOUS
 62
4
 10
1638.622837
 20
1374.589201
 11
1638.578793
 21
1374.897231
  0
LINE
  8
0
  6
CONTINUOUS
 62
4
 10
1638.578793
 20
1374.897231
 11
1639.810978
 21
1375.601332
  0
LINE
  8
0
  6
CONTINUOUS
 62
4
 10
1639.810978
 20
1375.601332
 11
1641.967274
 21
1375.645308
  0
LINE
  8
0
  6
CONTINUOUS
 62
4
 10
1641.967274
 20
1375.645308
 11
1643.859509
 21
1376.041380
  0
LINE
  8
0
  6
CONTINUOUS
 62
4
 10
1643.859509
 20
1376.041380
 11
1645.223660
 21
1376.525420
  0
LINE
  8
0
  6
CONTINUOUS
 62
4
 10
1645.223660
 20
1376.525420
 11
1645.751751
 21
1377.273543
  0
LINE
  8
0
  6
CONTINUOUS
 62
4
 10
1645.751751
 20
1377.273543
 11
1646.807873
 21
1377.757582
  0
LINE
  8
0
  6
CONTINUOUS
 62
4
 10
1646.807873
 20
1377.757582
 11
1647.952023
 21
1378.549681
  0
LINE
  8
0
  6
CONTINUOUS
 62
4
 10
1647.952023
 20
1378.549681
 11
1649.316174
 21
1379.253783
  0
LINE
  8
0
  6
CONTINUOUS
 62
4
 10
1649.316174
 20
1379.253783
 11
1650.108311
 21
1378.769713
  0
LINE
  8
0
  6
CONTINUOUS
 62
4
 10
1650.108311
 20
1378.769713
 11
1651.516453
 21
1378.329649
  0
LINE
  8
0
  6
CONTINUOUS
 62
4
 10
1651.516453
 20
1378.329649
 11
1650.064259
 21
1379.033766
  0
LINE
  8
0
  6
CONTINUOUS
 62
4
 10
1650.064259
 20
1379.033766
 11
1649.492184
 21
1379.473814
  0
LINE
  8
0
  6
CONTINUOUS
 62
4
 10
1649.492184
 20
1379.473814
 11
1651.428478
 21
1379.253783
  0
LINE
  8
0
  6
CONTINUOUS
 62
4
 10
1651.428478
 20
1379.253783
 11
1653.056668
 21
1379.517836
  0
LINE
  8
0
  6
CONTINUOUS
 62
4
 10
1653.056668
 20
1379.517836
 11
1651.076389
 21
1379.561812
  0
LINE
  8
0
  6
CONTINUOUS
 62
4
 10
1651.076389
 20
1379.561812
 11
1649.404209
 21
1380.089873
  0
LINE
  8
0
  6
CONTINUOUS
 62
4
 10
1649.404209
 20
1380.089873
 11
1648.700108
 21
1380.573958
  0
LINE
  8
0
  6
CONTINUOUS
 62
4
 10
1648.700108
 20
1380.573958
 11
1648.405239
 21
1381.317641
  0
LINE
  8
0
  6
CONTINUOUS
 62
4
 10
1648.405239
 20
1381.317641
 11
1649.624203
 21
1380.793974
  0
LINE
  8
0
  6
CONTINUOUS
 62
4
 10
1649.624203
 20
1380.793974
 11
1651.956501
 21
1380.397948
  0
LINE
  8
0
  6
CONTINUOUS
 62
4
 10
1651.956501
 20
1380.397948
 11
1651.114819
 21
1380.540846
  0
LINE
  8
0
  6
CONTINUOUS
 62
4
 10
1651.114819
 20
1380.540846
 11
1649.780827
 21
1380.767378
  0
LINE
  8
0
  6
CONTINUOUS
 62
4
 10
1649.780827
 20
1380.767378
 11
1648.876118
 21
1381.542067
  0
LINE
  8
0
  6
CONTINUOUS
 62
4
 10
1648.876118
 20
1381.542067
 11
1648.436070
 21
1382.246169
  0
LINE
  8
0
  6
CONTINUOUS
 62
4
 10
1648.436070
 20
1382.246169
 11
1649.008137
 21
1382.730238
  0
LINE
  8
0
  6
CONTINUOUS
 62
4
 10
1649.008137
 20
1382.730238
 11
1650.152287
 21
1382.070158
  0
LINE
  8
0
  6
CONTINUOUS
 62
4
 10
1650.152287
 20
1382.070158
 11
1651.648472
 21
1381.630110
  0
LINE
  8
0
  6
CONTINUOUS
 62
4
 10
1651.648472
 20
1381.630110
 11
1653.056668
 21
1381.586089
  0
LINE
  8
0
  6
CONTINUOUS
 62
4
 10
1653.056668
 20
1381.586089
 11
1649.891949
 21
1382.220335
  0
LINE
  8
0
  6
CONTINUOUS
 62
4
 10
1649.891949
 20
1382.220335
 11
1648.491894
 21
1383.450041
  0
LINE
  8
0
  6
CONTINUOUS
 62
4
 10
1648.491894
 20
1383.450041
 11
1648.392079
 21
1383.874388
  0
LINE
  8
0
  6
CONTINUOUS
 62
4
 10
1648.392079
 20
1383.874388
 11
1648.426472
 21
1384.321928
  0
LINE
  8
0
  6
CONTINUOUS
 62
4
 10
1648.426472
 20
1384.321928
 11
1649.272190
 21
1384.270430
  0
LINE
  8
0
  6
CONTINUOUS
 62
4
 10
1649.272190
 20
1384.270430
 11
1650.812412
 21
1383.170302
  0
LINE
  8
0
  6
CONTINUOUS
 62
4
 10
1650.812412
 20
1383.170302
 11
1652.308582
 21
1382.598219
  0
LINE
  8
0
  6
CONTINUOUS
 62
4
 10
1653.540707
 20
1382.510222
 11
1651.824467
 21
1383.126280
  0
LINE
  8
0
  6
CONTINUOUS
 62
4
 10
1651.824467
 20
1383.126280
 11
1649.775868
 21
1383.910628
  0
LINE
  8
0
  6
CONTINUOUS
 62
4
 10
1649.775868
 20
1383.910628
 11
1649.404209
 21
1384.578459
  0
LINE
  8
0
  6
CONTINUOUS
 62
4
 10
1649.404209
 20
1384.578459
 11
1649.316174
 21
1385.810622
  0
LINE
  8
0
  6
CONTINUOUS
 62
4
 10
1649.316174
 20
1385.810622
 11
1651.296452
 21
1384.490462
  0
LINE
  8
0
  6
CONTINUOUS
 62
4
 10
1651.296452
 20
1384.490462
 11
1652.352574
 21
1384.050398
  0
LINE
  8
0
  6
CONTINUOUS
 62
4
 10
1652.352574
 20
1384.050398
 11
1652.308582
 21
1384.358428
  0
LINE
  8
0
  6
CONTINUOUS
 62
4
 10
1652.308582
 20
1384.358428
 11
1651.340443
 21
1384.754500
  0
LINE
  8
0
  6
CONTINUOUS
 62
4
 10
1651.340443
 20
1384.754500
 11
1650.548367
 21
1385.282561
  0
LINE
  8
0
  6
CONTINUOUS
 62
4
 10
1650.548367
 20
1385.282561
 11
1649.800282
 21
1386.206679
  0
LINE
  8
0
  6
CONTINUOUS
 62
4
 10
1649.800282
 20
1386.206679
 11
1649.888249
 21
1386.954771
  0
LINE
  8
0
  6
CONTINUOUS
 62
4
 10
1649.888249
 20
1386.954771
 11
1651.340443
 21
1385.810622
  0
LINE
  8
0
  6
CONTINUOUS
 62
4
 10
1651.340443
 20
1385.810622
 11
1653.188687
 21
1385.062529
  0
LINE
  8
0
  6
CONTINUOUS
 62
4
 10
1653.188687
 20
1385.062529
 11
1653.936787
 21
1385.062529
  0
LINE
  8
0
  6
CONTINUOUS
 62
4
 10
1653.936787
 20
1385.062529
 11
1654.684864
 21
1384.666472
  0
LINE
  8
0
  6
CONTINUOUS
 62
4
 10
1654.684864
 20
1384.666472
 11
1656.723805
 21
1384.534468
  0
LINE
  8
0
  6
CONTINUOUS
 62
4
 10
1656.723805
 20
1384.534468
 11
1655.406300
 21
1384.619765
  0
LINE
  8
0
  6
CONTINUOUS
 62
4
 10
1655.406300
 20
1384.619765
 11
1654.288807
 21
1385.150542
  0
LINE
  8
0
  6
CONTINUOUS
 62
4
 10
1654.288807
 20
1385.150542
 11
1653.980763
 21
1386.030638
  0
LINE
  8
0
  6
CONTINUOUS
 62
4
 10
1653.980763
 20
1386.030638
 11
1654.787586
 21
1385.986662
  0
LINE
  8
0
  6
CONTINUOUS
 62
4
 10
1654.787586
 20
1385.986662
 11
1655.051563
 21
1385.898619
  0
LINE
  8
0
  6
CONTINUOUS
 62
4
 10
1655.051563
 20
1385.898619
 11
1655.755665
 21
1385.810622
  0
LINE
  8
0
  6
CONTINUOUS
 62
4
 10
1655.755665
 20
1385.810622
 11
1655.755665
 21
1385.986662
  0
LINE
  8
0
  6
CONTINUOUS
 62
4
 10
1655.755665
 20
1385.986662
 11
1655.007588
 21
1386.558745
  0
LINE
  8
0
  6
CONTINUOUS
 62
4
 10
1655.007588
 20
1386.558745
 11
1654.288807
 21
1387.614851
  0
LINE
  8
0
  6
CONTINUOUS
 62
4
 10
1654.288807
 20
1387.614851
 11
1654.728855
 21
1388.230956
  0
LINE
  8
0
  6
CONTINUOUS
 62
4
 10
1654.728855
 20
1388.230956
 11
1655.403645
 21
1387.702864
  0
LINE
  8
0
  6
CONTINUOUS
 62
4
 10
1655.403645
 20
1387.702864
 11
1656.635777
 21
1387.438841
  0
LINE
  8
0
  6
CONTINUOUS
 62
4
 10
1656.635777
 20
1387.438841
 11
1656.389393
 21
1387.491637
  0
LINE
  8
0
  6
CONTINUOUS
 62
4
 10
1656.389393
 20
1387.491637
 11
1655.535664
 21
1388.582976
  0
LINE
  8
0
  6
CONTINUOUS
 62
4
 10
1655.535664
 20
1388.582976
 11
1655.403645
 21
1389.507109
  0
LINE
  8
0
  6
CONTINUOUS
 62
4
 10
1655.403645
 20
1389.507109
 11
1655.799717
 21
1390.211211
  0
LINE
  8
0
  6
CONTINUOUS
 62
4
 10
1655.799717
 20
1390.211211
 11
1656.371723
 21
1389.683150
  0
LINE
  8
0
  6
CONTINUOUS
 62
4
 10
1656.371723
 20
1389.683150
 11
1656.943806
 21
1388.935027
  0
LINE
  8
0
  6
CONTINUOUS
 62
4
 10
1656.943806
 20
1388.935027
 11
1657.119877
 21
1389.243086
  0
LINE
  8
0
  6
CONTINUOUS
 62
4
 10
1657.119877
 20
1389.243086
 11
1656.987858
 21
1390.255187
  0
LINE
  8
0
  6
CONTINUOUS
 62
4
 10
1656.987858
 20
1390.255187
 11
1657.427906
 21
1391.502028
  0
LINE
  8
0
  6
CONTINUOUS
 62
4
 10
1657.427906
 20
1391.502028
 11
1658.043965
 21
1391.267317
  0
LINE
  8
0
  6
CONTINUOUS
 62
4
 10
1658.043965
 20
1391.267317
 11
1658.352009
 21
1390.123198
  0
LINE
  8
0
  6
CONTINUOUS
 62
4
 10
1658.352009
 20
1390.123198
 11
1658.484028
 21
1390.387221
  0
LINE
  8
0
  6
CONTINUOUS
 62
4
 10
1658.484028
 20
1390.387221
 11
1658.572071
 21
1391.458022
  0
LINE
  8
0
  6
CONTINUOUS
 62
4
 10
1658.572071
 20
1391.458022
 11
1659.144154
 21
1392.426161
  0
LINE
  8
0
  6
CONTINUOUS
 62
4
 10
1659.144154
 20
1392.426161
 11
1659.672169
 21
1392.602171
  0
LINE
  8
0
  6
CONTINUOUS
 62
4
 10
1659.672169
 20
1392.602171
 11
1659.848179
 21
1391.414031
  0
LINE
  8
0
  6
CONTINUOUS
 62
4
 10
1659.848179
 20
1391.414031
 11
1660.024265
 21
1391.135329
  0
LINE
  8
0
  6
CONTINUOUS
 62
4
 10
1660.024265
 20
1391.135329
 11
1660.860325
 21
1392.734190
  0
LINE
  8
0
  6
CONTINUOUS
 62
4
 10
1660.860325
 20
1392.734190
 11
1661.872441
 21
1393.614302
  0
LINE
  8
0
  6
CONTINUOUS
 62
4
 10
1661.872441
 20
1393.614302
 11
1662.400547
 21
1393.834349
  0
LINE
  8
0
  6
CONTINUOUS
 62
4
 10
1662.400547
 20
1393.834349
 11
1662.620533
 21
1393.746321
  0
LINE
  8
0
  6
CONTINUOUS
 62
4
 10
1660.420262
 20
1377.845610
 11
1660.332295
 21
1377.801589
  0
LINE
  8
0
  6
CONTINUOUS
 62
4
 10
1660.332295
 20
1377.801589
 11
1660.288243
 21
1377.405531
  0
LINE
  8
0
  6
CONTINUOUS
 62
4
 10
1660.288243
 20
1377.405531
 11
1659.980213
 21
1376.921492
  0
LINE
  8
0
  6
CONTINUOUS
 62
4
 10
1659.980213
 20
1376.921492
 11
1660.068241
 21
1376.261412
  0
LINE
  8
0
  6
CONTINUOUS
 62
4
 10
1660.068241
 20
1376.261412
 11
1660.552281
 21
1376.129378
  0
LINE
  8
0
  6
CONTINUOUS
 62
4
 10
1660.552281
 20
1376.129378
 11
1660.904377
 21
1376.217391
  0
LINE
  8
0
  6
CONTINUOUS
 62
4
 10
1660.904377
 20
1376.217391
 11
1660.816334
 21
1376.833479
  0
LINE
  8
0
  6
CONTINUOUS
 62
4
 10
1660.816334
 20
1376.833479
 11
1660.552281
 21
1377.625548
  0
LINE
  8
0
  6
CONTINUOUS
 62
4
 10
1660.552281
 20
1377.625548
 11
1660.420262
 21
1377.845610
  0
LINE
  8
0
  6
CONTINUOUS
 62
4
 10
1660.860325
 20
1376.525420
 11
1660.508305
 21
1376.481429
  0
LINE
  8
0
  6
CONTINUOUS
 62
4
 10
1660.508305
 20
1376.481429
 11
1660.332295
 21
1376.349410
  0
LINE
  8
0
  6
CONTINUOUS
 62
4
 10
1655.667683
 20
1370.584685
 11
1655.403645
 21
1370.496642
  0
LINE
  8
0
  6
CONTINUOUS
 62
4
 10
1655.403645
 20
1370.496642
 11
1655.051563
 21
1369.836562
  0
LINE
  8
0
  6
CONTINUOUS
 62
4
 10
1655.051563
 20
1369.836562
 11
1655.315617
 21
1369.704543
  0
LINE
  8
0
  6
CONTINUOUS
 62
4
 10
1655.315617
 20
1369.704543
 11
1655.711674
 21
1370.408644
  0
LINE
  8
0
  6
CONTINUOUS
 62
4
 10
1656.767796
 20
1370.584685
 11
1655.623646
 21
1369.572554
  0
LINE
  8
0
  6
CONTINUOUS
 62
4
 10
1655.623646
 20
1369.572554
 11
1656.503758
 21
1369.836562
  0
LINE
  8
0
  6
CONTINUOUS
 62
4
 10
1656.503758
 20
1369.836562
 11
1657.119877
 21
1370.584685
  0
LINE
  8
0
  6
CONTINUOUS
 62
4
 10
1655.667683
 20
1370.584685
 11
1655.711674
 21
1370.408644
  0
LINE
  8
0
  6
CONTINUOUS
 62
4
 10
1656.767796
 20
1370.584685
 11
1657.110432
 21
1370.573210
  0
LINE
  8
0
  6
CONTINUOUS
 62
4
 10
1652.698094
 20
1370.576918
 11
1652.708531
 21
1370.576918
  0
LINE
  8
0
  6
CONTINUOUS
 62
4
 10
1653.575710
 20
1370.576918
 11
1653.589283
 21
1370.576918
  0
LINE
  8
0
  6
CONTINUOUS
 62
4
 10
1646.692982
 20
1374.011595
 11
1646.719830
 21
1374.011595
  0
LINE
  8
0
  6
CONTINUOUS
 62
4
 10
1651.142681
 20
1379.286269
 11
1651.628742
 21
1379.286269
  0
LINE
  8
0
  6
CONTINUOUS
 62
4
 10
1642.005490
 20
1372.784926
 11
1642.036389
 21
1372.784926
  0
LINE
  8
0
  6
CONTINUOUS
 62
4
 10
1644.006787
 20
1371.680922
 11
1644.013752
 21
1371.680922
  0
LINE
  8
0
  6
CONTINUOUS
 62
4
 10
1643.933193
 20
1371.558272
 11
1643.957997
 21
1371.558272
  0
LINE
  8
0
  6
CONTINUOUS
 62
4
 10
1646.428600
 20
1403.696928
 11
1637.132618
 21
1403.696928
  0
LINE
  8
0
  6
CONTINUOUS
 62
4
 10
1665.132954
 20
1357.704619
 11
1637.132618
 21
1357.704619
  0
LINE
  8
0
  6
CONTINUOUS
 62
4
 10
1665.132954
 20
1403.704619
 11
1637.132618
 21
1403.704619
  0
LINE
  8
0
  6
CONTINUOUS
 62
4
 10
1638.515240
 20
1365.065703
 11
1641.984959
 21
1365.065703
  0
LINE
  8
0
  6
CONTINUOUS
 62
4
 10
1641.984959
 20
1365.065703
 11
1641.984959
 21
1363.614729
  0
LINE
  8
0
  6
CONTINUOUS
 62
4
 10
1641.795704
 20
1362.857710
 11
1641.795704
 21
1361.406737
  0
LINE
  8
0
  6
CONTINUOUS
 62
4
 10
1638.515240
 20
1365.065703
 11
1638.515240
 21
1359.009490
  0
LINE
  8
0
  6
CONTINUOUS
 62
4
 10
1641.984959
 20
1363.614729
 11
1640.407810
 21
1363.614729
  0
LINE
  8
0
  6
CONTINUOUS
 62
4
 10
1641.795704
 20
1362.857710
 11
1640.407810
 21
1362.857710
  0
LINE
  8
0
  6
CONTINUOUS
 62
4
 10
1640.407810
 20
1363.614729
 11
1640.407810
 21
1362.857710
  0
LINE
  8
0
  6
CONTINUOUS
 62
4
 10
1641.795704
 20
1361.406737
 11
1640.407810
 21
1361.406737
  0
LINE
  8
0
  6
CONTINUOUS
 62
4
 10
1638.515240
 20
1359.009490
 11
1640.407810
 21
1359.009490
  0
LINE
  8
0
  6
CONTINUOUS
 62
4
 10
1640.407810
 20
1361.406737
 11
1640.407810
 21
1359.009490
  0
ARC
  8
0
  6
CONTINUOUS
 62
4
 10
1644.386517
 20
1361.397215
 40
1.902205
 50
90.461761
 51
138.107071
  0
ARC
  8
0
  6
CONTINUOUS
 62
4
 10
1644.636433
 20
1361.167784
 40
2.241433
 50
138.002731
 51
180.356583
  0
ARC
  8
0
  6
CONTINUOUS
 62
4
 10
1644.636410
 20
1361.141081
 40
2.241417
 50
179.643372
 51
221.997223
  0
ARC
  8
0
  6
CONTINUOUS
 62
4
 10
1644.386471
 20
1360.911559
 40
1.902131
 50
221.892487
 51
269.539734
  0
LINE
  8
0
  6
CONTINUOUS
 62
4
 10
1647.094898
 20
1363.299315
 11
1647.094898
 21
1359.009490
  0
LINE
  8
0
  6
CONTINUOUS
 62
4
 10
1647.094898
 20
1363.299315
 11
1645.454670
 21
1363.299315
  0
LINE
  8
0
  6
CONTINUOUS
 62
4
 10
1647.094898
 20
1359.009490
 11
1645.454670
 21
1359.009490
  0
ARC
  8
0
  6
CONTINUOUS
 62
4
 10
1644.357327
 20
1361.397109
 40
1.902312
 50
54.771095
 51
89.537071
  0
LINE
  8
0
  6
CONTINUOUS
 62
4
 10
1645.454670
 20
1362.948088
 11
1645.454670
 21
1363.299315
  0
ARC
  8
0
  6
CONTINUOUS
 62
4
 10
1644.357403
 20
1360.911620
 40
1.902133
 50
270.460876
 51
305.230194
  0
LINE
  8
0
  6
CONTINUOUS
 62
4
 10
1645.454670
 20
1359.351958
 11
1645.454670
 21
1359.009490
  0
LINE
  8
0
  6
CONTINUOUS
 62
4
 10
1647.694210
 20
1359.009490
 11
1649.460621
 21
1359.009490
  0
LINE
  8
0
  6
CONTINUOUS
 62
4
 10
1649.460621
 20
1359.009490
 11
1649.460621
 21
1365.065703
  0
LINE
  8
0
  6
CONTINUOUS
 62
4
 10
1647.694210
 20
1359.009490
 11
1647.694210
 21
1365.065703
  0
LINE
  8
0
  6
CONTINUOUS
 62
4
 10
1649.460621
 20
1365.065703
 11
1647.694210
 21
1365.065703
  0
ARC
  8
0
  6
CONTINUOUS
 62
4
 10
1652.294438
 20
1361.166991
 40
2.235128
 50
60.270885
 51
299.728973
  0
ARC
  8
0
  6
CONTINUOUS
 62
4
 10
1656.350422
 20
1361.504973
 40
2.495506
 50
228.577332
 51
270.416931
  0
ARC
  8
0
  6
CONTINUOUS
 62
4
 10
1656.051380
 20
1361.173750
 40
2.049322
 50
180.566345
 51
228.727020
  0
ARC
  8
0
  6
CONTINUOUS
 62
4
 10
1656.051319
 20
1361.135146
 40
2.049240
 50
131.272461
 51
179.434937
  0
ARC
  8
0
  6
CONTINUOUS
 62
4
 10
1656.350468
 20
1360.803755
 40
2.495665
 50
89.584534
 51
131.421036
  0
ARC
  8
0
  6
CONTINUOUS
 62
4
 10
1656.385273
 20
1360.803709
 40
2.495676
 50
48.579109
 51
90.415314
  0
ARC
  8
0
  6
CONTINUOUS
 62
4
 10
1656.684330
 20
1361.135054
 40
2.049385
 50
0.567711
 51
48.726707
  0
ARC
  8
0
  6
CONTINUOUS
 62
4
 10
1656.684406
 20
1361.173750
 40
2.049310
 50
311.272827
 51
359.433502
  0
ARC
  8
0
  6
CONTINUOUS
 62
4
 10
1656.385365
 20
1361.504927
 40
2.495498
 50
269.583282
 51
311.422577
  0
LINE
  8
0
  6
CONTINUOUS
 62
4
 10
1659.332920
 20
1363.299315
 11
1659.332920
 21
1359.009490
  0
LINE
  8
0
  6
CONTINUOUS
 62
4
 10
1661.036244
 20
1359.009490
 11
1659.332920
 21
1359.009490
  0
LINE
  8
0
  6
CONTINUOUS
 62
4
 10
1662.045613
 20
1359.009490
 11
1663.748936
 21
1359.009490
  0
LINE
  8
0
  6
CONTINUOUS
 62
4
 10
1663.748936
 20
1361.588423
 11
1663.748936
 21
1359.009490
  0
ARC
  8
0
  6
CONTINUOUS
 62
4
 10
1662.038044
 20
1361.588423
 40
1.710880
 50
0.000000
 51
125.841484
  0
LINE
  8
0
  6
CONTINUOUS
 62
4
 10
1661.036244
 20
1362.975340
 11
1661.036244
 21
1363.299315
  0
LINE
  8
0
  6
CONTINUOUS
 62
4
 10
1659.332920
 20
1363.299315
 11
1661.036244
 21
1363.299315
  0
CIRCLE
  8
0
  6
CONTINUOUS
 62
4
 10
1644.855351
 20
1361.154402
 40
0.851660
  0
CIRCLE
  8
0
  6
CONTINUOUS
 62
4
 10
1656.367863
 20
1361.154402
 40
0.851660
  0
LINE
  8
0
  6
CONTINUOUS
 62
4
 10
1653.402844
 20
1363.107939
 11
1653.402844
 21
1361.620558
  0
LINE
  8
0
  6
CONTINUOUS
 62
4
 10
1653.402844
 20
1359.226042
 11
1653.402844
 21
1360.688261
  0
ARC
  8
0
  6
CONTINUOUS
 62
4
 10
1652.690090
 20
1361.154402
 40
0.851661
 50
33.186455
 51
326.812744
  0
LINE
  8
0
  6
CONTINUOUS
 62
4
 10
1661.036244
 20
1359.009490
 11
1661.036244
 21
1361.497435
  0
LINE
  8
0
  6
CONTINUOUS
 62
4
 10
1662.045613
 20
1359.009490
 11
1662.045613
 21
1361.497435
  0
ARC
  8
0
  6
CONTINUOUS
 62
4
 10
1661.540928
 20
1361.501372
 40
0.504680
 50
0.000000
 51
180.264999
  0
LINE
  8
0
  6
CONTINUOUS
 62
4
 10
1645.438648
 20
1362.962187
 11
1645.454670
 21
1362.962187
  0
LINE
  8
0
  6
CONTINUOUS
 62
4
 10
1660.679005
 20
1392.902266
 11
1660.692234
 21
1392.902266
  0
LINE
  8
0
  6
CONTINUOUS
 62
4
 10
1656.327336
 20
1387.504927
 11
1656.378987
 21
1387.504927
  0
LINE
  8
0
  6
CONTINUOUS
 62
4
 10
1652.308460
 20
1382.598265
 11
1653.295422
 21
1382.598265
  0
LINE
  8
0
  6
CONTINUOUS
 62
4
 10
1660.860325
 20
1392.734190
 11
1660.684315
 21
1392.910201
  0
LINE
  8
0
  6
CONTINUOUS
 62
4
 10
1660.437061
 20
1403.696928
 11
1665.132954
 21
1403.696928
  0
ARC
  8
0
  6
CONTINUOUS
 62
4
 10
1634.632618
 20
1406.204619
 40
1.000000
 50
90.000000
 51
180.000000
  0
LINE
  8
0
  6
CONTINUOUS
 62
4
 10
1634.632618
 20
1407.204619
 11
1667.632618
 21
1407.204619
  0
ARC
  8
0
  6
CONTINUOUS
 62
4
 10
1667.632618
 20
1406.204619
 40
1.000000
 50
0.000000
 51
90.000000
  0
LINE
  8
0
  6
CONTINUOUS
 62
4
 10
1668.632618
 20
1406.204619
 11
1668.632618
 21
1355.204619
  0
ARC
  8
0
  6
CONTINUOUS
 62
4
 10
1667.632618
 20
1355.204619
 40
1.000000
 50
270.000000
 51
0.000000
  0
LINE
  8
0
  6
CONTINUOUS
 62
4
 10
1633.632618
 20
1406.204619
 11
1633.632618
 21
1355.204619
  0
LINE
  8
0
  6
CONTINUOUS
 62
4
 10
1634.632618
 20
1354.204619
 11
1667.632618
 21
1354.204619
  0
ARC
  8
0
  6
CONTINUOUS
 62
4
 10
1634.632618
 20
1355.204619
 40
1.000000
 50
180.000000
 51
270.000000
  0
LINE
  8
0
  6
CONTINUOUS
 62
4
 10
1638.226772
 20
1390.563246
 11
1638.006710
 21
1389.463118
  0
LINE
  8
0
  6
CONTINUOUS
 62
4
 10
1640.206982
 20
1387.702864
 11
1638.270748
 21
1387.042769
  0
LINE
  8
0
  6
CONTINUOUS
 62
1
 10
1634.298890
 20
1014.975592
 11
1569.966346
 21
1014.975592
  0
LINE
  8
0
  6
CONTINUOUS
 62
1
 10
1636.040205
 20
1016.551461
 11
1636.940205
 21
1025.551461
  0
ARC
  8
0
  6
CONTINUOUS
 62
1
 10
1569.066346
 20
1025.725592
 40
1.750000
 50
90.000000
 51
185.710593
  0
ARC
  8
0
  6
CONTINUOUS
 62
1
 10
1569.966346
 20
1016.725592
 40
1.750000
 50
185.710593
 51
270.000000
  0
ARC
  8
0
  6
CONTINUOUS
 62
1
 10
1635.198890
 20
1025.725592
 40
1.750000
 50
354.289407
 51
90.000000
  0
ARC
  8
0
  6
CONTINUOUS
 62
1
 10
1634.298890
 20
1016.725592
 40
1.750000
 50
270.000000
 51
354.289407
  0
LINE
  8
0
  6
CONTINUOUS
 62
1
 10
1635.198890
 20
1026.475592
 11
1569.066346
 21
1026.475592
  0
LINE
  8
0
  6
CONTINUOUS
 62
1
 10
1569.220069
 20
1016.650964
 11
1568.320069
 21
1025.650964
  0
ARC
  8
0
  6
CONTINUOUS
 62
1
 10
1569.966346
 20
1016.725592
 40
0.750000
 50
185.710593
 51
270.000000
  0
ARC
  8
0
  6
CONTINUOUS
 62
1
 10
1569.066346
 20
1025.725592
 40
0.750000
 50
90.000000
 51
185.710593
  0
LINE
  8
0
  6
CONTINUOUS
 62
1
 10
1569.966346
 20
1015.975592
 11
1634.298890
 21
1015.975592
  0
ARC
  8
0
  6
CONTINUOUS
 62
1
 10
1634.298890
 20
1016.725592
 40
0.750000
 50
270.000000
 51
354.289407
  0
LINE
  8
0
  6
CONTINUOUS
 62
1
 10
1635.945168
 20
1025.650964
 11
1635.045168
 21
1016.650964
  0
ARC
  8
0
  6
CONTINUOUS
 62
1
 10
1635.198890
 20
1025.725592
 40
0.750000
 50
354.289407
 51
90.000000
  0
LINE
  8
0
  6
CONTINUOUS
 62
1
 10
1569.066346
 20
1027.475592
 11
1635.198890
 21
1027.475592
  0
LINE
  8
0
  6
CONTINUOUS
 62
1
 10
1567.325031
 20
1025.551461
 11
1568.225031
 21
1016.551461
  0
LINE
  8
0
  6
CONTINUOUS
 62
7
 10
1571.145792
 20
1018.563092
 11
1571.145792
 21
1023.888019
  0
LINE
  8
0
  6
CONTINUOUS
 62
7
 10
1571.145792
 20
1023.888019
 11
1574.854485
 21
1023.888019
  0
LINE
  8
0
  6
CONTINUOUS
 62
7
 10
1574.854485
 20
1023.888019
 11
1575.435695
 21
1023.886258
  0
LINE
  8
0
  6
CONTINUOUS
 62
7
 10
1575.435695
 20
1023.886258
 11
1575.865858
 21
1023.880910
  0
LINE
  8
0
  6
CONTINUOUS
 62
7
 10
1575.865858
 20
1023.880910
 11
1576.144681
 21
1023.872018
  0
LINE
  8
0
  6
CONTINUOUS
 62
7
 10
1576.144681
 20
1023.872018
 11
1576.351601
 21
1023.855560
  0
LINE
  8
0
  6
CONTINUOUS
 62
7
 10
1576.351601
 20
1023.855560
 11
1576.563955
 21
1023.827253
  0
LINE
  8
0
  6
CONTINUOUS
 62
7
 10
1576.563955
 20
1023.827253
 11
1576.782058
 21
1023.786836
  0
LINE
  8
0
  6
CONTINUOUS
 62
7
 10
1576.782058
 20
1023.786836
 11
1577.236496
 21
1023.613343
  0
LINE
  8
0
  6
CONTINUOUS
 62
7
 10
1577.236496
 20
1023.613343
 11
1577.571550
 21
1023.311403
  0
LINE
  8
0
  6
CONTINUOUS
 62
7
 10
1577.571550
 20
1023.311403
 11
1577.786947
 21
1022.881343
  0
LINE
  8
0
  6
CONTINUOUS
 62
7
 10
1577.786947
 20
1022.881343
 11
1577.838393
 21
1022.690087
  0
LINE
  8
0
  6
CONTINUOUS
 62
7
 10
1577.838393
 20
1022.690087
 11
1577.877293
 21
1022.489374
  0
LINE
  8
0
  6
CONTINUOUS
 62
7
 10
1577.877293
 20
1022.489374
 11
1577.903919
 21
1022.279529
  0
LINE
  8
0
  6
CONTINUOUS
 62
7
 10
1577.903919
 20
1022.279529
 11
1577.920137
 21
1022.027724
  0
LINE
  8
0
  6
CONTINUOUS
 62
7
 10
1577.920137
 20
1022.027724
 11
1577.930083
 21
1021.703457
  0
LINE
  8
0
  6
CONTINUOUS
 62
7
 10
1577.930083
 20
1021.703457
 11
1577.933482
 21
1021.306139
  0
LINE
  8
0
  6
CONTINUOUS
 62
7
 10
1577.933482
 20
1021.306139
 11
1577.929579
 21
1020.868361
  0
LINE
  8
0
  6
CONTINUOUS
 62
7
 10
1577.929579
 20
1020.868361
 11
1577.917661
 21
1020.508155
  0
LINE
  8
0
  6
CONTINUOUS
 62
7
 10
1577.917661
 20
1020.508155
 11
1577.897456
 21
1020.224913
  0
LINE
  8
0
  6
CONTINUOUS
 62
7
 10
1577.897456
 20
1020.224913
 11
1577.867117
 21
1019.987414
  0
LINE
  8
0
  6
CONTINUOUS
 62
7
 10
1577.867117
 20
1019.987414
 11
1577.822468
 21
1019.765046
  0
LINE
  8
0
  6
CONTINUOUS
 62
7
 10
1577.822468
 20
1019.765046
 11
1577.763804
 21
1019.557789
  0
LINE
  8
0
  6
CONTINUOUS
 62
7
 10
1577.763804
 20
1019.557789
 11
1577.556947
 21
1019.149905
  0
LINE
  8
0
  6
CONTINUOUS
 62
7
 10
1577.556947
 20
1019.149905
 11
1577.242119
 21
1018.861314
  0
LINE
  8
0
  6
CONTINUOUS
 62
7
 10
1577.242119
 20
1018.861314
 11
1576.819321
 21
1018.692256
  0
LINE
  8
0
  6
CONTINUOUS
 62
7
 10
1576.819321
 20
1018.692256
 11
1576.590622
 21
1018.646078
  0
LINE
  8
0
  6
CONTINUOUS
 62
7
 10
1576.590622
 20
1018.646078
 11
1576.351957
 21
1018.611488
  0
LINE
  8
0
  6
CONTINUOUS
 62
7
 10
1576.351957
 20
1018.611488
 11
1576.103536
 21
1018.588421
  0
LINE
  8
0
  6
CONTINUOUS
 62
7
 10
1576.103536
 20
1018.588421
 11
1575.796409
 21
1018.574137
  0
LINE
  8
0
  6
CONTINUOUS
 62
7
 10
1575.796409
 20
1018.574137
 11
1575.381373
 21
1018.565788
  0
LINE
  8
0
  6
CONTINUOUS
 62
7
 10
1575.381373
 20
1018.565788
 11
1574.858367
 21
1018.563092
  0
LINE
  8
0
  6
CONTINUOUS
 62
7
 10
1574.858367
 20
1018.563092
 11
1571.145792
 21
1018.563092
  0
LINE
  8
0
  6
CONTINUOUS
 62
7
 10
1572.689172
 20
1019.921299
 11
1574.868606
 21
1019.921299
  0
LINE
  8
0
  6
CONTINUOUS
 62
7
 10
1574.868606
 20
1019.921299
 11
1575.235258
 21
1019.925778
  0
LINE
  8
0
  6
CONTINUOUS
 62
7
 10
1575.235258
 20
1019.925778
 11
1575.530825
 21
1019.939431
  0
LINE
  8
0
  6
CONTINUOUS
 62
7
 10
1575.530825
 20
1019.939431
 11
1575.755285
 21
1019.962564
  0
LINE
  8
0
  6
CONTINUOUS
 62
7
 10
1575.755285
 20
1019.962564
 11
1575.926641
 21
1019.996241
  0
LINE
  8
0
  6
CONTINUOUS
 62
7
 10
1575.926641
 20
1019.996241
 11
1576.060272
 21
1020.043832
  0
LINE
  8
0
  6
CONTINUOUS
 62
7
 10
1576.060272
 20
1020.043832
 11
1576.156242
 21
1020.105076
  0
LINE
  8
0
  6
CONTINUOUS
 62
7
 10
1576.156242
 20
1020.105076
 11
1576.233769
 21
1020.194671
  0
LINE
  8
0
  6
CONTINUOUS
 62
7
 10
1576.233769
 20
1020.194671
 11
1576.294132
 21
1020.314160
  0
LINE
  8
0
  6
CONTINUOUS
 62
7
 10
1576.294132
 20
1020.314160
 11
1576.337396
 21
1020.463195
  0
LINE
  8
0
  6
CONTINUOUS
 62
7
 10
1576.337396
 20
1020.463195
 11
1576.366477
 21
1020.654929
  0
LINE
  8
0
  6
CONTINUOUS
 62
7
 10
1576.366477
 20
1020.654929
 11
1576.384143
 21
1020.902234
  0
LINE
  8
0
  6
CONTINUOUS
 62
7
 10
1576.384143
 20
1020.902234
 11
1576.390102
 21
1021.204891
  0
LINE
  8
0
  6
CONTINUOUS
 62
7
 10
1576.390102
 20
1021.204891
 11
1576.385024
 21
1021.507657
  0
LINE
  8
0
  6
CONTINUOUS
 62
7
 10
1576.385024
 20
1021.507657
 11
1576.369960
 21
1021.755700
  0
LINE
  8
0
  6
CONTINUOUS
 62
7
 10
1576.369960
 20
1021.755700
 11
1576.345159
 21
1021.949304
  0
LINE
  8
0
  6
CONTINUOUS
 62
7
 10
1576.345159
 20
1021.949304
 11
1576.307015
 21
1022.102796
  0
LINE
  8
0
  6
CONTINUOUS
 62
7
 10
1576.307015
 20
1022.102796
 11
1576.254330
 21
1022.230286
  0
LINE
  8
0
  6
CONTINUOUS
 62
7
 10
1576.254330
 20
1022.230286
 11
1576.187064
 21
1022.331403
  0
LINE
  8
0
  6
CONTINUOUS
 62
7
 10
1576.187064
 20
1022.331403
 11
1576.088493
 21
1022.416085
  0
LINE
  8
0
  6
CONTINUOUS
 62
7
 10
1576.088493
 20
1022.416085
 11
1575.964785
 21
1022.478003
  0
LINE
  8
0
  6
CONTINUOUS
 62
7
 10
1575.964785
 20
1022.478003
 11
1575.815670
 21
1022.516528
  0
LINE
  8
0
  6
CONTINUOUS
 62
7
 10
1575.815670
 20
1022.516528
 11
1575.601050
 21
1022.539639
  0
LINE
  8
0
  6
CONTINUOUS
 62
7
 10
1575.601050
 20
1022.539639
 11
1575.280746
 21
1022.553293
  0
LINE
  8
0
  6
CONTINUOUS
 62
7
 10
1575.280746
 20
1022.553293
 11
1574.854485
 21
1022.557793
  0
LINE
  8
0
  6
CONTINUOUS
 62
7
 10
1574.854485
 20
1022.557793
 11
1572.689172
 21
1022.557793
  0
LINE
  8
0
  6
CONTINUOUS
 62
7
 10
1572.689172
 20
1022.557793
 11
1572.689172
 21
1019.921299
  0
LINE
  8
0
  6
CONTINUOUS
 62
7
 10
1581.977460
 20
1023.966591
 11
1582.503173
 21
1023.964265
  0
LINE
  8
0
  6
CONTINUOUS
 62
7
 10
1582.503173
 20
1023.964265
 11
1582.971228
 21
1023.957221
  0
LINE
  8
0
  6
CONTINUOUS
 62
7
 10
1582.971228
 20
1023.957221
 11
1583.381585
 21
1023.945437
  0
LINE
  8
0
  6
CONTINUOUS
 62
7
 10
1583.381585
 20
1023.945437
 11
1583.734242
 21
1023.928892
  0
LINE
  8
0
  6
CONTINUOUS
 62
7
 10
1583.734242
 20
1023.928892
 11
1584.029117
 21
1023.907543
  0
LINE
  8
0
  6
CONTINUOUS
 62
7
 10
1584.029117
 20
1023.907543
 11
1584.266187
 21
1023.881345
  0
LINE
  8
0
  6
CONTINUOUS
 62
7
 10
1584.266187
 20
1023.881345
 11
1584.672683
 21
1023.778749
  0
LINE
  8
0
  6
CONTINUOUS
 62
7
 10
1584.672683
 20
1023.778749
 11
1584.992063
 21
1023.596754
  0
LINE
  8
0
  6
CONTINUOUS
 62
7
 10
1584.992063
 20
1023.596754
 11
1585.224476
 21
1023.335362
  0
LINE
  8
0
  6
CONTINUOUS
 62
7
 10
1585.224476
 20
1023.335362
 11
1585.370025
 21
1022.994592
  0
LINE
  8
0
  6
CONTINUOUS
 62
7
 10
1585.370025
 20
1022.994592
 11
1585.430745
 21
1022.688500
  0
LINE
  8
0
  6
CONTINUOUS
 62
7
 10
1585.430745
 20
1022.688500
 11
1585.474114
 21
1022.291813
  0
LINE
  8
0
  6
CONTINUOUS
 62
7
 10
1585.474114
 20
1022.291813
 11
1585.500131
 21
1021.804770
  0
LINE
  8
0
  6
CONTINUOUS
 62
7
 10
1585.500131
 20
1021.804770
 11
1585.508796
 21
1021.227567
  0
LINE
  8
0
  6
CONTINUOUS
 62
7
 10
1585.508796
 20
1021.227567
 11
1585.500131
 21
1020.648624
  0
LINE
  8
0
  6
CONTINUOUS
 62
7
 10
1585.500131
 20
1020.648624
 11
1585.474114
 21
1020.160320
  0
LINE
  8
0
  6
CONTINUOUS
 62
7
 10
1585.474114
 20
1020.160320
 11
1585.430745
 21
1019.762894
  0
LINE
  8
0
  6
CONTINUOUS
 62
7
 10
1585.430745
 20
1019.762894
 11
1585.370025
 21
1019.456606
  0
LINE
  8
0
  6
CONTINUOUS
 62
7
 10
1585.370025
 20
1019.456606
 11
1585.224476
 21
1019.115772
  0
LINE
  8
0
  6
CONTINUOUS
 62
7
 10
1585.224476
 20
1019.115772
 11
1584.992063
 21
1018.854357
  0
LINE
  8
0
  6
CONTINUOUS
 62
7
 10
1584.992063
 20
1018.854357
 11
1584.672683
 21
1018.672363
  0
LINE
  8
0
  6
CONTINUOUS
 62
7
 10
1584.672683
 20
1018.672363
 11
1584.266187
 21
1018.569767
  0
LINE
  8
0
  6
CONTINUOUS
 62
7
 10
1584.266187
 20
1018.569767
 11
1584.029536
 21
1018.543569
  0
LINE
  8
0
  6
CONTINUOUS
 62
7
 10
1584.029536
 20
1018.543569
 11
1583.735942
 21
1018.522219
  0
LINE
  8
0
  6
CONTINUOUS
 62
7
 10
1583.735942
 20
1018.522219
 11
1583.385446
 21
1018.505674
  0
LINE
  8
0
  6
CONTINUOUS
 62
7
 10
1583.385446
 20
1018.505674
 11
1582.978089
 21
1018.493891
  0
LINE
  8
0
  6
CONTINUOUS
 62
7
 10
1582.978089
 20
1018.493891
 11
1582.513894
 21
1018.486846
  0
LINE
  8
0
  6
CONTINUOUS
 62
7
 10
1582.513894
 20
1018.486846
 11
1581.992902
 21
1018.484520
  0
LINE
  8
0
  6
CONTINUOUS
 62
7
 10
1581.992902
 20
1018.484520
 11
1581.462510
 21
1018.486846
  0
LINE
  8
0
  6
CONTINUOUS
 62
7
 10
1581.462510
 20
1018.486846
 11
1580.990615
 21
1018.493891
  0
LINE
  8
0
  6
CONTINUOUS
 62
7
 10
1580.990615
 20
1018.493891
 11
1580.577258
 21
1018.505674
  0
LINE
  8
0
  6
CONTINUOUS
 62
7
 10
1580.577258
 20
1018.505674
 11
1580.222481
 21
1018.522219
  0
LINE
  8
0
  6
CONTINUOUS
 62
7
 10
1580.222481
 20
1018.522219
 11
1579.926327
 21
1018.543569
  0
LINE
  8
0
  6
CONTINUOUS
 62
7
 10
1579.926327
 20
1018.543569
 11
1579.688816
 21
1018.569767
  0
LINE
  8
0
  6
CONTINUOUS
 62
7
 10
1579.688816
 20
1018.569767
 11
1579.282320
 21
1018.672363
  0
LINE
  8
0
  6
CONTINUOUS
 62
7
 10
1579.282320
 20
1018.672363
 11
1578.962940
 21
1018.854357
  0
LINE
  8
0
  6
CONTINUOUS
 62
7
 10
1578.962940
 20
1018.854357
 11
1578.730527
 21
1019.115772
  0
LINE
  8
0
  6
CONTINUOUS
 62
7
 10
1578.730527
 20
1019.115772
 11
1578.584979
 21
1019.456606
  0
LINE
  8
0
  6
CONTINUOUS
 62
7
 10
1578.584979
 20
1019.456606
 11
1578.524279
 21
1019.764872
  0
LINE
  8
0
  6
CONTINUOUS
 62
7
 10
1578.524279
 20
1019.764872
 11
1578.480910
 21
1020.168125
  0
LINE
  8
0
  6
CONTINUOUS
 62
7
 10
1578.480910
 20
1020.168125
 11
1578.454872
 21
1020.666039
  0
LINE
  8
0
  6
CONTINUOUS
 62
7
 10
1578.454872
 20
1020.666039
 11
1578.446207
 21
1021.258200
  0
LINE
  8
0
  6
CONTINUOUS
 62
7
 10
1578.446207
 20
1021.258200
 11
1578.454872
 21
1021.823663
  0
LINE
  8
0
  6
CONTINUOUS
 62
7
 10
1578.454872
 20
1021.823663
 11
1578.480910
 21
1022.301618
  0
LINE
  8
0
  6
CONTINUOUS
 62
7
 10
1578.480910
 20
1022.301618
 11
1578.524279
 21
1022.691957
  0
LINE
  8
0
  6
CONTINUOUS
 62
7
 10
1578.524279
 20
1022.691957
 11
1578.584979
 21
1022.994592
  0
LINE
  8
0
  6
CONTINUOUS
 62
7
 10
1578.584979
 20
1022.994592
 11
1578.730527
 21
1023.335362
  0
LINE
  8
0
  6
CONTINUOUS
 62
7
 10
1578.730527
 20
1023.335362
 11
1578.962940
 21
1023.596754
  0
LINE
  8
0
  6
CONTINUOUS
 62
7
 10
1578.962940
 20
1023.596754
 11
1579.282320
 21
1023.778749
  0
LINE
  8
0
  6
CONTINUOUS
 62
7
 10
1579.282320
 20
1023.778749
 11
1579.688816
 21
1023.881345
  0
LINE
  8
0
  6
CONTINUOUS
 62
7
 10
1579.688816
 20
1023.881345
 11
1579.924838
 21
1023.907543
  0
LINE
  8
0
  6
CONTINUOUS
 62
7
 10
1579.924838
 20
1023.907543
 11
1580.219061
 21
1023.928892
  0
LINE
  8
0
  6
CONTINUOUS
 62
7
 10
1580.219061
 20
1023.928892
 11
1580.571488
 21
1023.945437
  0
LINE
  8
0
  6
CONTINUOUS
 62
7
 10
1580.571488
 20
1023.945437
 11
1580.982054
 21
1023.957221
  0
LINE
  8
0
  6
CONTINUOUS
 62
7
 10
1580.982054
 20
1023.957221
 11
1581.450719
 21
1023.964265
  0
LINE
  8
0
  6
CONTINUOUS
 62
7
 10
1581.450719
 20
1023.964265
 11
1581.977460
 21
1023.966591
  0
LINE
  8
0
  6
CONTINUOUS
 62
7
 10
1581.981341
 20
1022.581752
 11
1581.261360
 21
1022.574273
  0
LINE
  8
0
  6
CONTINUOUS
 62
7
 10
1581.261360
 20
1022.574273
 11
1580.761811
 21
1022.551988
  0
LINE
  8
0
  6
CONTINUOUS
 62
7
 10
1580.761811
 20
1022.551988
 11
1580.482988
 21
1022.515159
  0
LINE
  8
0
  6
CONTINUOUS
 62
7
 10
1580.482988
 20
1022.515159
 11
1580.312135
 21
1022.441870
  0
LINE
  8
0
  6
CONTINUOUS
 62
7
 10
1580.312135
 20
1022.441870
 11
1580.185218
 21
1022.325686
  0
LINE
  8
0
  6
CONTINUOUS
 62
7
 10
1580.185218
 20
1022.325686
 11
1580.102593
 21
1022.166280
  0
LINE
  8
0
  6
CONTINUOUS
 62
7
 10
1580.102593
 20
1022.166280
 11
1580.052426
 21
1021.925694
  0
LINE
  8
0
  6
CONTINUOUS
 62
7
 10
1580.052426
 20
1021.925694
 11
1580.022549
 21
1021.565814
  0
LINE
  8
0
  6
CONTINUOUS
 62
7
 10
1580.022549
 20
1021.565814
 11
1580.012645
 21
1021.086424
  0
LINE
  8
0
  6
CONTINUOUS
 62
7
 10
1580.012645
 20
1021.086424
 11
1580.018163
 21
1020.791311
  0
LINE
  8
0
  6
CONTINUOUS
 62
7
 10
1580.018163
 20
1020.791311
 11
1580.034571
 21
1020.555964
  0
LINE
  8
0
  6
CONTINUOUS
 62
7
 10
1580.034571
 20
1020.555964
 11
1580.061532
 21
1020.380688
  0
LINE
  8
0
  6
CONTINUOUS
 62
7
 10
1580.061532
 20
1020.380688
 11
1580.166524
 21
1020.148667
  0
LINE
  8
0
  6
CONTINUOUS
 62
7
 10
1580.166524
 20
1020.148667
 11
1580.355756
 21
1019.993566
  0
LINE
  8
0
  6
CONTINUOUS
 62
7
 10
1580.355756
 20
1019.993566
 11
1580.629523
 21
1019.915994
  0
LINE
  8
0
  6
CONTINUOUS
 62
7
 10
1580.629523
 20
1019.915994
 11
1580.936294
 21
1019.890275
  0
LINE
  8
0
  6
CONTINUOUS
 62
7
 10
1580.936294
 20
1019.890275
 11
1581.389306
 21
1019.874643
  0
LINE
  8
0
  6
CONTINUOUS
 62
7
 10
1581.389306
 20
1019.874643
 11
1581.989104
 21
1019.869360
  0
LINE
  8
0
  6
CONTINUOUS
 62
7
 10
1581.989104
 20
1019.869360
 11
1582.548493
 21
1019.873295
  0
LINE
  8
0
  6
CONTINUOUS
 62
7
 10
1582.548493
 20
1019.873295
 11
1582.967431
 21
1019.884948
  0
LINE
  8
0
  6
CONTINUOUS
 62
7
 10
1582.967431
 20
1019.884948
 11
1583.245856
 21
1019.904015
  0
LINE
  8
0
  6
CONTINUOUS
 62
7
 10
1583.245856
 20
1019.904015
 11
1583.436032
 21
1019.937344
  0
LINE
  8
0
  6
CONTINUOUS
 62
7
 10
1583.436032
 20
1019.937344
 11
1583.590225
 21
1019.989588
  0
LINE
  8
0
  6
CONTINUOUS
 62
7
 10
1583.590225
 20
1019.989588
 11
1583.708435
 21
1020.061072
  0
LINE
  8
0
  6
CONTINUOUS
 62
7
 10
1583.708435
 20
1020.061072
 11
1583.789864
 21
1020.144862
  0
LINE
  8
0
  6
CONTINUOUS
 62
7
 10
1583.789864
 20
1020.144862
 11
1583.851550
 21
1020.252024
  0
LINE
  8
0
  6
CONTINUOUS
 62
7
 10
1583.851550
 20
1020.252024
 11
1583.893471
 21
1020.381970
  0
LINE
  8
0
  6
CONTINUOUS
 62
7
 10
1583.893471
 20
1020.381970
 11
1583.920432
 21
1020.554312
  0
LINE
  8
0
  6
CONTINUOUS
 62
7
 10
1583.920432
 20
1020.554312
 11
1583.936840
 21
1020.786702
  0
LINE
  8
0
  6
CONTINUOUS
 62
7
 10
1583.936840
 20
1020.786702
 11
1583.942379
 21
1021.079749
  0
LINE
  8
0
  6
CONTINUOUS
 62
7
 10
1583.942379
 20
1021.079749
 11
1583.938120
 21
1021.428171
  0
LINE
  8
0
  6
CONTINUOUS
 62
7
 10
1583.938120
 20
1021.428171
 11
1583.925594
 21
1021.709109
  0
LINE
  8
0
  6
CONTINUOUS
 62
7
 10
1583.925594
 20
1021.709109
 11
1583.905032
 21
1021.922585
  0
LINE
  8
0
  6
CONTINUOUS
 62
7
 10
1583.905032
 20
1021.922585
 11
1583.872888
 21
1022.086751
  0
LINE
  8
0
  6
CONTINUOUS
 62
7
 10
1583.872888
 20
1022.086751
 11
1583.827589
 21
1022.221894
  0
LINE
  8
0
  6
CONTINUOUS
 62
7
 10
1583.827589
 20
1022.221894
 11
1583.768820
 21
1022.327468
  0
LINE
  8
0
  6
CONTINUOUS
 62
7
 10
1583.768820
 20
1022.327468
 11
1583.668276
 21
1022.427673
  0
LINE
  8
0
  6
CONTINUOUS
 62
7
 10
1583.668276
 20
1022.427673
 11
1583.531456
 21
1022.498896
  0
LINE
  8
0
  6
CONTINUOUS
 62
7
 10
1583.531456
 20
1022.498896
 11
1583.358946
 21
1022.540509
  0
LINE
  8
0
  6
CONTINUOUS
 62
7
 10
1583.358946
 20
1022.540509
 11
1583.078906
 21
1022.563598
  0
LINE
  8
0
  6
CONTINUOUS
 62
7
 10
1583.078906
 20
1022.563598
 11
1582.619494
 21
1022.577273
  0
LINE
  8
0
  6
CONTINUOUS
 62
7
 10
1582.619494
 20
1022.577273
 11
1581.981341
 21
1022.581752
  0
LINE
  8
0
  6
CONTINUOUS
 62
7
 10
1586.126933
 20
1023.888019
 11
1588.965628
 21
1023.888019
  0
LINE
  8
0
  6
CONTINUOUS
 62
7
 10
1588.965628
 20
1023.888019
 11
1590.493565
 21
1020.431279
  0
LINE
  8
0
  6
CONTINUOUS
 62
7
 10
1590.493565
 20
1020.431279
 11
1592.022740
 21
1023.888019
  0
LINE
  8
0
  6
CONTINUOUS
 62
7
 10
1592.022740
 20
1023.888019
 11
1594.845992
 21
1023.888019
  0
LINE
  8
0
  6
CONTINUOUS
 62
7
 10
1594.845992
 20
1023.888019
 11
1594.845992
 21
1018.563092
  0
LINE
  8
0
  6
CONTINUOUS
 62
7
 10
1594.845992
 20
1018.563092
 11
1593.302697
 21
1018.563092
  0
LINE
  8
0
  6
CONTINUOUS
 62
7
 10
1593.302697
 20
1018.563092
 11
1593.339939
 21
1022.549836
  0
LINE
  8
0
  6
CONTINUOUS
 62
7
 10
1593.339939
 20
1022.549836
 11
1593.084195
 21
1022.549836
  0
LINE
  8
0
  6
CONTINUOUS
 62
7
 10
1593.084195
 20
1022.549836
 11
1591.145062
 21
1018.563092
  0
LINE
  8
0
  6
CONTINUOUS
 62
7
 10
1591.145062
 20
1018.563092
 11
1589.845865
 21
1018.563092
  0
LINE
  8
0
  6
CONTINUOUS
 62
7
 10
1589.845865
 20
1018.563092
 11
1587.908054
 21
1022.549836
  0
LINE
  8
0
  6
CONTINUOUS
 62
7
 10
1587.908054
 20
1022.549836
 11
1587.633049
 21
1022.549836
  0
LINE
  8
0
  6
CONTINUOUS
 62
7
 10
1587.633049
 20
1022.549836
 11
1587.670313
 21
1018.563092
  0
LINE
  8
0
  6
CONTINUOUS
 62
7
 10
1587.670313
 20
1018.563092
 11
1586.126933
 21
1018.563092
  0
LINE
  8
0
  6
CONTINUOUS
 62
7
 10
1586.126933
 20
1018.563092
 11
1586.126933
 21
1023.888019
  0
LINE
  8
0
  6
CONTINUOUS
 62
7
 10
1595.565638
 20
1023.888019
 11
1597.210547
 21
1023.888019
  0
LINE
  8
0
  6
CONTINUOUS
 62
7
 10
1597.210547
 20
1023.888019
 11
1597.210547
 21
1018.563092
  0
LINE
  8
0
  6
CONTINUOUS
 62
7
 10
1597.210547
 20
1018.563092
 11
1595.565638
 21
1018.563092
  0
LINE
  8
0
  6
CONTINUOUS
 62
7
 10
1595.565638
 20
1018.563092
 11
1595.565638
 21
1023.888019
  0
LINE
  8
0
  6
CONTINUOUS
 62
7
 10
1597.930108
 20
1023.888019
 11
1600.674973
 21
1023.888019
  0
LINE
  8
0
  6
CONTINUOUS
 62
7
 10
1600.674973
 20
1023.888019
 11
1603.367217
 21
1019.917277
  0
LINE
  8
0
  6
CONTINUOUS
 62
7
 10
1603.367217
 20
1019.917277
 11
1603.529111
 21
1019.917277
  0
LINE
  8
0
  6
CONTINUOUS
 62
7
 10
1603.529111
 20
1019.917277
 11
1603.491868
 21
1023.888019
  0
LINE
  8
0
  6
CONTINUOUS
 62
7
 10
1603.491868
 20
1023.888019
 11
1605.083988
 21
1023.888019
  0
LINE
  8
0
  6
CONTINUOUS
 62
7
 10
1605.083988
 20
1023.888019
 11
1605.083988
 21
1018.563092
  0
LINE
  8
0
  6
CONTINUOUS
 62
7
 10
1605.083988
 20
1018.563092
 11
1602.362244
 21
1018.563092
  0
LINE
  8
0
  6
CONTINUOUS
 62
7
 10
1602.362244
 20
1018.563092
 11
1599.658524
 21
1022.533834
  0
LINE
  8
0
  6
CONTINUOUS
 62
7
 10
1599.658524
 20
1022.533834
 11
1599.488930
 21
1022.533834
  0
LINE
  8
0
  6
CONTINUOUS
 62
7
 10
1599.488930
 20
1022.533834
 11
1599.522312
 21
1018.563092
  0
LINE
  8
0
  6
CONTINUOUS
 62
7
 10
1599.522312
 20
1018.563092
 11
1597.930108
 21
1018.563092
  0
LINE
  8
0
  6
CONTINUOUS
 62
7
 10
1597.930108
 20
1018.563092
 11
1597.930108
 21
1023.888019
  0
LINE
  8
0
  6
CONTINUOUS
 62
7
 10
1611.510523
 20
1018.563092
 11
1611.069827
 21
1019.464563
  0
LINE
  8
0
  6
CONTINUOUS
 62
7
 10
1611.069827
 20
1019.464563
 11
1607.670821
 21
1019.464563
  0
LINE
  8
0
  6
CONTINUOUS
 62
7
 10
1607.670821
 20
1019.464563
 11
1607.230041
 21
1018.563092
  0
LINE
  8
0
  6
CONTINUOUS
 62
7
 10
1607.230041
 20
1018.563092
 11
1605.441240
 21
1018.563092
  0
LINE
  8
0
  6
CONTINUOUS
 62
7
 10
1605.441240
 20
1018.563092
 11
1608.166866
 21
1023.888019
  0
LINE
  8
0
  6
CONTINUOUS
 62
7
 10
1608.166866
 20
1023.888019
 11
1610.599484
 21
1023.888019
  0
LINE
  8
0
  6
CONTINUOUS
 62
7
 10
1610.599484
 20
1023.888019
 11
1613.287762
 21
1018.563092
  0
LINE
  8
0
  6
CONTINUOUS
 62
7
 10
1613.287762
 20
1018.563092
 11
1611.510523
 21
1018.563092
  0
LINE
  8
0
  6
CONTINUOUS
 62
7
 10
1610.521097
 20
1020.631058
 11
1609.530329
 21
1022.646975
  0
LINE
  8
0
  6
CONTINUOUS
 62
7
 10
1609.530329
 20
1022.646975
 11
1609.217998
 21
1022.646975
  0
LINE
  8
0
  6
CONTINUOUS
 62
7
 10
1609.217998
 20
1022.646975
 11
1608.227251
 21
1020.631058
  0
LINE
  8
0
  6
CONTINUOUS
 62
7
 10
1608.227251
 20
1020.631058
 11
1610.521097
 21
1020.631058
  0
LINE
  8
0
  6
CONTINUOUS
 62
7
 10
1612.470553
 20
1023.888019
 11
1618.690168
 21
1023.888019
  0
LINE
  8
0
  6
CONTINUOUS
 62
7
 10
1618.690168
 20
1023.888019
 11
1618.690168
 21
1022.529812
  0
LINE
  8
0
  6
CONTINUOUS
 62
7
 10
1618.690168
 20
1022.529812
 11
1616.404085
 21
1022.529812
  0
LINE
  8
0
  6
CONTINUOUS
 62
7
 10
1616.404085
 20
1022.529812
 11
1616.404085
 21
1018.563092
  0
LINE
  8
0
  6
CONTINUOUS
 62
7
 10
1616.404085
 20
1018.563092
 11
1614.759196
 21
1018.563092
  0
LINE
  8
0
  6
CONTINUOUS
 62
7
 10
1614.759196
 20
1018.563092
 11
1614.759196
 21
1022.529812
  0
LINE
  8
0
  6
CONTINUOUS
 62
7
 10
1614.759196
 20
1022.529812
 11
1612.470553
 21
1022.529812
  0
LINE
  8
0
  6
CONTINUOUS
 62
7
 10
1612.470553
 20
1022.529812
 11
1612.470553
 21
1023.888019
  0
LINE
  8
0
  6
CONTINUOUS
 62
7
 10
1622.563231
 20
1023.966591
 11
1623.088944
 21
1023.964265
  0
LINE
  8
0
  6
CONTINUOUS
 62
7
 10
1623.088944
 20
1023.964265
 11
1623.556999
 21
1023.957221
  0
LINE
  8
0
  6
CONTINUOUS
 62
7
 10
1623.556999
 20
1023.957221
 11
1623.967377
 21
1023.945437
  0
LINE
  8
0
  6
CONTINUOUS
 62
7
 10
1623.967377
 20
1023.945437
 11
1624.320013
 21
1023.928892
  0
LINE
  8
0
  6
CONTINUOUS
 62
7
 10
1624.320013
 20
1023.928892
 11
1624.614888
 21
1023.907543
  0
LINE
  8
0
  6
CONTINUOUS
 62
7
 10
1624.614888
 20
1023.907543
 11
1624.851958
 21
1023.881345
  0
LINE
  8
0
  6
CONTINUOUS
 62
7
 10
1624.851958
 20
1023.881345
 11
1625.258454
 21
1023.778749
  0
LINE
  8
0
  6
CONTINUOUS
 62
7
 10
1625.258454
 20
1023.778749
 11
1625.577856
 21
1023.596754
  0
LINE
  8
0
  6
CONTINUOUS
 62
7
 10
1625.577856
 20
1023.596754
 11
1625.810247
 21
1023.335362
  0
LINE
  8
0
  6
CONTINUOUS
 62
7
 10
1625.810247
 20
1023.335362
 11
1625.955796
 21
1022.994592
  0
LINE
  8
0
  6
CONTINUOUS
 62
7
 10
1625.955796
 20
1022.994592
 11
1626.016516
 21
1022.688500
  0
LINE
  8
0
  6
CONTINUOUS
 62
7
 10
1626.016516
 20
1022.688500
 11
1626.059885
 21
1022.291813
  0
LINE
  8
0
  6
CONTINUOUS
 62
7
 10
1626.059885
 20
1022.291813
 11
1626.085902
 21
1021.804770
  0
LINE
  8
0
  6
CONTINUOUS
 62
7
 10
1626.085902
 20
1021.804770
 11
1626.094588
 21
1021.227567
  0
LINE
  8
0
  6
CONTINUOUS
 62
7
 10
1626.094588
 20
1021.227567
 11
1626.085902
 21
1020.648624
  0
LINE
  8
0
  6
CONTINUOUS
 62
7
 10
1626.085902
 20
1020.648624
 11
1626.059885
 21
1020.160320
  0
LINE
  8
0
  6
CONTINUOUS
 62
7
 10
1626.059885
 20
1020.160320
 11
1626.016516
 21
1019.762894
  0
LINE
  8
0
  6
CONTINUOUS
 62
7
 10
1626.016516
 20
1019.762894
 11
1625.955796
 21
1019.456606
  0
LINE
  8
0
  6
CONTINUOUS
 62
7
 10
1625.955796
 20
1019.456606
 11
1625.810247
 21
1019.115772
  0
LINE
  8
0
  6
CONTINUOUS
 62
7
 10
1625.810247
 20
1019.115772
 11
1625.577856
 21
1018.854357
  0
LINE
  8
0
  6
CONTINUOUS
 62
7
 10
1625.577856
 20
1018.854357
 11
1625.258454
 21
1018.672363
  0
LINE
  8
0
  6
CONTINUOUS
 62
7
 10
1625.258454
 20
1018.672363
 11
1624.851958
 21
1018.569767
  0
LINE
  8
0
  6
CONTINUOUS
 62
7
 10
1624.851958
 20
1018.569767
 11
1624.615307
 21
1018.543569
  0
LINE
  8
0
  6
CONTINUOUS
 62
7
 10
1624.615307
 20
1018.543569
 11
1624.321713
 21
1018.522219
  0
LINE
  8
0
  6
CONTINUOUS
 62
7
 10
1624.321713
 20
1018.522219
 11
1623.971217
 21
1018.505674
  0
LINE
  8
0
  6
CONTINUOUS
 62
7
 10
1623.971217
 20
1018.505674
 11
1623.563860
 21
1018.493891
  0
LINE
  8
0
  6
CONTINUOUS
 62
7
 10
1623.563860
 20
1018.493891
 11
1623.099665
 21
1018.486846
  0
LINE
  8
0
  6
CONTINUOUS
 62
7
 10
1623.099665
 20
1018.486846
 11
1622.578694
 21
1018.484520
  0
LINE
  8
0
  6
CONTINUOUS
 62
7
 10
1622.578694
 20
1018.484520
 11
1622.048281
 21
1018.486846
  0
LINE
  8
0
  6
CONTINUOUS
 62
7
 10
1622.048281
 20
1018.486846
 11
1621.576386
 21
1018.493891
  0
LINE
  8
0
  6
CONTINUOUS
 62
7
 10
1621.576386
 20
1018.493891
 11
1621.163029
 21
1018.505674
  0
LINE
  8
0
  6
CONTINUOUS
 62
7
 10
1621.163029
 20
1018.505674
 11
1620.808252
 21
1018.522219
  0
LINE
  8
0
  6
CONTINUOUS
 62
7
 10
1620.808252
 20
1018.522219
 11
1620.512098
 21
1018.543569
  0
LINE
  8
0
  6
CONTINUOUS
 62
7
 10
1620.512098
 20
1018.543569
 11
1620.274609
 21
1018.569767
  0
LINE
  8
0
  6
CONTINUOUS
 62
7
 10
1620.274609
 20
1018.569767
 11
1619.868113
 21
1018.672363
  0
LINE
  8
0
  6
CONTINUOUS
 62
7
 10
1619.868113
 20
1018.672363
 11
1619.548711
 21
1018.854357
  0
LINE
  8
0
  6
CONTINUOUS
 62
7
 10
1619.548711
 20
1018.854357
 11
1619.316299
 21
1019.115772
  0
LINE
  8
0
  6
CONTINUOUS
 62
7
 10
1619.316299
 20
1019.115772
 11
1619.170750
 21
1019.456606
  0
LINE
  8
0
  6
CONTINUOUS
 62
7
 10
1619.170750
 20
1019.456606
 11
1619.110050
 21
1019.764872
  0
LINE
  8
0
  6
CONTINUOUS
 62
7
 10
1619.110050
 20
1019.764872
 11
1619.066681
 21
1020.168125
  0
LINE
  8
0
  6
CONTINUOUS
 62
7
 10
1619.066681
 20
1020.168125
 11
1619.040664
 21
1020.666039
  0
LINE
  8
0
  6
CONTINUOUS
 62
7
 10
1619.040664
 20
1020.666039
 11
1619.031978
 21
1021.258200
  0
LINE
  8
0
  6
CONTINUOUS
 62
7
 10
1619.031978
 20
1021.258200
 11
1619.040664
 21
1021.823663
  0
LINE
  8
0
  6
CONTINUOUS
 62
7
 10
1619.040664
 20
1021.823663
 11
1619.066681
 21
1022.301618
  0
LINE
  8
0
  6
CONTINUOUS
 62
7
 10
1619.066681
 20
1022.301618
 11
1619.110050
 21
1022.691957
  0
LINE
  8
0
  6
CONTINUOUS
 62
7
 10
1619.110050
 20
1022.691957
 11
1619.170750
 21
1022.994592
  0
LINE
  8
0
  6
CONTINUOUS
 62
7
 10
1619.170750
 20
1022.994592
 11
1619.316299
 21
1023.335362
  0
LINE
  8
0
  6
CONTINUOUS
 62
7
 10
1619.316299
 20
1023.335362
 11
1619.548711
 21
1023.596754
  0
LINE
  8
0
  6
CONTINUOUS
 62
7
 10
1619.548711
 20
1023.596754
 11
1619.868113
 21
1023.778749
  0
LINE
  8
0
  6
CONTINUOUS
 62
7
 10
1619.868113
 20
1023.778749
 11
1620.274609
 21
1023.881345
  0
LINE
  8
0
  6
CONTINUOUS
 62
7
 10
1620.274609
 20
1023.881345
 11
1620.510609
 21
1023.907543
  0
LINE
  8
0
  6
CONTINUOUS
 62
7
 10
1620.510609
 20
1023.907543
 11
1620.804853
 21
1023.928892
  0
LINE
  8
0
  6
CONTINUOUS
 62
7
 10
1620.804853
 20
1023.928892
 11
1621.157259
 21
1023.945437
  0
LINE
  8
0
  6
CONTINUOUS
 62
7
 10
1621.157259
 20
1023.945437
 11
1621.567825
 21
1023.957221
  0
LINE
  8
0
  6
CONTINUOUS
 62
7
 10
1621.567825
 20
1023.957221
 11
1622.036490
 21
1023.964265
  0
LINE
  8
0
  6
CONTINUOUS
 62
7
 10
1622.036490
 20
1023.964265
 11
1622.563231
 21
1023.966591
  0
LINE
  8
0
  6
CONTINUOUS
 62
7
 10
1622.567112
 20
1022.581752
 11
1621.847131
 21
1022.574273
  0
LINE
  8
0
  6
CONTINUOUS
 62
7
 10
1621.847131
 20
1022.574273
 11
1621.347582
 21
1022.551988
  0
LINE
  8
0
  6
CONTINUOUS
 62
7
 10
1621.347582
 20
1022.551988
 11
1621.068759
 21
1022.515159
  0
LINE
  8
0
  6
CONTINUOUS
 62
7
 10
1621.068759
 20
1022.515159
 11
1620.897907
 21
1022.441870
  0
LINE
  8
0
  6
CONTINUOUS
 62
7
 10
1620.897907
 20
1022.441870
 11
1620.771010
 21
1022.325686
  0
LINE
  8
0
  6
CONTINUOUS
 62
7
 10
1620.771010
 20
1022.325686
 11
1620.688364
 21
1022.166280
  0
LINE
  8
0
  6
CONTINUOUS
 62
7
 10
1620.688364
 20
1022.166280
 11
1620.638218
 21
1021.925694
  0
LINE
  8
0
  6
CONTINUOUS
 62
7
 10
1620.638218
 20
1021.925694
 11
1620.608320
 21
1021.565814
  0
LINE
  8
0
  6
CONTINUOUS
 62
7
 10
1620.608320
 20
1021.565814
 11
1620.598416
 21
1021.086424
  0
LINE
  8
0
  6
CONTINUOUS
 62
7
 10
1620.598416
 20
1021.086424
 11
1620.603955
 21
1020.791311
  0
LINE
  8
0
  6
CONTINUOUS
 62
7
 10
1620.603955
 20
1020.791311
 11
1620.620363
 21
1020.555964
  0
LINE
  8
0
  6
CONTINUOUS
 62
7
 10
1620.620363
 20
1020.555964
 11
1620.647303
 21
1020.380688
  0
LINE
  8
0
  6
CONTINUOUS
 62
7
 10
1620.647303
 20
1020.380688
 11
1620.752295
 21
1020.148667
  0
LINE
  8
0
  6
CONTINUOUS
 62
7
 10
1620.752295
 20
1020.148667
 11
1620.941527
 21
1019.993566
  0
LINE
  8
0
  6
CONTINUOUS
 62
7
 10
1620.941527
 20
1019.993566
 11
1621.215294
 21
1019.915994
  0
LINE
  8
0
  6
CONTINUOUS
 62
7
 10
1621.215294
 20
1019.915994
 11
1621.522086
 21
1019.890275
  0
LINE
  8
0
  6
CONTINUOUS
 62
7
 10
1621.522086
 20
1019.890275
 11
1621.975077
 21
1019.874643
  0
LINE
  8
0
  6
CONTINUOUS
 62
7
 10
1621.975077
 20
1019.874643
 11
1622.574896
 21
1019.869360
  0
LINE
  8
0
  6
CONTINUOUS
 62
7
 10
1622.574896
 20
1019.869360
 11
1623.134285
 21
1019.873295
  0
LINE
  8
0
  6
CONTINUOUS
 62
7
 10
1623.134285
 20
1019.873295
 11
1623.553202
 21
1019.884948
  0
LINE
  8
0
  6
CONTINUOUS
 62
7
 10
1623.553202
 20
1019.884948
 11
1623.831627
 21
1019.904015
  0
LINE
  8
0
  6
CONTINUOUS
 62
7
 10
1623.831627
 20
1019.904015
 11
1624.021803
 21
1019.937344
  0
LINE
  8
0
  6
CONTINUOUS
 62
7
 10
1624.021803
 20
1019.937344
 11
1624.176017
 21
1019.989588
  0
LINE
  8
0
  6
CONTINUOUS
 62
7
 10
1624.176017
 20
1019.989588
 11
1624.294206
 21
1020.061072
  0
LINE
  8
0
  6
CONTINUOUS
 62
7
 10
1624.294206
 20
1020.061072
 11
1624.375635
 21
1020.144862
  0
LINE
  8
0
  6
CONTINUOUS
 62
7
 10
1624.375635
 20
1020.144862
 11
1624.437321
 21
1020.252024
  0
LINE
  8
0
  6
CONTINUOUS
 62
7
 10
1624.437321
 20
1020.252024
 11
1624.479242
 21
1020.381970
  0
LINE
  8
0
  6
CONTINUOUS
 62
7
 10
1624.479242
 20
1020.381970
 11
1624.506203
 21
1020.554312
  0
LINE
  8
0
  6
CONTINUOUS
 62
7
 10
1624.506203
 20
1020.554312
 11
1624.522611
 21
1020.786702
  0
LINE
  8
0
  6
CONTINUOUS
 62
7
 10
1624.522611
 20
1020.786702
 11
1624.528150
 21
1021.079749
  0
LINE
  8
0
  6
CONTINUOUS
 62
7
 10
1624.528150
 20
1021.079749
 11
1624.523912
 21
1021.428171
  0
LINE
  8
0
  6
CONTINUOUS
 62
7
 10
1624.523912
 20
1021.428171
 11
1624.511365
 21
1021.709109
  0
LINE
  8
0
  6
CONTINUOUS
 62
7
 10
1624.511365
 20
1021.709109
 11
1624.490824
 21
1021.922585
  0
LINE
  8
0
  6
CONTINUOUS
 62
7
 10
1624.490824
 20
1021.922585
 11
1624.458659
 21
1022.086751
  0
LINE
  8
0
  6
CONTINUOUS
 62
7
 10
1624.458659
 20
1022.086751
 11
1624.413360
 21
1022.221894
  0
LINE
  8
0
  6
CONTINUOUS
 62
7
 10
1624.413360
 20
1022.221894
 11
1624.354591
 21
1022.327468
  0
LINE
  8
0
  6
CONTINUOUS
 62
7
 10
1624.354591
 20
1022.327468
 11
1624.254068
 21
1022.427673
  0
LINE
  8
0
  6
CONTINUOUS
 62
7
 10
1624.254068
 20
1022.427673
 11
1624.117227
 21
1022.498896
  0
LINE
  8
0
  6
CONTINUOUS
 62
7
 10
1624.117227
 20
1022.498896
 11
1623.944717
 21
1022.540509
  0
LINE
  8
0
  6
CONTINUOUS
 62
7
 10
1623.944717
 20
1022.540509
 11
1623.664677
 21
1022.563598
  0
LINE
  8
0
  6
CONTINUOUS
 62
7
 10
1623.664677
 20
1022.563598
 11
1623.205286
 21
1022.577273
  0
LINE
  8
0
  6
CONTINUOUS
 62
7
 10
1623.205286
 20
1022.577273
 11
1622.567112
 21
1022.581752
  0
LINE
  8
0
  6
CONTINUOUS
 62
7
 10
1626.712704
 20
1018.563092
 11
1626.712704
 21
1023.888019
  0
LINE
  8
0
  6
CONTINUOUS
 62
7
 10
1626.712704
 20
1023.888019
 11
1630.497225
 21
1023.888019
  0
LINE
  8
0
  6
CONTINUOUS
 62
7
 10
1630.497225
 20
1023.888019
 11
1631.096436
 21
1023.884758
  0
LINE
  8
0
  6
CONTINUOUS
 62
7
 10
1631.096436
 20
1023.884758
 11
1631.562184
 21
1023.878866
  0
LINE
  8
0
  6
CONTINUOUS
 62
7
 10
1631.562184
 20
1023.878866
 11
1631.894447
 21
1023.870235
  0
LINE
  8
0
  6
CONTINUOUS
 62
7
 10
1631.894447
 20
1023.870235
 11
1632.093226
 21
1023.858756
  0
LINE
  8
0
  6
CONTINUOUS
 62
7
 10
1632.093226
 20
1023.858756
 11
1632.267142
 21
1023.827188
  0
LINE
  8
0
  6
CONTINUOUS
 62
7
 10
1632.267142
 20
1023.827188
 11
1632.436777
 21
1023.766922
  0
LINE
  8
0
  6
CONTINUOUS
 62
7
 10
1632.436777
 20
1023.766922
 11
1632.602154
 21
1023.677631
  0
LINE
  8
0
  6
CONTINUOUS
 62
7
 10
1632.602154
 20
1023.677631
 11
1632.776930
 21
1023.539945
  0
LINE
  8
0
  6
CONTINUOUS
 62
7
 10
1632.776930
 20
1023.539945
 11
1632.910918
 21
1023.371495
  0
LINE
  8
0
  6
CONTINUOUS
 62
7
 10
1632.910918
 20
1023.371495
 11
1633.004348
 21
1023.171673
  0
LINE
  8
0
  6
CONTINUOUS
 62
7
 10
1633.004348
 20
1023.171673
 11
1633.065237
 21
1022.916390
  0
LINE
  8
0
  6
CONTINUOUS
 62
7
 10
1633.065237
 20
1022.916390
 11
1633.101535
 21
1022.579164
  0
LINE
  8
0
  6
CONTINUOUS
 62
7
 10
1633.101535
 20
1022.579164
 11
1633.113557
 21
1022.159693
  0
LINE
  8
0
  6
CONTINUOUS
 62
7
 10
1633.113557
 20
1022.159693
 11
1633.105857
 21
1021.806727
  0
LINE
  8
0
  6
CONTINUOUS
 62
7
 10
1633.105857
 20
1021.806727
 11
1633.082714
 21
1021.522397
  0
LINE
  8
0
  6
CONTINUOUS
 62
7
 10
1633.082714
 20
1021.522397
 11
1633.044171
 21
1021.306139
  0
LINE
  8
0
  6
CONTINUOUS
 62
7
 10
1633.044171
 20
1021.306139
 11
1632.984206
 21
1021.136059
  0
LINE
  8
0
  6
CONTINUOUS
 62
7
 10
1632.984206
 20
1021.136059
 11
1632.896818
 21
1020.990589
  0
LINE
  8
0
  6
CONTINUOUS
 62
7
 10
1632.896818
 20
1020.990589
 11
1632.782070
 21
1020.869361
  0
LINE
  8
0
  6
CONTINUOUS
 62
7
 10
1632.782070
 20
1020.869361
 11
1632.620995
 21
1020.764200
  0
LINE
  8
0
  6
CONTINUOUS
 62
7
 10
1632.620995
 20
1020.764200
 11
1632.412795
 21
1020.683323
  0
LINE
  8
0
  6
CONTINUOUS
 62
7
 10
1632.412795
 20
1020.683323
 11
1632.157492
 21
1020.627035
  0
LINE
  8
0
  6
CONTINUOUS
 62
7
 10
1632.157492
 20
1020.627035
 11
1632.455304
 21
1020.577401
  0
LINE
  8
0
  6
CONTINUOUS
 62
7
 10
1632.455304
 20
1020.577401
 11
1632.691115
 21
1020.479544
  0
LINE
  8
0
  6
CONTINUOUS
 62
7
 10
1632.691115
 20
1020.479544
 11
1632.865577
 21
1020.334053
  0
LINE
  8
0
  6
CONTINUOUS
 62
7
 10
1632.865577
 20
1020.334053
 11
1632.937942
 21
1020.225761
  0
LINE
  8
0
  6
CONTINUOUS
 62
7
 10
1632.937942
 20
1020.225761
 11
1632.990627
 21
1020.103272
  0
LINE
  8
0
  6
CONTINUOUS
 62
7
 10
1632.990627
 20
1020.103272
 11
1633.023610
 21
1019.966586
  0
LINE
  8
0
  6
CONTINUOUS
 62
7
 10
1633.023610
 20
1019.966586
 11
1633.042010
 21
1019.769003
  0
LINE
  8
0
  6
CONTINUOUS
 62
7
 10
1633.042010
 20
1019.769003
 11
1633.053256
 21
1019.466389
  0
LINE
  8
0
  6
CONTINUOUS
 62
7
 10
1633.053256
 20
1019.466389
 11
1633.057054
 21
1019.058419
  0
LINE
  8
0
  6
CONTINUOUS
 62
7
 10
1633.057054
 20
1019.058419
 11
1633.057054
 21
1018.563092
  0
LINE
  8
0
  6
CONTINUOUS
 62
7
 10
1633.057054
 20
1018.563092
 11
1631.513674
 21
1018.563092
  0
LINE
  8
0
  6
CONTINUOUS
 62
7
 10
1631.513674
 20
1018.563092
 11
1631.513674
 21
1018.848030
  0
LINE
  8
0
  6
CONTINUOUS
 62
7
 10
1631.513674
 20
1018.848030
 11
1631.510212
 21
1019.116206
  0
LINE
  8
0
  6
CONTINUOUS
 62
7
 10
1631.510212
 20
1019.116206
 11
1631.499596
 21
1019.327290
  0
LINE
  8
0
  6
CONTINUOUS
 62
7
 10
1631.499596
 20
1019.327290
 11
1631.481552
 21
1019.481869
  0
LINE
  8
0
  6
CONTINUOUS
 62
7
 10
1631.481552
 20
1019.481869
 11
1631.454045
 21
1019.598619
  0
LINE
  8
0
  6
CONTINUOUS
 62
7
 10
1631.454045
 20
1019.598619
 11
1631.414830
 21
1019.695823
  0
LINE
  8
0
  6
CONTINUOUS
 62
7
 10
1631.414830
 20
1019.695823
 11
1631.363342
 21
1019.773482
  0
LINE
  8
0
  6
CONTINUOUS
 62
7
 10
1631.363342
 20
1019.773482
 11
1631.298215
 21
1019.827595
  0
LINE
  8
0
  6
CONTINUOUS
 62
7
 10
1631.298215
 20
1019.827595
 11
1631.218527
 21
1019.867186
  0
LINE
  8
0
  6
CONTINUOUS
 62
7
 10
1631.218527
 20
1019.867186
 11
1631.124278
 21
1019.892036
  0
LINE
  8
0
  6
CONTINUOUS
 62
7
 10
1631.124278
 20
1019.892036
 11
1630.985549
 21
1019.906254
  0
LINE
  8
0
  6
CONTINUOUS
 62
7
 10
1630.985549
 20
1019.906254
 11
1630.772586
 21
1019.914581
  0
LINE
  8
0
  6
CONTINUOUS
 62
7
 10
1630.772586
 20
1019.914581
 11
1630.485664
 21
1019.917277
  0
LINE
  8
0
  6
CONTINUOUS
 62
7
 10
1630.485664
 20
1019.917277
 11
1628.279226
 21
1019.917277
  0
LINE
  8
0
  6
CONTINUOUS
 62
7
 10
1628.279226
 20
1019.917277
 11
1628.279226
 21
1018.563092
  0
LINE
  8
0
  6
CONTINUOUS
 62
7
 10
1628.279226
 20
1018.563092
 11
1626.712704
 21
1018.563092
  0
LINE
  8
0
  6
CONTINUOUS
 62
7
 10
1628.279226
 20
1021.247503
 11
1630.481782
 21
1021.247503
  0
LINE
  8
0
  6
CONTINUOUS
 62
7
 10
1630.481782
 20
1021.247503
 11
1630.814255
 21
1021.255134
  0
LINE
  8
0
  6
CONTINUOUS
 62
7
 10
1630.814255
 20
1021.255134
 11
1631.043332
 21
1021.262113
  0
LINE
  8
0
  6
CONTINUOUS
 62
7
 10
1631.043332
 20
1021.262113
 11
1631.169305
 21
1021.268831
  0
LINE
  8
0
  6
CONTINUOUS
 62
7
 10
1631.169305
 20
1021.268831
 11
1631.239467
 21
1021.279984
  0
LINE
  8
0
  6
CONTINUOUS
 62
7
 10
1631.239467
 20
1021.279984
 11
1631.303041
 21
1021.300291
  0
LINE
  8
0
  6
CONTINUOUS
 62
7
 10
1631.303041
 20
1021.300291
 11
1631.359460
 21
1021.330098
  0
LINE
  8
0
  6
CONTINUOUS
 62
7
 10
1631.359460
 20
1021.330098
 11
1631.419866
 21
1021.381124
  0
LINE
  8
0
  6
CONTINUOUS
 62
7
 10
1631.419866
 20
1021.381124
 11
1631.467410
 21
1021.446369
  0
LINE
  8
0
  6
CONTINUOUS
 62
7
 10
1631.467410
 20
1021.446369
 11
1631.502114
 21
1021.525854
  0
LINE
  8
0
  6
CONTINUOUS
 62
7
 10
1631.502114
 20
1021.525854
 11
1631.524774
 21
1021.628407
  0
LINE
  8
0
  6
CONTINUOUS
 62
7
 10
1631.524774
 20
1021.628407
 11
1631.538579
 21
1021.760549
  0
LINE
  8
0
  6
CONTINUOUS
 62
7
 10
1631.538579
 20
1021.760549
 11
1631.543258
 21
1021.922585
  0
LINE
  8
0
  6
CONTINUOUS
 62
7
 10
1631.543258
 20
1021.922585
 11
1631.538055
 21
1022.081468
  0
LINE
  8
0
  6
CONTINUOUS
 62
7
 10
1631.538055
 20
1022.081468
 11
1631.522277
 21
1022.211632
  0
LINE
  8
0
  6
CONTINUOUS
 62
7
 10
1631.522277
 20
1022.211632
 11
1631.495672
 21
1022.312815
  0
LINE
  8
0
  6
CONTINUOUS
 62
7
 10
1631.495672
 20
1022.312815
 11
1631.457108
 21
1022.390409
  0
LINE
  8
0
  6
CONTINUOUS
 62
7
 10
1631.457108
 20
1022.390409
 11
1631.402808
 21
1022.452653
  0
LINE
  8
0
  6
CONTINUOUS
 62
7
 10
1631.402808
 20
1022.452653
 11
1631.332520
 21
1022.499244
  0
LINE
  8
0
  6
CONTINUOUS
 62
7
 10
1631.332520
 20
1022.499244
 11
1631.273772
 21
1022.521964
  0
LINE
  8
0
  6
CONTINUOUS
 62
7
 10
1631.273772
 20
1022.521964
 11
1631.207890
 21
1022.537291
  0
LINE
  8
0
  6
CONTINUOUS
 62
7
 10
1631.207890
 20
1022.537291
 11
1631.134601
 21
1022.545814
  0
LINE
  8
0
  6
CONTINUOUS
 62
7
 10
1631.134601
 20
1022.545814
 11
1631.010894
 21
1022.550684
  0
LINE
  8
0
  6
CONTINUOUS
 62
7
 10
1631.010894
 20
1022.550684
 11
1630.791805
 21
1022.554684
  0
LINE
  8
0
  6
CONTINUOUS
 62
7
 10
1630.791805
 20
1022.554684
 11
1630.477901
 21
1022.557793
  0
LINE
  8
0
  6
CONTINUOUS
 62
7
 10
1630.477901
 20
1022.557793
 11
1628.279226
 21
1022.557793
  0
LINE
  8
0
  6
CONTINUOUS
 62
7
 10
1628.279226
 20
1022.557793
 11
1628.279226
 21
1021.247503
  0
LINE
  8
0
  6
CONTINUOUS
 62
4
 10
1569.063867
 20
1014.975592
 11
1568.382618
 21
1014.975592
  0
LINE
  8
0
  6
CONTINUOUS
 62
4
 10
1568.314456
 20
1015.657216
 11
1568.382618
 21
1014.975592
  0
LINE
  8
0
  6
CONTINUOUS
 62
4
 10
1567.132618
 20
1027.475592
 11
1567.858312
 21
1027.475592
  0
LINE
  8
0
  6
CONTINUOUS
 62
4
 10
1567.132618
 20
1027.475592
 11
1567.225056
 21
1026.551217
  0
LINE
  8
0
  6
CONTINUOUS
 62
4
 10
1635.201369
 20
1014.975592
 11
1635.882618
 21
1014.975592
  0
LINE
  8
0
  6
CONTINUOUS
 62
4
 10
1635.950781
 20
1015.657216
 11
1635.882618
 21
1014.975592
  0
LINE
  8
0
  6
CONTINUOUS
 62
4
 10
1637.132618
 20
1027.475592
 11
1636.406925
 21
1027.475592
  0
LINE
  8
0
  6
CONTINUOUS
 62
4
 10
1637.132618
 20
1027.475592
 11
1637.040181
 21
1026.551217
  0
INSERT
  2
350-KNOB
  8
0
 10
1574.132618
 20
1126.389433
 41
1.000000
 42
1.000000
 50
0.000000
  0
ENDSEC
  0
EOF
