  0
SECTION
  2
HEADER
  9
$LIMMIN
 10
0.000000
 20
0.000000
  9
$LIMMAX
 10
3363.600000
 20
2378.400000
  9
$EXTMIN
 10
0.000000
 20
0.000000
  9
$EXTMAX
 10
3363.600000
 20
2378.400000
  9
$ANGBASE
 50
0.0
  9
$ANGDIR
 70
0
  9
$DIMRND
 40
0.100000
  9
$DIMSE1
 70
0
  9
$DIMSE2
 70
0
  9
$DIMTXT
 40
3.500000
  9
$LTSCALE
 40
1.000000
  9
$LUPREC
 70
5
  9
$AUPREC
 70
5
  9
$PDMODE
 70
2
  9
$PDSIZE
 40
16.818000
  0
ENDSEC
  0
SECTION
  2
TABLES
  0
TABLE
  2
VPORT
  70
1
  0
VPORT
  2
*ACTIVE
 70
0
  10
0.0
 20
0.0
 11
1.0
 21
1.0
 12
594.0
 22
420.0
 13
0.0
 23
0.0
 14
10.0
 24
10.0
 15
10.0
 25
10.0
 16
0.0
 26
0.0
 36
1.0
 17
594.0
 27
420.0
 37
100.0
 40
1000.0
 41
1.0
 42
50.0
 43
0.0
 44
0.0
 50
0.0
 51
0.0
 71
0
 72
2000
 73
1
 74
3
 75
0
 76
0
 77
0
 78
1
  0
ENDTAB
  0
TABLE
  2
LTYPE
 70
4
  0
LTYPE
  2
CONTINUOUS
 70
0
  3
Solid line
 72
65
 73
0
 40
0.0
  0
LTYPE
  2
DASHED
 70
0
  3
Dashed line
 72
65
 73
2
 40
6.000000
 49
3.000000
 49
-3.000000
  0
LTYPE
  2
CENTER
 70
0
  3
Chain line
 72
65
 73
4
 40
24.000000
 49
15.000000
 49
-3.000000
 49
3.000000
 49
-3.000000
  0
LTYPE
  2
RANDOM
 70
0
  3
Random line
 72
65
 73
4
 40
22.500000
 49
6.000000
 49
-3.000000
 49
4.500000
 49
-9.000000
  0
ENDTAB
  0
TABLE
  2
STYLE
 70
9
  0
STYLE
  2
STANDARD
 40
0
 41
1.0
 50
0.0
 71
0
 42
0
  3
simplex
  4

 70
0
  0
ENDTAB
  0
TABLE
  2
LAYER
 70
2
  0
LAYER
  2
0
 70
0
 62
7
  6
CONTINUOUS
  0
LAYER
  2
0
 62
1
  6
CONTINUOUS
 70
0
  0
ENDTAB
  0
ENDSEC
  0
SECTION
  2
BLOCKS
  0
ENDSEC
  0
SECTION
  2
ENTITIES
  0
LINE
  8
0
  6
CONTINUOUS
 62
1
 10
958.827729
 20
1011.237875
 11
1828.827729
 21
1011.237875
  0
LINE
  8
0
  6
CONTINUOUS
 62
1
 10
1733.827729
 20
1107.737875
 11
1733.827729
 21
1163.737875
  0
LINE
  8
0
  6
CONTINUOUS
 62
1
 10
973.827729
 20
1098.210091
 11
1071.827729
 21
1098.210091
  0
LINE
  8
0
  6
CONTINUOUS
 62
1
 10
1071.827729
 20
1098.210091
 11
1071.827729
 21
1175.210091
  0
LINE
  8
0
  6
CONTINUOUS
 62
1
 10
1071.827729
 20
1175.210091
 11
973.827729
 21
1175.210091
  0
LINE
  8
0
  6
CONTINUOUS
 62
1
 10
973.827729
 20
1175.210091
 11
973.827729
 21
1098.210091
  0
LINE
  8
0
  6
CONTINUOUS
 62
1
 10
943.827729
 20
1178.737875
 11
1843.827729
 21
1178.737875
  0
LINE
  8
0
  6
CONTINUOUS
 62
1
 10
943.827729
 20
1073.737875
 11
1843.827729
 21
1073.737875
  0
LINE
  8
0
  6
CONTINUOUS
 62
1
 10
943.827729
 20
1088.737875
 11
1843.827729
 21
1088.737875
  0
LINE
  8
0
  6
CONTINUOUS
 62
1
 10
1828.827729
 20
1013.737875
 11
958.827729
 21
1013.737875
  0
LINE
  8
0
  6
CONTINUOUS
 62
1
 10
958.827729
 20
1011.237875
 11
958.827729
 21
1028.737875
  0
LINE
  8
0
  6
CONTINUOUS
 62
1
 10
958.827729
 20
1028.737875
 11
958.827729
 21
1013.737875
  0
LINE
  8
0
  6
CONTINUOUS
 62
1
 10
958.827729
 20
1013.737875
 11
958.827729
 21
1028.737875
  0
LINE
  8
0
  6
CONTINUOUS
 62
1
 10
958.827729
 20
1028.737875
 11
943.827729
 21
1028.737875
  0
LINE
  8
0
  6
CONTINUOUS
 62
1
 10
943.827729
 20
1028.737875
 11
943.827729
 21
1178.737875
  0
LINE
  8
0
  6
CONTINUOUS
 62
1
 10
943.827729
 20
1178.737875
 11
943.827729
 21
1703.737875
  0
LINE
  8
0
  6
CONTINUOUS
 62
1
 10
943.827729
 20
1703.737875
 11
943.827714
 21
1794.437875
  0
LINE
  8
0
  6
CONTINUOUS
 62
1
 10
1843.827714
 20
1794.437875
 11
1843.827729
 21
1028.737875
  0
LINE
  8
0
  6
CONTINUOUS
 62
1
 10
1843.827729
 20
1028.737875
 11
1828.827729
 21
1028.737875
  0
LINE
  8
0
  6
CONTINUOUS
 62
1
 10
1828.827729
 20
1028.737875
 11
1828.827729
 21
1011.237875
  0
LINE
  8
0
  6
CONTINUOUS
 62
1
 10
1828.827729
 20
1013.737875
 11
1828.827729
 21
1028.737875
  0
LINE
  8
0
  6
CONTINUOUS
 62
1
 10
1828.827729
 20
1028.737875
 11
1828.827729
 21
1013.737875
  0
LINE
  8
0
  6
CONTINUOUS
 62
1
 10
1733.827729
 20
1658.737875
 11
1353.827729
 21
1658.737875
  0
LINE
  8
0
  6
CONTINUOUS
 62
1
 10
1353.827729
 20
1658.737875
 11
1353.827729
 21
1188.737875
  0
LINE
  8
0
  6
CONTINUOUS
 62
1
 10
1353.827729
 20
1188.737875
 11
1733.827729
 21
1188.737875
  0
LINE
  8
0
  6
CONTINUOUS
 62
1
 10
1733.827729
 20
1188.737875
 11
1733.827729
 21
1658.737875
  0
LINE
  8
0
  6
CONTINUOUS
 62
1
 10
1333.827729
 20
1658.737875
 11
953.827729
 21
1658.737875
  0
LINE
  8
0
  6
CONTINUOUS
 62
1
 10
953.827729
 20
1658.737875
 11
953.827729
 21
1188.737875
  0
LINE
  8
0
  6
CONTINUOUS
 62
1
 10
953.827729
 20
1188.737875
 11
1333.827729
 21
1188.737875
  0
LINE
  8
0
  6
CONTINUOUS
 62
1
 10
1333.827729
 20
1188.737875
 11
1333.827729
 21
1658.737875
  0
LINE
  8
0
  6
CONTINUOUS
 62
1
 10
1238.827729
 20
1608.737875
 11
1038.827729
 21
1608.737875
  0
ARC
  8
0
  6
CONTINUOUS
 62
1
 10
1038.827729
 20
1573.737875
 40
35.000000
 50
90.000000
 51
180.000000
  0
LINE
  8
0
  6
CONTINUOUS
 62
1
 10
1003.827729
 20
1573.737875
 11
1003.827729
 21
1273.737875
  0
ARC
  8
0
  6
CONTINUOUS
 62
1
 10
1038.827729
 20
1273.737875
 40
35.000000
 50
180.000000
 51
270.000000
  0
LINE
  8
0
  6
CONTINUOUS
 62
1
 10
1038.827729
 20
1238.737875
 11
1238.827729
 21
1238.737875
  0
ARC
  8
0
  6
CONTINUOUS
 62
1
 10
1238.827729
 20
1273.737875
 40
35.000000
 50
270.000000
 51
0.000000
  0
LINE
  8
0
  6
CONTINUOUS
 62
1
 10
1273.827729
 20
1273.737875
 11
1273.827729
 21
1573.737875
  0
ARC
  8
0
  6
CONTINUOUS
 62
1
 10
1238.827729
 20
1573.737875
 40
35.000000
 50
0.000000
 51
90.000000
  0
ARC
  8
0
  6
CONTINUOUS
 62
1
 10
1448.827729
 20
1573.737875
 40
35.000000
 50
90.001000
 51
180.001000
  0
LINE
  8
0
  6
CONTINUOUS
 62
1
 10
1413.827729
 20
1573.737875
 11
1413.827729
 21
1273.737875
  0
ARC
  8
0
  6
CONTINUOUS
 62
1
 10
1448.827729
 20
1273.737875
 40
35.000000
 50
180.000000
 51
270.000000
  0
LINE
  8
0
  6
CONTINUOUS
 62
1
 10
1448.827729
 20
1238.737875
 11
1648.827729
 21
1238.737875
  0
ARC
  8
0
  6
CONTINUOUS
 62
1
 10
1648.827729
 20
1273.737875
 40
35.000000
 50
270.000000
 51
0.000000
  0
LINE
  8
0
  6
CONTINUOUS
 62
1
 10
1683.827729
 20
1273.737875
 11
1683.827729
 21
1573.737875
  0
ARC
  8
0
  6
CONTINUOUS
 62
1
 10
1648.827729
 20
1573.737875
 40
35.000000
 50
0.000000
 51
90.000000
  0
LINE
  8
0
  6
CONTINUOUS
 62
1
 10
1648.827729
 20
1608.737875
 11
1448.827729
 21
1608.737875
  0
LINE
  8
0
  6
CONTINUOUS
 62
1
 10
1713.827729
 20
1107.737875
 11
1713.827729
 21
1163.737875
  0
LINE
  8
0
  6
CONTINUOUS
 62
1
 10
1693.827729
 20
1163.737875
 11
1693.827729
 21
1107.737875
  0
LINE
  8
0
  6
CONTINUOUS
 62
1
 10
1673.827729
 20
1107.737875
 11
1673.827729
 21
1163.737875
  0
LINE
  8
0
  6
CONTINUOUS
 62
1
 10
1653.827729
 20
1163.737875
 11
1653.827729
 21
1107.737875
  0
LINE
  8
0
  6
CONTINUOUS
 62
1
 10
1633.827729
 20
1107.737875
 11
1633.827729
 21
1163.737875
  0
LINE
  8
0
  6
CONTINUOUS
 62
1
 10
1613.827729
 20
1163.737875
 11
1613.827729
 21
1107.737875
  0
LINE
  8
0
  6
CONTINUOUS
 62
1
 10
1593.827729
 20
1107.737875
 11
1593.827729
 21
1163.737875
  0
LINE
  8
0
  6
CONTINUOUS
 62
1
 10
1573.827729
 20
1163.737875
 11
1573.827729
 21
1107.737875
  0
LINE
  8
0
  6
CONTINUOUS
 62
1
 10
1553.827729
 20
1107.737875
 11
1553.827729
 21
1163.737875
  0
LINE
  8
0
  6
CONTINUOUS
 62
1
 10
1533.827729
 20
1163.737875
 11
1533.827729
 21
1107.737875
  0
LINE
  8
0
  6
CONTINUOUS
 62
1
 10
1513.827729
 20
1107.737875
 11
1513.827729
 21
1163.737875
  0
LINE
  8
0
  6
CONTINUOUS
 62
1
 10
1493.827729
 20
1163.737875
 11
1493.827729
 21
1107.737875
  0
LINE
  8
0
  6
CONTINUOUS
 62
1
 10
1473.827729
 20
1107.737875
 11
1473.827729
 21
1163.737875
  0
LINE
  8
0
  6
CONTINUOUS
 62
1
 10
1453.827729
 20
1163.737875
 11
1453.827729
 21
1107.737875
  0
LINE
  8
0
  6
CONTINUOUS
 62
1
 10
1433.827729
 20
1107.737875
 11
1433.827729
 21
1163.737875
  0
LINE
  8
0
  6
CONTINUOUS
 62
1
 10
1413.827729
 20
1163.737875
 11
1413.827729
 21
1107.737875
  0
LINE
  8
0
  6
CONTINUOUS
 62
1
 10
1393.827729
 20
1107.737875
 11
1393.827729
 21
1163.737875
  0
LINE
  8
0
  6
CONTINUOUS
 62
1
 10
1373.827729
 20
1163.737875
 11
1373.827729
 21
1107.737875
  0
LINE
  8
0
  6
CONTINUOUS
 62
1
 10
1353.827729
 20
1107.737875
 11
1353.827729
 21
1163.737875
  0
LINE
  8
0
  6
CONTINUOUS
 62
1
 10
1333.827729
 20
1163.737875
 11
1333.827729
 21
1107.737875
  0
LINE
  8
0
  6
CONTINUOUS
 62
1
 10
1313.827729
 20
1107.737875
 11
1313.827729
 21
1163.737875
  0
LINE
  8
0
  6
CONTINUOUS
 62
1
 10
1293.827729
 20
1163.737875
 11
1293.827729
 21
1107.737875
  0
LINE
  8
0
  6
CONTINUOUS
 62
1
 10
1273.827729
 20
1107.737875
 11
1273.827729
 21
1163.737875
  0
LINE
  8
0
  6
CONTINUOUS
 62
1
 10
1253.827729
 20
1163.737875
 11
1253.827729
 21
1107.737875
  0
LINE
  8
0
  6
CONTINUOUS
 62
1
 10
1233.827729
 20
1107.737875
 11
1233.827729
 21
1163.737875
  0
LINE
  8
0
  6
CONTINUOUS
 62
1
 10
1213.827729
 20
1163.737875
 11
1213.827729
 21
1107.737875
  0
LINE
  8
0
  6
CONTINUOUS
 62
1
 10
1193.827729
 20
1107.737875
 11
1193.827729
 21
1163.737875
  0
LINE
  8
0
  6
CONTINUOUS
 62
1
 10
1173.827729
 20
1163.737875
 11
1173.827729
 21
1107.737875
  0
LINE
  8
0
  6
CONTINUOUS
 62
1
 10
1153.827729
 20
1107.737875
 11
1153.827729
 21
1163.737875
  0
LINE
  8
0
  6
CONTINUOUS
 62
1
 10
1133.827729
 20
1163.737875
 11
1133.827729
 21
1107.737875
  0
LINE
  8
0
  6
CONTINUOUS
 62
1
 10
1113.827729
 20
1107.737875
 11
1113.827729
 21
1163.737875
  0
LINE
  8
0
  6
CONTINUOUS
 62
1
 10
1093.827729
 20
1163.737875
 11
1093.827729
 21
1107.737875
  0
LINE
  8
0
  6
CONTINUOUS
 62
1
 10
1073.827729
 20
1107.737875
 11
1073.827729
 21
1163.737875
  0
LINE
  8
0
  6
CONTINUOUS
 62
1
 10
973.827729
 20
1163.737875
 11
973.827729
 21
1107.737875
  0
LINE
  8
0
  6
CONTINUOUS
 62
1
 10
958.827729
 20
1028.737875
 11
1828.827729
 21
1028.737875
  0
LINE
  8
0
  6
CONTINUOUS
 62
1
 10
943.827729
 20
1677.836887
 11
1843.827729
 21
1677.836887
  0
LINE
  8
0
  6
CONTINUOUS
 62
1
 10
943.827714
 20
1809.437802
 11
943.827714
 21
1718.437875
  0
LINE
  8
0
  6
CONTINUOUS
 62
1
 10
1843.827729
 20
1756.437875
 11
944.727708
 21
1756.437875
  0
LINE
  8
0
  6
CONTINUOUS
 62
1
 10
1843.827729
 20
1718.437875
 11
1843.827729
 21
1809.437802
  0
LINE
  8
0
  6
CONTINUOUS
 62
1
 10
944.727708
 20
1727.937875
 11
1843.827729
 21
1727.937875
  0
LINE
  8
0
  6
CONTINUOUS
 62
1
 10
1843.827729
 20
1809.437802
 11
943.827714
 21
1809.437802
  0
LINE
  8
0
  6
CONTINUOUS
 62
1
 10
1843.827729
 20
1794.400583
 11
943.827714
 21
1794.400583
  0
LINE
  8
0
  6
CONTINUOUS
 62
1
 10
1791.327544
 20
1807.461561
 11
1765.327544
 21
1807.461561
  0
LINE
  8
0
  6
CONTINUOUS
 62
1
 10
1791.327544
 20
1801.625089
 11
1765.327544
 21
1801.625089
  0
LINE
  8
0
  6
CONTINUOUS
 62
1
 10
994.327544
 20
1801.625089
 11
994.327544
 21
1807.461561
  0
LINE
  8
0
  6
CONTINUOUS
 62
1
 10
1020.327544
 20
1801.625089
 11
1020.327544
 21
1807.461561
  0
LINE
  8
0
  6
CONTINUOUS
 62
1
 10
1765.327544
 20
1801.625089
 11
1765.327544
 21
1807.461561
  0
LINE
  8
0
  6
CONTINUOUS
 62
1
 10
1791.327544
 20
1801.625089
 11
1791.327544
 21
1807.461561
  0
LINE
  8
0
  6
CONTINUOUS
 62
1
 10
1020.327544
 20
1801.625089
 11
994.327544
 21
1801.625089
  0
LINE
  8
0
  6
CONTINUOUS
 62
1
 10
1020.327544
 20
1807.461561
 11
994.327544
 21
1807.461561
  0
LINE
  8
0
  6
CONTINUOUS
 62
1
 10
1045.626311
 20
1808.762011
 11
1061.162184
 21
1808.762011
  0
LINE
  8
0
  6
CONTINUOUS
 62
1
 10
1323.302184
 20
1806.162011
 11
1309.086311
 21
1806.162011
  0
LINE
  8
0
  6
CONTINUOUS
 62
1
 10
1044.298302
 20
1806.625154
 11
1043.638302
 21
1808.185154
  0
LINE
  8
0
  6
CONTINUOUS
 62
1
 10
1062.490193
 20
1806.625154
 11
1063.150193
 21
1808.185154
  0
LINE
  8
0
  6
CONTINUOUS
 62
1
 10
1133.226311
 20
1808.762011
 11
1148.762184
 21
1808.762011
  0
LINE
  8
0
  6
CONTINUOUS
 62
1
 10
1155.786311
 20
1808.762011
 11
1170.002184
 21
1808.762011
  0
LINE
  8
0
  6
CONTINUOUS
 62
1
 10
1177.026311
 20
1808.762011
 11
1192.562184
 21
1808.762011
  0
LINE
  8
0
  6
CONTINUOUS
 62
1
 10
1199.586311
 20
1808.762011
 11
1213.802184
 21
1808.762011
  0
LINE
  8
0
  6
CONTINUOUS
 62
1
 10
1220.826311
 20
1808.762011
 11
1236.362184
 21
1808.762011
  0
LINE
  8
0
  6
CONTINUOUS
 62
1
 10
1243.386311
 20
1808.762011
 11
1257.602184
 21
1808.762011
  0
LINE
  8
0
  6
CONTINUOUS
 62
1
 10
1264.626311
 20
1808.762011
 11
1280.162184
 21
1808.762011
  0
LINE
  8
0
  6
CONTINUOUS
 62
1
 10
1287.186311
 20
1808.762011
 11
1301.402184
 21
1808.762011
  0
LINE
  8
0
  6
CONTINUOUS
 62
1
 10
1308.426311
 20
1808.762011
 11
1323.962184
 21
1808.762011
  0
LINE
  8
0
  6
CONTINUOUS
 62
1
 10
1131.898302
 20
1806.625154
 11
1131.238302
 21
1808.185154
  0
LINE
  8
0
  6
CONTINUOUS
 62
1
 10
1175.698302
 20
1806.625154
 11
1175.038302
 21
1808.185154
  0
LINE
  8
0
  6
CONTINUOUS
 62
1
 10
1219.498302
 20
1806.625154
 11
1218.838302
 21
1808.185154
  0
LINE
  8
0
  6
CONTINUOUS
 62
1
 10
1263.298302
 20
1806.625154
 11
1262.638302
 21
1808.185154
  0
LINE
  8
0
  6
CONTINUOUS
 62
1
 10
1307.098302
 20
1806.625154
 11
1306.438302
 21
1808.185154
  0
LINE
  8
0
  6
CONTINUOUS
 62
1
 10
1150.090193
 20
1806.625154
 11
1150.750193
 21
1808.185154
  0
LINE
  8
0
  6
CONTINUOUS
 62
1
 10
1193.890193
 20
1806.625154
 11
1194.550193
 21
1808.185154
  0
LINE
  8
0
  6
CONTINUOUS
 62
1
 10
1237.690193
 20
1806.625154
 11
1238.350193
 21
1808.185154
  0
LINE
  8
0
  6
CONTINUOUS
 62
1
 10
1281.490193
 20
1806.625154
 11
1282.150193
 21
1808.185154
  0
LINE
  8
0
  6
CONTINUOUS
 62
1
 10
1325.290193
 20
1806.625154
 11
1325.950193
 21
1808.185154
  0
LINE
  8
0
  6
CONTINUOUS
 62
1
 10
1084.390193
 20
1808.298868
 11
1085.050193
 21
1806.738868
  0
LINE
  8
0
  6
CONTINUOUS
 62
1
 10
1153.798302
 20
1808.298868
 11
1153.138302
 21
1806.738868
  0
LINE
  8
0
  6
CONTINUOUS
 62
1
 10
1171.990193
 20
1808.298868
 11
1172.650193
 21
1806.738868
  0
LINE
  8
0
  6
CONTINUOUS
 62
1
 10
1197.598302
 20
1808.298868
 11
1196.938302
 21
1806.738868
  0
LINE
  8
0
  6
CONTINUOUS
 62
1
 10
1215.790193
 20
1808.298868
 11
1216.450193
 21
1806.738868
  0
LINE
  8
0
  6
CONTINUOUS
 62
1
 10
1241.398302
 20
1808.298868
 11
1240.738302
 21
1806.738868
  0
LINE
  8
0
  6
CONTINUOUS
 62
1
 10
1259.590193
 20
1808.298868
 11
1260.250193
 21
1806.738868
  0
LINE
  8
0
  6
CONTINUOUS
 62
1
 10
1285.198302
 20
1808.298868
 11
1284.538302
 21
1806.738868
  0
LINE
  8
0
  6
CONTINUOUS
 62
1
 10
1303.390193
 20
1808.298868
 11
1304.050193
 21
1806.738868
  0
LINE
  8
0
  6
CONTINUOUS
 62
1
 10
1060.502184
 20
1806.162011
 11
1046.286311
 21
1806.162011
  0
LINE
  8
0
  6
CONTINUOUS
 62
1
 10
1083.062184
 20
1806.162011
 11
1067.526311
 21
1806.162011
  0
LINE
  8
0
  6
CONTINUOUS
 62
1
 10
1148.102184
 20
1806.162011
 11
1133.886311
 21
1806.162011
  0
LINE
  8
0
  6
CONTINUOUS
 62
1
 10
1170.662184
 20
1806.162011
 11
1155.126311
 21
1806.162011
  0
LINE
  8
0
  6
CONTINUOUS
 62
1
 10
1191.902184
 20
1806.162011
 11
1177.686311
 21
1806.162011
  0
LINE
  8
0
  6
CONTINUOUS
 62
1
 10
1214.462184
 20
1806.162011
 11
1198.926311
 21
1806.162011
  0
LINE
  8
0
  6
CONTINUOUS
 62
1
 10
1235.702184
 20
1806.162011
 11
1221.486311
 21
1806.162011
  0
LINE
  8
0
  6
CONTINUOUS
 62
1
 10
1258.262184
 20
1806.162011
 11
1242.726311
 21
1806.162011
  0
LINE
  8
0
  6
CONTINUOUS
 62
1
 10
1279.502184
 20
1806.162011
 11
1265.286311
 21
1806.162011
  0
LINE
  8
0
  6
CONTINUOUS
 62
1
 10
1302.062184
 20
1806.162011
 11
1286.526311
 21
1806.162011
  0
POLYLINE
  8
0
  6
CONTINUOUS
 62
1
 66
1
 70
2
  0
VERTEX
  8
0
 10
1045.626311
 20
1808.762011
 70
0
 42
0.066109
  0
VERTEX
  8
0
 10
1044.136787
 20
1808.589023
 70
0
 42
0.408197
  0
VERTEX
  8
0
 10
1043.638302
 20
1808.185154
 70
0
  0
SEQEND
  0
POLYLINE
  8
0
  6
CONTINUOUS
 62
1
 66
1
 70
2
  0
VERTEX
  8
0
 10
1044.298302
 20
1806.625154
 70
0
 42
0.186677
  0
VERTEX
  8
0
 10
1046.286311
 20
1806.162011
 70
0
  0
SEQEND
  0
POLYLINE
  8
0
  6
CONTINUOUS
 62
1
 66
1
 70
2
  0
VERTEX
  8
0
 10
1060.502184
 20
1806.162011
 70
0
 42
0.186677
  0
VERTEX
  8
0
 10
1062.490193
 20
1806.625154
 70
0
  0
SEQEND
  0
POLYLINE
  8
0
  6
CONTINUOUS
 62
1
 66
1
 70
2
  0
VERTEX
  8
0
 10
1063.150193
 20
1808.185154
 70
0
 42
0.408197
  0
VERTEX
  8
0
 10
1062.651708
 20
1808.589023
 70
0
 42
0.066109
  0
VERTEX
  8
0
 10
1061.162184
 20
1808.762011
 70
0
  0
SEQEND
  0
POLYLINE
  8
0
  6
CONTINUOUS
 62
1
 66
1
 70
2
  0
VERTEX
  8
0
 10
1066.198302
 20
1808.298868
 70
0
 42
-0.186677
  0
VERTEX
  8
0
 10
1068.186311
 20
1808.762011
 70
0
  0
SEQEND
  0
POLYLINE
  8
0
  6
CONTINUOUS
 62
1
 66
1
 70
2
  0
VERTEX
  8
0
 10
1082.402184
 20
1808.762011
 70
0
 42
-0.186677
  0
VERTEX
  8
0
 10
1084.390193
 20
1808.298868
 70
0
  0
SEQEND
  0
POLYLINE
  8
0
  6
CONTINUOUS
 62
1
 66
1
 70
2
  0
VERTEX
  8
0
 10
1085.050193
 20
1806.738868
 70
0
 42
-0.408197
  0
VERTEX
  8
0
 10
1084.551708
 20
1806.334999
 70
0
 42
-0.066109
  0
VERTEX
  8
0
 10
1083.062184
 20
1806.162011
 70
0
  0
SEQEND
  0
POLYLINE
  8
0
  6
CONTINUOUS
 62
1
 66
1
 70
2
  0
VERTEX
  8
0
 10
1067.526311
 20
1806.162011
 70
0
 42
-0.066109
  0
VERTEX
  8
0
 10
1066.036787
 20
1806.334999
 70
0
 42
-0.408197
  0
VERTEX
  8
0
 10
1065.538302
 20
1806.738868
 70
0
  0
SEQEND
  0
POLYLINE
  8
0
  6
CONTINUOUS
 62
1
 66
1
 70
2
  0
VERTEX
  8
0
 10
1133.226311
 20
1808.762011
 70
0
 42
0.066109
  0
VERTEX
  8
0
 10
1131.736787
 20
1808.589023
 70
0
 42
0.408197
  0
VERTEX
  8
0
 10
1131.238302
 20
1808.185154
 70
0
  0
SEQEND
  0
POLYLINE
  8
0
  6
CONTINUOUS
 62
1
 66
1
 70
2
  0
VERTEX
  8
0
 10
1131.898302
 20
1806.625154
 70
0
 42
0.186677
  0
VERTEX
  8
0
 10
1133.886311
 20
1806.162011
 70
0
  0
SEQEND
  0
POLYLINE
  8
0
  6
CONTINUOUS
 62
1
 66
1
 70
2
  0
VERTEX
  8
0
 10
1148.102184
 20
1806.162011
 70
0
 42
0.186677
  0
VERTEX
  8
0
 10
1150.090193
 20
1806.625154
 70
0
  0
SEQEND
  0
POLYLINE
  8
0
  6
CONTINUOUS
 62
1
 66
1
 70
2
  0
VERTEX
  8
0
 10
1150.750193
 20
1808.185154
 70
0
 42
0.408197
  0
VERTEX
  8
0
 10
1150.251708
 20
1808.589023
 70
0
 42
0.066109
  0
VERTEX
  8
0
 10
1148.762184
 20
1808.762011
 70
0
  0
SEQEND
  0
POLYLINE
  8
0
  6
CONTINUOUS
 62
1
 66
1
 70
2
  0
VERTEX
  8
0
 10
1153.798302
 20
1808.298868
 70
0
 42
-0.186677
  0
VERTEX
  8
0
 10
1155.786311
 20
1808.762011
 70
0
  0
SEQEND
  0
POLYLINE
  8
0
  6
CONTINUOUS
 62
1
 66
1
 70
2
  0
VERTEX
  8
0
 10
1170.002184
 20
1808.762011
 70
0
 42
-0.186677
  0
VERTEX
  8
0
 10
1171.990193
 20
1808.298868
 70
0
  0
SEQEND
  0
POLYLINE
  8
0
  6
CONTINUOUS
 62
1
 66
1
 70
2
  0
VERTEX
  8
0
 10
1172.650193
 20
1806.738868
 70
0
 42
-0.408197
  0
VERTEX
  8
0
 10
1172.151708
 20
1806.334999
 70
0
 42
-0.066109
  0
VERTEX
  8
0
 10
1170.662184
 20
1806.162011
 70
0
  0
SEQEND
  0
POLYLINE
  8
0
  6
CONTINUOUS
 62
1
 66
1
 70
2
  0
VERTEX
  8
0
 10
1155.126311
 20
1806.162011
 70
0
 42
-0.066109
  0
VERTEX
  8
0
 10
1153.636787
 20
1806.334999
 70
0
 42
-0.408197
  0
VERTEX
  8
0
 10
1153.138302
 20
1806.738868
 70
0
  0
SEQEND
  0
POLYLINE
  8
0
  6
CONTINUOUS
 62
1
 66
1
 70
2
  0
VERTEX
  8
0
 10
1175.698302
 20
1806.625154
 70
0
 42
0.186677
  0
VERTEX
  8
0
 10
1177.686311
 20
1806.162011
 70
0
  0
SEQEND
  0
POLYLINE
  8
0
  6
CONTINUOUS
 62
1
 66
1
 70
2
  0
VERTEX
  8
0
 10
1191.902184
 20
1806.162011
 70
0
 42
0.186677
  0
VERTEX
  8
0
 10
1193.890193
 20
1806.625154
 70
0
  0
SEQEND
  0
POLYLINE
  8
0
  6
CONTINUOUS
 62
1
 66
1
 70
2
  0
VERTEX
  8
0
 10
1194.550193
 20
1808.185154
 70
0
 42
0.408197
  0
VERTEX
  8
0
 10
1194.051708
 20
1808.589023
 70
0
 42
0.066109
  0
VERTEX
  8
0
 10
1192.562184
 20
1808.762011
 70
0
  0
SEQEND
  0
POLYLINE
  8
0
  6
CONTINUOUS
 62
1
 66
1
 70
2
  0
VERTEX
  8
0
 10
1177.026311
 20
1808.762011
 70
0
 42
0.066109
  0
VERTEX
  8
0
 10
1175.536787
 20
1808.589023
 70
0
 42
0.408197
  0
VERTEX
  8
0
 10
1175.038302
 20
1808.185154
 70
0
  0
SEQEND
  0
POLYLINE
  8
0
  6
CONTINUOUS
 62
1
 66
1
 70
2
  0
VERTEX
  8
0
 10
1199.586311
 20
1808.762011
 70
0
 42
0.186677
  0
VERTEX
  8
0
 10
1197.598302
 20
1808.298868
 70
0
  0
SEQEND
  0
POLYLINE
  8
0
  6
CONTINUOUS
 62
1
 66
1
 70
2
  0
VERTEX
  8
0
 10
1196.938302
 20
1806.738868
 70
0
 42
0.408197
  0
VERTEX
  8
0
 10
1197.436787
 20
1806.334999
 70
0
 42
0.066109
  0
VERTEX
  8
0
 10
1198.926311
 20
1806.162011
 70
0
  0
SEQEND
  0
POLYLINE
  8
0
  6
CONTINUOUS
 62
1
 66
1
 70
2
  0
VERTEX
  8
0
 10
1214.462184
 20
1806.162011
 70
0
 42
0.066109
  0
VERTEX
  8
0
 10
1215.951708
 20
1806.334999
 70
0
 42
0.408197
  0
VERTEX
  8
0
 10
1216.450193
 20
1806.738868
 70
0
  0
SEQEND
  0
POLYLINE
  8
0
  6
CONTINUOUS
 62
1
 66
1
 70
2
  0
VERTEX
  8
0
 10
1215.790193
 20
1808.298868
 70
0
 42
0.186677
  0
VERTEX
  8
0
 10
1213.802184
 20
1808.762011
 70
0
  0
SEQEND
  0
POLYLINE
  8
0
  6
CONTINUOUS
 62
1
 66
1
 70
2
  0
VERTEX
  8
0
 10
1218.838302
 20
1808.185154
 70
0
 42
-0.408197
  0
VERTEX
  8
0
 10
1219.336787
 20
1808.589023
 70
0
 42
-0.066109
  0
VERTEX
  8
0
 10
1220.826311
 20
1808.762011
 70
0
  0
SEQEND
  0
POLYLINE
  8
0
  6
CONTINUOUS
 62
1
 66
1
 70
2
  0
VERTEX
  8
0
 10
1236.362184
 20
1808.762011
 70
0
 42
-0.066109
  0
VERTEX
  8
0
 10
1237.851708
 20
1808.589023
 70
0
 42
-0.408197
  0
VERTEX
  8
0
 10
1238.350193
 20
1808.185154
 70
0
  0
SEQEND
  0
POLYLINE
  8
0
  6
CONTINUOUS
 62
1
 66
1
 70
2
  0
VERTEX
  8
0
 10
1237.690193
 20
1806.625154
 70
0
 42
-0.186677
  0
VERTEX
  8
0
 10
1235.702184
 20
1806.162011
 70
0
  0
SEQEND
  0
POLYLINE
  8
0
  6
CONTINUOUS
 62
1
 66
1
 70
2
  0
VERTEX
  8
0
 10
1221.486311
 20
1806.162011
 70
0
 42
-0.186677
  0
VERTEX
  8
0
 10
1219.498302
 20
1806.625154
 70
0
  0
SEQEND
  0
POLYLINE
  8
0
  6
CONTINUOUS
 62
1
 66
1
 70
2
  0
VERTEX
  8
0
 10
1240.738302
 20
1806.738868
 70
0
 42
0.408197
  0
VERTEX
  8
0
 10
1241.236787
 20
1806.334999
 70
0
 42
0.066109
  0
VERTEX
  8
0
 10
1242.726311
 20
1806.162011
 70
0
  0
SEQEND
  0
POLYLINE
  8
0
  6
CONTINUOUS
 62
1
 66
1
 70
2
  0
VERTEX
  8
0
 10
1258.262184
 20
1806.162011
 70
0
 42
0.066109
  0
VERTEX
  8
0
 10
1259.751708
 20
1806.334999
 70
0
 42
0.408197
  0
VERTEX
  8
0
 10
1260.250193
 20
1806.738868
 70
0
  0
SEQEND
  0
POLYLINE
  8
0
  6
CONTINUOUS
 62
1
 66
1
 70
2
  0
VERTEX
  8
0
 10
1259.590193
 20
1808.298868
 70
0
 42
0.186677
  0
VERTEX
  8
0
 10
1257.602184
 20
1808.762011
 70
0
  0
SEQEND
  0
POLYLINE
  8
0
  6
CONTINUOUS
 62
1
 66
1
 70
2
  0
VERTEX
  8
0
 10
1243.386311
 20
1808.762011
 70
0
 42
0.186677
  0
VERTEX
  8
0
 10
1241.398302
 20
1808.298868
 70
0
  0
SEQEND
  0
POLYLINE
  8
0
  6
CONTINUOUS
 62
1
 66
1
 70
2
  0
VERTEX
  8
0
 10
1264.626311
 20
1808.762011
 70
0
 42
0.066109
  0
VERTEX
  8
0
 10
1263.136787
 20
1808.589023
 70
0
 42
0.408197
  0
VERTEX
  8
0
 10
1262.638302
 20
1808.185154
 70
0
  0
SEQEND
  0
POLYLINE
  8
0
  6
CONTINUOUS
 62
1
 66
1
 70
2
  0
VERTEX
  8
0
 10
1263.298302
 20
1806.625154
 70
0
 42
0.186677
  0
VERTEX
  8
0
 10
1265.286311
 20
1806.162011
 70
0
  0
SEQEND
  0
POLYLINE
  8
0
  6
CONTINUOUS
 62
1
 66
1
 70
2
  0
VERTEX
  8
0
 10
1279.502184
 20
1806.162011
 70
0
 42
0.186677
  0
VERTEX
  8
0
 10
1281.490193
 20
1806.625154
 70
0
  0
SEQEND
  0
POLYLINE
  8
0
  6
CONTINUOUS
 62
1
 66
1
 70
2
  0
VERTEX
  8
0
 10
1282.150193
 20
1808.185154
 70
0
 42
0.408197
  0
VERTEX
  8
0
 10
1281.651708
 20
1808.589023
 70
0
 42
0.066109
  0
VERTEX
  8
0
 10
1280.162184
 20
1808.762011
 70
0
  0
SEQEND
  0
POLYLINE
  8
0
  6
CONTINUOUS
 62
1
 66
1
 70
2
  0
VERTEX
  8
0
 10
1287.186311
 20
1808.762011
 70
0
 42
0.186677
  0
VERTEX
  8
0
 10
1285.198302
 20
1808.298868
 70
0
  0
SEQEND
  0
POLYLINE
  8
0
  6
CONTINUOUS
 62
1
 66
1
 70
2
  0
VERTEX
  8
0
 10
1284.538302
 20
1806.738868
 70
0
 42
0.408197
  0
VERTEX
  8
0
 10
1285.036787
 20
1806.334999
 70
0
 42
0.066109
  0
VERTEX
  8
0
 10
1286.526311
 20
1806.162011
 70
0
  0
SEQEND
  0
POLYLINE
  8
0
  6
CONTINUOUS
 62
1
 66
1
 70
2
  0
VERTEX
  8
0
 10
1302.062184
 20
1806.162011
 70
0
 42
0.066109
  0
VERTEX
  8
0
 10
1303.551708
 20
1806.334999
 70
0
 42
0.408197
  0
VERTEX
  8
0
 10
1304.050193
 20
1806.738868
 70
0
  0
SEQEND
  0
POLYLINE
  8
0
  6
CONTINUOUS
 62
1
 66
1
 70
2
  0
VERTEX
  8
0
 10
1301.402184
 20
1808.762011
 70
0
 42
-0.186677
  0
VERTEX
  8
0
 10
1303.390193
 20
1808.298868
 70
0
  0
SEQEND
  0
POLYLINE
  8
0
  6
CONTINUOUS
 62
1
 66
1
 70
2
  0
VERTEX
  8
0
 10
1308.426311
 20
1808.762011
 70
0
 42
0.066109
  0
VERTEX
  8
0
 10
1306.936787
 20
1808.589023
 70
0
 42
0.408197
  0
VERTEX
  8
0
 10
1306.438302
 20
1808.185154
 70
0
  0
SEQEND
  0
POLYLINE
  8
0
  6
CONTINUOUS
 62
1
 66
1
 70
2
  0
VERTEX
  8
0
 10
1307.098302
 20
1806.625154
 70
0
 42
0.186677
  0
VERTEX
  8
0
 10
1309.086311
 20
1806.162011
 70
0
  0
SEQEND
  0
POLYLINE
  8
0
  6
CONTINUOUS
 62
1
 66
1
 70
2
  0
VERTEX
  8
0
 10
1323.302184
 20
1806.162011
 70
0
 42
0.186677
  0
VERTEX
  8
0
 10
1325.290193
 20
1806.625154
 70
0
  0
SEQEND
  0
POLYLINE
  8
0
  6
CONTINUOUS
 62
1
 66
1
 70
2
  0
VERTEX
  8
0
 10
1325.950193
 20
1808.185154
 70
0
 42
0.408197
  0
VERTEX
  8
0
 10
1325.451708
 20
1808.589023
 70
0
 42
0.066109
  0
VERTEX
  8
0
 10
1323.962184
 20
1808.762011
 70
0
  0
SEQEND
  0
LINE
  8
0
  6
CONTINUOUS
 62
1
 10
1312.352184
 20
1805.382011
 11
1298.136311
 21
1805.382011
  0
LINE
  8
0
  6
CONTINUOUS
 62
1
 10
1101.036311
 20
1802.782011
 11
1115.252184
 21
1802.782011
  0
LINE
  8
0
  6
CONTINUOUS
 62
1
 10
1144.836311
 20
1802.782011
 11
1159.052184
 21
1802.782011
  0
LINE
  8
0
  6
CONTINUOUS
 62
1
 10
1166.076311
 20
1802.782011
 11
1181.612184
 21
1802.782011
  0
LINE
  8
0
  6
CONTINUOUS
 62
1
 10
1188.636311
 20
1802.782011
 11
1202.852184
 21
1802.782011
  0
LINE
  8
0
  6
CONTINUOUS
 62
1
 10
1209.876311
 20
1802.782011
 11
1225.412184
 21
1802.782011
  0
LINE
  8
0
  6
CONTINUOUS
 62
1
 10
1232.436311
 20
1802.782011
 11
1246.652184
 21
1802.782011
  0
LINE
  8
0
  6
CONTINUOUS
 62
1
 10
1253.676311
 20
1802.782011
 11
1269.212184
 21
1802.782011
  0
LINE
  8
0
  6
CONTINUOUS
 62
1
 10
1276.236311
 20
1802.782011
 11
1290.452184
 21
1802.782011
  0
LINE
  8
0
  6
CONTINUOUS
 62
1
 10
1297.476311
 20
1802.782011
 11
1313.012184
 21
1802.782011
  0
LINE
  8
0
  6
CONTINUOUS
 62
1
 10
1120.948302
 20
1804.918868
 11
1120.288302
 21
1803.358868
  0
LINE
  8
0
  6
CONTINUOUS
 62
1
 10
1164.748302
 20
1804.918868
 11
1164.088302
 21
1803.358868
  0
LINE
  8
0
  6
CONTINUOUS
 62
1
 10
1208.548302
 20
1804.918868
 11
1207.888302
 21
1803.358868
  0
LINE
  8
0
  6
CONTINUOUS
 62
1
 10
1252.348302
 20
1804.918868
 11
1251.688302
 21
1803.358868
  0
LINE
  8
0
  6
CONTINUOUS
 62
1
 10
1296.148302
 20
1804.918868
 11
1295.488302
 21
1803.358868
  0
LINE
  8
0
  6
CONTINUOUS
 62
1
 10
1139.140193
 20
1804.918868
 11
1139.800193
 21
1803.358868
  0
LINE
  8
0
  6
CONTINUOUS
 62
1
 10
1182.940193
 20
1804.918868
 11
1183.600193
 21
1803.358868
  0
LINE
  8
0
  6
CONTINUOUS
 62
1
 10
1226.740193
 20
1804.918868
 11
1227.400193
 21
1803.358868
  0
LINE
  8
0
  6
CONTINUOUS
 62
1
 10
1270.540193
 20
1804.918868
 11
1271.200193
 21
1803.358868
  0
LINE
  8
0
  6
CONTINUOUS
 62
1
 10
1314.340193
 20
1804.918868
 11
1315.000193
 21
1803.358868
  0
LINE
  8
0
  6
CONTINUOUS
 62
1
 10
1099.048302
 20
1803.245154
 11
1098.388302
 21
1804.805154
  0
LINE
  8
0
  6
CONTINUOUS
 62
1
 10
1142.848302
 20
1803.245154
 11
1142.188302
 21
1804.805154
  0
LINE
  8
0
  6
CONTINUOUS
 62
1
 10
1161.040193
 20
1803.245154
 11
1161.700193
 21
1804.805154
  0
LINE
  8
0
  6
CONTINUOUS
 62
1
 10
1186.648302
 20
1803.245154
 11
1185.988302
 21
1804.805154
  0
LINE
  8
0
  6
CONTINUOUS
 62
1
 10
1204.840193
 20
1803.245154
 11
1205.500193
 21
1804.805154
  0
LINE
  8
0
  6
CONTINUOUS
 62
1
 10
1230.448302
 20
1803.245154
 11
1229.788302
 21
1804.805154
  0
LINE
  8
0
  6
CONTINUOUS
 62
1
 10
1248.640193
 20
1803.245154
 11
1249.300193
 21
1804.805154
  0
LINE
  8
0
  6
CONTINUOUS
 62
1
 10
1274.248302
 20
1803.245154
 11
1273.588302
 21
1804.805154
  0
LINE
  8
0
  6
CONTINUOUS
 62
1
 10
1292.440193
 20
1803.245154
 11
1293.100193
 21
1804.805154
  0
LINE
  8
0
  6
CONTINUOUS
 62
1
 10
1115.912184
 20
1805.382011
 11
1100.376311
 21
1805.382011
  0
LINE
  8
0
  6
CONTINUOUS
 62
1
 10
1137.152184
 20
1805.382011
 11
1122.936311
 21
1805.382011
  0
LINE
  8
0
  6
CONTINUOUS
 62
1
 10
1159.712184
 20
1805.382011
 11
1144.176311
 21
1805.382011
  0
LINE
  8
0
  6
CONTINUOUS
 62
1
 10
1180.952184
 20
1805.382011
 11
1166.736311
 21
1805.382011
  0
LINE
  8
0
  6
CONTINUOUS
 62
1
 10
1203.512184
 20
1805.382011
 11
1187.976311
 21
1805.382011
  0
LINE
  8
0
  6
CONTINUOUS
 62
1
 10
1224.752184
 20
1805.382011
 11
1210.536311
 21
1805.382011
  0
LINE
  8
0
  6
CONTINUOUS
 62
1
 10
1247.312184
 20
1805.382011
 11
1231.776311
 21
1805.382011
  0
LINE
  8
0
  6
CONTINUOUS
 62
1
 10
1268.552184
 20
1805.382011
 11
1254.336311
 21
1805.382011
  0
LINE
  8
0
  6
CONTINUOUS
 62
1
 10
1291.112184
 20
1805.382011
 11
1275.576311
 21
1805.382011
  0
POLYLINE
  8
0
  6
CONTINUOUS
 62
1
 66
1
 70
2
  0
VERTEX
  8
0
 10
1099.048302
 20
1803.245154
 70
0
 42
0.186677
  0
VERTEX
  8
0
 10
1101.036311
 20
1802.782011
 70
0
  0
SEQEND
  0
POLYLINE
  8
0
  6
CONTINUOUS
 62
1
 66
1
 70
2
  0
VERTEX
  8
0
 10
1115.252184
 20
1802.782011
 70
0
 42
0.186677
  0
VERTEX
  8
0
 10
1117.240193
 20
1803.245154
 70
0
  0
SEQEND
  0
POLYLINE
  8
0
  6
CONTINUOUS
 62
1
 66
1
 70
2
  0
VERTEX
  8
0
 10
1117.900193
 20
1804.805154
 70
0
 42
0.408197
  0
VERTEX
  8
0
 10
1117.401708
 20
1805.209023
 70
0
 42
0.066109
  0
VERTEX
  8
0
 10
1115.912184
 20
1805.382011
 70
0
  0
SEQEND
  0
POLYLINE
  8
0
  6
CONTINUOUS
 62
1
 66
1
 70
2
  0
VERTEX
  8
0
 10
1100.376311
 20
1805.382011
 70
0
 42
0.066109
  0
VERTEX
  8
0
 10
1098.886787
 20
1805.209023
 70
0
 42
0.408197
  0
VERTEX
  8
0
 10
1098.388302
 20
1804.805154
 70
0
  0
SEQEND
  0
POLYLINE
  8
0
  6
CONTINUOUS
 62
1
 66
1
 70
2
  0
VERTEX
  8
0
 10
1122.276311
 20
1802.782011
 70
0
 42
-0.066109
  0
VERTEX
  8
0
 10
1120.786787
 20
1802.954999
 70
0
 42
-0.408197
  0
VERTEX
  8
0
 10
1120.288302
 20
1803.358868
 70
0
  0
SEQEND
  0
POLYLINE
  8
0
  6
CONTINUOUS
 62
1
 66
1
 70
2
  0
VERTEX
  8
0
 10
1120.948302
 20
1804.918868
 70
0
 42
-0.186677
  0
VERTEX
  8
0
 10
1122.936311
 20
1805.382011
 70
0
  0
SEQEND
  0
POLYLINE
  8
0
  6
CONTINUOUS
 62
1
 66
1
 70
2
  0
VERTEX
  8
0
 10
1137.152184
 20
1805.382011
 70
0
 42
-0.186677
  0
VERTEX
  8
0
 10
1139.140193
 20
1804.918868
 70
0
  0
SEQEND
  0
POLYLINE
  8
0
  6
CONTINUOUS
 62
1
 66
1
 70
2
  0
VERTEX
  8
0
 10
1139.800193
 20
1803.358868
 70
0
 42
-0.408197
  0
VERTEX
  8
0
 10
1139.301708
 20
1802.954999
 70
0
 42
-0.066109
  0
VERTEX
  8
0
 10
1137.812184
 20
1802.782011
 70
0
  0
SEQEND
  0
POLYLINE
  8
0
  6
CONTINUOUS
 62
1
 66
1
 70
2
  0
VERTEX
  8
0
 10
1142.848302
 20
1803.245154
 70
0
 42
0.186677
  0
VERTEX
  8
0
 10
1144.836311
 20
1802.782011
 70
0
  0
SEQEND
  0
POLYLINE
  8
0
  6
CONTINUOUS
 62
1
 66
1
 70
2
  0
VERTEX
  8
0
 10
1159.052184
 20
1802.782011
 70
0
 42
0.186677
  0
VERTEX
  8
0
 10
1161.040193
 20
1803.245154
 70
0
  0
SEQEND
  0
POLYLINE
  8
0
  6
CONTINUOUS
 62
1
 66
1
 70
2
  0
VERTEX
  8
0
 10
1161.700193
 20
1804.805154
 70
0
 42
0.408197
  0
VERTEX
  8
0
 10
1161.201708
 20
1805.209023
 70
0
 42
0.066109
  0
VERTEX
  8
0
 10
1159.712184
 20
1805.382011
 70
0
  0
SEQEND
  0
POLYLINE
  8
0
  6
CONTINUOUS
 62
1
 66
1
 70
2
  0
VERTEX
  8
0
 10
1144.176311
 20
1805.382011
 70
0
 42
0.066109
  0
VERTEX
  8
0
 10
1142.686787
 20
1805.209023
 70
0
 42
0.408197
  0
VERTEX
  8
0
 10
1142.188302
 20
1804.805154
 70
0
  0
SEQEND
  0
POLYLINE
  8
0
  6
CONTINUOUS
 62
1
 66
1
 70
2
  0
VERTEX
  8
0
 10
1164.748302
 20
1804.918868
 70
0
 42
-0.186677
  0
VERTEX
  8
0
 10
1166.736311
 20
1805.382011
 70
0
  0
SEQEND
  0
POLYLINE
  8
0
  6
CONTINUOUS
 62
1
 66
1
 70
2
  0
VERTEX
  8
0
 10
1180.952184
 20
1805.382011
 70
0
 42
-0.186677
  0
VERTEX
  8
0
 10
1182.940193
 20
1804.918868
 70
0
  0
SEQEND
  0
POLYLINE
  8
0
  6
CONTINUOUS
 62
1
 66
1
 70
2
  0
VERTEX
  8
0
 10
1183.600193
 20
1803.358868
 70
0
 42
-0.408197
  0
VERTEX
  8
0
 10
1183.101708
 20
1802.954999
 70
0
 42
-0.066109
  0
VERTEX
  8
0
 10
1181.612184
 20
1802.782011
 70
0
  0
SEQEND
  0
POLYLINE
  8
0
  6
CONTINUOUS
 62
1
 66
1
 70
2
  0
VERTEX
  8
0
 10
1166.076311
 20
1802.782011
 70
0
 42
-0.066109
  0
VERTEX
  8
0
 10
1164.586787
 20
1802.954999
 70
0
 42
-0.408197
  0
VERTEX
  8
0
 10
1164.088302
 20
1803.358868
 70
0
  0
SEQEND
  0
POLYLINE
  8
0
  6
CONTINUOUS
 62
1
 66
1
 70
2
  0
VERTEX
  8
0
 10
1188.636311
 20
1802.782011
 70
0
 42
-0.186677
  0
VERTEX
  8
0
 10
1186.648302
 20
1803.245154
 70
0
  0
SEQEND
  0
POLYLINE
  8
0
  6
CONTINUOUS
 62
1
 66
1
 70
2
  0
VERTEX
  8
0
 10
1185.988302
 20
1804.805154
 70
0
 42
-0.408197
  0
VERTEX
  8
0
 10
1186.486787
 20
1805.209023
 70
0
 42
-0.066109
  0
VERTEX
  8
0
 10
1187.976311
 20
1805.382011
 70
0
  0
SEQEND
  0
POLYLINE
  8
0
  6
CONTINUOUS
 62
1
 66
1
 70
2
  0
VERTEX
  8
0
 10
1203.512184
 20
1805.382011
 70
0
 42
-0.066109
  0
VERTEX
  8
0
 10
1205.001708
 20
1805.209023
 70
0
 42
-0.408197
  0
VERTEX
  8
0
 10
1205.500193
 20
1804.805154
 70
0
  0
SEQEND
  0
POLYLINE
  8
0
  6
CONTINUOUS
 62
1
 66
1
 70
2
  0
VERTEX
  8
0
 10
1204.840193
 20
1803.245154
 70
0
 42
-0.186677
  0
VERTEX
  8
0
 10
1202.852184
 20
1802.782011
 70
0
  0
SEQEND
  0
POLYLINE
  8
0
  6
CONTINUOUS
 62
1
 66
1
 70
2
  0
VERTEX
  8
0
 10
1207.888302
 20
1803.358868
 70
0
 42
0.408197
  0
VERTEX
  8
0
 10
1208.386787
 20
1802.954999
 70
0
 42
0.066109
  0
VERTEX
  8
0
 10
1209.876311
 20
1802.782011
 70
0
  0
SEQEND
  0
POLYLINE
  8
0
  6
CONTINUOUS
 62
1
 66
1
 70
2
  0
VERTEX
  8
0
 10
1225.412184
 20
1802.782011
 70
0
 42
0.066109
  0
VERTEX
  8
0
 10
1226.901708
 20
1802.954999
 70
0
 42
0.408197
  0
VERTEX
  8
0
 10
1227.400193
 20
1803.358868
 70
0
  0
SEQEND
  0
POLYLINE
  8
0
  6
CONTINUOUS
 62
1
 66
1
 70
2
  0
VERTEX
  8
0
 10
1226.740193
 20
1804.918868
 70
0
 42
0.186677
  0
VERTEX
  8
0
 10
1224.752184
 20
1805.382011
 70
0
  0
SEQEND
  0
POLYLINE
  8
0
  6
CONTINUOUS
 62
1
 66
1
 70
2
  0
VERTEX
  8
0
 10
1210.536311
 20
1805.382011
 70
0
 42
0.186677
  0
VERTEX
  8
0
 10
1208.548302
 20
1804.918868
 70
0
  0
SEQEND
  0
POLYLINE
  8
0
  6
CONTINUOUS
 62
1
 66
1
 70
2
  0
VERTEX
  8
0
 10
1229.788302
 20
1804.805154
 70
0
 42
-0.408197
  0
VERTEX
  8
0
 10
1230.286787
 20
1805.209023
 70
0
 42
-0.066109
  0
VERTEX
  8
0
 10
1231.776311
 20
1805.382011
 70
0
  0
SEQEND
  0
POLYLINE
  8
0
  6
CONTINUOUS
 62
1
 66
1
 70
2
  0
VERTEX
  8
0
 10
1247.312184
 20
1805.382011
 70
0
 42
-0.066109
  0
VERTEX
  8
0
 10
1248.801708
 20
1805.209023
 70
0
 42
-0.408197
  0
VERTEX
  8
0
 10
1249.300193
 20
1804.805154
 70
0
  0
SEQEND
  0
POLYLINE
  8
0
  6
CONTINUOUS
 62
1
 66
1
 70
2
  0
VERTEX
  8
0
 10
1248.640193
 20
1803.245154
 70
0
 42
-0.186677
  0
VERTEX
  8
0
 10
1246.652184
 20
1802.782011
 70
0
  0
SEQEND
  0
POLYLINE
  8
0
  6
CONTINUOUS
 62
1
 66
1
 70
2
  0
VERTEX
  8
0
 10
1232.436311
 20
1802.782011
 70
0
 42
-0.186677
  0
VERTEX
  8
0
 10
1230.448302
 20
1803.245154
 70
0
  0
SEQEND
  0
POLYLINE
  8
0
  6
CONTINUOUS
 62
1
 66
1
 70
2
  0
VERTEX
  8
0
 10
1253.676311
 20
1802.782011
 70
0
 42
-0.066109
  0
VERTEX
  8
0
 10
1252.186787
 20
1802.954999
 70
0
 42
-0.408197
  0
VERTEX
  8
0
 10
1251.688302
 20
1803.358868
 70
0
  0
SEQEND
  0
POLYLINE
  8
0
  6
CONTINUOUS
 62
1
 66
1
 70
2
  0
VERTEX
  8
0
 10
1252.348302
 20
1804.918868
 70
0
 42
-0.186677
  0
VERTEX
  8
0
 10
1254.336311
 20
1805.382011
 70
0
  0
SEQEND
  0
POLYLINE
  8
0
  6
CONTINUOUS
 62
1
 66
1
 70
2
  0
VERTEX
  8
0
 10
1268.552184
 20
1805.382011
 70
0
 42
-0.186677
  0
VERTEX
  8
0
 10
1270.540193
 20
1804.918868
 70
0
  0
SEQEND
  0
POLYLINE
  8
0
  6
CONTINUOUS
 62
1
 66
1
 70
2
  0
VERTEX
  8
0
 10
1271.200193
 20
1803.358868
 70
0
 42
-0.408197
  0
VERTEX
  8
0
 10
1270.701708
 20
1802.954999
 70
0
 42
-0.066109
  0
VERTEX
  8
0
 10
1269.212184
 20
1802.782011
 70
0
  0
SEQEND
  0
POLYLINE
  8
0
  6
CONTINUOUS
 62
1
 66
1
 70
2
  0
VERTEX
  8
0
 10
1276.236311
 20
1802.782011
 70
0
 42
-0.186677
  0
VERTEX
  8
0
 10
1274.248302
 20
1803.245154
 70
0
  0
SEQEND
  0
POLYLINE
  8
0
  6
CONTINUOUS
 62
1
 66
1
 70
2
  0
VERTEX
  8
0
 10
1273.588302
 20
1804.805154
 70
0
 42
-0.408197
  0
VERTEX
  8
0
 10
1274.086787
 20
1805.209023
 70
0
 42
-0.066109
  0
VERTEX
  8
0
 10
1275.576311
 20
1805.382011
 70
0
  0
SEQEND
  0
POLYLINE
  8
0
  6
CONTINUOUS
 62
1
 66
1
 70
2
  0
VERTEX
  8
0
 10
1291.112184
 20
1805.382011
 70
0
 42
-0.066109
  0
VERTEX
  8
0
 10
1292.601708
 20
1805.209023
 70
0
 42
-0.408197
  0
VERTEX
  8
0
 10
1293.100193
 20
1804.805154
 70
0
  0
SEQEND
  0
POLYLINE
  8
0
  6
CONTINUOUS
 62
1
 66
1
 70
2
  0
VERTEX
  8
0
 10
1290.452184
 20
1802.782011
 70
0
 42
0.186677
  0
VERTEX
  8
0
 10
1292.440193
 20
1803.245154
 70
0
  0
SEQEND
  0
POLYLINE
  8
0
  6
CONTINUOUS
 62
1
 66
1
 70
2
  0
VERTEX
  8
0
 10
1297.476311
 20
1802.782011
 70
0
 42
-0.066109
  0
VERTEX
  8
0
 10
1295.986787
 20
1802.954999
 70
0
 42
-0.408197
  0
VERTEX
  8
0
 10
1295.488302
 20
1803.358868
 70
0
  0
SEQEND
  0
POLYLINE
  8
0
  6
CONTINUOUS
 62
1
 66
1
 70
2
  0
VERTEX
  8
0
 10
1296.148302
 20
1804.918868
 70
0
 42
-0.186677
  0
VERTEX
  8
0
 10
1298.136311
 20
1805.382011
 70
0
  0
SEQEND
  0
POLYLINE
  8
0
  6
CONTINUOUS
 62
1
 66
1
 70
2
  0
VERTEX
  8
0
 10
1312.352184
 20
1805.382011
 70
0
 42
-0.186677
  0
VERTEX
  8
0
 10
1314.340193
 20
1804.918868
 70
0
  0
SEQEND
  0
POLYLINE
  8
0
  6
CONTINUOUS
 62
1
 66
1
 70
2
  0
VERTEX
  8
0
 10
1315.000193
 20
1803.358868
 70
0
 42
-0.408197
  0
VERTEX
  8
0
 10
1314.501708
 20
1802.954999
 70
0
 42
-0.066109
  0
VERTEX
  8
0
 10
1313.012184
 20
1802.782011
 70
0
  0
SEQEND
  0
LINE
  8
0
  6
CONTINUOUS
 62
1
 10
1066.198302
 20
1808.298868
 11
1065.538302
 21
1806.738868
  0
LINE
  8
0
  6
CONTINUOUS
 62
1
 10
1068.186311
 20
1808.762011
 11
1082.402184
 21
1808.762011
  0
LINE
  8
0
  6
CONTINUOUS
 62
1
 10
1117.240193
 20
1803.245154
 11
1117.900193
 21
1804.805154
  0
LINE
  8
0
  6
CONTINUOUS
 62
1
 10
1122.276311
 20
1802.782011
 11
1137.812184
 21
1802.782011
  0
LINE
  8
0
  6
CONTINUOUS
 62
1
 10
1429.502783
 20
1805.382011
 11
1443.718655
 21
1805.382011
  0
LINE
  8
0
  6
CONTINUOUS
 62
1
 10
1465.618655
 20
1802.782011
 11
1451.402783
 21
1802.782011
  0
LINE
  8
0
  6
CONTINUOUS
 62
1
 10
1444.378655
 20
1802.782011
 11
1428.842783
 21
1802.782011
  0
LINE
  8
0
  6
CONTINUOUS
 62
1
 10
1445.706664
 20
1804.918868
 11
1446.366664
 21
1803.358868
  0
LINE
  8
0
  6
CONTINUOUS
 62
1
 10
1427.514774
 20
1804.918868
 11
1426.854774
 21
1803.358868
  0
LINE
  8
0
  6
CONTINUOUS
 62
1
 10
1467.606664
 20
1803.245154
 11
1468.266664
 21
1804.805154
  0
LINE
  8
0
  6
CONTINUOUS
 62
1
 10
1449.414774
 20
1803.245154
 11
1448.754774
 21
1804.805154
  0
LINE
  8
0
  6
CONTINUOUS
 62
1
 10
1450.742783
 20
1805.382011
 11
1466.278655
 21
1805.382011
  0
POLYLINE
  8
0
  6
CONTINUOUS
 62
1
 66
1
 70
2
  0
VERTEX
  8
0
 10
1465.618655
 20
1802.782011
 70
0
 42
0.186677
  0
VERTEX
  8
0
 10
1467.606664
 20
1803.245154
 70
0
  0
SEQEND
  0
POLYLINE
  8
0
  6
CONTINUOUS
 62
1
 66
1
 70
2
  0
VERTEX
  8
0
 10
1468.266664
 20
1804.805154
 70
0
 42
0.408197
  0
VERTEX
  8
0
 10
1467.768179
 20
1805.209023
 70
0
 42
0.066109
  0
VERTEX
  8
0
 10
1466.278655
 20
1805.382011
 70
0
  0
SEQEND
  0
POLYLINE
  8
0
  6
CONTINUOUS
 62
1
 66
1
 70
2
  0
VERTEX
  8
0
 10
1450.742783
 20
1805.382011
 70
0
 42
0.066109
  0
VERTEX
  8
0
 10
1449.253259
 20
1805.209023
 70
0
 42
0.408197
  0
VERTEX
  8
0
 10
1448.754774
 20
1804.805154
 70
0
  0
SEQEND
  0
POLYLINE
  8
0
  6
CONTINUOUS
 62
1
 66
1
 70
2
  0
VERTEX
  8
0
 10
1451.402783
 20
1802.782011
 70
0
 42
-0.186677
  0
VERTEX
  8
0
 10
1449.414774
 20
1803.245154
 70
0
  0
SEQEND
  0
POLYLINE
  8
0
  6
CONTINUOUS
 62
1
 66
1
 70
2
  0
VERTEX
  8
0
 10
1444.378655
 20
1802.782011
 70
0
 42
0.066109
  0
VERTEX
  8
0
 10
1445.868179
 20
1802.954999
 70
0
 42
0.408197
  0
VERTEX
  8
0
 10
1446.366664
 20
1803.358868
 70
0
  0
SEQEND
  0
POLYLINE
  8
0
  6
CONTINUOUS
 62
1
 66
1
 70
2
  0
VERTEX
  8
0
 10
1445.706664
 20
1804.918868
 70
0
 42
0.186677
  0
VERTEX
  8
0
 10
1443.718655
 20
1805.382011
 70
0
  0
SEQEND
  0
POLYLINE
  8
0
  6
CONTINUOUS
 62
1
 66
1
 70
2
  0
VERTEX
  8
0
 10
1429.502783
 20
1805.382011
 70
0
 42
0.186677
  0
VERTEX
  8
0
 10
1427.514774
 20
1804.918868
 70
0
  0
SEQEND
  0
POLYLINE
  8
0
  6
CONTINUOUS
 62
1
 66
1
 70
2
  0
VERTEX
  8
0
 10
1426.854774
 20
1803.358868
 70
0
 42
0.408197
  0
VERTEX
  8
0
 10
1427.353259
 20
1802.954999
 70
0
 42
0.066109
  0
VERTEX
  8
0
 10
1428.842783
 20
1802.782011
 70
0
  0
SEQEND
  0
LINE
  8
0
  6
CONTINUOUS
 62
1
 10
1421.818655
 20
1802.782011
 11
1407.602783
 21
1802.782011
  0
LINE
  8
0
  6
CONTINUOUS
 62
1
 10
1423.806664
 20
1803.245154
 11
1424.466664
 21
1804.805154
  0
LINE
  8
0
  6
CONTINUOUS
 62
1
 10
1405.614774
 20
1803.245154
 11
1404.954774
 21
1804.805154
  0
LINE
  8
0
  6
CONTINUOUS
 62
1
 10
1406.942783
 20
1805.382011
 11
1422.478655
 21
1805.382011
  0
POLYLINE
  8
0
  6
CONTINUOUS
 62
1
 66
1
 70
2
  0
VERTEX
  8
0
 10
1421.818655
 20
1802.782011
 70
0
 42
0.186677
  0
VERTEX
  8
0
 10
1423.806664
 20
1803.245154
 70
0
  0
SEQEND
  0
POLYLINE
  8
0
  6
CONTINUOUS
 62
1
 66
1
 70
2
  0
VERTEX
  8
0
 10
1424.466664
 20
1804.805154
 70
0
 42
0.408197
  0
VERTEX
  8
0
 10
1423.968179
 20
1805.209023
 70
0
 42
0.066109
  0
VERTEX
  8
0
 10
1422.478655
 20
1805.382011
 70
0
  0
SEQEND
  0
POLYLINE
  8
0
  6
CONTINUOUS
 62
1
 66
1
 70
2
  0
VERTEX
  8
0
 10
1406.942783
 20
1805.382011
 70
0
 42
0.066109
  0
VERTEX
  8
0
 10
1405.453259
 20
1805.209023
 70
0
 42
0.408197
  0
VERTEX
  8
0
 10
1404.954774
 20
1804.805154
 70
0
  0
SEQEND
  0
POLYLINE
  8
0
  6
CONTINUOUS
 62
1
 66
1
 70
2
  0
VERTEX
  8
0
 10
1407.602783
 20
1802.782011
 70
0
 42
-0.186677
  0
VERTEX
  8
0
 10
1405.614774
 20
1803.245154
 70
0
  0
SEQEND
  0
LINE
  8
0
  6
CONTINUOUS
 62
1
 10
1473.302783
 20
1805.382011
 11
1487.518655
 21
1805.382011
  0
LINE
  8
0
  6
CONTINUOUS
 62
1
 10
1684.618655
 20
1802.782011
 11
1670.402783
 21
1802.782011
  0
LINE
  8
0
  6
CONTINUOUS
 62
1
 10
1640.818655
 20
1802.782011
 11
1626.602783
 21
1802.782011
  0
LINE
  8
0
  6
CONTINUOUS
 62
1
 10
1619.578655
 20
1802.782011
 11
1604.042783
 21
1802.782011
  0
LINE
  8
0
  6
CONTINUOUS
 62
1
 10
1597.018655
 20
1802.782011
 11
1582.802783
 21
1802.782011
  0
LINE
  8
0
  6
CONTINUOUS
 62
1
 10
1575.778655
 20
1802.782011
 11
1560.242783
 21
1802.782011
  0
LINE
  8
0
  6
CONTINUOUS
 62
1
 10
1553.218655
 20
1802.782011
 11
1539.002783
 21
1802.782011
  0
LINE
  8
0
  6
CONTINUOUS
 62
1
 10
1531.978655
 20
1802.782011
 11
1516.442783
 21
1802.782011
  0
LINE
  8
0
  6
CONTINUOUS
 62
1
 10
1509.418655
 20
1802.782011
 11
1495.202783
 21
1802.782011
  0
LINE
  8
0
  6
CONTINUOUS
 62
1
 10
1488.178655
 20
1802.782011
 11
1472.642783
 21
1802.782011
  0
LINE
  8
0
  6
CONTINUOUS
 62
1
 10
1664.706664
 20
1804.918868
 11
1665.366664
 21
1803.358868
  0
LINE
  8
0
  6
CONTINUOUS
 62
1
 10
1620.906664
 20
1804.918868
 11
1621.566664
 21
1803.358868
  0
LINE
  8
0
  6
CONTINUOUS
 62
1
 10
1577.106664
 20
1804.918868
 11
1577.766664
 21
1803.358868
  0
LINE
  8
0
  6
CONTINUOUS
 62
1
 10
1533.306664
 20
1804.918868
 11
1533.966664
 21
1803.358868
  0
LINE
  8
0
  6
CONTINUOUS
 62
1
 10
1489.506664
 20
1804.918868
 11
1490.166664
 21
1803.358868
  0
LINE
  8
0
  6
CONTINUOUS
 62
1
 10
1646.514774
 20
1804.918868
 11
1645.854774
 21
1803.358868
  0
LINE
  8
0
  6
CONTINUOUS
 62
1
 10
1602.714774
 20
1804.918868
 11
1602.054774
 21
1803.358868
  0
LINE
  8
0
  6
CONTINUOUS
 62
1
 10
1558.914774
 20
1804.918868
 11
1558.254774
 21
1803.358868
  0
LINE
  8
0
  6
CONTINUOUS
 62
1
 10
1515.114774
 20
1804.918868
 11
1514.454774
 21
1803.358868
  0
LINE
  8
0
  6
CONTINUOUS
 62
1
 10
1471.314774
 20
1804.918868
 11
1470.654774
 21
1803.358868
  0
LINE
  8
0
  6
CONTINUOUS
 62
1
 10
1686.606664
 20
1803.245154
 11
1687.266664
 21
1804.805154
  0
LINE
  8
0
  6
CONTINUOUS
 62
1
 10
1642.806664
 20
1803.245154
 11
1643.466664
 21
1804.805154
  0
LINE
  8
0
  6
CONTINUOUS
 62
1
 10
1624.614774
 20
1803.245154
 11
1623.954774
 21
1804.805154
  0
LINE
  8
0
  6
CONTINUOUS
 62
1
 10
1599.006664
 20
1803.245154
 11
1599.666664
 21
1804.805154
  0
LINE
  8
0
  6
CONTINUOUS
 62
1
 10
1580.814774
 20
1803.245154
 11
1580.154774
 21
1804.805154
  0
LINE
  8
0
  6
CONTINUOUS
 62
1
 10
1555.206664
 20
1803.245154
 11
1555.866664
 21
1804.805154
  0
LINE
  8
0
  6
CONTINUOUS
 62
1
 10
1537.014774
 20
1803.245154
 11
1536.354774
 21
1804.805154
  0
LINE
  8
0
  6
CONTINUOUS
 62
1
 10
1511.406664
 20
1803.245154
 11
1512.066664
 21
1804.805154
  0
LINE
  8
0
  6
CONTINUOUS
 62
1
 10
1493.214774
 20
1803.245154
 11
1492.554774
 21
1804.805154
  0
LINE
  8
0
  6
CONTINUOUS
 62
1
 10
1669.742783
 20
1805.382011
 11
1685.278655
 21
1805.382011
  0
LINE
  8
0
  6
CONTINUOUS
 62
1
 10
1648.502783
 20
1805.382011
 11
1662.718655
 21
1805.382011
  0
LINE
  8
0
  6
CONTINUOUS
 62
1
 10
1625.942783
 20
1805.382011
 11
1641.478655
 21
1805.382011
  0
LINE
  8
0
  6
CONTINUOUS
 62
1
 10
1604.702783
 20
1805.382011
 11
1618.918655
 21
1805.382011
  0
LINE
  8
0
  6
CONTINUOUS
 62
1
 10
1582.142783
 20
1805.382011
 11
1597.678655
 21
1805.382011
  0
LINE
  8
0
  6
CONTINUOUS
 62
1
 10
1560.902783
 20
1805.382011
 11
1575.118655
 21
1805.382011
  0
LINE
  8
0
  6
CONTINUOUS
 62
1
 10
1538.342783
 20
1805.382011
 11
1553.878655
 21
1805.382011
  0
LINE
  8
0
  6
CONTINUOUS
 62
1
 10
1517.102783
 20
1805.382011
 11
1531.318655
 21
1805.382011
  0
LINE
  8
0
  6
CONTINUOUS
 62
1
 10
1494.542783
 20
1805.382011
 11
1510.078655
 21
1805.382011
  0
POLYLINE
  8
0
  6
CONTINUOUS
 62
1
 66
1
 70
2
  0
VERTEX
  8
0
 10
1686.606664
 20
1803.245154
 70
0
 42
-0.186677
  0
VERTEX
  8
0
 10
1684.618655
 20
1802.782011
 70
0
  0
SEQEND
  0
POLYLINE
  8
0
  6
CONTINUOUS
 62
1
 66
1
 70
2
  0
VERTEX
  8
0
 10
1670.402783
 20
1802.782011
 70
0
 42
-0.186677
  0
VERTEX
  8
0
 10
1668.414774
 20
1803.245154
 70
0
  0
SEQEND
  0
POLYLINE
  8
0
  6
CONTINUOUS
 62
1
 66
1
 70
2
  0
VERTEX
  8
0
 10
1667.754774
 20
1804.805154
 70
0
 42
-0.408197
  0
VERTEX
  8
0
 10
1668.253259
 20
1805.209023
 70
0
 42
-0.066109
  0
VERTEX
  8
0
 10
1669.742783
 20
1805.382011
 70
0
  0
SEQEND
  0
POLYLINE
  8
0
  6
CONTINUOUS
 62
1
 66
1
 70
2
  0
VERTEX
  8
0
 10
1685.278655
 20
1805.382011
 70
0
 42
-0.066109
  0
VERTEX
  8
0
 10
1686.768179
 20
1805.209023
 70
0
 42
-0.408197
  0
VERTEX
  8
0
 10
1687.266664
 20
1804.805154
 70
0
  0
SEQEND
  0
POLYLINE
  8
0
  6
CONTINUOUS
 62
1
 66
1
 70
2
  0
VERTEX
  8
0
 10
1663.378655
 20
1802.782011
 70
0
 42
0.066109
  0
VERTEX
  8
0
 10
1664.868179
 20
1802.954999
 70
0
 42
0.408197
  0
VERTEX
  8
0
 10
1665.366664
 20
1803.358868
 70
0
  0
SEQEND
  0
POLYLINE
  8
0
  6
CONTINUOUS
 62
1
 66
1
 70
2
  0
VERTEX
  8
0
 10
1664.706664
 20
1804.918868
 70
0
 42
0.186677
  0
VERTEX
  8
0
 10
1662.718655
 20
1805.382011
 70
0
  0
SEQEND
  0
POLYLINE
  8
0
  6
CONTINUOUS
 62
1
 66
1
 70
2
  0
VERTEX
  8
0
 10
1648.502783
 20
1805.382011
 70
0
 42
0.186677
  0
VERTEX
  8
0
 10
1646.514774
 20
1804.918868
 70
0
  0
SEQEND
  0
POLYLINE
  8
0
  6
CONTINUOUS
 62
1
 66
1
 70
2
  0
VERTEX
  8
0
 10
1645.854774
 20
1803.358868
 70
0
 42
0.408197
  0
VERTEX
  8
0
 10
1646.353259
 20
1802.954999
 70
0
 42
0.066109
  0
VERTEX
  8
0
 10
1647.842783
 20
1802.782011
 70
0
  0
SEQEND
  0
POLYLINE
  8
0
  6
CONTINUOUS
 62
1
 66
1
 70
2
  0
VERTEX
  8
0
 10
1642.806664
 20
1803.245154
 70
0
 42
-0.186677
  0
VERTEX
  8
0
 10
1640.818655
 20
1802.782011
 70
0
  0
SEQEND
  0
POLYLINE
  8
0
  6
CONTINUOUS
 62
1
 66
1
 70
2
  0
VERTEX
  8
0
 10
1626.602783
 20
1802.782011
 70
0
 42
-0.186677
  0
VERTEX
  8
0
 10
1624.614774
 20
1803.245154
 70
0
  0
SEQEND
  0
POLYLINE
  8
0
  6
CONTINUOUS
 62
1
 66
1
 70
2
  0
VERTEX
  8
0
 10
1623.954774
 20
1804.805154
 70
0
 42
-0.408197
  0
VERTEX
  8
0
 10
1624.453259
 20
1805.209023
 70
0
 42
-0.066109
  0
VERTEX
  8
0
 10
1625.942783
 20
1805.382011
 70
0
  0
SEQEND
  0
POLYLINE
  8
0
  6
CONTINUOUS
 62
1
 66
1
 70
2
  0
VERTEX
  8
0
 10
1641.478655
 20
1805.382011
 70
0
 42
-0.066109
  0
VERTEX
  8
0
 10
1642.968179
 20
1805.209023
 70
0
 42
-0.408197
  0
VERTEX
  8
0
 10
1643.466664
 20
1804.805154
 70
0
  0
SEQEND
  0
POLYLINE
  8
0
  6
CONTINUOUS
 62
1
 66
1
 70
2
  0
VERTEX
  8
0
 10
1620.906664
 20
1804.918868
 70
0
 42
0.186677
  0
VERTEX
  8
0
 10
1618.918655
 20
1805.382011
 70
0
  0
SEQEND
  0
POLYLINE
  8
0
  6
CONTINUOUS
 62
1
 66
1
 70
2
  0
VERTEX
  8
0
 10
1604.702783
 20
1805.382011
 70
0
 42
0.186677
  0
VERTEX
  8
0
 10
1602.714774
 20
1804.918868
 70
0
  0
SEQEND
  0
POLYLINE
  8
0
  6
CONTINUOUS
 62
1
 66
1
 70
2
  0
VERTEX
  8
0
 10
1602.054774
 20
1803.358868
 70
0
 42
0.408197
  0
VERTEX
  8
0
 10
1602.553259
 20
1802.954999
 70
0
 42
0.066109
  0
VERTEX
  8
0
 10
1604.042783
 20
1802.782011
 70
0
  0
SEQEND
  0
POLYLINE
  8
0
  6
CONTINUOUS
 62
1
 66
1
 70
2
  0
VERTEX
  8
0
 10
1619.578655
 20
1802.782011
 70
0
 42
0.066109
  0
VERTEX
  8
0
 10
1621.068179
 20
1802.954999
 70
0
 42
0.408197
  0
VERTEX
  8
0
 10
1621.566664
 20
1803.358868
 70
0
  0
SEQEND
  0
POLYLINE
  8
0
  6
CONTINUOUS
 62
1
 66
1
 70
2
  0
VERTEX
  8
0
 10
1597.018655
 20
1802.782011
 70
0
 42
0.186677
  0
VERTEX
  8
0
 10
1599.006664
 20
1803.245154
 70
0
  0
SEQEND
  0
POLYLINE
  8
0
  6
CONTINUOUS
 62
1
 66
1
 70
2
  0
VERTEX
  8
0
 10
1599.666664
 20
1804.805154
 70
0
 42
0.408197
  0
VERTEX
  8
0
 10
1599.168179
 20
1805.209023
 70
0
 42
0.066109
  0
VERTEX
  8
0
 10
1597.678655
 20
1805.382011
 70
0
  0
SEQEND
  0
POLYLINE
  8
0
  6
CONTINUOUS
 62
1
 66
1
 70
2
  0
VERTEX
  8
0
 10
1582.142783
 20
1805.382011
 70
0
 42
0.066109
  0
VERTEX
  8
0
 10
1580.653259
 20
1805.209023
 70
0
 42
0.408197
  0
VERTEX
  8
0
 10
1580.154774
 20
1804.805154
 70
0
  0
SEQEND
  0
POLYLINE
  8
0
  6
CONTINUOUS
 62
1
 66
1
 70
2
  0
VERTEX
  8
0
 10
1580.814774
 20
1803.245154
 70
0
 42
0.186677
  0
VERTEX
  8
0
 10
1582.802783
 20
1802.782011
 70
0
  0
SEQEND
  0
POLYLINE
  8
0
  6
CONTINUOUS
 62
1
 66
1
 70
2
  0
VERTEX
  8
0
 10
1577.766664
 20
1803.358868
 70
0
 42
-0.408197
  0
VERTEX
  8
0
 10
1577.268179
 20
1802.954999
 70
0
 42
-0.066109
  0
VERTEX
  8
0
 10
1575.778655
 20
1802.782011
 70
0
  0
SEQEND
  0
POLYLINE
  8
0
  6
CONTINUOUS
 62
1
 66
1
 70
2
  0
VERTEX
  8
0
 10
1560.242783
 20
1802.782011
 70
0
 42
-0.066109
  0
VERTEX
  8
0
 10
1558.753259
 20
1802.954999
 70
0
 42
-0.408197
  0
VERTEX
  8
0
 10
1558.254774
 20
1803.358868
 70
0
  0
SEQEND
  0
POLYLINE
  8
0
  6
CONTINUOUS
 62
1
 66
1
 70
2
  0
VERTEX
  8
0
 10
1558.914774
 20
1804.918868
 70
0
 42
-0.186677
  0
VERTEX
  8
0
 10
1560.902783
 20
1805.382011
 70
0
  0
SEQEND
  0
POLYLINE
  8
0
  6
CONTINUOUS
 62
1
 66
1
 70
2
  0
VERTEX
  8
0
 10
1575.118655
 20
1805.382011
 70
0
 42
-0.186677
  0
VERTEX
  8
0
 10
1577.106664
 20
1804.918868
 70
0
  0
SEQEND
  0
POLYLINE
  8
0
  6
CONTINUOUS
 62
1
 66
1
 70
2
  0
VERTEX
  8
0
 10
1555.866664
 20
1804.805154
 70
0
 42
0.408197
  0
VERTEX
  8
0
 10
1555.368179
 20
1805.209023
 70
0
 42
0.066109
  0
VERTEX
  8
0
 10
1553.878655
 20
1805.382011
 70
0
  0
SEQEND
  0
POLYLINE
  8
0
  6
CONTINUOUS
 62
1
 66
1
 70
2
  0
VERTEX
  8
0
 10
1538.342783
 20
1805.382011
 70
0
 42
0.066109
  0
VERTEX
  8
0
 10
1536.853259
 20
1805.209023
 70
0
 42
0.408197
  0
VERTEX
  8
0
 10
1536.354774
 20
1804.805154
 70
0
  0
SEQEND
  0
POLYLINE
  8
0
  6
CONTINUOUS
 62
1
 66
1
 70
2
  0
VERTEX
  8
0
 10
1537.014774
 20
1803.245154
 70
0
 42
0.186677
  0
VERTEX
  8
0
 10
1539.002783
 20
1802.782011
 70
0
  0
SEQEND
  0
POLYLINE
  8
0
  6
CONTINUOUS
 62
1
 66
1
 70
2
  0
VERTEX
  8
0
 10
1553.218655
 20
1802.782011
 70
0
 42
0.186677
  0
VERTEX
  8
0
 10
1555.206664
 20
1803.245154
 70
0
  0
SEQEND
  0
POLYLINE
  8
0
  6
CONTINUOUS
 62
1
 66
1
 70
2
  0
VERTEX
  8
0
 10
1531.978655
 20
1802.782011
 70
0
 42
0.066109
  0
VERTEX
  8
0
 10
1533.468179
 20
1802.954999
 70
0
 42
0.408197
  0
VERTEX
  8
0
 10
1533.966664
 20
1803.358868
 70
0
  0
SEQEND
  0
POLYLINE
  8
0
  6
CONTINUOUS
 62
1
 66
1
 70
2
  0
VERTEX
  8
0
 10
1533.306664
 20
1804.918868
 70
0
 42
0.186677
  0
VERTEX
  8
0
 10
1531.318655
 20
1805.382011
 70
0
  0
SEQEND
  0
POLYLINE
  8
0
  6
CONTINUOUS
 62
1
 66
1
 70
2
  0
VERTEX
  8
0
 10
1517.102783
 20
1805.382011
 70
0
 42
0.186677
  0
VERTEX
  8
0
 10
1515.114774
 20
1804.918868
 70
0
  0
SEQEND
  0
POLYLINE
  8
0
  6
CONTINUOUS
 62
1
 66
1
 70
2
  0
VERTEX
  8
0
 10
1514.454774
 20
1803.358868
 70
0
 42
0.408197
  0
VERTEX
  8
0
 10
1514.953259
 20
1802.954999
 70
0
 42
0.066109
  0
VERTEX
  8
0
 10
1516.442783
 20
1802.782011
 70
0
  0
SEQEND
  0
POLYLINE
  8
0
  6
CONTINUOUS
 62
1
 66
1
 70
2
  0
VERTEX
  8
0
 10
1509.418655
 20
1802.782011
 70
0
 42
0.186677
  0
VERTEX
  8
0
 10
1511.406664
 20
1803.245154
 70
0
  0
SEQEND
  0
POLYLINE
  8
0
  6
CONTINUOUS
 62
1
 66
1
 70
2
  0
VERTEX
  8
0
 10
1512.066664
 20
1804.805154
 70
0
 42
0.408197
  0
VERTEX
  8
0
 10
1511.568179
 20
1805.209023
 70
0
 42
0.066109
  0
VERTEX
  8
0
 10
1510.078655
 20
1805.382011
 70
0
  0
SEQEND
  0
POLYLINE
  8
0
  6
CONTINUOUS
 62
1
 66
1
 70
2
  0
VERTEX
  8
0
 10
1494.542783
 20
1805.382011
 70
0
 42
0.066109
  0
VERTEX
  8
0
 10
1493.053259
 20
1805.209023
 70
0
 42
0.408197
  0
VERTEX
  8
0
 10
1492.554774
 20
1804.805154
 70
0
  0
SEQEND
  0
POLYLINE
  8
0
  6
CONTINUOUS
 62
1
 66
1
 70
2
  0
VERTEX
  8
0
 10
1495.202783
 20
1802.782011
 70
0
 42
-0.186677
  0
VERTEX
  8
0
 10
1493.214774
 20
1803.245154
 70
0
  0
SEQEND
  0
POLYLINE
  8
0
  6
CONTINUOUS
 62
1
 66
1
 70
2
  0
VERTEX
  8
0
 10
1488.178655
 20
1802.782011
 70
0
 42
0.066109
  0
VERTEX
  8
0
 10
1489.668179
 20
1802.954999
 70
0
 42
0.408197
  0
VERTEX
  8
0
 10
1490.166664
 20
1803.358868
 70
0
  0
SEQEND
  0
POLYLINE
  8
0
  6
CONTINUOUS
 62
1
 66
1
 70
2
  0
VERTEX
  8
0
 10
1489.506664
 20
1804.918868
 70
0
 42
0.186677
  0
VERTEX
  8
0
 10
1487.518655
 20
1805.382011
 70
0
  0
SEQEND
  0
POLYLINE
  8
0
  6
CONTINUOUS
 62
1
 66
1
 70
2
  0
VERTEX
  8
0
 10
1473.302783
 20
1805.382011
 70
0
 42
0.186677
  0
VERTEX
  8
0
 10
1471.314774
 20
1804.918868
 70
0
  0
SEQEND
  0
POLYLINE
  8
0
  6
CONTINUOUS
 62
1
 66
1
 70
2
  0
VERTEX
  8
0
 10
1470.654774
 20
1803.358868
 70
0
 42
0.408197
  0
VERTEX
  8
0
 10
1471.153259
 20
1802.954999
 70
0
 42
0.066109
  0
VERTEX
  8
0
 10
1472.642783
 20
1802.782011
 70
0
  0
SEQEND
  0
LINE
  8
0
  6
CONTINUOUS
 62
1
 10
1668.414774
 20
1803.245154
 11
1667.754774
 21
1804.805154
  0
LINE
  8
0
  6
CONTINUOUS
 62
1
 10
1663.378655
 20
1802.782011
 11
1647.842783
 21
1802.782011
  0
LINE
  8
0
  6
CONTINUOUS
 62
1
 10
1454.702184
 20
1806.162011
 11
1440.486311
 21
1806.162011
  0
LINE
  8
0
  6
CONTINUOUS
 62
1
 10
1418.586311
 20
1808.762011
 11
1432.802184
 21
1808.762011
  0
LINE
  8
0
  6
CONTINUOUS
 62
1
 10
1439.826311
 20
1808.762011
 11
1455.362184
 21
1808.762011
  0
LINE
  8
0
  6
CONTINUOUS
 62
1
 10
1438.498302
 20
1806.625154
 11
1437.838302
 21
1808.185154
  0
LINE
  8
0
  6
CONTINUOUS
 62
1
 10
1456.690193
 20
1806.625154
 11
1457.350193
 21
1808.185154
  0
LINE
  8
0
  6
CONTINUOUS
 62
1
 10
1416.598302
 20
1808.298868
 11
1415.938302
 21
1806.738868
  0
LINE
  8
0
  6
CONTINUOUS
 62
1
 10
1434.790193
 20
1808.298868
 11
1435.450193
 21
1806.738868
  0
LINE
  8
0
  6
CONTINUOUS
 62
1
 10
1433.462184
 20
1806.162011
 11
1417.926311
 21
1806.162011
  0
POLYLINE
  8
0
  6
CONTINUOUS
 62
1
 66
1
 70
2
  0
VERTEX
  8
0
 10
1418.586311
 20
1808.762011
 70
0
 42
0.186677
  0
VERTEX
  8
0
 10
1416.598302
 20
1808.298868
 70
0
  0
SEQEND
  0
POLYLINE
  8
0
  6
CONTINUOUS
 62
1
 66
1
 70
2
  0
VERTEX
  8
0
 10
1415.938302
 20
1806.738868
 70
0
 42
0.408197
  0
VERTEX
  8
0
 10
1416.436787
 20
1806.334999
 70
0
 42
0.066109
  0
VERTEX
  8
0
 10
1417.926311
 20
1806.162011
 70
0
  0
SEQEND
  0
POLYLINE
  8
0
  6
CONTINUOUS
 62
1
 66
1
 70
2
  0
VERTEX
  8
0
 10
1433.462184
 20
1806.162011
 70
0
 42
0.066109
  0
VERTEX
  8
0
 10
1434.951708
 20
1806.334999
 70
0
 42
0.408197
  0
VERTEX
  8
0
 10
1435.450193
 20
1806.738868
 70
0
  0
SEQEND
  0
POLYLINE
  8
0
  6
CONTINUOUS
 62
1
 66
1
 70
2
  0
VERTEX
  8
0
 10
1432.802184
 20
1808.762011
 70
0
 42
-0.186677
  0
VERTEX
  8
0
 10
1434.790193
 20
1808.298868
 70
0
  0
SEQEND
  0
POLYLINE
  8
0
  6
CONTINUOUS
 62
1
 66
1
 70
2
  0
VERTEX
  8
0
 10
1439.826311
 20
1808.762011
 70
0
 42
0.066109
  0
VERTEX
  8
0
 10
1438.336787
 20
1808.589023
 70
0
 42
0.408197
  0
VERTEX
  8
0
 10
1437.838302
 20
1808.185154
 70
0
  0
SEQEND
  0
POLYLINE
  8
0
  6
CONTINUOUS
 62
1
 66
1
 70
2
  0
VERTEX
  8
0
 10
1438.498302
 20
1806.625154
 70
0
 42
0.186677
  0
VERTEX
  8
0
 10
1440.486311
 20
1806.162011
 70
0
  0
SEQEND
  0
POLYLINE
  8
0
  6
CONTINUOUS
 62
1
 66
1
 70
2
  0
VERTEX
  8
0
 10
1454.702184
 20
1806.162011
 70
0
 42
0.186677
  0
VERTEX
  8
0
 10
1456.690193
 20
1806.625154
 70
0
  0
SEQEND
  0
POLYLINE
  8
0
  6
CONTINUOUS
 62
1
 66
1
 70
2
  0
VERTEX
  8
0
 10
1457.350193
 20
1808.185154
 70
0
 42
0.408197
  0
VERTEX
  8
0
 10
1456.851708
 20
1808.589023
 70
0
 42
0.066109
  0
VERTEX
  8
0
 10
1455.362184
 20
1808.762011
 70
0
  0
SEQEND
  0
LINE
  8
0
  6
CONTINUOUS
 62
1
 10
1498.502184
 20
1806.162011
 11
1484.286311
 21
1806.162011
  0
LINE
  8
0
  6
CONTINUOUS
 62
1
 10
1462.386311
 20
1808.762011
 11
1476.602184
 21
1808.762011
  0
LINE
  8
0
  6
CONTINUOUS
 62
1
 10
1483.626311
 20
1808.762011
 11
1499.162184
 21
1808.762011
  0
LINE
  8
0
  6
CONTINUOUS
 62
1
 10
1482.298302
 20
1806.625154
 11
1481.638302
 21
1808.185154
  0
LINE
  8
0
  6
CONTINUOUS
 62
1
 10
1500.490193
 20
1806.625154
 11
1501.150193
 21
1808.185154
  0
LINE
  8
0
  6
CONTINUOUS
 62
1
 10
1460.398302
 20
1808.298868
 11
1459.738302
 21
1806.738868
  0
LINE
  8
0
  6
CONTINUOUS
 62
1
 10
1478.590193
 20
1808.298868
 11
1479.250193
 21
1806.738868
  0
LINE
  8
0
  6
CONTINUOUS
 62
1
 10
1477.262184
 20
1806.162011
 11
1461.726311
 21
1806.162011
  0
POLYLINE
  8
0
  6
CONTINUOUS
 62
1
 66
1
 70
2
  0
VERTEX
  8
0
 10
1462.386311
 20
1808.762011
 70
0
 42
0.186677
  0
VERTEX
  8
0
 10
1460.398302
 20
1808.298868
 70
0
  0
SEQEND
  0
POLYLINE
  8
0
  6
CONTINUOUS
 62
1
 66
1
 70
2
  0
VERTEX
  8
0
 10
1459.738302
 20
1806.738868
 70
0
 42
0.408197
  0
VERTEX
  8
0
 10
1460.236787
 20
1806.334999
 70
0
 42
0.066109
  0
VERTEX
  8
0
 10
1461.726311
 20
1806.162011
 70
0
  0
SEQEND
  0
POLYLINE
  8
0
  6
CONTINUOUS
 62
1
 66
1
 70
2
  0
VERTEX
  8
0
 10
1477.262184
 20
1806.162011
 70
0
 42
0.066109
  0
VERTEX
  8
0
 10
1478.751708
 20
1806.334999
 70
0
 42
0.408197
  0
VERTEX
  8
0
 10
1479.250193
 20
1806.738868
 70
0
  0
SEQEND
  0
POLYLINE
  8
0
  6
CONTINUOUS
 62
1
 66
1
 70
2
  0
VERTEX
  8
0
 10
1476.602184
 20
1808.762011
 70
0
 42
-0.186677
  0
VERTEX
  8
0
 10
1478.590193
 20
1808.298868
 70
0
  0
SEQEND
  0
POLYLINE
  8
0
  6
CONTINUOUS
 62
1
 66
1
 70
2
  0
VERTEX
  8
0
 10
1483.626311
 20
1808.762011
 70
0
 42
0.066109
  0
VERTEX
  8
0
 10
1482.136787
 20
1808.589023
 70
0
 42
0.408197
  0
VERTEX
  8
0
 10
1481.638302
 20
1808.185154
 70
0
  0
SEQEND
  0
POLYLINE
  8
0
  6
CONTINUOUS
 62
1
 66
1
 70
2
  0
VERTEX
  8
0
 10
1482.298302
 20
1806.625154
 70
0
 42
0.186677
  0
VERTEX
  8
0
 10
1484.286311
 20
1806.162011
 70
0
  0
SEQEND
  0
POLYLINE
  8
0
  6
CONTINUOUS
 62
1
 66
1
 70
2
  0
VERTEX
  8
0
 10
1498.502184
 20
1806.162011
 70
0
 42
0.186677
  0
VERTEX
  8
0
 10
1500.490193
 20
1806.625154
 70
0
  0
SEQEND
  0
POLYLINE
  8
0
  6
CONTINUOUS
 62
1
 66
1
 70
2
  0
VERTEX
  8
0
 10
1501.150193
 20
1808.185154
 70
0
 42
0.408197
  0
VERTEX
  8
0
 10
1500.651708
 20
1808.589023
 70
0
 42
0.066109
  0
VERTEX
  8
0
 10
1499.162184
 20
1808.762011
 70
0
  0
SEQEND
  0
LINE
  8
0
  6
CONTINUOUS
 62
1
 10
1542.302184
 20
1806.162011
 11
1528.086311
 21
1806.162011
  0
LINE
  8
0
  6
CONTINUOUS
 62
1
 10
1506.186311
 20
1808.762011
 11
1520.402184
 21
1808.762011
  0
LINE
  8
0
  6
CONTINUOUS
 62
1
 10
1527.426311
 20
1808.762011
 11
1542.962184
 21
1808.762011
  0
LINE
  8
0
  6
CONTINUOUS
 62
1
 10
1526.098302
 20
1806.625154
 11
1525.438302
 21
1808.185154
  0
LINE
  8
0
  6
CONTINUOUS
 62
1
 10
1544.290193
 20
1806.625154
 11
1544.950193
 21
1808.185154
  0
LINE
  8
0
  6
CONTINUOUS
 62
1
 10
1504.198302
 20
1808.298868
 11
1503.538302
 21
1806.738868
  0
LINE
  8
0
  6
CONTINUOUS
 62
1
 10
1522.390193
 20
1808.298868
 11
1523.050193
 21
1806.738868
  0
LINE
  8
0
  6
CONTINUOUS
 62
1
 10
1521.062184
 20
1806.162011
 11
1505.526311
 21
1806.162011
  0
POLYLINE
  8
0
  6
CONTINUOUS
 62
1
 66
1
 70
2
  0
VERTEX
  8
0
 10
1506.186311
 20
1808.762011
 70
0
 42
0.186677
  0
VERTEX
  8
0
 10
1504.198302
 20
1808.298868
 70
0
  0
SEQEND
  0
POLYLINE
  8
0
  6
CONTINUOUS
 62
1
 66
1
 70
2
  0
VERTEX
  8
0
 10
1503.538302
 20
1806.738868
 70
0
 42
0.408197
  0
VERTEX
  8
0
 10
1504.036787
 20
1806.334999
 70
0
 42
0.066109
  0
VERTEX
  8
0
 10
1505.526311
 20
1806.162011
 70
0
  0
SEQEND
  0
POLYLINE
  8
0
  6
CONTINUOUS
 62
1
 66
1
 70
2
  0
VERTEX
  8
0
 10
1521.062184
 20
1806.162011
 70
0
 42
0.066109
  0
VERTEX
  8
0
 10
1522.551708
 20
1806.334999
 70
0
 42
0.408197
  0
VERTEX
  8
0
 10
1523.050193
 20
1806.738868
 70
0
  0
SEQEND
  0
POLYLINE
  8
0
  6
CONTINUOUS
 62
1
 66
1
 70
2
  0
VERTEX
  8
0
 10
1520.402184
 20
1808.762011
 70
0
 42
-0.186677
  0
VERTEX
  8
0
 10
1522.390193
 20
1808.298868
 70
0
  0
SEQEND
  0
POLYLINE
  8
0
  6
CONTINUOUS
 62
1
 66
1
 70
2
  0
VERTEX
  8
0
 10
1527.426311
 20
1808.762011
 70
0
 42
0.066109
  0
VERTEX
  8
0
 10
1525.936787
 20
1808.589023
 70
0
 42
0.408197
  0
VERTEX
  8
0
 10
1525.438302
 20
1808.185154
 70
0
  0
SEQEND
  0
POLYLINE
  8
0
  6
CONTINUOUS
 62
1
 66
1
 70
2
  0
VERTEX
  8
0
 10
1526.098302
 20
1806.625154
 70
0
 42
0.186677
  0
VERTEX
  8
0
 10
1528.086311
 20
1806.162011
 70
0
  0
SEQEND
  0
POLYLINE
  8
0
  6
CONTINUOUS
 62
1
 66
1
 70
2
  0
VERTEX
  8
0
 10
1542.302184
 20
1806.162011
 70
0
 42
0.186677
  0
VERTEX
  8
0
 10
1544.290193
 20
1806.625154
 70
0
  0
SEQEND
  0
POLYLINE
  8
0
  6
CONTINUOUS
 62
1
 66
1
 70
2
  0
VERTEX
  8
0
 10
1544.950193
 20
1808.185154
 70
0
 42
0.408197
  0
VERTEX
  8
0
 10
1544.451708
 20
1808.589023
 70
0
 42
0.066109
  0
VERTEX
  8
0
 10
1542.962184
 20
1808.762011
 70
0
  0
SEQEND
  0
LINE
  8
0
  6
CONTINUOUS
 62
1
 10
1586.102184
 20
1806.162011
 11
1571.886311
 21
1806.162011
  0
LINE
  8
0
  6
CONTINUOUS
 62
1
 10
1549.986311
 20
1808.762011
 11
1564.202184
 21
1808.762011
  0
LINE
  8
0
  6
CONTINUOUS
 62
1
 10
1571.226311
 20
1808.762011
 11
1586.762184
 21
1808.762011
  0
LINE
  8
0
  6
CONTINUOUS
 62
1
 10
1569.898302
 20
1806.625154
 11
1569.238302
 21
1808.185154
  0
LINE
  8
0
  6
CONTINUOUS
 62
1
 10
1588.090193
 20
1806.625154
 11
1588.750193
 21
1808.185154
  0
LINE
  8
0
  6
CONTINUOUS
 62
1
 10
1547.998302
 20
1808.298868
 11
1547.338302
 21
1806.738868
  0
LINE
  8
0
  6
CONTINUOUS
 62
1
 10
1566.190193
 20
1808.298868
 11
1566.850193
 21
1806.738868
  0
LINE
  8
0
  6
CONTINUOUS
 62
1
 10
1564.862184
 20
1806.162011
 11
1549.326311
 21
1806.162011
  0
POLYLINE
  8
0
  6
CONTINUOUS
 62
1
 66
1
 70
2
  0
VERTEX
  8
0
 10
1549.986311
 20
1808.762011
 70
0
 42
0.186677
  0
VERTEX
  8
0
 10
1547.998302
 20
1808.298868
 70
0
  0
SEQEND
  0
POLYLINE
  8
0
  6
CONTINUOUS
 62
1
 66
1
 70
2
  0
VERTEX
  8
0
 10
1547.338302
 20
1806.738868
 70
0
 42
0.408197
  0
VERTEX
  8
0
 10
1547.836787
 20
1806.334999
 70
0
 42
0.066109
  0
VERTEX
  8
0
 10
1549.326311
 20
1806.162011
 70
0
  0
SEQEND
  0
POLYLINE
  8
0
  6
CONTINUOUS
 62
1
 66
1
 70
2
  0
VERTEX
  8
0
 10
1564.862184
 20
1806.162011
 70
0
 42
0.066109
  0
VERTEX
  8
0
 10
1566.351708
 20
1806.334999
 70
0
 42
0.408197
  0
VERTEX
  8
0
 10
1566.850193
 20
1806.738868
 70
0
  0
SEQEND
  0
POLYLINE
  8
0
  6
CONTINUOUS
 62
1
 66
1
 70
2
  0
VERTEX
  8
0
 10
1564.202184
 20
1808.762011
 70
0
 42
-0.186677
  0
VERTEX
  8
0
 10
1566.190193
 20
1808.298868
 70
0
  0
SEQEND
  0
POLYLINE
  8
0
  6
CONTINUOUS
 62
1
 66
1
 70
2
  0
VERTEX
  8
0
 10
1571.226311
 20
1808.762011
 70
0
 42
0.066109
  0
VERTEX
  8
0
 10
1569.736787
 20
1808.589023
 70
0
 42
0.408197
  0
VERTEX
  8
0
 10
1569.238302
 20
1808.185154
 70
0
  0
SEQEND
  0
POLYLINE
  8
0
  6
CONTINUOUS
 62
1
 66
1
 70
2
  0
VERTEX
  8
0
 10
1569.898302
 20
1806.625154
 70
0
 42
0.186677
  0
VERTEX
  8
0
 10
1571.886311
 20
1806.162011
 70
0
  0
SEQEND
  0
POLYLINE
  8
0
  6
CONTINUOUS
 62
1
 66
1
 70
2
  0
VERTEX
  8
0
 10
1586.102184
 20
1806.162011
 70
0
 42
0.186677
  0
VERTEX
  8
0
 10
1588.090193
 20
1806.625154
 70
0
  0
SEQEND
  0
POLYLINE
  8
0
  6
CONTINUOUS
 62
1
 66
1
 70
2
  0
VERTEX
  8
0
 10
1588.750193
 20
1808.185154
 70
0
 42
0.408197
  0
VERTEX
  8
0
 10
1588.251708
 20
1808.589023
 70
0
 42
0.066109
  0
VERTEX
  8
0
 10
1586.762184
 20
1808.762011
 70
0
  0
SEQEND
  0
LINE
  8
0
  6
CONTINUOUS
 62
1
 10
1629.902184
 20
1806.162011
 11
1615.686311
 21
1806.162011
  0
LINE
  8
0
  6
CONTINUOUS
 62
1
 10
1593.786311
 20
1808.762011
 11
1608.002184
 21
1808.762011
  0
LINE
  8
0
  6
CONTINUOUS
 62
1
 10
1615.026311
 20
1808.762011
 11
1630.562184
 21
1808.762011
  0
LINE
  8
0
  6
CONTINUOUS
 62
1
 10
1613.698302
 20
1806.625154
 11
1613.038302
 21
1808.185154
  0
LINE
  8
0
  6
CONTINUOUS
 62
1
 10
1631.890193
 20
1806.625154
 11
1632.550193
 21
1808.185154
  0
LINE
  8
0
  6
CONTINUOUS
 62
1
 10
1591.798302
 20
1808.298868
 11
1591.138302
 21
1806.738868
  0
LINE
  8
0
  6
CONTINUOUS
 62
1
 10
1609.990193
 20
1808.298868
 11
1610.650193
 21
1806.738868
  0
LINE
  8
0
  6
CONTINUOUS
 62
1
 10
1608.662184
 20
1806.162011
 11
1593.126311
 21
1806.162011
  0
POLYLINE
  8
0
  6
CONTINUOUS
 62
1
 66
1
 70
2
  0
VERTEX
  8
0
 10
1593.786311
 20
1808.762011
 70
0
 42
0.186677
  0
VERTEX
  8
0
 10
1591.798302
 20
1808.298868
 70
0
  0
SEQEND
  0
POLYLINE
  8
0
  6
CONTINUOUS
 62
1
 66
1
 70
2
  0
VERTEX
  8
0
 10
1591.138302
 20
1806.738868
 70
0
 42
0.408197
  0
VERTEX
  8
0
 10
1591.636787
 20
1806.334999
 70
0
 42
0.066109
  0
VERTEX
  8
0
 10
1593.126311
 20
1806.162011
 70
0
  0
SEQEND
  0
POLYLINE
  8
0
  6
CONTINUOUS
 62
1
 66
1
 70
2
  0
VERTEX
  8
0
 10
1608.662184
 20
1806.162011
 70
0
 42
0.066109
  0
VERTEX
  8
0
 10
1610.151708
 20
1806.334999
 70
0
 42
0.408197
  0
VERTEX
  8
0
 10
1610.650193
 20
1806.738868
 70
0
  0
SEQEND
  0
POLYLINE
  8
0
  6
CONTINUOUS
 62
1
 66
1
 70
2
  0
VERTEX
  8
0
 10
1608.002184
 20
1808.762011
 70
0
 42
-0.186677
  0
VERTEX
  8
0
 10
1609.990193
 20
1808.298868
 70
0
  0
SEQEND
  0
POLYLINE
  8
0
  6
CONTINUOUS
 62
1
 66
1
 70
2
  0
VERTEX
  8
0
 10
1615.026311
 20
1808.762011
 70
0
 42
0.066109
  0
VERTEX
  8
0
 10
1613.536787
 20
1808.589023
 70
0
 42
0.408197
  0
VERTEX
  8
0
 10
1613.038302
 20
1808.185154
 70
0
  0
SEQEND
  0
POLYLINE
  8
0
  6
CONTINUOUS
 62
1
 66
1
 70
2
  0
VERTEX
  8
0
 10
1613.698302
 20
1806.625154
 70
0
 42
0.186677
  0
VERTEX
  8
0
 10
1615.686311
 20
1806.162011
 70
0
  0
SEQEND
  0
POLYLINE
  8
0
  6
CONTINUOUS
 62
1
 66
1
 70
2
  0
VERTEX
  8
0
 10
1629.902184
 20
1806.162011
 70
0
 42
0.186677
  0
VERTEX
  8
0
 10
1631.890193
 20
1806.625154
 70
0
  0
SEQEND
  0
POLYLINE
  8
0
  6
CONTINUOUS
 62
1
 66
1
 70
2
  0
VERTEX
  8
0
 10
1632.550193
 20
1808.185154
 70
0
 42
0.408197
  0
VERTEX
  8
0
 10
1632.051708
 20
1808.589023
 70
0
 42
0.066109
  0
VERTEX
  8
0
 10
1630.562184
 20
1808.762011
 70
0
  0
SEQEND
  0
LINE
  8
0
  6
CONTINUOUS
 62
1
 10
1673.702184
 20
1806.162011
 11
1659.486311
 21
1806.162011
  0
LINE
  8
0
  6
CONTINUOUS
 62
1
 10
1637.586311
 20
1808.762011
 11
1651.802184
 21
1808.762011
  0
LINE
  8
0
  6
CONTINUOUS
 62
1
 10
1658.826311
 20
1808.762011
 11
1674.362184
 21
1808.762011
  0
LINE
  8
0
  6
CONTINUOUS
 62
1
 10
1657.498302
 20
1806.625154
 11
1656.838302
 21
1808.185154
  0
LINE
  8
0
  6
CONTINUOUS
 62
1
 10
1675.690193
 20
1806.625154
 11
1676.350193
 21
1808.185154
  0
LINE
  8
0
  6
CONTINUOUS
 62
1
 10
1635.598302
 20
1808.298868
 11
1634.938302
 21
1806.738868
  0
LINE
  8
0
  6
CONTINUOUS
 62
1
 10
1653.790193
 20
1808.298868
 11
1654.450193
 21
1806.738868
  0
LINE
  8
0
  6
CONTINUOUS
 62
1
 10
1652.462184
 20
1806.162011
 11
1636.926311
 21
1806.162011
  0
POLYLINE
  8
0
  6
CONTINUOUS
 62
1
 66
1
 70
2
  0
VERTEX
  8
0
 10
1637.586311
 20
1808.762011
 70
0
 42
0.186677
  0
VERTEX
  8
0
 10
1635.598302
 20
1808.298868
 70
0
  0
SEQEND
  0
POLYLINE
  8
0
  6
CONTINUOUS
 62
1
 66
1
 70
2
  0
VERTEX
  8
0
 10
1634.938302
 20
1806.738868
 70
0
 42
0.408197
  0
VERTEX
  8
0
 10
1635.436787
 20
1806.334999
 70
0
 42
0.066109
  0
VERTEX
  8
0
 10
1636.926311
 20
1806.162011
 70
0
  0
SEQEND
  0
POLYLINE
  8
0
  6
CONTINUOUS
 62
1
 66
1
 70
2
  0
VERTEX
  8
0
 10
1652.462184
 20
1806.162011
 70
0
 42
0.066109
  0
VERTEX
  8
0
 10
1653.951708
 20
1806.334999
 70
0
 42
0.408197
  0
VERTEX
  8
0
 10
1654.450193
 20
1806.738868
 70
0
  0
SEQEND
  0
POLYLINE
  8
0
  6
CONTINUOUS
 62
1
 66
1
 70
2
  0
VERTEX
  8
0
 10
1651.802184
 20
1808.762011
 70
0
 42
-0.186677
  0
VERTEX
  8
0
 10
1653.790193
 20
1808.298868
 70
0
  0
SEQEND
  0
POLYLINE
  8
0
  6
CONTINUOUS
 62
1
 66
1
 70
2
  0
VERTEX
  8
0
 10
1658.826311
 20
1808.762011
 70
0
 42
0.066109
  0
VERTEX
  8
0
 10
1657.336787
 20
1808.589023
 70
0
 42
0.408197
  0
VERTEX
  8
0
 10
1656.838302
 20
1808.185154
 70
0
  0
SEQEND
  0
POLYLINE
  8
0
  6
CONTINUOUS
 62
1
 66
1
 70
2
  0
VERTEX
  8
0
 10
1657.498302
 20
1806.625154
 70
0
 42
0.186677
  0
VERTEX
  8
0
 10
1659.486311
 20
1806.162011
 70
0
  0
SEQEND
  0
POLYLINE
  8
0
  6
CONTINUOUS
 62
1
 66
1
 70
2
  0
VERTEX
  8
0
 10
1673.702184
 20
1806.162011
 70
0
 42
0.186677
  0
VERTEX
  8
0
 10
1675.690193
 20
1806.625154
 70
0
  0
SEQEND
  0
POLYLINE
  8
0
  6
CONTINUOUS
 62
1
 66
1
 70
2
  0
VERTEX
  8
0
 10
1676.350193
 20
1808.185154
 70
0
 42
0.408197
  0
VERTEX
  8
0
 10
1675.851708
 20
1808.589023
 70
0
 42
0.066109
  0
VERTEX
  8
0
 10
1674.362184
 20
1808.762011
 70
0
  0
SEQEND
  0
LINE
  8
0
  6
CONTINUOUS
 62
1
 10
1681.386311
 20
1808.762011
 11
1695.602184
 21
1808.762011
  0
LINE
  8
0
  6
CONTINUOUS
 62
1
 10
1679.398302
 20
1808.298868
 11
1678.738302
 21
1806.738868
  0
LINE
  8
0
  6
CONTINUOUS
 62
1
 10
1697.590193
 20
1808.298868
 11
1698.250193
 21
1806.738868
  0
LINE
  8
0
  6
CONTINUOUS
 62
1
 10
1696.262184
 20
1806.162011
 11
1680.726311
 21
1806.162011
  0
POLYLINE
  8
0
  6
CONTINUOUS
 62
1
 66
1
 70
2
  0
VERTEX
  8
0
 10
1681.386311
 20
1808.762011
 70
0
 42
0.186677
  0
VERTEX
  8
0
 10
1679.398302
 20
1808.298868
 70
0
  0
SEQEND
  0
POLYLINE
  8
0
  6
CONTINUOUS
 62
1
 66
1
 70
2
  0
VERTEX
  8
0
 10
1678.738302
 20
1806.738868
 70
0
 42
0.408197
  0
VERTEX
  8
0
 10
1679.236787
 20
1806.334999
 70
0
 42
0.066109
  0
VERTEX
  8
0
 10
1680.726311
 20
1806.162011
 70
0
  0
SEQEND
  0
POLYLINE
  8
0
  6
CONTINUOUS
 62
1
 66
1
 70
2
  0
VERTEX
  8
0
 10
1696.262184
 20
1806.162011
 70
0
 42
0.066109
  0
VERTEX
  8
0
 10
1697.751708
 20
1806.334999
 70
0
 42
0.408197
  0
VERTEX
  8
0
 10
1698.250193
 20
1806.738868
 70
0
  0
SEQEND
  0
POLYLINE
  8
0
  6
CONTINUOUS
 62
1
 66
1
 70
2
  0
VERTEX
  8
0
 10
1695.602184
 20
1808.762011
 70
0
 42
-0.186677
  0
VERTEX
  8
0
 10
1697.590193
 20
1808.298868
 70
0
  0
SEQEND
  0
LINE
  8
0
  6
CONTINUOUS
 62
1
 10
1728.418655
 20
1802.782011
 11
1714.202783
 21
1802.782011
  0
LINE
  8
0
  6
CONTINUOUS
 62
1
 10
1708.506664
 20
1804.918868
 11
1709.166664
 21
1803.358868
  0
LINE
  8
0
  6
CONTINUOUS
 62
1
 10
1690.314774
 20
1804.918868
 11
1689.654774
 21
1803.358868
  0
LINE
  8
0
  6
CONTINUOUS
 62
1
 10
1730.406664
 20
1803.245154
 11
1731.066664
 21
1804.805154
  0
LINE
  8
0
  6
CONTINUOUS
 62
1
 10
1713.542783
 20
1805.382011
 11
1729.078655
 21
1805.382011
  0
LINE
  8
0
  6
CONTINUOUS
 62
1
 10
1692.302783
 20
1805.382011
 11
1706.518655
 21
1805.382011
  0
POLYLINE
  8
0
  6
CONTINUOUS
 62
1
 66
1
 70
2
  0
VERTEX
  8
0
 10
1730.406664
 20
1803.245154
 70
0
 42
-0.186677
  0
VERTEX
  8
0
 10
1728.418655
 20
1802.782011
 70
0
  0
SEQEND
  0
POLYLINE
  8
0
  6
CONTINUOUS
 62
1
 66
1
 70
2
  0
VERTEX
  8
0
 10
1714.202783
 20
1802.782011
 70
0
 42
-0.186677
  0
VERTEX
  8
0
 10
1712.214774
 20
1803.245154
 70
0
  0
SEQEND
  0
POLYLINE
  8
0
  6
CONTINUOUS
 62
1
 66
1
 70
2
  0
VERTEX
  8
0
 10
1711.554774
 20
1804.805154
 70
0
 42
-0.408197
  0
VERTEX
  8
0
 10
1712.053259
 20
1805.209023
 70
0
 42
-0.066109
  0
VERTEX
  8
0
 10
1713.542783
 20
1805.382011
 70
0
  0
SEQEND
  0
POLYLINE
  8
0
  6
CONTINUOUS
 62
1
 66
1
 70
2
  0
VERTEX
  8
0
 10
1729.078655
 20
1805.382011
 70
0
 42
-0.066109
  0
VERTEX
  8
0
 10
1730.568179
 20
1805.209023
 70
0
 42
-0.408197
  0
VERTEX
  8
0
 10
1731.066664
 20
1804.805154
 70
0
  0
SEQEND
  0
POLYLINE
  8
0
  6
CONTINUOUS
 62
1
 66
1
 70
2
  0
VERTEX
  8
0
 10
1707.178655
 20
1802.782011
 70
0
 42
0.066109
  0
VERTEX
  8
0
 10
1708.668179
 20
1802.954999
 70
0
 42
0.408197
  0
VERTEX
  8
0
 10
1709.166664
 20
1803.358868
 70
0
  0
SEQEND
  0
POLYLINE
  8
0
  6
CONTINUOUS
 62
1
 66
1
 70
2
  0
VERTEX
  8
0
 10
1708.506664
 20
1804.918868
 70
0
 42
0.186677
  0
VERTEX
  8
0
 10
1706.518655
 20
1805.382011
 70
0
  0
SEQEND
  0
POLYLINE
  8
0
  6
CONTINUOUS
 62
1
 66
1
 70
2
  0
VERTEX
  8
0
 10
1692.302783
 20
1805.382011
 70
0
 42
0.186677
  0
VERTEX
  8
0
 10
1690.314774
 20
1804.918868
 70
0
  0
SEQEND
  0
POLYLINE
  8
0
  6
CONTINUOUS
 62
1
 66
1
 70
2
  0
VERTEX
  8
0
 10
1689.654774
 20
1803.358868
 70
0
 42
0.408197
  0
VERTEX
  8
0
 10
1690.153259
 20
1802.954999
 70
0
 42
0.066109
  0
VERTEX
  8
0
 10
1691.642783
 20
1802.782011
 70
0
  0
SEQEND
  0
LINE
  8
0
  6
CONTINUOUS
 62
1
 10
1712.214774
 20
1803.245154
 11
1711.554774
 21
1804.805154
  0
LINE
  8
0
  6
CONTINUOUS
 62
1
 10
1707.178655
 20
1802.782011
 11
1691.642783
 21
1802.782011
  0
LINE
  8
0
  6
CONTINUOUS
 62
1
 10
1717.502184
 20
1806.162011
 11
1703.286311
 21
1806.162011
  0
LINE
  8
0
  6
CONTINUOUS
 62
1
 10
1702.626311
 20
1808.762011
 11
1718.162184
 21
1808.762011
  0
LINE
  8
0
  6
CONTINUOUS
 62
1
 10
1701.298302
 20
1806.625154
 11
1700.638302
 21
1808.185154
  0
LINE
  8
0
  6
CONTINUOUS
 62
1
 10
1719.490193
 20
1806.625154
 11
1720.150193
 21
1808.185154
  0
POLYLINE
  8
0
  6
CONTINUOUS
 62
1
 66
1
 70
2
  0
VERTEX
  8
0
 10
1702.626311
 20
1808.762011
 70
0
 42
0.066109
  0
VERTEX
  8
0
 10
1701.136787
 20
1808.589023
 70
0
 42
0.408197
  0
VERTEX
  8
0
 10
1700.638302
 20
1808.185154
 70
0
  0
SEQEND
  0
POLYLINE
  8
0
  6
CONTINUOUS
 62
1
 66
1
 70
2
  0
VERTEX
  8
0
 10
1701.298302
 20
1806.625154
 70
0
 42
0.186677
  0
VERTEX
  8
0
 10
1703.286311
 20
1806.162011
 70
0
  0
SEQEND
  0
POLYLINE
  8
0
  6
CONTINUOUS
 62
1
 66
1
 70
2
  0
VERTEX
  8
0
 10
1717.502184
 20
1806.162011
 70
0
 42
0.186677
  0
VERTEX
  8
0
 10
1719.490193
 20
1806.625154
 70
0
  0
SEQEND
  0
POLYLINE
  8
0
  6
CONTINUOUS
 62
1
 66
1
 70
2
  0
VERTEX
  8
0
 10
1720.150193
 20
1808.185154
 70
0
 42
0.408197
  0
VERTEX
  8
0
 10
1719.651708
 20
1808.589023
 70
0
 42
0.066109
  0
VERTEX
  8
0
 10
1718.162184
 20
1808.762011
 70
0
  0
SEQEND
  0
LINE
  8
0
  6
CONTINUOUS
 62
1
 10
1725.186311
 20
1808.762011
 11
1739.402184
 21
1808.762011
  0
LINE
  8
0
  6
CONTINUOUS
 62
1
 10
1723.198302
 20
1808.298868
 11
1722.538302
 21
1806.738868
  0
LINE
  8
0
  6
CONTINUOUS
 62
1
 10
1741.390193
 20
1808.298868
 11
1742.050193
 21
1806.738868
  0
LINE
  8
0
  6
CONTINUOUS
 62
1
 10
1740.062184
 20
1806.162011
 11
1724.526311
 21
1806.162011
  0
POLYLINE
  8
0
  6
CONTINUOUS
 62
1
 66
1
 70
2
  0
VERTEX
  8
0
 10
1725.186311
 20
1808.762011
 70
0
 42
0.186677
  0
VERTEX
  8
0
 10
1723.198302
 20
1808.298868
 70
0
  0
SEQEND
  0
POLYLINE
  8
0
  6
CONTINUOUS
 62
1
 66
1
 70
2
  0
VERTEX
  8
0
 10
1722.538302
 20
1806.738868
 70
0
 42
0.408197
  0
VERTEX
  8
0
 10
1723.036787
 20
1806.334999
 70
0
 42
0.066109
  0
VERTEX
  8
0
 10
1724.526311
 20
1806.162011
 70
0
  0
SEQEND
  0
POLYLINE
  8
0
  6
CONTINUOUS
 62
1
 66
1
 70
2
  0
VERTEX
  8
0
 10
1740.062184
 20
1806.162011
 70
0
 42
0.066109
  0
VERTEX
  8
0
 10
1741.551708
 20
1806.334999
 70
0
 42
0.408197
  0
VERTEX
  8
0
 10
1742.050193
 20
1806.738868
 70
0
  0
SEQEND
  0
POLYLINE
  8
0
  6
CONTINUOUS
 62
1
 66
1
 70
2
  0
VERTEX
  8
0
 10
1739.402184
 20
1808.762011
 70
0
 42
-0.186677
  0
VERTEX
  8
0
 10
1741.390193
 20
1808.298868
 70
0
  0
SEQEND
  0
LINE
  8
0
  6
CONTINUOUS
 62
1
 10
1752.306664
 20
1804.918868
 11
1752.966664
 21
1803.358868
  0
LINE
  8
0
  6
CONTINUOUS
 62
1
 10
1734.114774
 20
1804.918868
 11
1733.454774
 21
1803.358868
  0
LINE
  8
0
  6
CONTINUOUS
 62
1
 10
1736.102783
 20
1805.382011
 11
1750.318655
 21
1805.382011
  0
POLYLINE
  8
0
  6
CONTINUOUS
 62
1
 66
1
 70
2
  0
VERTEX
  8
0
 10
1750.978655
 20
1802.782011
 70
0
 42
0.066109
  0
VERTEX
  8
0
 10
1752.468179
 20
1802.954999
 70
0
 42
0.408197
  0
VERTEX
  8
0
 10
1752.966664
 20
1803.358868
 70
0
  0
SEQEND
  0
POLYLINE
  8
0
  6
CONTINUOUS
 62
1
 66
1
 70
2
  0
VERTEX
  8
0
 10
1752.306664
 20
1804.918868
 70
0
 42
0.186677
  0
VERTEX
  8
0
 10
1750.318655
 20
1805.382011
 70
0
  0
SEQEND
  0
POLYLINE
  8
0
  6
CONTINUOUS
 62
1
 66
1
 70
2
  0
VERTEX
  8
0
 10
1736.102783
 20
1805.382011
 70
0
 42
0.186677
  0
VERTEX
  8
0
 10
1734.114774
 20
1804.918868
 70
0
  0
SEQEND
  0
POLYLINE
  8
0
  6
CONTINUOUS
 62
1
 66
1
 70
2
  0
VERTEX
  8
0
 10
1733.454774
 20
1803.358868
 70
0
 42
0.408197
  0
VERTEX
  8
0
 10
1733.953259
 20
1802.954999
 70
0
 42
0.066109
  0
VERTEX
  8
0
 10
1735.442783
 20
1802.782011
 70
0
  0
SEQEND
  0
LINE
  8
0
  6
CONTINUOUS
 62
1
 10
1750.978655
 20
1802.782011
 11
1735.442783
 21
1802.782011
  0
LINE
  8
0
  6
CONTINUOUS
 62
1
 10
1089.426311
 20
1808.762011
 11
1104.962184
 21
1808.762011
  0
LINE
  8
0
  6
CONTINUOUS
 62
1
 10
1111.986311
 20
1808.762011
 11
1126.202184
 21
1808.762011
  0
LINE
  8
0
  6
CONTINUOUS
 62
1
 10
1088.098302
 20
1806.625154
 11
1087.438302
 21
1808.185154
  0
LINE
  8
0
  6
CONTINUOUS
 62
1
 10
1106.290193
 20
1806.625154
 11
1106.950193
 21
1808.185154
  0
LINE
  8
0
  6
CONTINUOUS
 62
1
 10
1109.998302
 20
1808.298868
 11
1109.338302
 21
1806.738868
  0
LINE
  8
0
  6
CONTINUOUS
 62
1
 10
1128.190193
 20
1808.298868
 11
1128.850193
 21
1806.738868
  0
LINE
  8
0
  6
CONTINUOUS
 62
1
 10
1104.302184
 20
1806.162011
 11
1090.086311
 21
1806.162011
  0
LINE
  8
0
  6
CONTINUOUS
 62
1
 10
1126.862184
 20
1806.162011
 11
1111.326311
 21
1806.162011
  0
POLYLINE
  8
0
  6
CONTINUOUS
 62
1
 66
1
 70
2
  0
VERTEX
  8
0
 10
1089.426311
 20
1808.762011
 70
0
 42
0.066109
  0
VERTEX
  8
0
 10
1087.936787
 20
1808.589023
 70
0
 42
0.408197
  0
VERTEX
  8
0
 10
1087.438302
 20
1808.185154
 70
0
  0
SEQEND
  0
POLYLINE
  8
0
  6
CONTINUOUS
 62
1
 66
1
 70
2
  0
VERTEX
  8
0
 10
1088.098302
 20
1806.625154
 70
0
 42
0.186677
  0
VERTEX
  8
0
 10
1090.086311
 20
1806.162011
 70
0
  0
SEQEND
  0
POLYLINE
  8
0
  6
CONTINUOUS
 62
1
 66
1
 70
2
  0
VERTEX
  8
0
 10
1104.302184
 20
1806.162011
 70
0
 42
0.186677
  0
VERTEX
  8
0
 10
1106.290193
 20
1806.625154
 70
0
  0
SEQEND
  0
POLYLINE
  8
0
  6
CONTINUOUS
 62
1
 66
1
 70
2
  0
VERTEX
  8
0
 10
1106.950193
 20
1808.185154
 70
0
 42
0.408197
  0
VERTEX
  8
0
 10
1106.451708
 20
1808.589023
 70
0
 42
0.066109
  0
VERTEX
  8
0
 10
1104.962184
 20
1808.762011
 70
0
  0
SEQEND
  0
POLYLINE
  8
0
  6
CONTINUOUS
 62
1
 66
1
 70
2
  0
VERTEX
  8
0
 10
1109.998302
 20
1808.298868
 70
0
 42
-0.186677
  0
VERTEX
  8
0
 10
1111.986311
 20
1808.762011
 70
0
  0
SEQEND
  0
POLYLINE
  8
0
  6
CONTINUOUS
 62
1
 66
1
 70
2
  0
VERTEX
  8
0
 10
1126.202184
 20
1808.762011
 70
0
 42
-0.186677
  0
VERTEX
  8
0
 10
1128.190193
 20
1808.298868
 70
0
  0
SEQEND
  0
POLYLINE
  8
0
  6
CONTINUOUS
 62
1
 66
1
 70
2
  0
VERTEX
  8
0
 10
1128.850193
 20
1806.738868
 70
0
 42
-0.408197
  0
VERTEX
  8
0
 10
1128.351708
 20
1806.334999
 70
0
 42
-0.066109
  0
VERTEX
  8
0
 10
1126.862184
 20
1806.162011
 70
0
  0
SEQEND
  0
POLYLINE
  8
0
  6
CONTINUOUS
 62
1
 66
1
 70
2
  0
VERTEX
  8
0
 10
1111.326311
 20
1806.162011
 70
0
 42
-0.066109
  0
VERTEX
  8
0
 10
1109.836787
 20
1806.334999
 70
0
 42
-0.408197
  0
VERTEX
  8
0
 10
1109.338302
 20
1806.738868
 70
0
  0
SEQEND
  0
LINE
  8
0
  6
CONTINUOUS
 62
1
 10
1056.576311
 20
1805.382011
 11
1072.112184
 21
1805.382011
  0
LINE
  8
0
  6
CONTINUOUS
 62
1
 10
1079.136311
 20
1805.382011
 11
1093.352184
 21
1805.382011
  0
LINE
  8
0
  6
CONTINUOUS
 62
1
 10
1055.248302
 20
1803.245154
 11
1054.588302
 21
1804.805154
  0
LINE
  8
0
  6
CONTINUOUS
 62
1
 10
1073.440193
 20
1803.245154
 11
1074.100193
 21
1804.805154
  0
LINE
  8
0
  6
CONTINUOUS
 62
1
 10
1077.148302
 20
1804.918868
 11
1076.488302
 21
1803.358868
  0
LINE
  8
0
  6
CONTINUOUS
 62
1
 10
1095.340193
 20
1804.918868
 11
1096.000193
 21
1803.358868
  0
LINE
  8
0
  6
CONTINUOUS
 62
1
 10
1071.452184
 20
1802.782011
 11
1057.236311
 21
1802.782011
  0
LINE
  8
0
  6
CONTINUOUS
 62
1
 10
1094.012184
 20
1802.782011
 11
1078.476311
 21
1802.782011
  0
POLYLINE
  8
0
  6
CONTINUOUS
 62
1
 66
1
 70
2
  0
VERTEX
  8
0
 10
1056.576311
 20
1805.382011
 70
0
 42
0.066109
  0
VERTEX
  8
0
 10
1055.086787
 20
1805.209023
 70
0
 42
0.408197
  0
VERTEX
  8
0
 10
1054.588302
 20
1804.805154
 70
0
  0
SEQEND
  0
POLYLINE
  8
0
  6
CONTINUOUS
 62
1
 66
1
 70
2
  0
VERTEX
  8
0
 10
1055.248302
 20
1803.245154
 70
0
 42
0.186677
  0
VERTEX
  8
0
 10
1057.236311
 20
1802.782011
 70
0
  0
SEQEND
  0
POLYLINE
  8
0
  6
CONTINUOUS
 62
1
 66
1
 70
2
  0
VERTEX
  8
0
 10
1071.452184
 20
1802.782011
 70
0
 42
0.186677
  0
VERTEX
  8
0
 10
1073.440193
 20
1803.245154
 70
0
  0
SEQEND
  0
POLYLINE
  8
0
  6
CONTINUOUS
 62
1
 66
1
 70
2
  0
VERTEX
  8
0
 10
1074.100193
 20
1804.805154
 70
0
 42
0.408197
  0
VERTEX
  8
0
 10
1073.601708
 20
1805.209023
 70
0
 42
0.066109
  0
VERTEX
  8
0
 10
1072.112184
 20
1805.382011
 70
0
  0
SEQEND
  0
POLYLINE
  8
0
  6
CONTINUOUS
 62
1
 66
1
 70
2
  0
VERTEX
  8
0
 10
1077.148302
 20
1804.918868
 70
0
 42
-0.186677
  0
VERTEX
  8
0
 10
1079.136311
 20
1805.382011
 70
0
  0
SEQEND
  0
POLYLINE
  8
0
  6
CONTINUOUS
 62
1
 66
1
 70
2
  0
VERTEX
  8
0
 10
1093.352184
 20
1805.382011
 70
0
 42
-0.186677
  0
VERTEX
  8
0
 10
1095.340193
 20
1804.918868
 70
0
  0
SEQEND
  0
POLYLINE
  8
0
  6
CONTINUOUS
 62
1
 66
1
 70
2
  0
VERTEX
  8
0
 10
1096.000193
 20
1803.358868
 70
0
 42
-0.408197
  0
VERTEX
  8
0
 10
1095.501708
 20
1802.954999
 70
0
 42
-0.066109
  0
VERTEX
  8
0
 10
1094.012184
 20
1802.782011
 70
0
  0
SEQEND
  0
POLYLINE
  8
0
  6
CONTINUOUS
 62
1
 66
1
 70
2
  0
VERTEX
  8
0
 10
1078.476311
 20
1802.782011
 70
0
 42
-0.066109
  0
VERTEX
  8
0
 10
1076.986787
 20
1802.954999
 70
0
 42
-0.408197
  0
VERTEX
  8
0
 10
1076.488302
 20
1803.358868
 70
0
  0
SEQEND
  0
LINE
  8
0
  6
CONTINUOUS
 62
1
 10
1035.336311
 20
1805.382011
 11
1049.552184
 21
1805.382011
  0
LINE
  8
0
  6
CONTINUOUS
 62
1
 10
1033.348302
 20
1804.918868
 11
1032.688302
 21
1803.358868
  0
LINE
  8
0
  6
CONTINUOUS
 62
1
 10
1051.540193
 20
1804.918868
 11
1052.200193
 21
1803.358868
  0
LINE
  8
0
  6
CONTINUOUS
 62
1
 10
1050.212184
 20
1802.782011
 11
1034.676311
 21
1802.782011
  0
POLYLINE
  8
0
  6
CONTINUOUS
 62
1
 66
1
 70
2
  0
VERTEX
  8
0
 10
1033.348302
 20
1804.918868
 70
0
 42
-0.186677
  0
VERTEX
  8
0
 10
1035.336311
 20
1805.382011
 70
0
  0
SEQEND
  0
POLYLINE
  8
0
  6
CONTINUOUS
 62
1
 66
1
 70
2
  0
VERTEX
  8
0
 10
1049.552184
 20
1805.382011
 70
0
 42
-0.186677
  0
VERTEX
  8
0
 10
1051.540193
 20
1804.918868
 70
0
  0
SEQEND
  0
POLYLINE
  8
0
  6
CONTINUOUS
 62
1
 66
1
 70
2
  0
VERTEX
  8
0
 10
1052.200193
 20
1803.358868
 70
0
 42
-0.408197
  0
VERTEX
  8
0
 10
1051.701708
 20
1802.954999
 70
0
 42
-0.066109
  0
VERTEX
  8
0
 10
1050.212184
 20
1802.782011
 70
0
  0
SEQEND
  0
POLYLINE
  8
0
  6
CONTINUOUS
 62
1
 66
1
 70
2
  0
VERTEX
  8
0
 10
1034.676311
 20
1802.782011
 70
0
 42
-0.066109
  0
VERTEX
  8
0
 10
1033.186787
 20
1802.954999
 70
0
 42
-0.408197
  0
VERTEX
  8
0
 10
1032.688302
 20
1803.358868
 70
0
  0
SEQEND
  0
LINE
  8
0
  6
CONTINUOUS
 62
1
 10
1367.102184
 20
1799.402011
 11
1352.886311
 21
1799.402011
  0
LINE
  8
0
  6
CONTINUOUS
 62
1
 10
1330.986311
 20
1802.002011
 11
1345.202184
 21
1802.002011
  0
LINE
  8
0
  6
CONTINUOUS
 62
1
 10
1352.226311
 20
1802.002011
 11
1367.762184
 21
1802.002011
  0
LINE
  8
0
  6
CONTINUOUS
 62
1
 10
1350.898302
 20
1799.865154
 11
1350.238302
 21
1801.425154
  0
LINE
  8
0
  6
CONTINUOUS
 62
1
 10
1369.090193
 20
1799.865154
 11
1369.750193
 21
1801.425154
  0
LINE
  8
0
  6
CONTINUOUS
 62
1
 10
1328.998302
 20
1801.538868
 11
1328.338302
 21
1799.978868
  0
LINE
  8
0
  6
CONTINUOUS
 62
1
 10
1347.190193
 20
1801.538868
 11
1347.850193
 21
1799.978868
  0
LINE
  8
0
  6
CONTINUOUS
 62
1
 10
1345.862184
 20
1799.402011
 11
1330.326311
 21
1799.402011
  0
POLYLINE
  8
0
  6
CONTINUOUS
 62
1
 66
1
 70
2
  0
VERTEX
  8
0
 10
1330.986311
 20
1802.002011
 70
0
 42
0.186677
  0
VERTEX
  8
0
 10
1328.998302
 20
1801.538868
 70
0
  0
SEQEND
  0
POLYLINE
  8
0
  6
CONTINUOUS
 62
1
 66
1
 70
2
  0
VERTEX
  8
0
 10
1328.338302
 20
1799.978868
 70
0
 42
0.408197
  0
VERTEX
  8
0
 10
1328.836787
 20
1799.574999
 70
0
 42
0.066109
  0
VERTEX
  8
0
 10
1330.326311
 20
1799.402011
 70
0
  0
SEQEND
  0
POLYLINE
  8
0
  6
CONTINUOUS
 62
1
 66
1
 70
2
  0
VERTEX
  8
0
 10
1345.862184
 20
1799.402011
 70
0
 42
0.066109
  0
VERTEX
  8
0
 10
1347.351708
 20
1799.574999
 70
0
 42
0.408197
  0
VERTEX
  8
0
 10
1347.850193
 20
1799.978868
 70
0
  0
SEQEND
  0
POLYLINE
  8
0
  6
CONTINUOUS
 62
1
 66
1
 70
2
  0
VERTEX
  8
0
 10
1345.202184
 20
1802.002011
 70
0
 42
-0.186677
  0
VERTEX
  8
0
 10
1347.190193
 20
1801.538868
 70
0
  0
SEQEND
  0
POLYLINE
  8
0
  6
CONTINUOUS
 62
1
 66
1
 70
2
  0
VERTEX
  8
0
 10
1352.226311
 20
1802.002011
 70
0
 42
0.066109
  0
VERTEX
  8
0
 10
1350.736787
 20
1801.829023
 70
0
 42
0.408197
  0
VERTEX
  8
0
 10
1350.238302
 20
1801.425154
 70
0
  0
SEQEND
  0
POLYLINE
  8
0
  6
CONTINUOUS
 62
1
 66
1
 70
2
  0
VERTEX
  8
0
 10
1350.898302
 20
1799.865154
 70
0
 42
0.186677
  0
VERTEX
  8
0
 10
1352.886311
 20
1799.402011
 70
0
  0
SEQEND
  0
POLYLINE
  8
0
  6
CONTINUOUS
 62
1
 66
1
 70
2
  0
VERTEX
  8
0
 10
1367.102184
 20
1799.402011
 70
0
 42
0.186677
  0
VERTEX
  8
0
 10
1369.090193
 20
1799.865154
 70
0
  0
SEQEND
  0
POLYLINE
  8
0
  6
CONTINUOUS
 62
1
 66
1
 70
2
  0
VERTEX
  8
0
 10
1369.750193
 20
1801.425154
 70
0
 42
0.408197
  0
VERTEX
  8
0
 10
1369.251708
 20
1801.829023
 70
0
 42
0.066109
  0
VERTEX
  8
0
 10
1367.762184
 20
1802.002011
 70
0
  0
SEQEND
  0
LINE
  8
0
  6
CONTINUOUS
 62
1
 10
1410.902184
 20
1799.402011
 11
1396.686311
 21
1799.402011
  0
LINE
  8
0
  6
CONTINUOUS
 62
1
 10
1374.786311
 20
1802.002011
 11
1389.002184
 21
1802.002011
  0
LINE
  8
0
  6
CONTINUOUS
 62
1
 10
1396.026311
 20
1802.002011
 11
1411.562184
 21
1802.002011
  0
LINE
  8
0
  6
CONTINUOUS
 62
1
 10
1394.698302
 20
1799.865154
 11
1394.038302
 21
1801.425154
  0
LINE
  8
0
  6
CONTINUOUS
 62
1
 10
1412.890193
 20
1799.865154
 11
1413.550193
 21
1801.425154
  0
LINE
  8
0
  6
CONTINUOUS
 62
1
 10
1372.798302
 20
1801.538868
 11
1372.138302
 21
1799.978868
  0
LINE
  8
0
  6
CONTINUOUS
 62
1
 10
1390.990193
 20
1801.538868
 11
1391.650193
 21
1799.978868
  0
LINE
  8
0
  6
CONTINUOUS
 62
1
 10
1389.662184
 20
1799.402011
 11
1374.126311
 21
1799.402011
  0
POLYLINE
  8
0
  6
CONTINUOUS
 62
1
 66
1
 70
2
  0
VERTEX
  8
0
 10
1374.786311
 20
1802.002011
 70
0
 42
0.186677
  0
VERTEX
  8
0
 10
1372.798302
 20
1801.538868
 70
0
  0
SEQEND
  0
POLYLINE
  8
0
  6
CONTINUOUS
 62
1
 66
1
 70
2
  0
VERTEX
  8
0
 10
1372.138302
 20
1799.978868
 70
0
 42
0.408197
  0
VERTEX
  8
0
 10
1372.636787
 20
1799.574999
 70
0
 42
0.066109
  0
VERTEX
  8
0
 10
1374.126311
 20
1799.402011
 70
0
  0
SEQEND
  0
POLYLINE
  8
0
  6
CONTINUOUS
 62
1
 66
1
 70
2
  0
VERTEX
  8
0
 10
1389.662184
 20
1799.402011
 70
0
 42
0.066109
  0
VERTEX
  8
0
 10
1391.151708
 20
1799.574999
 70
0
 42
0.408197
  0
VERTEX
  8
0
 10
1391.650193
 20
1799.978868
 70
0
  0
SEQEND
  0
POLYLINE
  8
0
  6
CONTINUOUS
 62
1
 66
1
 70
2
  0
VERTEX
  8
0
 10
1389.002184
 20
1802.002011
 70
0
 42
-0.186677
  0
VERTEX
  8
0
 10
1390.990193
 20
1801.538868
 70
0
  0
SEQEND
  0
POLYLINE
  8
0
  6
CONTINUOUS
 62
1
 66
1
 70
2
  0
VERTEX
  8
0
 10
1396.026311
 20
1802.002011
 70
0
 42
0.066109
  0
VERTEX
  8
0
 10
1394.536787
 20
1801.829023
 70
0
 42
0.408197
  0
VERTEX
  8
0
 10
1394.038302
 20
1801.425154
 70
0
  0
SEQEND
  0
POLYLINE
  8
0
  6
CONTINUOUS
 62
1
 66
1
 70
2
  0
VERTEX
  8
0
 10
1394.698302
 20
1799.865154
 70
0
 42
0.186677
  0
VERTEX
  8
0
 10
1396.686311
 20
1799.402011
 70
0
  0
SEQEND
  0
POLYLINE
  8
0
  6
CONTINUOUS
 62
1
 66
1
 70
2
  0
VERTEX
  8
0
 10
1410.902184
 20
1799.402011
 70
0
 42
0.186677
  0
VERTEX
  8
0
 10
1412.890193
 20
1799.865154
 70
0
  0
SEQEND
  0
POLYLINE
  8
0
  6
CONTINUOUS
 62
1
 66
1
 70
2
  0
VERTEX
  8
0
 10
1413.550193
 20
1801.425154
 70
0
 42
0.408197
  0
VERTEX
  8
0
 10
1413.051708
 20
1801.829023
 70
0
 42
0.066109
  0
VERTEX
  8
0
 10
1411.562184
 20
1802.002011
 70
0
  0
SEQEND
  0
LINE
  8
0
  6
CONTINUOUS
 62
1
 10
1045.626311
 20
1802.002011
 11
1061.162184
 21
1802.002011
  0
LINE
  8
0
  6
CONTINUOUS
 62
1
 10
1323.302184
 20
1799.402011
 11
1309.086311
 21
1799.402011
  0
LINE
  8
0
  6
CONTINUOUS
 62
1
 10
1044.298302
 20
1799.865154
 11
1043.638302
 21
1801.425154
  0
LINE
  8
0
  6
CONTINUOUS
 62
1
 10
1062.490193
 20
1799.865154
 11
1063.150193
 21
1801.425154
  0
LINE
  8
0
  6
CONTINUOUS
 62
1
 10
1133.226311
 20
1802.002011
 11
1148.762184
 21
1802.002011
  0
LINE
  8
0
  6
CONTINUOUS
 62
1
 10
1155.786311
 20
1802.002011
 11
1170.002184
 21
1802.002011
  0
LINE
  8
0
  6
CONTINUOUS
 62
1
 10
1177.026311
 20
1802.002011
 11
1192.562184
 21
1802.002011
  0
LINE
  8
0
  6
CONTINUOUS
 62
1
 10
1199.586311
 20
1802.002011
 11
1213.802184
 21
1802.002011
  0
LINE
  8
0
  6
CONTINUOUS
 62
1
 10
1220.826311
 20
1802.002011
 11
1236.362184
 21
1802.002011
  0
LINE
  8
0
  6
CONTINUOUS
 62
1
 10
1243.386311
 20
1802.002011
 11
1257.602184
 21
1802.002011
  0
LINE
  8
0
  6
CONTINUOUS
 62
1
 10
1264.626311
 20
1802.002011
 11
1280.162184
 21
1802.002011
  0
LINE
  8
0
  6
CONTINUOUS
 62
1
 10
1287.186311
 20
1802.002011
 11
1301.402184
 21
1802.002011
  0
LINE
  8
0
  6
CONTINUOUS
 62
1
 10
1308.426311
 20
1802.002011
 11
1323.962184
 21
1802.002011
  0
LINE
  8
0
  6
CONTINUOUS
 62
1
 10
1131.898302
 20
1799.865154
 11
1131.238302
 21
1801.425154
  0
LINE
  8
0
  6
CONTINUOUS
 62
1
 10
1175.698302
 20
1799.865154
 11
1175.038302
 21
1801.425154
  0
LINE
  8
0
  6
CONTINUOUS
 62
1
 10
1219.498302
 20
1799.865154
 11
1218.838302
 21
1801.425154
  0
LINE
  8
0
  6
CONTINUOUS
 62
1
 10
1263.298302
 20
1799.865154
 11
1262.638302
 21
1801.425154
  0
LINE
  8
0
  6
CONTINUOUS
 62
1
 10
1307.098302
 20
1799.865154
 11
1306.438302
 21
1801.425154
  0
LINE
  8
0
  6
CONTINUOUS
 62
1
 10
1150.090193
 20
1799.865154
 11
1150.750193
 21
1801.425154
  0
LINE
  8
0
  6
CONTINUOUS
 62
1
 10
1193.890193
 20
1799.865154
 11
1194.550193
 21
1801.425154
  0
LINE
  8
0
  6
CONTINUOUS
 62
1
 10
1237.690193
 20
1799.865154
 11
1238.350193
 21
1801.425154
  0
LINE
  8
0
  6
CONTINUOUS
 62
1
 10
1281.490193
 20
1799.865154
 11
1282.150193
 21
1801.425154
  0
LINE
  8
0
  6
CONTINUOUS
 62
1
 10
1325.290193
 20
1799.865154
 11
1325.950193
 21
1801.425154
  0
LINE
  8
0
  6
CONTINUOUS
 62
1
 10
1084.390193
 20
1801.538868
 11
1085.050193
 21
1799.978868
  0
LINE
  8
0
  6
CONTINUOUS
 62
1
 10
1153.798302
 20
1801.538868
 11
1153.138302
 21
1799.978868
  0
LINE
  8
0
  6
CONTINUOUS
 62
1
 10
1171.990193
 20
1801.538868
 11
1172.650193
 21
1799.978868
  0
LINE
  8
0
  6
CONTINUOUS
 62
1
 10
1197.598302
 20
1801.538868
 11
1196.938302
 21
1799.978868
  0
LINE
  8
0
  6
CONTINUOUS
 62
1
 10
1215.790193
 20
1801.538868
 11
1216.450193
 21
1799.978868
  0
LINE
  8
0
  6
CONTINUOUS
 62
1
 10
1241.398302
 20
1801.538868
 11
1240.738302
 21
1799.978868
  0
LINE
  8
0
  6
CONTINUOUS
 62
1
 10
1259.590193
 20
1801.538868
 11
1260.250193
 21
1799.978868
  0
LINE
  8
0
  6
CONTINUOUS
 62
1
 10
1285.198302
 20
1801.538868
 11
1284.538302
 21
1799.978868
  0
LINE
  8
0
  6
CONTINUOUS
 62
1
 10
1303.390193
 20
1801.538868
 11
1304.050193
 21
1799.978868
  0
LINE
  8
0
  6
CONTINUOUS
 62
1
 10
1060.502184
 20
1799.402011
 11
1046.286311
 21
1799.402011
  0
LINE
  8
0
  6
CONTINUOUS
 62
1
 10
1083.062184
 20
1799.402011
 11
1067.526311
 21
1799.402011
  0
LINE
  8
0
  6
CONTINUOUS
 62
1
 10
1148.102184
 20
1799.402011
 11
1133.886311
 21
1799.402011
  0
LINE
  8
0
  6
CONTINUOUS
 62
1
 10
1170.662184
 20
1799.402011
 11
1155.126311
 21
1799.402011
  0
LINE
  8
0
  6
CONTINUOUS
 62
1
 10
1191.902184
 20
1799.402011
 11
1177.686311
 21
1799.402011
  0
LINE
  8
0
  6
CONTINUOUS
 62
1
 10
1214.462184
 20
1799.402011
 11
1198.926311
 21
1799.402011
  0
LINE
  8
0
  6
CONTINUOUS
 62
1
 10
1235.702184
 20
1799.402011
 11
1221.486311
 21
1799.402011
  0
LINE
  8
0
  6
CONTINUOUS
 62
1
 10
1258.262184
 20
1799.402011
 11
1242.726311
 21
1799.402011
  0
LINE
  8
0
  6
CONTINUOUS
 62
1
 10
1279.502184
 20
1799.402011
 11
1265.286311
 21
1799.402011
  0
LINE
  8
0
  6
CONTINUOUS
 62
1
 10
1302.062184
 20
1799.402011
 11
1286.526311
 21
1799.402011
  0
POLYLINE
  8
0
  6
CONTINUOUS
 62
1
 66
1
 70
2
  0
VERTEX
  8
0
 10
1045.626311
 20
1802.002011
 70
0
 42
0.066109
  0
VERTEX
  8
0
 10
1044.136787
 20
1801.829023
 70
0
 42
0.408197
  0
VERTEX
  8
0
 10
1043.638302
 20
1801.425154
 70
0
  0
SEQEND
  0
POLYLINE
  8
0
  6
CONTINUOUS
 62
1
 66
1
 70
2
  0
VERTEX
  8
0
 10
1044.298302
 20
1799.865154
 70
0
 42
0.186677
  0
VERTEX
  8
0
 10
1046.286311
 20
1799.402011
 70
0
  0
SEQEND
  0
POLYLINE
  8
0
  6
CONTINUOUS
 62
1
 66
1
 70
2
  0
VERTEX
  8
0
 10
1060.502184
 20
1799.402011
 70
0
 42
0.186677
  0
VERTEX
  8
0
 10
1062.490193
 20
1799.865154
 70
0
  0
SEQEND
  0
POLYLINE
  8
0
  6
CONTINUOUS
 62
1
 66
1
 70
2
  0
VERTEX
  8
0
 10
1063.150193
 20
1801.425154
 70
0
 42
0.408197
  0
VERTEX
  8
0
 10
1062.651708
 20
1801.829023
 70
0
 42
0.066109
  0
VERTEX
  8
0
 10
1061.162184
 20
1802.002011
 70
0
  0
SEQEND
  0
POLYLINE
  8
0
  6
CONTINUOUS
 62
1
 66
1
 70
2
  0
VERTEX
  8
0
 10
1066.198302
 20
1801.538868
 70
0
 42
-0.186677
  0
VERTEX
  8
0
 10
1068.186311
 20
1802.002011
 70
0
  0
SEQEND
  0
POLYLINE
  8
0
  6
CONTINUOUS
 62
1
 66
1
 70
2
  0
VERTEX
  8
0
 10
1082.402184
 20
1802.002011
 70
0
 42
-0.186677
  0
VERTEX
  8
0
 10
1084.390193
 20
1801.538868
 70
0
  0
SEQEND
  0
POLYLINE
  8
0
  6
CONTINUOUS
 62
1
 66
1
 70
2
  0
VERTEX
  8
0
 10
1085.050193
 20
1799.978868
 70
0
 42
-0.408197
  0
VERTEX
  8
0
 10
1084.551708
 20
1799.574999
 70
0
 42
-0.066109
  0
VERTEX
  8
0
 10
1083.062184
 20
1799.402011
 70
0
  0
SEQEND
  0
POLYLINE
  8
0
  6
CONTINUOUS
 62
1
 66
1
 70
2
  0
VERTEX
  8
0
 10
1067.526311
 20
1799.402011
 70
0
 42
-0.066109
  0
VERTEX
  8
0
 10
1066.036787
 20
1799.574999
 70
0
 42
-0.408197
  0
VERTEX
  8
0
 10
1065.538302
 20
1799.978868
 70
0
  0
SEQEND
  0
POLYLINE
  8
0
  6
CONTINUOUS
 62
1
 66
1
 70
2
  0
VERTEX
  8
0
 10
1133.226311
 20
1802.002011
 70
0
 42
0.066109
  0
VERTEX
  8
0
 10
1131.736787
 20
1801.829023
 70
0
 42
0.408197
  0
VERTEX
  8
0
 10
1131.238302
 20
1801.425154
 70
0
  0
SEQEND
  0
POLYLINE
  8
0
  6
CONTINUOUS
 62
1
 66
1
 70
2
  0
VERTEX
  8
0
 10
1131.898302
 20
1799.865154
 70
0
 42
0.186677
  0
VERTEX
  8
0
 10
1133.886311
 20
1799.402011
 70
0
  0
SEQEND
  0
POLYLINE
  8
0
  6
CONTINUOUS
 62
1
 66
1
 70
2
  0
VERTEX
  8
0
 10
1148.102184
 20
1799.402011
 70
0
 42
0.186677
  0
VERTEX
  8
0
 10
1150.090193
 20
1799.865154
 70
0
  0
SEQEND
  0
POLYLINE
  8
0
  6
CONTINUOUS
 62
1
 66
1
 70
2
  0
VERTEX
  8
0
 10
1150.750193
 20
1801.425154
 70
0
 42
0.408197
  0
VERTEX
  8
0
 10
1150.251708
 20
1801.829023
 70
0
 42
0.066109
  0
VERTEX
  8
0
 10
1148.762184
 20
1802.002011
 70
0
  0
SEQEND
  0
POLYLINE
  8
0
  6
CONTINUOUS
 62
1
 66
1
 70
2
  0
VERTEX
  8
0
 10
1153.798302
 20
1801.538868
 70
0
 42
-0.186677
  0
VERTEX
  8
0
 10
1155.786311
 20
1802.002011
 70
0
  0
SEQEND
  0
POLYLINE
  8
0
  6
CONTINUOUS
 62
1
 66
1
 70
2
  0
VERTEX
  8
0
 10
1170.002184
 20
1802.002011
 70
0
 42
-0.186677
  0
VERTEX
  8
0
 10
1171.990193
 20
1801.538868
 70
0
  0
SEQEND
  0
POLYLINE
  8
0
  6
CONTINUOUS
 62
1
 66
1
 70
2
  0
VERTEX
  8
0
 10
1172.650193
 20
1799.978868
 70
0
 42
-0.408197
  0
VERTEX
  8
0
 10
1172.151708
 20
1799.574999
 70
0
 42
-0.066109
  0
VERTEX
  8
0
 10
1170.662184
 20
1799.402011
 70
0
  0
SEQEND
  0
POLYLINE
  8
0
  6
CONTINUOUS
 62
1
 66
1
 70
2
  0
VERTEX
  8
0
 10
1155.126311
 20
1799.402011
 70
0
 42
-0.066109
  0
VERTEX
  8
0
 10
1153.636787
 20
1799.574999
 70
0
 42
-0.408197
  0
VERTEX
  8
0
 10
1153.138302
 20
1799.978868
 70
0
  0
SEQEND
  0
POLYLINE
  8
0
  6
CONTINUOUS
 62
1
 66
1
 70
2
  0
VERTEX
  8
0
 10
1175.698302
 20
1799.865154
 70
0
 42
0.186677
  0
VERTEX
  8
0
 10
1177.686311
 20
1799.402011
 70
0
  0
SEQEND
  0
POLYLINE
  8
0
  6
CONTINUOUS
 62
1
 66
1
 70
2
  0
VERTEX
  8
0
 10
1191.902184
 20
1799.402011
 70
0
 42
0.186677
  0
VERTEX
  8
0
 10
1193.890193
 20
1799.865154
 70
0
  0
SEQEND
  0
POLYLINE
  8
0
  6
CONTINUOUS
 62
1
 66
1
 70
2
  0
VERTEX
  8
0
 10
1194.550193
 20
1801.425154
 70
0
 42
0.408197
  0
VERTEX
  8
0
 10
1194.051708
 20
1801.829023
 70
0
 42
0.066109
  0
VERTEX
  8
0
 10
1192.562184
 20
1802.002011
 70
0
  0
SEQEND
  0
POLYLINE
  8
0
  6
CONTINUOUS
 62
1
 66
1
 70
2
  0
VERTEX
  8
0
 10
1177.026311
 20
1802.002011
 70
0
 42
0.066109
  0
VERTEX
  8
0
 10
1175.536787
 20
1801.829023
 70
0
 42
0.408197
  0
VERTEX
  8
0
 10
1175.038302
 20
1801.425154
 70
0
  0
SEQEND
  0
POLYLINE
  8
0
  6
CONTINUOUS
 62
1
 66
1
 70
2
  0
VERTEX
  8
0
 10
1199.586311
 20
1802.002011
 70
0
 42
0.186677
  0
VERTEX
  8
0
 10
1197.598302
 20
1801.538868
 70
0
  0
SEQEND
  0
POLYLINE
  8
0
  6
CONTINUOUS
 62
1
 66
1
 70
2
  0
VERTEX
  8
0
 10
1196.938302
 20
1799.978868
 70
0
 42
0.408197
  0
VERTEX
  8
0
 10
1197.436787
 20
1799.574999
 70
0
 42
0.066109
  0
VERTEX
  8
0
 10
1198.926311
 20
1799.402011
 70
0
  0
SEQEND
  0
POLYLINE
  8
0
  6
CONTINUOUS
 62
1
 66
1
 70
2
  0
VERTEX
  8
0
 10
1214.462184
 20
1799.402011
 70
0
 42
0.066109
  0
VERTEX
  8
0
 10
1215.951708
 20
1799.574999
 70
0
 42
0.408197
  0
VERTEX
  8
0
 10
1216.450193
 20
1799.978868
 70
0
  0
SEQEND
  0
POLYLINE
  8
0
  6
CONTINUOUS
 62
1
 66
1
 70
2
  0
VERTEX
  8
0
 10
1215.790193
 20
1801.538868
 70
0
 42
0.186677
  0
VERTEX
  8
0
 10
1213.802184
 20
1802.002011
 70
0
  0
SEQEND
  0
POLYLINE
  8
0
  6
CONTINUOUS
 62
1
 66
1
 70
2
  0
VERTEX
  8
0
 10
1218.838302
 20
1801.425154
 70
0
 42
-0.408197
  0
VERTEX
  8
0
 10
1219.336787
 20
1801.829023
 70
0
 42
-0.066109
  0
VERTEX
  8
0
 10
1220.826311
 20
1802.002011
 70
0
  0
SEQEND
  0
POLYLINE
  8
0
  6
CONTINUOUS
 62
1
 66
1
 70
2
  0
VERTEX
  8
0
 10
1236.362184
 20
1802.002011
 70
0
 42
-0.066109
  0
VERTEX
  8
0
 10
1237.851708
 20
1801.829023
 70
0
 42
-0.408197
  0
VERTEX
  8
0
 10
1238.350193
 20
1801.425154
 70
0
  0
SEQEND
  0
POLYLINE
  8
0
  6
CONTINUOUS
 62
1
 66
1
 70
2
  0
VERTEX
  8
0
 10
1237.690193
 20
1799.865154
 70
0
 42
-0.186677
  0
VERTEX
  8
0
 10
1235.702184
 20
1799.402011
 70
0
  0
SEQEND
  0
POLYLINE
  8
0
  6
CONTINUOUS
 62
1
 66
1
 70
2
  0
VERTEX
  8
0
 10
1221.486311
 20
1799.402011
 70
0
 42
-0.186677
  0
VERTEX
  8
0
 10
1219.498302
 20
1799.865154
 70
0
  0
SEQEND
  0
POLYLINE
  8
0
  6
CONTINUOUS
 62
1
 66
1
 70
2
  0
VERTEX
  8
0
 10
1240.738302
 20
1799.978868
 70
0
 42
0.408197
  0
VERTEX
  8
0
 10
1241.236787
 20
1799.574999
 70
0
 42
0.066109
  0
VERTEX
  8
0
 10
1242.726311
 20
1799.402011
 70
0
  0
SEQEND
  0
POLYLINE
  8
0
  6
CONTINUOUS
 62
1
 66
1
 70
2
  0
VERTEX
  8
0
 10
1258.262184
 20
1799.402011
 70
0
 42
0.066109
  0
VERTEX
  8
0
 10
1259.751708
 20
1799.574999
 70
0
 42
0.408197
  0
VERTEX
  8
0
 10
1260.250193
 20
1799.978868
 70
0
  0
SEQEND
  0
POLYLINE
  8
0
  6
CONTINUOUS
 62
1
 66
1
 70
2
  0
VERTEX
  8
0
 10
1259.590193
 20
1801.538868
 70
0
 42
0.186677
  0
VERTEX
  8
0
 10
1257.602184
 20
1802.002011
 70
0
  0
SEQEND
  0
POLYLINE
  8
0
  6
CONTINUOUS
 62
1
 66
1
 70
2
  0
VERTEX
  8
0
 10
1243.386311
 20
1802.002011
 70
0
 42
0.186677
  0
VERTEX
  8
0
 10
1241.398302
 20
1801.538868
 70
0
  0
SEQEND
  0
POLYLINE
  8
0
  6
CONTINUOUS
 62
1
 66
1
 70
2
  0
VERTEX
  8
0
 10
1264.626311
 20
1802.002011
 70
0
 42
0.066109
  0
VERTEX
  8
0
 10
1263.136787
 20
1801.829023
 70
0
 42
0.408197
  0
VERTEX
  8
0
 10
1262.638302
 20
1801.425154
 70
0
  0
SEQEND
  0
POLYLINE
  8
0
  6
CONTINUOUS
 62
1
 66
1
 70
2
  0
VERTEX
  8
0
 10
1263.298302
 20
1799.865154
 70
0
 42
0.186677
  0
VERTEX
  8
0
 10
1265.286311
 20
1799.402011
 70
0
  0
SEQEND
  0
POLYLINE
  8
0
  6
CONTINUOUS
 62
1
 66
1
 70
2
  0
VERTEX
  8
0
 10
1279.502184
 20
1799.402011
 70
0
 42
0.186677
  0
VERTEX
  8
0
 10
1281.490193
 20
1799.865154
 70
0
  0
SEQEND
  0
POLYLINE
  8
0
  6
CONTINUOUS
 62
1
 66
1
 70
2
  0
VERTEX
  8
0
 10
1282.150193
 20
1801.425154
 70
0
 42
0.408197
  0
VERTEX
  8
0
 10
1281.651708
 20
1801.829023
 70
0
 42
0.066109
  0
VERTEX
  8
0
 10
1280.162184
 20
1802.002011
 70
0
  0
SEQEND
  0
POLYLINE
  8
0
  6
CONTINUOUS
 62
1
 66
1
 70
2
  0
VERTEX
  8
0
 10
1287.186311
 20
1802.002011
 70
0
 42
0.186677
  0
VERTEX
  8
0
 10
1285.198302
 20
1801.538868
 70
0
  0
SEQEND
  0
POLYLINE
  8
0
  6
CONTINUOUS
 62
1
 66
1
 70
2
  0
VERTEX
  8
0
 10
1284.538302
 20
1799.978868
 70
0
 42
0.408197
  0
VERTEX
  8
0
 10
1285.036787
 20
1799.574999
 70
0
 42
0.066109
  0
VERTEX
  8
0
 10
1286.526311
 20
1799.402011
 70
0
  0
SEQEND
  0
POLYLINE
  8
0
  6
CONTINUOUS
 62
1
 66
1
 70
2
  0
VERTEX
  8
0
 10
1302.062184
 20
1799.402011
 70
0
 42
0.066109
  0
VERTEX
  8
0
 10
1303.551708
 20
1799.574999
 70
0
 42
0.408197
  0
VERTEX
  8
0
 10
1304.050193
 20
1799.978868
 70
0
  0
SEQEND
  0
POLYLINE
  8
0
  6
CONTINUOUS
 62
1
 66
1
 70
2
  0
VERTEX
  8
0
 10
1301.402184
 20
1802.002011
 70
0
 42
-0.186677
  0
VERTEX
  8
0
 10
1303.390193
 20
1801.538868
 70
0
  0
SEQEND
  0
POLYLINE
  8
0
  6
CONTINUOUS
 62
1
 66
1
 70
2
  0
VERTEX
  8
0
 10
1308.426311
 20
1802.002011
 70
0
 42
0.066109
  0
VERTEX
  8
0
 10
1306.936787
 20
1801.829023
 70
0
 42
0.408197
  0
VERTEX
  8
0
 10
1306.438302
 20
1801.425154
 70
0
  0
SEQEND
  0
POLYLINE
  8
0
  6
CONTINUOUS
 62
1
 66
1
 70
2
  0
VERTEX
  8
0
 10
1307.098302
 20
1799.865154
 70
0
 42
0.186677
  0
VERTEX
  8
0
 10
1309.086311
 20
1799.402011
 70
0
  0
SEQEND
  0
POLYLINE
  8
0
  6
CONTINUOUS
 62
1
 66
1
 70
2
  0
VERTEX
  8
0
 10
1323.302184
 20
1799.402011
 70
0
 42
0.186677
  0
VERTEX
  8
0
 10
1325.290193
 20
1799.865154
 70
0
  0
SEQEND
  0
POLYLINE
  8
0
  6
CONTINUOUS
 62
1
 66
1
 70
2
  0
VERTEX
  8
0
 10
1325.950193
 20
1801.425154
 70
0
 42
0.408197
  0
VERTEX
  8
0
 10
1325.451708
 20
1801.829023
 70
0
 42
0.066109
  0
VERTEX
  8
0
 10
1323.962184
 20
1802.002011
 70
0
  0
SEQEND
  0
LINE
  8
0
  6
CONTINUOUS
 62
1
 10
1066.198302
 20
1801.538868
 11
1065.538302
 21
1799.978868
  0
LINE
  8
0
  6
CONTINUOUS
 62
1
 10
1068.186311
 20
1802.002011
 11
1082.402184
 21
1802.002011
  0
LINE
  8
0
  6
CONTINUOUS
 62
1
 10
1454.702184
 20
1799.402011
 11
1440.486311
 21
1799.402011
  0
LINE
  8
0
  6
CONTINUOUS
 62
1
 10
1418.586311
 20
1802.002011
 11
1432.802184
 21
1802.002011
  0
LINE
  8
0
  6
CONTINUOUS
 62
1
 10
1439.826311
 20
1802.002011
 11
1455.362184
 21
1802.002011
  0
LINE
  8
0
  6
CONTINUOUS
 62
1
 10
1438.498302
 20
1799.865154
 11
1437.838302
 21
1801.425154
  0
LINE
  8
0
  6
CONTINUOUS
 62
1
 10
1456.690193
 20
1799.865154
 11
1457.350193
 21
1801.425154
  0
LINE
  8
0
  6
CONTINUOUS
 62
1
 10
1416.598302
 20
1801.538868
 11
1415.938302
 21
1799.978868
  0
LINE
  8
0
  6
CONTINUOUS
 62
1
 10
1434.790193
 20
1801.538868
 11
1435.450193
 21
1799.978868
  0
LINE
  8
0
  6
CONTINUOUS
 62
1
 10
1433.462184
 20
1799.402011
 11
1417.926311
 21
1799.402011
  0
POLYLINE
  8
0
  6
CONTINUOUS
 62
1
 66
1
 70
2
  0
VERTEX
  8
0
 10
1418.586311
 20
1802.002011
 70
0
 42
0.186677
  0
VERTEX
  8
0
 10
1416.598302
 20
1801.538868
 70
0
  0
SEQEND
  0
POLYLINE
  8
0
  6
CONTINUOUS
 62
1
 66
1
 70
2
  0
VERTEX
  8
0
 10
1415.938302
 20
1799.978868
 70
0
 42
0.408197
  0
VERTEX
  8
0
 10
1416.436787
 20
1799.574999
 70
0
 42
0.066109
  0
VERTEX
  8
0
 10
1417.926311
 20
1799.402011
 70
0
  0
SEQEND
  0
POLYLINE
  8
0
  6
CONTINUOUS
 62
1
 66
1
 70
2
  0
VERTEX
  8
0
 10
1433.462184
 20
1799.402011
 70
0
 42
0.066109
  0
VERTEX
  8
0
 10
1434.951708
 20
1799.574999
 70
0
 42
0.408197
  0
VERTEX
  8
0
 10
1435.450193
 20
1799.978868
 70
0
  0
SEQEND
  0
POLYLINE
  8
0
  6
CONTINUOUS
 62
1
 66
1
 70
2
  0
VERTEX
  8
0
 10
1432.802184
 20
1802.002011
 70
0
 42
-0.186677
  0
VERTEX
  8
0
 10
1434.790193
 20
1801.538868
 70
0
  0
SEQEND
  0
POLYLINE
  8
0
  6
CONTINUOUS
 62
1
 66
1
 70
2
  0
VERTEX
  8
0
 10
1439.826311
 20
1802.002011
 70
0
 42
0.066109
  0
VERTEX
  8
0
 10
1438.336787
 20
1801.829023
 70
0
 42
0.408197
  0
VERTEX
  8
0
 10
1437.838302
 20
1801.425154
 70
0
  0
SEQEND
  0
POLYLINE
  8
0
  6
CONTINUOUS
 62
1
 66
1
 70
2
  0
VERTEX
  8
0
 10
1438.498302
 20
1799.865154
 70
0
 42
0.186677
  0
VERTEX
  8
0
 10
1440.486311
 20
1799.402011
 70
0
  0
SEQEND
  0
POLYLINE
  8
0
  6
CONTINUOUS
 62
1
 66
1
 70
2
  0
VERTEX
  8
0
 10
1454.702184
 20
1799.402011
 70
0
 42
0.186677
  0
VERTEX
  8
0
 10
1456.690193
 20
1799.865154
 70
0
  0
SEQEND
  0
POLYLINE
  8
0
  6
CONTINUOUS
 62
1
 66
1
 70
2
  0
VERTEX
  8
0
 10
1457.350193
 20
1801.425154
 70
0
 42
0.408197
  0
VERTEX
  8
0
 10
1456.851708
 20
1801.829023
 70
0
 42
0.066109
  0
VERTEX
  8
0
 10
1455.362184
 20
1802.002011
 70
0
  0
SEQEND
  0
LINE
  8
0
  6
CONTINUOUS
 62
1
 10
1498.502184
 20
1799.402011
 11
1484.286311
 21
1799.402011
  0
LINE
  8
0
  6
CONTINUOUS
 62
1
 10
1462.386311
 20
1802.002011
 11
1476.602184
 21
1802.002011
  0
LINE
  8
0
  6
CONTINUOUS
 62
1
 10
1483.626311
 20
1802.002011
 11
1499.162184
 21
1802.002011
  0
LINE
  8
0
  6
CONTINUOUS
 62
1
 10
1482.298302
 20
1799.865154
 11
1481.638302
 21
1801.425154
  0
LINE
  8
0
  6
CONTINUOUS
 62
1
 10
1500.490193
 20
1799.865154
 11
1501.150193
 21
1801.425154
  0
LINE
  8
0
  6
CONTINUOUS
 62
1
 10
1460.398302
 20
1801.538868
 11
1459.738302
 21
1799.978868
  0
LINE
  8
0
  6
CONTINUOUS
 62
1
 10
1478.590193
 20
1801.538868
 11
1479.250193
 21
1799.978868
  0
LINE
  8
0
  6
CONTINUOUS
 62
1
 10
1477.262184
 20
1799.402011
 11
1461.726311
 21
1799.402011
  0
POLYLINE
  8
0
  6
CONTINUOUS
 62
1
 66
1
 70
2
  0
VERTEX
  8
0
 10
1462.386311
 20
1802.002011
 70
0
 42
0.186677
  0
VERTEX
  8
0
 10
1460.398302
 20
1801.538868
 70
0
  0
SEQEND
  0
POLYLINE
  8
0
  6
CONTINUOUS
 62
1
 66
1
 70
2
  0
VERTEX
  8
0
 10
1459.738302
 20
1799.978868
 70
0
 42
0.408197
  0
VERTEX
  8
0
 10
1460.236787
 20
1799.574999
 70
0
 42
0.066109
  0
VERTEX
  8
0
 10
1461.726311
 20
1799.402011
 70
0
  0
SEQEND
  0
POLYLINE
  8
0
  6
CONTINUOUS
 62
1
 66
1
 70
2
  0
VERTEX
  8
0
 10
1477.262184
 20
1799.402011
 70
0
 42
0.066109
  0
VERTEX
  8
0
 10
1478.751708
 20
1799.574999
 70
0
 42
0.408197
  0
VERTEX
  8
0
 10
1479.250193
 20
1799.978868
 70
0
  0
SEQEND
  0
POLYLINE
  8
0
  6
CONTINUOUS
 62
1
 66
1
 70
2
  0
VERTEX
  8
0
 10
1476.602184
 20
1802.002011
 70
0
 42
-0.186677
  0
VERTEX
  8
0
 10
1478.590193
 20
1801.538868
 70
0
  0
SEQEND
  0
POLYLINE
  8
0
  6
CONTINUOUS
 62
1
 66
1
 70
2
  0
VERTEX
  8
0
 10
1483.626311
 20
1802.002011
 70
0
 42
0.066109
  0
VERTEX
  8
0
 10
1482.136787
 20
1801.829023
 70
0
 42
0.408197
  0
VERTEX
  8
0
 10
1481.638302
 20
1801.425154
 70
0
  0
SEQEND
  0
POLYLINE
  8
0
  6
CONTINUOUS
 62
1
 66
1
 70
2
  0
VERTEX
  8
0
 10
1482.298302
 20
1799.865154
 70
0
 42
0.186677
  0
VERTEX
  8
0
 10
1484.286311
 20
1799.402011
 70
0
  0
SEQEND
  0
POLYLINE
  8
0
  6
CONTINUOUS
 62
1
 66
1
 70
2
  0
VERTEX
  8
0
 10
1498.502184
 20
1799.402011
 70
0
 42
0.186677
  0
VERTEX
  8
0
 10
1500.490193
 20
1799.865154
 70
0
  0
SEQEND
  0
POLYLINE
  8
0
  6
CONTINUOUS
 62
1
 66
1
 70
2
  0
VERTEX
  8
0
 10
1501.150193
 20
1801.425154
 70
0
 42
0.408197
  0
VERTEX
  8
0
 10
1500.651708
 20
1801.829023
 70
0
 42
0.066109
  0
VERTEX
  8
0
 10
1499.162184
 20
1802.002011
 70
0
  0
SEQEND
  0
LINE
  8
0
  6
CONTINUOUS
 62
1
 10
1542.302184
 20
1799.402011
 11
1528.086311
 21
1799.402011
  0
LINE
  8
0
  6
CONTINUOUS
 62
1
 10
1506.186311
 20
1802.002011
 11
1520.402184
 21
1802.002011
  0
LINE
  8
0
  6
CONTINUOUS
 62
1
 10
1527.426311
 20
1802.002011
 11
1542.962184
 21
1802.002011
  0
LINE
  8
0
  6
CONTINUOUS
 62
1
 10
1526.098302
 20
1799.865154
 11
1525.438302
 21
1801.425154
  0
LINE
  8
0
  6
CONTINUOUS
 62
1
 10
1544.290193
 20
1799.865154
 11
1544.950193
 21
1801.425154
  0
LINE
  8
0
  6
CONTINUOUS
 62
1
 10
1504.198302
 20
1801.538868
 11
1503.538302
 21
1799.978868
  0
LINE
  8
0
  6
CONTINUOUS
 62
1
 10
1522.390193
 20
1801.538868
 11
1523.050193
 21
1799.978868
  0
LINE
  8
0
  6
CONTINUOUS
 62
1
 10
1521.062184
 20
1799.402011
 11
1505.526311
 21
1799.402011
  0
POLYLINE
  8
0
  6
CONTINUOUS
 62
1
 66
1
 70
2
  0
VERTEX
  8
0
 10
1506.186311
 20
1802.002011
 70
0
 42
0.186677
  0
VERTEX
  8
0
 10
1504.198302
 20
1801.538868
 70
0
  0
SEQEND
  0
POLYLINE
  8
0
  6
CONTINUOUS
 62
1
 66
1
 70
2
  0
VERTEX
  8
0
 10
1503.538302
 20
1799.978868
 70
0
 42
0.408197
  0
VERTEX
  8
0
 10
1504.036787
 20
1799.574999
 70
0
 42
0.066109
  0
VERTEX
  8
0
 10
1505.526311
 20
1799.402011
 70
0
  0
SEQEND
  0
POLYLINE
  8
0
  6
CONTINUOUS
 62
1
 66
1
 70
2
  0
VERTEX
  8
0
 10
1521.062184
 20
1799.402011
 70
0
 42
0.066109
  0
VERTEX
  8
0
 10
1522.551708
 20
1799.574999
 70
0
 42
0.408197
  0
VERTEX
  8
0
 10
1523.050193
 20
1799.978868
 70
0
  0
SEQEND
  0
POLYLINE
  8
0
  6
CONTINUOUS
 62
1
 66
1
 70
2
  0
VERTEX
  8
0
 10
1520.402184
 20
1802.002011
 70
0
 42
-0.186677
  0
VERTEX
  8
0
 10
1522.390193
 20
1801.538868
 70
0
  0
SEQEND
  0
POLYLINE
  8
0
  6
CONTINUOUS
 62
1
 66
1
 70
2
  0
VERTEX
  8
0
 10
1527.426311
 20
1802.002011
 70
0
 42
0.066109
  0
VERTEX
  8
0
 10
1525.936787
 20
1801.829023
 70
0
 42
0.408197
  0
VERTEX
  8
0
 10
1525.438302
 20
1801.425154
 70
0
  0
SEQEND
  0
POLYLINE
  8
0
  6
CONTINUOUS
 62
1
 66
1
 70
2
  0
VERTEX
  8
0
 10
1526.098302
 20
1799.865154
 70
0
 42
0.186677
  0
VERTEX
  8
0
 10
1528.086311
 20
1799.402011
 70
0
  0
SEQEND
  0
POLYLINE
  8
0
  6
CONTINUOUS
 62
1
 66
1
 70
2
  0
VERTEX
  8
0
 10
1542.302184
 20
1799.402011
 70
0
 42
0.186677
  0
VERTEX
  8
0
 10
1544.290193
 20
1799.865154
 70
0
  0
SEQEND
  0
POLYLINE
  8
0
  6
CONTINUOUS
 62
1
 66
1
 70
2
  0
VERTEX
  8
0
 10
1544.950193
 20
1801.425154
 70
0
 42
0.408197
  0
VERTEX
  8
0
 10
1544.451708
 20
1801.829023
 70
0
 42
0.066109
  0
VERTEX
  8
0
 10
1542.962184
 20
1802.002011
 70
0
  0
SEQEND
  0
LINE
  8
0
  6
CONTINUOUS
 62
1
 10
1586.102184
 20
1799.402011
 11
1571.886311
 21
1799.402011
  0
LINE
  8
0
  6
CONTINUOUS
 62
1
 10
1549.986311
 20
1802.002011
 11
1564.202184
 21
1802.002011
  0
LINE
  8
0
  6
CONTINUOUS
 62
1
 10
1571.226311
 20
1802.002011
 11
1586.762184
 21
1802.002011
  0
LINE
  8
0
  6
CONTINUOUS
 62
1
 10
1569.898302
 20
1799.865154
 11
1569.238302
 21
1801.425154
  0
LINE
  8
0
  6
CONTINUOUS
 62
1
 10
1588.090193
 20
1799.865154
 11
1588.750193
 21
1801.425154
  0
LINE
  8
0
  6
CONTINUOUS
 62
1
 10
1547.998302
 20
1801.538868
 11
1547.338302
 21
1799.978868
  0
LINE
  8
0
  6
CONTINUOUS
 62
1
 10
1566.190193
 20
1801.538868
 11
1566.850193
 21
1799.978868
  0
LINE
  8
0
  6
CONTINUOUS
 62
1
 10
1564.862184
 20
1799.402011
 11
1549.326311
 21
1799.402011
  0
POLYLINE
  8
0
  6
CONTINUOUS
 62
1
 66
1
 70
2
  0
VERTEX
  8
0
 10
1549.986311
 20
1802.002011
 70
0
 42
0.186677
  0
VERTEX
  8
0
 10
1547.998302
 20
1801.538868
 70
0
  0
SEQEND
  0
POLYLINE
  8
0
  6
CONTINUOUS
 62
1
 66
1
 70
2
  0
VERTEX
  8
0
 10
1547.338302
 20
1799.978868
 70
0
 42
0.408197
  0
VERTEX
  8
0
 10
1547.836787
 20
1799.574999
 70
0
 42
0.066109
  0
VERTEX
  8
0
 10
1549.326311
 20
1799.402011
 70
0
  0
SEQEND
  0
POLYLINE
  8
0
  6
CONTINUOUS
 62
1
 66
1
 70
2
  0
VERTEX
  8
0
 10
1564.862184
 20
1799.402011
 70
0
 42
0.066109
  0
VERTEX
  8
0
 10
1566.351708
 20
1799.574999
 70
0
 42
0.408197
  0
VERTEX
  8
0
 10
1566.850193
 20
1799.978868
 70
0
  0
SEQEND
  0
POLYLINE
  8
0
  6
CONTINUOUS
 62
1
 66
1
 70
2
  0
VERTEX
  8
0
 10
1564.202184
 20
1802.002011
 70
0
 42
-0.186677
  0
VERTEX
  8
0
 10
1566.190193
 20
1801.538868
 70
0
  0
SEQEND
  0
POLYLINE
  8
0
  6
CONTINUOUS
 62
1
 66
1
 70
2
  0
VERTEX
  8
0
 10
1571.226311
 20
1802.002011
 70
0
 42
0.066109
  0
VERTEX
  8
0
 10
1569.736787
 20
1801.829023
 70
0
 42
0.408197
  0
VERTEX
  8
0
 10
1569.238302
 20
1801.425154
 70
0
  0
SEQEND
  0
POLYLINE
  8
0
  6
CONTINUOUS
 62
1
 66
1
 70
2
  0
VERTEX
  8
0
 10
1569.898302
 20
1799.865154
 70
0
 42
0.186677
  0
VERTEX
  8
0
 10
1571.886311
 20
1799.402011
 70
0
  0
SEQEND
  0
POLYLINE
  8
0
  6
CONTINUOUS
 62
1
 66
1
 70
2
  0
VERTEX
  8
0
 10
1586.102184
 20
1799.402011
 70
0
 42
0.186677
  0
VERTEX
  8
0
 10
1588.090193
 20
1799.865154
 70
0
  0
SEQEND
  0
POLYLINE
  8
0
  6
CONTINUOUS
 62
1
 66
1
 70
2
  0
VERTEX
  8
0
 10
1588.750193
 20
1801.425154
 70
0
 42
0.408197
  0
VERTEX
  8
0
 10
1588.251708
 20
1801.829023
 70
0
 42
0.066109
  0
VERTEX
  8
0
 10
1586.762184
 20
1802.002011
 70
0
  0
SEQEND
  0
LINE
  8
0
  6
CONTINUOUS
 62
1
 10
1629.902184
 20
1799.402011
 11
1615.686311
 21
1799.402011
  0
LINE
  8
0
  6
CONTINUOUS
 62
1
 10
1593.786311
 20
1802.002011
 11
1608.002184
 21
1802.002011
  0
LINE
  8
0
  6
CONTINUOUS
 62
1
 10
1615.026311
 20
1802.002011
 11
1630.562184
 21
1802.002011
  0
LINE
  8
0
  6
CONTINUOUS
 62
1
 10
1613.698302
 20
1799.865154
 11
1613.038302
 21
1801.425154
  0
LINE
  8
0
  6
CONTINUOUS
 62
1
 10
1631.890193
 20
1799.865154
 11
1632.550193
 21
1801.425154
  0
LINE
  8
0
  6
CONTINUOUS
 62
1
 10
1591.798302
 20
1801.538868
 11
1591.138302
 21
1799.978868
  0
LINE
  8
0
  6
CONTINUOUS
 62
1
 10
1609.990193
 20
1801.538868
 11
1610.650193
 21
1799.978868
  0
LINE
  8
0
  6
CONTINUOUS
 62
1
 10
1608.662184
 20
1799.402011
 11
1593.126311
 21
1799.402011
  0
POLYLINE
  8
0
  6
CONTINUOUS
 62
1
 66
1
 70
2
  0
VERTEX
  8
0
 10
1593.786311
 20
1802.002011
 70
0
 42
0.186677
  0
VERTEX
  8
0
 10
1591.798302
 20
1801.538868
 70
0
  0
SEQEND
  0
POLYLINE
  8
0
  6
CONTINUOUS
 62
1
 66
1
 70
2
  0
VERTEX
  8
0
 10
1591.138302
 20
1799.978868
 70
0
 42
0.408197
  0
VERTEX
  8
0
 10
1591.636787
 20
1799.574999
 70
0
 42
0.066109
  0
VERTEX
  8
0
 10
1593.126311
 20
1799.402011
 70
0
  0
SEQEND
  0
POLYLINE
  8
0
  6
CONTINUOUS
 62
1
 66
1
 70
2
  0
VERTEX
  8
0
 10
1608.662184
 20
1799.402011
 70
0
 42
0.066109
  0
VERTEX
  8
0
 10
1610.151708
 20
1799.574999
 70
0
 42
0.408197
  0
VERTEX
  8
0
 10
1610.650193
 20
1799.978868
 70
0
  0
SEQEND
  0
POLYLINE
  8
0
  6
CONTINUOUS
 62
1
 66
1
 70
2
  0
VERTEX
  8
0
 10
1608.002184
 20
1802.002011
 70
0
 42
-0.186677
  0
VERTEX
  8
0
 10
1609.990193
 20
1801.538868
 70
0
  0
SEQEND
  0
POLYLINE
  8
0
  6
CONTINUOUS
 62
1
 66
1
 70
2
  0
VERTEX
  8
0
 10
1615.026311
 20
1802.002011
 70
0
 42
0.066109
  0
VERTEX
  8
0
 10
1613.536787
 20
1801.829023
 70
0
 42
0.408197
  0
VERTEX
  8
0
 10
1613.038302
 20
1801.425154
 70
0
  0
SEQEND
  0
POLYLINE
  8
0
  6
CONTINUOUS
 62
1
 66
1
 70
2
  0
VERTEX
  8
0
 10
1613.698302
 20
1799.865154
 70
0
 42
0.186677
  0
VERTEX
  8
0
 10
1615.686311
 20
1799.402011
 70
0
  0
SEQEND
  0
POLYLINE
  8
0
  6
CONTINUOUS
 62
1
 66
1
 70
2
  0
VERTEX
  8
0
 10
1629.902184
 20
1799.402011
 70
0
 42
0.186677
  0
VERTEX
  8
0
 10
1631.890193
 20
1799.865154
 70
0
  0
SEQEND
  0
POLYLINE
  8
0
  6
CONTINUOUS
 62
1
 66
1
 70
2
  0
VERTEX
  8
0
 10
1632.550193
 20
1801.425154
 70
0
 42
0.408197
  0
VERTEX
  8
0
 10
1632.051708
 20
1801.829023
 70
0
 42
0.066109
  0
VERTEX
  8
0
 10
1630.562184
 20
1802.002011
 70
0
  0
SEQEND
  0
LINE
  8
0
  6
CONTINUOUS
 62
1
 10
1673.702184
 20
1799.402011
 11
1659.486311
 21
1799.402011
  0
LINE
  8
0
  6
CONTINUOUS
 62
1
 10
1637.586311
 20
1802.002011
 11
1651.802184
 21
1802.002011
  0
LINE
  8
0
  6
CONTINUOUS
 62
1
 10
1658.826311
 20
1802.002011
 11
1674.362184
 21
1802.002011
  0
LINE
  8
0
  6
CONTINUOUS
 62
1
 10
1657.498302
 20
1799.865154
 11
1656.838302
 21
1801.425154
  0
LINE
  8
0
  6
CONTINUOUS
 62
1
 10
1675.690193
 20
1799.865154
 11
1676.350193
 21
1801.425154
  0
LINE
  8
0
  6
CONTINUOUS
 62
1
 10
1635.598302
 20
1801.538868
 11
1634.938302
 21
1799.978868
  0
LINE
  8
0
  6
CONTINUOUS
 62
1
 10
1653.790193
 20
1801.538868
 11
1654.450193
 21
1799.978868
  0
LINE
  8
0
  6
CONTINUOUS
 62
1
 10
1652.462184
 20
1799.402011
 11
1636.926311
 21
1799.402011
  0
POLYLINE
  8
0
  6
CONTINUOUS
 62
1
 66
1
 70
2
  0
VERTEX
  8
0
 10
1637.586311
 20
1802.002011
 70
0
 42
0.186677
  0
VERTEX
  8
0
 10
1635.598302
 20
1801.538868
 70
0
  0
SEQEND
  0
POLYLINE
  8
0
  6
CONTINUOUS
 62
1
 66
1
 70
2
  0
VERTEX
  8
0
 10
1634.938302
 20
1799.978868
 70
0
 42
0.408197
  0
VERTEX
  8
0
 10
1635.436787
 20
1799.574999
 70
0
 42
0.066109
  0
VERTEX
  8
0
 10
1636.926311
 20
1799.402011
 70
0
  0
SEQEND
  0
POLYLINE
  8
0
  6
CONTINUOUS
 62
1
 66
1
 70
2
  0
VERTEX
  8
0
 10
1652.462184
 20
1799.402011
 70
0
 42
0.066109
  0
VERTEX
  8
0
 10
1653.951708
 20
1799.574999
 70
0
 42
0.408197
  0
VERTEX
  8
0
 10
1654.450193
 20
1799.978868
 70
0
  0
SEQEND
  0
POLYLINE
  8
0
  6
CONTINUOUS
 62
1
 66
1
 70
2
  0
VERTEX
  8
0
 10
1651.802184
 20
1802.002011
 70
0
 42
-0.186677
  0
VERTEX
  8
0
 10
1653.790193
 20
1801.538868
 70
0
  0
SEQEND
  0
POLYLINE
  8
0
  6
CONTINUOUS
 62
1
 66
1
 70
2
  0
VERTEX
  8
0
 10
1658.826311
 20
1802.002011
 70
0
 42
0.066109
  0
VERTEX
  8
0
 10
1657.336787
 20
1801.829023
 70
0
 42
0.408197
  0
VERTEX
  8
0
 10
1656.838302
 20
1801.425154
 70
0
  0
SEQEND
  0
POLYLINE
  8
0
  6
CONTINUOUS
 62
1
 66
1
 70
2
  0
VERTEX
  8
0
 10
1657.498302
 20
1799.865154
 70
0
 42
0.186677
  0
VERTEX
  8
0
 10
1659.486311
 20
1799.402011
 70
0
  0
SEQEND
  0
POLYLINE
  8
0
  6
CONTINUOUS
 62
1
 66
1
 70
2
  0
VERTEX
  8
0
 10
1673.702184
 20
1799.402011
 70
0
 42
0.186677
  0
VERTEX
  8
0
 10
1675.690193
 20
1799.865154
 70
0
  0
SEQEND
  0
POLYLINE
  8
0
  6
CONTINUOUS
 62
1
 66
1
 70
2
  0
VERTEX
  8
0
 10
1676.350193
 20
1801.425154
 70
0
 42
0.408197
  0
VERTEX
  8
0
 10
1675.851708
 20
1801.829023
 70
0
 42
0.066109
  0
VERTEX
  8
0
 10
1674.362184
 20
1802.002011
 70
0
  0
SEQEND
  0
LINE
  8
0
  6
CONTINUOUS
 62
1
 10
1681.386311
 20
1802.002011
 11
1695.602184
 21
1802.002011
  0
LINE
  8
0
  6
CONTINUOUS
 62
1
 10
1679.398302
 20
1801.538868
 11
1678.738302
 21
1799.978868
  0
LINE
  8
0
  6
CONTINUOUS
 62
1
 10
1697.590193
 20
1801.538868
 11
1698.250193
 21
1799.978868
  0
LINE
  8
0
  6
CONTINUOUS
 62
1
 10
1696.262184
 20
1799.402011
 11
1680.726311
 21
1799.402011
  0
POLYLINE
  8
0
  6
CONTINUOUS
 62
1
 66
1
 70
2
  0
VERTEX
  8
0
 10
1681.386311
 20
1802.002011
 70
0
 42
0.186677
  0
VERTEX
  8
0
 10
1679.398302
 20
1801.538868
 70
0
  0
SEQEND
  0
POLYLINE
  8
0
  6
CONTINUOUS
 62
1
 66
1
 70
2
  0
VERTEX
  8
0
 10
1678.738302
 20
1799.978868
 70
0
 42
0.408197
  0
VERTEX
  8
0
 10
1679.236787
 20
1799.574999
 70
0
 42
0.066109
  0
VERTEX
  8
0
 10
1680.726311
 20
1799.402011
 70
0
  0
SEQEND
  0
POLYLINE
  8
0
  6
CONTINUOUS
 62
1
 66
1
 70
2
  0
VERTEX
  8
0
 10
1696.262184
 20
1799.402011
 70
0
 42
0.066109
  0
VERTEX
  8
0
 10
1697.751708
 20
1799.574999
 70
0
 42
0.408197
  0
VERTEX
  8
0
 10
1698.250193
 20
1799.978868
 70
0
  0
SEQEND
  0
POLYLINE
  8
0
  6
CONTINUOUS
 62
1
 66
1
 70
2
  0
VERTEX
  8
0
 10
1695.602184
 20
1802.002011
 70
0
 42
-0.186677
  0
VERTEX
  8
0
 10
1697.590193
 20
1801.538868
 70
0
  0
SEQEND
  0
LINE
  8
0
  6
CONTINUOUS
 62
1
 10
1717.502184
 20
1799.402011
 11
1703.286311
 21
1799.402011
  0
LINE
  8
0
  6
CONTINUOUS
 62
1
 10
1702.626311
 20
1802.002011
 11
1718.162184
 21
1802.002011
  0
LINE
  8
0
  6
CONTINUOUS
 62
1
 10
1701.298302
 20
1799.865154
 11
1700.638302
 21
1801.425154
  0
LINE
  8
0
  6
CONTINUOUS
 62
1
 10
1719.490193
 20
1799.865154
 11
1720.150193
 21
1801.425154
  0
POLYLINE
  8
0
  6
CONTINUOUS
 62
1
 66
1
 70
2
  0
VERTEX
  8
0
 10
1702.626311
 20
1802.002011
 70
0
 42
0.066109
  0
VERTEX
  8
0
 10
1701.136787
 20
1801.829023
 70
0
 42
0.408197
  0
VERTEX
  8
0
 10
1700.638302
 20
1801.425154
 70
0
  0
SEQEND
  0
POLYLINE
  8
0
  6
CONTINUOUS
 62
1
 66
1
 70
2
  0
VERTEX
  8
0
 10
1701.298302
 20
1799.865154
 70
0
 42
0.186677
  0
VERTEX
  8
0
 10
1703.286311
 20
1799.402011
 70
0
  0
SEQEND
  0
POLYLINE
  8
0
  6
CONTINUOUS
 62
1
 66
1
 70
2
  0
VERTEX
  8
0
 10
1717.502184
 20
1799.402011
 70
0
 42
0.186677
  0
VERTEX
  8
0
 10
1719.490193
 20
1799.865154
 70
0
  0
SEQEND
  0
POLYLINE
  8
0
  6
CONTINUOUS
 62
1
 66
1
 70
2
  0
VERTEX
  8
0
 10
1720.150193
 20
1801.425154
 70
0
 42
0.408197
  0
VERTEX
  8
0
 10
1719.651708
 20
1801.829023
 70
0
 42
0.066109
  0
VERTEX
  8
0
 10
1718.162184
 20
1802.002011
 70
0
  0
SEQEND
  0
LINE
  8
0
  6
CONTINUOUS
 62
1
 10
1725.186311
 20
1802.002011
 11
1739.402184
 21
1802.002011
  0
LINE
  8
0
  6
CONTINUOUS
 62
1
 10
1723.198302
 20
1801.538868
 11
1722.538302
 21
1799.978868
  0
LINE
  8
0
  6
CONTINUOUS
 62
1
 10
1741.390193
 20
1801.538868
 11
1742.050193
 21
1799.978868
  0
LINE
  8
0
  6
CONTINUOUS
 62
1
 10
1740.062184
 20
1799.402011
 11
1724.526311
 21
1799.402011
  0
POLYLINE
  8
0
  6
CONTINUOUS
 62
1
 66
1
 70
2
  0
VERTEX
  8
0
 10
1725.186311
 20
1802.002011
 70
0
 42
0.186677
  0
VERTEX
  8
0
 10
1723.198302
 20
1801.538868
 70
0
  0
SEQEND
  0
POLYLINE
  8
0
  6
CONTINUOUS
 62
1
 66
1
 70
2
  0
VERTEX
  8
0
 10
1722.538302
 20
1799.978868
 70
0
 42
0.408197
  0
VERTEX
  8
0
 10
1723.036787
 20
1799.574999
 70
0
 42
0.066109
  0
VERTEX
  8
0
 10
1724.526311
 20
1799.402011
 70
0
  0
SEQEND
  0
POLYLINE
  8
0
  6
CONTINUOUS
 62
1
 66
1
 70
2
  0
VERTEX
  8
0
 10
1740.062184
 20
1799.402011
 70
0
 42
0.066109
  0
VERTEX
  8
0
 10
1741.551708
 20
1799.574999
 70
0
 42
0.408197
  0
VERTEX
  8
0
 10
1742.050193
 20
1799.978868
 70
0
  0
SEQEND
  0
POLYLINE
  8
0
  6
CONTINUOUS
 62
1
 66
1
 70
2
  0
VERTEX
  8
0
 10
1739.402184
 20
1802.002011
 70
0
 42
-0.186677
  0
VERTEX
  8
0
 10
1741.390193
 20
1801.538868
 70
0
  0
SEQEND
  0
LINE
  8
0
  6
CONTINUOUS
 62
1
 10
1089.426311
 20
1802.002011
 11
1104.962184
 21
1802.002011
  0
LINE
  8
0
  6
CONTINUOUS
 62
1
 10
1111.986311
 20
1802.002011
 11
1126.202184
 21
1802.002011
  0
LINE
  8
0
  6
CONTINUOUS
 62
1
 10
1088.098302
 20
1799.865154
 11
1087.438302
 21
1801.425154
  0
LINE
  8
0
  6
CONTINUOUS
 62
1
 10
1106.290193
 20
1799.865154
 11
1106.950193
 21
1801.425154
  0
LINE
  8
0
  6
CONTINUOUS
 62
1
 10
1109.998302
 20
1801.538868
 11
1109.338302
 21
1799.978868
  0
LINE
  8
0
  6
CONTINUOUS
 62
1
 10
1128.190193
 20
1801.538868
 11
1128.850193
 21
1799.978868
  0
LINE
  8
0
  6
CONTINUOUS
 62
1
 10
1104.302184
 20
1799.402011
 11
1090.086311
 21
1799.402011
  0
LINE
  8
0
  6
CONTINUOUS
 62
1
 10
1126.862184
 20
1799.402011
 11
1111.326311
 21
1799.402011
  0
POLYLINE
  8
0
  6
CONTINUOUS
 62
1
 66
1
 70
2
  0
VERTEX
  8
0
 10
1089.426311
 20
1802.002011
 70
0
 42
0.066109
  0
VERTEX
  8
0
 10
1087.936787
 20
1801.829023
 70
0
 42
0.408197
  0
VERTEX
  8
0
 10
1087.438302
 20
1801.425154
 70
0
  0
SEQEND
  0
POLYLINE
  8
0
  6
CONTINUOUS
 62
1
 66
1
 70
2
  0
VERTEX
  8
0
 10
1088.098302
 20
1799.865154
 70
0
 42
0.186677
  0
VERTEX
  8
0
 10
1090.086311
 20
1799.402011
 70
0
  0
SEQEND
  0
POLYLINE
  8
0
  6
CONTINUOUS
 62
1
 66
1
 70
2
  0
VERTEX
  8
0
 10
1104.302184
 20
1799.402011
 70
0
 42
0.186677
  0
VERTEX
  8
0
 10
1106.290193
 20
1799.865154
 70
0
  0
SEQEND
  0
POLYLINE
  8
0
  6
CONTINUOUS
 62
1
 66
1
 70
2
  0
VERTEX
  8
0
 10
1106.950193
 20
1801.425154
 70
0
 42
0.408197
  0
VERTEX
  8
0
 10
1106.451708
 20
1801.829023
 70
0
 42
0.066109
  0
VERTEX
  8
0
 10
1104.962184
 20
1802.002011
 70
0
  0
SEQEND
  0
POLYLINE
  8
0
  6
CONTINUOUS
 62
1
 66
1
 70
2
  0
VERTEX
  8
0
 10
1109.998302
 20
1801.538868
 70
0
 42
-0.186677
  0
VERTEX
  8
0
 10
1111.986311
 20
1802.002011
 70
0
  0
SEQEND
  0
POLYLINE
  8
0
  6
CONTINUOUS
 62
1
 66
1
 70
2
  0
VERTEX
  8
0
 10
1126.202184
 20
1802.002011
 70
0
 42
-0.186677
  0
VERTEX
  8
0
 10
1128.190193
 20
1801.538868
 70
0
  0
SEQEND
  0
POLYLINE
  8
0
  6
CONTINUOUS
 62
1
 66
1
 70
2
  0
VERTEX
  8
0
 10
1128.850193
 20
1799.978868
 70
0
 42
-0.408197
  0
VERTEX
  8
0
 10
1128.351708
 20
1799.574999
 70
0
 42
-0.066109
  0
VERTEX
  8
0
 10
1126.862184
 20
1799.402011
 70
0
  0
SEQEND
  0
POLYLINE
  8
0
  6
CONTINUOUS
 62
1
 66
1
 70
2
  0
VERTEX
  8
0
 10
1111.326311
 20
1799.402011
 70
0
 42
-0.066109
  0
VERTEX
  8
0
 10
1109.836787
 20
1799.574999
 70
0
 42
-0.408197
  0
VERTEX
  8
0
 10
1109.338302
 20
1799.978868
 70
0
  0
SEQEND
  0
LINE
  8
0
  6
CONTINUOUS
 62
1
 10
1367.102184
 20
1806.162011
 11
1352.886311
 21
1806.162011
  0
LINE
  8
0
  6
CONTINUOUS
 62
1
 10
1330.986311
 20
1808.762011
 11
1345.202184
 21
1808.762011
  0
LINE
  8
0
  6
CONTINUOUS
 62
1
 10
1352.226311
 20
1808.762011
 11
1367.762184
 21
1808.762011
  0
LINE
  8
0
  6
CONTINUOUS
 62
1
 10
1350.898302
 20
1806.625154
 11
1350.238302
 21
1808.185154
  0
LINE
  8
0
  6
CONTINUOUS
 62
1
 10
1369.090193
 20
1806.625154
 11
1369.750193
 21
1808.185154
  0
LINE
  8
0
  6
CONTINUOUS
 62
1
 10
1328.998302
 20
1808.298868
 11
1328.338302
 21
1806.738868
  0
LINE
  8
0
  6
CONTINUOUS
 62
1
 10
1347.190193
 20
1808.298868
 11
1347.850193
 21
1806.738868
  0
LINE
  8
0
  6
CONTINUOUS
 62
1
 10
1345.862184
 20
1806.162011
 11
1330.326311
 21
1806.162011
  0
POLYLINE
  8
0
  6
CONTINUOUS
 62
1
 66
1
 70
2
  0
VERTEX
  8
0
 10
1330.986311
 20
1808.762011
 70
0
 42
0.186677
  0
VERTEX
  8
0
 10
1328.998302
 20
1808.298868
 70
0
  0
SEQEND
  0
POLYLINE
  8
0
  6
CONTINUOUS
 62
1
 66
1
 70
2
  0
VERTEX
  8
0
 10
1328.338302
 20
1806.738868
 70
0
 42
0.408197
  0
VERTEX
  8
0
 10
1328.836787
 20
1806.334999
 70
0
 42
0.066109
  0
VERTEX
  8
0
 10
1330.326311
 20
1806.162011
 70
0
  0
SEQEND
  0
POLYLINE
  8
0
  6
CONTINUOUS
 62
1
 66
1
 70
2
  0
VERTEX
  8
0
 10
1345.862184
 20
1806.162011
 70
0
 42
0.066109
  0
VERTEX
  8
0
 10
1347.351708
 20
1806.334999
 70
0
 42
0.408197
  0
VERTEX
  8
0
 10
1347.850193
 20
1806.738868
 70
0
  0
SEQEND
  0
POLYLINE
  8
0
  6
CONTINUOUS
 62
1
 66
1
 70
2
  0
VERTEX
  8
0
 10
1345.202184
 20
1808.762011
 70
0
 42
-0.186677
  0
VERTEX
  8
0
 10
1347.190193
 20
1808.298868
 70
0
  0
SEQEND
  0
POLYLINE
  8
0
  6
CONTINUOUS
 62
1
 66
1
 70
2
  0
VERTEX
  8
0
 10
1352.226311
 20
1808.762011
 70
0
 42
0.066109
  0
VERTEX
  8
0
 10
1350.736787
 20
1808.589023
 70
0
 42
0.408197
  0
VERTEX
  8
0
 10
1350.238302
 20
1808.185154
 70
0
  0
SEQEND
  0
POLYLINE
  8
0
  6
CONTINUOUS
 62
1
 66
1
 70
2
  0
VERTEX
  8
0
 10
1350.898302
 20
1806.625154
 70
0
 42
0.186677
  0
VERTEX
  8
0
 10
1352.886311
 20
1806.162011
 70
0
  0
SEQEND
  0
POLYLINE
  8
0
  6
CONTINUOUS
 62
1
 66
1
 70
2
  0
VERTEX
  8
0
 10
1367.102184
 20
1806.162011
 70
0
 42
0.186677
  0
VERTEX
  8
0
 10
1369.090193
 20
1806.625154
 70
0
  0
SEQEND
  0
POLYLINE
  8
0
  6
CONTINUOUS
 62
1
 66
1
 70
2
  0
VERTEX
  8
0
 10
1369.750193
 20
1808.185154
 70
0
 42
0.408197
  0
VERTEX
  8
0
 10
1369.251708
 20
1808.589023
 70
0
 42
0.066109
  0
VERTEX
  8
0
 10
1367.762184
 20
1808.762011
 70
0
  0
SEQEND
  0
LINE
  8
0
  6
CONTINUOUS
 62
1
 10
1356.152184
 20
1805.382011
 11
1341.936311
 21
1805.382011
  0
LINE
  8
0
  6
CONTINUOUS
 62
1
 10
1320.036311
 20
1802.782011
 11
1334.252184
 21
1802.782011
  0
LINE
  8
0
  6
CONTINUOUS
 62
1
 10
1341.276311
 20
1802.782011
 11
1356.812184
 21
1802.782011
  0
LINE
  8
0
  6
CONTINUOUS
 62
1
 10
1339.948302
 20
1804.918868
 11
1339.288302
 21
1803.358868
  0
LINE
  8
0
  6
CONTINUOUS
 62
1
 10
1358.140193
 20
1804.918868
 11
1358.800193
 21
1803.358868
  0
LINE
  8
0
  6
CONTINUOUS
 62
1
 10
1318.048302
 20
1803.245154
 11
1317.388302
 21
1804.805154
  0
LINE
  8
0
  6
CONTINUOUS
 62
1
 10
1336.240193
 20
1803.245154
 11
1336.900193
 21
1804.805154
  0
LINE
  8
0
  6
CONTINUOUS
 62
1
 10
1334.912184
 20
1805.382011
 11
1319.376311
 21
1805.382011
  0
POLYLINE
  8
0
  6
CONTINUOUS
 62
1
 66
1
 70
2
  0
VERTEX
  8
0
 10
1320.036311
 20
1802.782011
 70
0
 42
-0.186677
  0
VERTEX
  8
0
 10
1318.048302
 20
1803.245154
 70
0
  0
SEQEND
  0
POLYLINE
  8
0
  6
CONTINUOUS
 62
1
 66
1
 70
2
  0
VERTEX
  8
0
 10
1317.388302
 20
1804.805154
 70
0
 42
-0.408197
  0
VERTEX
  8
0
 10
1317.886787
 20
1805.209023
 70
0
 42
-0.066109
  0
VERTEX
  8
0
 10
1319.376311
 20
1805.382011
 70
0
  0
SEQEND
  0
POLYLINE
  8
0
  6
CONTINUOUS
 62
1
 66
1
 70
2
  0
VERTEX
  8
0
 10
1334.912184
 20
1805.382011
 70
0
 42
-0.066109
  0
VERTEX
  8
0
 10
1336.401708
 20
1805.209023
 70
0
 42
-0.408197
  0
VERTEX
  8
0
 10
1336.900193
 20
1804.805154
 70
0
  0
SEQEND
  0
POLYLINE
  8
0
  6
CONTINUOUS
 62
1
 66
1
 70
2
  0
VERTEX
  8
0
 10
1334.252184
 20
1802.782011
 70
0
 42
0.186677
  0
VERTEX
  8
0
 10
1336.240193
 20
1803.245154
 70
0
  0
SEQEND
  0
POLYLINE
  8
0
  6
CONTINUOUS
 62
1
 66
1
 70
2
  0
VERTEX
  8
0
 10
1341.276311
 20
1802.782011
 70
0
 42
-0.066109
  0
VERTEX
  8
0
 10
1339.786787
 20
1802.954999
 70
0
 42
-0.408197
  0
VERTEX
  8
0
 10
1339.288302
 20
1803.358868
 70
0
  0
SEQEND
  0
POLYLINE
  8
0
  6
CONTINUOUS
 62
1
 66
1
 70
2
  0
VERTEX
  8
0
 10
1339.948302
 20
1804.918868
 70
0
 42
-0.186677
  0
VERTEX
  8
0
 10
1341.936311
 20
1805.382011
 70
0
  0
SEQEND
  0
POLYLINE
  8
0
  6
CONTINUOUS
 62
1
 66
1
 70
2
  0
VERTEX
  8
0
 10
1356.152184
 20
1805.382011
 70
0
 42
-0.186677
  0
VERTEX
  8
0
 10
1358.140193
 20
1804.918868
 70
0
  0
SEQEND
  0
POLYLINE
  8
0
  6
CONTINUOUS
 62
1
 66
1
 70
2
  0
VERTEX
  8
0
 10
1358.800193
 20
1803.358868
 70
0
 42
-0.408197
  0
VERTEX
  8
0
 10
1358.301708
 20
1802.954999
 70
0
 42
-0.066109
  0
VERTEX
  8
0
 10
1356.812184
 20
1802.782011
 70
0
  0
SEQEND
  0
LINE
  8
0
  6
CONTINUOUS
 62
1
 10
1410.902184
 20
1806.162011
 11
1396.686311
 21
1806.162011
  0
LINE
  8
0
  6
CONTINUOUS
 62
1
 10
1374.786311
 20
1808.762011
 11
1389.002184
 21
1808.762011
  0
LINE
  8
0
  6
CONTINUOUS
 62
1
 10
1396.026311
 20
1808.762011
 11
1411.562184
 21
1808.762011
  0
LINE
  8
0
  6
CONTINUOUS
 62
1
 10
1394.698302
 20
1806.625154
 11
1394.038302
 21
1808.185154
  0
LINE
  8
0
  6
CONTINUOUS
 62
1
 10
1412.890193
 20
1806.625154
 11
1413.550193
 21
1808.185154
  0
LINE
  8
0
  6
CONTINUOUS
 62
1
 10
1372.798302
 20
1808.298868
 11
1372.138302
 21
1806.738868
  0
LINE
  8
0
  6
CONTINUOUS
 62
1
 10
1390.990193
 20
1808.298868
 11
1391.650193
 21
1806.738868
  0
LINE
  8
0
  6
CONTINUOUS
 62
1
 10
1389.662184
 20
1806.162011
 11
1374.126311
 21
1806.162011
  0
POLYLINE
  8
0
  6
CONTINUOUS
 62
1
 66
1
 70
2
  0
VERTEX
  8
0
 10
1374.786311
 20
1808.762011
 70
0
 42
0.186677
  0
VERTEX
  8
0
 10
1372.798302
 20
1808.298868
 70
0
  0
SEQEND
  0
POLYLINE
  8
0
  6
CONTINUOUS
 62
1
 66
1
 70
2
  0
VERTEX
  8
0
 10
1372.138302
 20
1806.738868
 70
0
 42
0.408197
  0
VERTEX
  8
0
 10
1372.636787
 20
1806.334999
 70
0
 42
0.066109
  0
VERTEX
  8
0
 10
1374.126311
 20
1806.162011
 70
0
  0
SEQEND
  0
POLYLINE
  8
0
  6
CONTINUOUS
 62
1
 66
1
 70
2
  0
VERTEX
  8
0
 10
1389.662184
 20
1806.162011
 70
0
 42
0.066109
  0
VERTEX
  8
0
 10
1391.151708
 20
1806.334999
 70
0
 42
0.408197
  0
VERTEX
  8
0
 10
1391.650193
 20
1806.738868
 70
0
  0
SEQEND
  0
POLYLINE
  8
0
  6
CONTINUOUS
 62
1
 66
1
 70
2
  0
VERTEX
  8
0
 10
1389.002184
 20
1808.762011
 70
0
 42
-0.186677
  0
VERTEX
  8
0
 10
1390.990193
 20
1808.298868
 70
0
  0
SEQEND
  0
POLYLINE
  8
0
  6
CONTINUOUS
 62
1
 66
1
 70
2
  0
VERTEX
  8
0
 10
1396.026311
 20
1808.762011
 70
0
 42
0.066109
  0
VERTEX
  8
0
 10
1394.536787
 20
1808.589023
 70
0
 42
0.408197
  0
VERTEX
  8
0
 10
1394.038302
 20
1808.185154
 70
0
  0
SEQEND
  0
POLYLINE
  8
0
  6
CONTINUOUS
 62
1
 66
1
 70
2
  0
VERTEX
  8
0
 10
1394.698302
 20
1806.625154
 70
0
 42
0.186677
  0
VERTEX
  8
0
 10
1396.686311
 20
1806.162011
 70
0
  0
SEQEND
  0
POLYLINE
  8
0
  6
CONTINUOUS
 62
1
 66
1
 70
2
  0
VERTEX
  8
0
 10
1410.902184
 20
1806.162011
 70
0
 42
0.186677
  0
VERTEX
  8
0
 10
1412.890193
 20
1806.625154
 70
0
  0
SEQEND
  0
POLYLINE
  8
0
  6
CONTINUOUS
 62
1
 66
1
 70
2
  0
VERTEX
  8
0
 10
1413.550193
 20
1808.185154
 70
0
 42
0.408197
  0
VERTEX
  8
0
 10
1413.051708
 20
1808.589023
 70
0
 42
0.066109
  0
VERTEX
  8
0
 10
1411.562184
 20
1808.762011
 70
0
  0
SEQEND
  0
LINE
  8
0
  6
CONTINUOUS
 62
1
 10
1399.952184
 20
1805.382011
 11
1385.736311
 21
1805.382011
  0
LINE
  8
0
  6
CONTINUOUS
 62
1
 10
1363.836311
 20
1802.782011
 11
1378.052184
 21
1802.782011
  0
LINE
  8
0
  6
CONTINUOUS
 62
1
 10
1385.076311
 20
1802.782011
 11
1400.612184
 21
1802.782011
  0
LINE
  8
0
  6
CONTINUOUS
 62
1
 10
1383.748302
 20
1804.918868
 11
1383.088302
 21
1803.358868
  0
LINE
  8
0
  6
CONTINUOUS
 62
1
 10
1401.940193
 20
1804.918868
 11
1402.600193
 21
1803.358868
  0
LINE
  8
0
  6
CONTINUOUS
 62
1
 10
1361.848302
 20
1803.245154
 11
1361.188302
 21
1804.805154
  0
LINE
  8
0
  6
CONTINUOUS
 62
1
 10
1380.040193
 20
1803.245154
 11
1380.700193
 21
1804.805154
  0
LINE
  8
0
  6
CONTINUOUS
 62
1
 10
1378.712184
 20
1805.382011
 11
1363.176311
 21
1805.382011
  0
POLYLINE
  8
0
  6
CONTINUOUS
 62
1
 66
1
 70
2
  0
VERTEX
  8
0
 10
1363.836311
 20
1802.782011
 70
0
 42
-0.186677
  0
VERTEX
  8
0
 10
1361.848302
 20
1803.245154
 70
0
  0
SEQEND
  0
POLYLINE
  8
0
  6
CONTINUOUS
 62
1
 66
1
 70
2
  0
VERTEX
  8
0
 10
1361.188302
 20
1804.805154
 70
0
 42
-0.408197
  0
VERTEX
  8
0
 10
1361.686787
 20
1805.209023
 70
0
 42
-0.066109
  0
VERTEX
  8
0
 10
1363.176311
 20
1805.382011
 70
0
  0
SEQEND
  0
POLYLINE
  8
0
  6
CONTINUOUS
 62
1
 66
1
 70
2
  0
VERTEX
  8
0
 10
1378.712184
 20
1805.382011
 70
0
 42
-0.066109
  0
VERTEX
  8
0
 10
1380.201708
 20
1805.209023
 70
0
 42
-0.408197
  0
VERTEX
  8
0
 10
1380.700193
 20
1804.805154
 70
0
  0
SEQEND
  0
POLYLINE
  8
0
  6
CONTINUOUS
 62
1
 66
1
 70
2
  0
VERTEX
  8
0
 10
1378.052184
 20
1802.782011
 70
0
 42
0.186677
  0
VERTEX
  8
0
 10
1380.040193
 20
1803.245154
 70
0
  0
SEQEND
  0
POLYLINE
  8
0
  6
CONTINUOUS
 62
1
 66
1
 70
2
  0
VERTEX
  8
0
 10
1385.076311
 20
1802.782011
 70
0
 42
-0.066109
  0
VERTEX
  8
0
 10
1383.586787
 20
1802.954999
 70
0
 42
-0.408197
  0
VERTEX
  8
0
 10
1383.088302
 20
1803.358868
 70
0
  0
SEQEND
  0
POLYLINE
  8
0
  6
CONTINUOUS
 62
1
 66
1
 70
2
  0
VERTEX
  8
0
 10
1383.748302
 20
1804.918868
 70
0
 42
-0.186677
  0
VERTEX
  8
0
 10
1385.736311
 20
1805.382011
 70
0
  0
SEQEND
  0
POLYLINE
  8
0
  6
CONTINUOUS
 62
1
 66
1
 70
2
  0
VERTEX
  8
0
 10
1399.952184
 20
1805.382011
 70
0
 42
-0.186677
  0
VERTEX
  8
0
 10
1401.940193
 20
1804.918868
 70
0
  0
SEQEND
  0
POLYLINE
  8
0
  6
CONTINUOUS
 62
1
 66
1
 70
2
  0
VERTEX
  8
0
 10
1402.600193
 20
1803.358868
 70
0
 42
-0.408197
  0
VERTEX
  8
0
 10
1402.101708
 20
1802.954999
 70
0
 42
-0.066109
  0
VERTEX
  8
0
 10
1400.612184
 20
1802.782011
 70
0
  0
SEQEND
  0
LINE
  8
0
  6
CONTINUOUS
 62
4
 10
1117.044248
 20
1802.782011
 11
1117.095083
 21
1802.902167
  0
LINE
  8
0
  6
CONTINUOUS
 62
4
 10
1116.463628
 20
1802.782011
 11
1117.044248
 21
1802.782011
  0
LINE
  8
0
  6
CONTINUOUS
 62
4
 10
1120.044248
 20
1802.782011
 11
1120.831502
 21
1802.782011
  0
LINE
  8
0
  6
CONTINUOUS
 62
4
 10
1120.125751
 20
1802.974655
 11
1120.044248
 21
1802.782011
  0
LINE
  8
0
  6
CONTINUOUS
 62
1
 10
1240.939566
 20
1756.437875
 11
943.827714
 21
1756.437875
  0
LINE
  8
0
  6
CONTINUOUS
 62
1
 10
1540.939566
 20
1756.437875
 11
1246.715403
 21
1756.437875
  0
LINE
  8
0
  6
CONTINUOUS
 62
1
 10
1078.152230
 20
1648.737875
 11
1266.003794
 21
1648.737875
  0
LINE
  8
0
  6
CONTINUOUS
 62
1
 10
1078.152230
 20
1618.737875
 11
1266.003794
 21
1618.737875
  0
ARC
  8
0
  6
CONTINUOUS
 62
1
 10
1116.578296
 20
1633.737875
 40
46.250000
 50
168.239471
 51
191.760529
  0
ARC
  8
0
  6
CONTINUOUS
 62
1
 10
1078.152230
 20
1641.737875
 40
7.000000
 50
90.000000
 51
168.239471
  0
ARC
  8
0
  6
CONTINUOUS
 62
1
 10
1078.152230
 20
1625.737875
 40
7.000000
 50
191.760529
 51
270.000000
  0
ARC
  8
0
  6
CONTINUOUS
 62
1
 10
1227.577729
 20
1633.737875
 40
46.250000
 50
348.239471
 51
11.760529
  0
ARC
  8
0
  6
CONTINUOUS
 62
1
 10
1266.003794
 20
1625.737875
 40
7.000000
 50
270.000000
 51
348.239471
  0
ARC
  8
0
  6
CONTINUOUS
 62
1
 10
1266.003794
 20
1641.737875
 40
7.000000
 50
11.760529
 51
90.000000
  0
LINE
  8
0
  6
CONTINUOUS
 62
1
 10
1609.503227
 20
1648.737875
 11
1421.651664
 21
1648.737875
  0
LINE
  8
0
  6
CONTINUOUS
 62
1
 10
1609.503227
 20
1618.737875
 11
1421.651664
 21
1618.737875
  0
ARC
  8
0
  6
CONTINUOUS
 62
1
 10
1571.077162
 20
1633.737875
 40
46.250000
 50
348.239471
 51
11.760529
  0
ARC
  8
0
  6
CONTINUOUS
 62
1
 10
1609.503227
 20
1641.737875
 40
7.000000
 50
11.760529
 51
90.000000
  0
ARC
  8
0
  6
CONTINUOUS
 62
1
 10
1609.503227
 20
1625.737875
 40
7.000000
 50
270.000000
 51
348.239471
  0
ARC
  8
0
  6
CONTINUOUS
 62
1
 10
1460.077729
 20
1633.737875
 40
46.250000
 50
168.239471
 51
191.760529
  0
ARC
  8
0
  6
CONTINUOUS
 62
1
 10
1421.651664
 20
1625.737875
 40
7.000000
 50
191.760529
 51
270.000000
  0
ARC
  8
0
  6
CONTINUOUS
 62
1
 10
1421.651664
 20
1641.737875
 40
7.000000
 50
90.000000
 51
168.239471
  0
LINE
  8
0
  6
CONTINUOUS
 62
1
 10
1426.961000
 20
1772.720380
 11
1396.541401
 21
1772.720380
  0
LINE
  8
0
  6
CONTINUOUS
 62
1
 10
1428.702315
 20
1774.296248
 11
1429.602315
 21
1783.296248
  0
ARC
  8
0
  6
CONTINUOUS
 62
1
 10
1361.728456
 20
1783.470380
 40
1.750000
 50
90.000000
 51
185.710593
  0
ARC
  8
0
  6
CONTINUOUS
 62
1
 10
1362.628456
 20
1774.470380
 40
1.750000
 50
185.710593
 51
270.000000
  0
ARC
  8
0
  6
CONTINUOUS
 62
1
 10
1427.861000
 20
1783.470380
 40
1.750000
 50
354.289407
 51
90.000000
  0
ARC
  8
0
  6
CONTINUOUS
 62
1
 10
1426.961000
 20
1774.470380
 40
1.750000
 50
270.000000
 51
354.289407
  0
LINE
  8
0
  6
CONTINUOUS
 62
1
 10
1427.861000
 20
1784.220380
 11
1361.728456
 21
1784.220380
  0
LINE
  8
0
  6
CONTINUOUS
 62
1
 10
1361.882179
 20
1774.395752
 11
1360.982179
 21
1783.395752
  0
ARC
  8
0
  6
CONTINUOUS
 62
1
 10
1362.628456
 20
1774.470380
 40
0.750000
 50
185.710593
 51
270.000000
  0
ARC
  8
0
  6
CONTINUOUS
 62
1
 10
1361.728456
 20
1783.470380
 40
0.750000
 50
90.000000
 51
185.710593
  0
LINE
  8
0
  6
CONTINUOUS
 62
1
 10
1362.628456
 20
1773.720380
 11
1396.358328
 21
1773.720380
  0
ARC
  8
0
  6
CONTINUOUS
 62
1
 10
1426.961000
 20
1774.470380
 40
0.750000
 50
270.000000
 51
354.289407
  0
LINE
  8
0
  6
CONTINUOUS
 62
1
 10
1428.607278
 20
1783.395752
 11
1427.707278
 21
1774.395752
  0
ARC
  8
0
  6
CONTINUOUS
 62
1
 10
1427.861000
 20
1783.470380
 40
0.750000
 50
354.289407
 51
90.000000
  0
LINE
  8
0
  6
CONTINUOUS
 62
1
 10
1361.728456
 20
1785.220380
 11
1427.861000
 21
1785.220380
  0
LINE
  8
0
  6
CONTINUOUS
 62
1
 10
1359.987141
 20
1783.296248
 11
1360.887141
 21
1774.296248
  0
LINE
  8
0
  6
CONTINUOUS
 62
1
 10
1363.807902
 20
1779.236630
 11
1363.807902
 21
1781.632880
  0
LINE
  8
0
  6
CONTINUOUS
 62
1
 10
1363.807902
 20
1781.632880
 11
1366.071027
 21
1781.632880
  0
LINE
  8
0
  6
CONTINUOUS
 62
1
 10
1366.071027
 20
1781.632880
 11
1368.001339
 21
1781.632880
  0
ARC
  8
0
  6
CONTINUOUS
 62
1
 10
1368.133039
 20
1778.197070
 40
3.438332
 50
67.195153
 51
92.195154
  0
ARC
  8
0
  6
CONTINUOUS
 62
1
 10
1368.727665
 20
1780.110234
 40
1.457137
 50
15.568594
 51
59.568592
  0
ARC
  8
0
  6
CONTINUOUS
 62
1
 10
1365.109312
 20
1779.067778
 40
5.222623
 50
358.931407
 51
15.931408
  0
ARC
  8
0
  6
CONTINUOUS
 62
1
 10
1365.109312
 20
1778.872981
 40
5.222623
 50
344.068591
 51
1.068592
  0
ARC
  8
0
  6
CONTINUOUS
 62
1
 10
1368.709558
 20
1777.849853
 40
1.479831
 50
294.898706
 51
343.898705
  0
ARC
  8
0
  6
CONTINUOUS
 62
1
 10
1368.056383
 20
1780.433466
 40
4.128121
 50
272.007979
 51
288.007980
  0
LINE
  8
0
  6
CONTINUOUS
 62
1
 10
1368.201027
 20
1776.307880
 11
1365.871339
 21
1776.307880
  0
LINE
  8
0
  6
CONTINUOUS
 62
1
 10
1365.871339
 20
1776.307880
 11
1363.807902
 21
1776.307880
  0
LINE
  8
0
  6
CONTINUOUS
 62
1
 10
1363.807902
 20
1776.307880
 11
1363.807902
 21
1779.236630
  0
ARC
  8
0
  6
CONTINUOUS
 62
1
 10
1374.260518
 20
1778.105528
 40
2.931820
 50
181.309932
 51
201.309932
  0
ARC
  8
0
  6
CONTINUOUS
 62
1
 10
1383.078793
 20
1778.953261
 40
11.784885
 50
172.451842
 51
184.451842
  0
ARC
  8
0
  6
CONTINUOUS
 62
1
 10
1372.549639
 20
1780.397146
 40
1.158306
 50
107.840192
 51
174.840192
  0
ARC
  8
0
  6
CONTINUOUS
 62
1
 10
1373.178363
 20
1778.061048
 40
3.576611
 50
92.962322
 51
105.962322
  0
ARC
  8
0
  6
CONTINUOUS
 62
1
 10
1374.757433
 20
1741.232784
 40
40.438584
 50
87.500000
 51
92.500000
  0
ARC
  8
0
  6
CONTINUOUS
 62
1
 10
1376.129045
 20
1778.752278
 40
2.907192
 50
67.244882
 51
82.244881
  0
ARC
  8
0
  6
CONTINUOUS
 62
1
 10
1376.734629
 20
1780.509059
 40
1.059848
 50
21.685924
 51
60.685925
  0
ARC
  8
0
  6
CONTINUOUS
 62
1
 10
1375.176845
 20
1779.868513
 40
2.744140
 50
2.094757
 51
22.094757
  0
ARC
  8
0
  6
CONTINUOUS
 62
1
 10
1366.169823
 20
1779.054061
 40
11.784885
 50
352.451842
 51
4.451842
  0
ARC
  8
0
  6
CONTINUOUS
 62
1
 10
1376.246083
 20
1777.706671
 40
1.618990
 50
321.880135
 51
352.880135
  0
ARC
  8
0
  6
CONTINUOUS
 62
1
 10
1376.591905
 20
1777.776760
 40
1.415905
 50
277.943953
 51
310.943955
  0
ARC
  8
0
  6
CONTINUOUS
 62
1
 10
1375.066958
 20
1786.646608
 40
10.415276
 50
272.509006
 51
279.509006
  0
LINE
  8
0
  6
CONTINUOUS
 62
1
 10
1375.522902
 20
1776.241317
 11
1373.126652
 21
1776.241317
  0
ARC
  8
0
  6
CONTINUOUS
 62
1
 10
1373.257822
 20
1779.493104
 40
3.254431
 50
249.690068
 51
267.690068
  0
ARC
  8
0
  6
CONTINUOUS
 62
1
 10
1372.570049
 20
1777.481902
 40
1.130789
 50
203.000001
 51
247.000000
  0
LINE
  8
0
  6
CONTINUOUS
 62
1
 10
1380.532902
 20
1776.307880
 11
1379.050714
 21
1776.307880
  0
LINE
  8
0
  6
CONTINUOUS
 62
1
 10
1379.050714
 20
1776.307880
 11
1379.050714
 21
1779.036942
  0
LINE
  8
0
  6
CONTINUOUS
 62
1
 10
1379.050714
 20
1779.036942
 11
1379.050714
 21
1781.632880
  0
LINE
  8
0
  6
CONTINUOUS
 62
1
 10
1379.050714
 20
1781.632880
 11
1381.128959
 21
1781.632880
  0
LINE
  8
0
  6
CONTINUOUS
 62
1
 10
1385.352301
 20
1781.632880
 11
1387.371027
 21
1781.632880
  0
LINE
  8
0
  6
CONTINUOUS
 62
1
 10
1387.371027
 20
1781.632880
 11
1387.371027
 21
1778.903817
  0
LINE
  8
0
  6
CONTINUOUS
 62
1
 10
1387.371027
 20
1778.903817
 11
1387.371027
 21
1776.307880
  0
LINE
  8
0
  6
CONTINUOUS
 62
1
 10
1387.371027
 20
1776.307880
 11
1385.888839
 21
1776.307880
  0
LINE
  8
0
  6
CONTINUOUS
 62
1
 10
1385.888839
 20
1779.875536
 11
1383.510402
 21
1776.307880
  0
LINE
  8
0
  6
CONTINUOUS
 62
1
 10
1383.510402
 20
1776.307880
 11
1382.977902
 21
1776.307880
  0
LINE
  8
0
  6
CONTINUOUS
 62
1
 10
1382.977902
 20
1776.307880
 11
1381.513527
 21
1778.437880
  0
LINE
  8
0
  6
CONTINUOUS
 62
1
 10
1381.513527
 20
1778.437880
 11
1380.532902
 21
1779.871101
  0
LINE
  8
0
  6
CONTINUOUS
 62
1
 10
1388.327277
 20
1781.632880
 11
1389.742902
 21
1781.632880
  0
LINE
  8
0
  6
CONTINUOUS
 62
1
 10
1389.742902
 20
1776.307880
 11
1388.327277
 21
1776.307880
  0
LINE
  8
0
  6
CONTINUOUS
 62
1
 10
1390.632589
 20
1779.436317
 11
1390.632589
 21
1781.632880
  0
LINE
  8
0
  6
CONTINUOUS
 62
1
 10
1390.632589
 20
1781.632880
 11
1392.691687
 21
1781.632880
  0
LINE
  8
0
  6
CONTINUOUS
 62
1
 10
1395.540402
 20
1781.632880
 11
1396.956027
 21
1781.632880
  0
LINE
  8
0
  6
CONTINUOUS
 62
1
 10
1396.956027
 20
1781.632880
 11
1396.956027
 21
1779.103505
  0
LINE
  8
0
  6
CONTINUOUS
 62
1
 10
1396.956027
 20
1779.103505
 11
1396.956027
 21
1776.307880
  0
LINE
  8
0
  6
CONTINUOUS
 62
1
 10
1396.956027
 20
1776.307880
 11
1395.957589
 21
1776.307880
  0
LINE
  8
0
  6
CONTINUOUS
 62
1
 10
1395.957589
 20
1776.307880
 11
1392.048214
 21
1780.217255
  0
LINE
  8
0
  6
CONTINUOUS
 62
1
 10
1392.048214
 20
1776.307880
 11
1390.632589
 21
1776.307880
  0
LINE
  8
0
  6
CONTINUOUS
 62
1
 10
1390.632589
 20
1776.307880
 11
1390.632589
 21
1779.436317
  0
LINE
  8
0
  6
CONTINUOUS
 62
1
 10
1399.485402
 20
1779.436317
 11
1400.750089
 21
1781.632880
  0
LINE
  8
0
  6
CONTINUOUS
 62
1
 10
1400.750089
 20
1781.632880
 11
1401.681964
 21
1781.632880
  0
LINE
  8
0
  6
CONTINUOUS
 62
1
 10
1401.681964
 20
1781.632880
 11
1403.146339
 21
1779.170067
  0
LINE
  8
0
  6
CONTINUOUS
 62
1
 10
1403.146339
 20
1779.170067
 11
1404.743839
 21
1776.307880
  0
LINE
  8
0
  6
CONTINUOUS
 62
1
 10
1404.743839
 20
1776.307880
 11
1403.159366
 21
1776.307880
  0
LINE
  8
0
  6
CONTINUOUS
 62
1
 10
1399.368734
 20
1776.307880
 11
1397.754777
 21
1776.307880
  0
LINE
  8
0
  6
CONTINUOUS
 62
1
 10
1397.754777
 20
1776.307880
 11
1399.485402
 21
1779.436317
  0
LINE
  8
0
  6
CONTINUOUS
 62
1
 10
1408.846339
 20
1776.307880
 11
1407.364152
 21
1776.307880
  0
LINE
  8
0
  6
CONTINUOUS
 62
1
 10
1405.143214
 20
1780.283817
 11
1405.143214
 21
1781.632880
  0
LINE
  8
0
  6
CONTINUOUS
 62
1
 10
1405.143214
 20
1781.632880
 11
1408.138527
 21
1781.632880
  0
LINE
  8
0
  6
CONTINUOUS
 62
1
 10
1408.138527
 20
1781.632880
 11
1411.067277
 21
1781.632880
  0
LINE
  8
0
  6
CONTINUOUS
 62
1
 10
1411.067277
 20
1781.632880
 11
1411.067277
 21
1780.283817
  0
ARC
  8
0
  6
CONTINUOUS
 62
1
 10
1414.797081
 20
1778.105528
 40
2.931820
 50
181.309932
 51
201.309932
  0
ARC
  8
0
  6
CONTINUOUS
 62
1
 10
1423.615356
 20
1778.953261
 40
11.784885
 50
172.451842
 51
184.451842
  0
ARC
  8
0
  6
CONTINUOUS
 62
1
 10
1413.086202
 20
1780.397146
 40
1.158306
 50
107.840192
 51
174.840192
  0
ARC
  8
0
  6
CONTINUOUS
 62
1
 10
1413.714926
 20
1778.061048
 40
3.576611
 50
92.962322
 51
105.962322
  0
ARC
  8
0
  6
CONTINUOUS
 62
1
 10
1415.293996
 20
1741.232784
 40
40.438584
 50
87.500000
 51
92.500000
  0
ARC
  8
0
  6
CONTINUOUS
 62
1
 10
1416.665607
 20
1778.752278
 40
2.907192
 50
67.244882
 51
82.244881
  0
ARC
  8
0
  6
CONTINUOUS
 62
1
 10
1417.271191
 20
1780.509059
 40
1.059848
 50
21.685924
 51
60.685925
  0
ARC
  8
0
  6
CONTINUOUS
 62
1
 10
1415.713408
 20
1779.868513
 40
2.744140
 50
2.094757
 51
22.094757
  0
ARC
  8
0
  6
CONTINUOUS
 62
1
 10
1406.706385
 20
1779.054061
 40
11.784885
 50
352.451842
 51
4.451842
  0
ARC
  8
0
  6
CONTINUOUS
 62
1
 10
1416.782646
 20
1777.706671
 40
1.618990
 50
321.880135
 51
352.880135
  0
ARC
  8
0
  6
CONTINUOUS
 62
1
 10
1417.128468
 20
1777.776760
 40
1.415905
 50
277.943953
 51
310.943955
  0
ARC
  8
0
  6
CONTINUOUS
 62
1
 10
1415.603521
 20
1786.646608
 40
10.415276
 50
272.509006
 51
279.509006
  0
LINE
  8
0
  6
CONTINUOUS
 62
1
 10
1416.059464
 20
1776.241317
 11
1413.663214
 21
1776.241317
  0
ARC
  8
0
  6
CONTINUOUS
 62
1
 10
1413.794384
 20
1779.493104
 40
3.254431
 50
249.690068
 51
267.690068
  0
ARC
  8
0
  6
CONTINUOUS
 62
1
 10
1413.106611
 20
1777.481902
 40
1.130789
 50
203.000001
 51
247.000000
  0
LINE
  8
0
  6
CONTINUOUS
 62
1
 10
1419.720402
 20
1778.970380
 11
1419.720402
 21
1781.632880
  0
LINE
  8
0
  6
CONTINUOUS
 62
1
 10
1419.720402
 20
1781.632880
 11
1421.983527
 21
1781.632880
  0
LINE
  8
0
  6
CONTINUOUS
 62
1
 10
1421.983527
 20
1781.632880
 11
1424.246652
 21
1781.632880
  0
ARC
  8
0
  6
CONTINUOUS
 62
1
 10
1424.286888
 20
1779.411483
 40
2.221762
 50
70.037678
 51
91.037678
  0
ARC
  8
0
  6
CONTINUOUS
 62
1
 10
1424.656058
 20
1780.511349
 40
1.062325
 50
21.499998
 51
68.500000
  0
ARC
  8
0
  6
CONTINUOUS
 62
1
 10
1423.257311
 20
1780.090541
 40
2.520882
 50
358.746162
 51
18.746162
  0
ARC
  8
0
  6
CONTINUOUS
 62
1
 10
1423.759441
 20
1779.902967
 40
2.022488
 50
338.753837
 51
3.753838
  0
ARC
  8
0
  6
CONTINUOUS
 62
1
 10
1424.651125
 20
1779.766280
 40
1.158531
 50
283.027374
 51
329.027373
  0
ARC
  8
0
  6
CONTINUOUS
 62
1
 10
1424.806915
 20
1777.707589
 40
0.935927
 50
34.536244
 51
83.536243
  0
ARC
  8
0
  6
CONTINUOUS
 62
1
 10
1424.078705
 20
1777.592228
 40
1.632441
 50
359.309933
 51
23.309932
  0
LINE
  8
0
  6
CONTINUOUS
 62
1
 10
1425.711027
 20
1777.572567
 11
1425.711027
 21
1776.307880
  0
LINE
  8
0
  6
CONTINUOUS
 62
1
 10
1425.711027
 20
1776.307880
 11
1424.228839
 21
1776.307880
  0
LINE
  8
0
  6
CONTINUOUS
 62
1
 10
1421.136027
 20
1776.307880
 11
1419.720402
 21
1776.307880
  0
LINE
  8
0
  6
CONTINUOUS
 62
1
 10
1419.720402
 20
1776.307880
 11
1419.720402
 21
1778.970380
  0
LINE
  8
0
  6
CONTINUOUS
 62
1
 10
1365.223527
 20
1777.656942
 11
1365.223527
 21
1780.283817
  0
LINE
  8
0
  6
CONTINUOUS
 62
1
 10
1365.223527
 20
1780.283817
 11
1367.801652
 21
1780.283817
  0
LINE
  8
0
  6
CONTINUOUS
 62
1
 10
1368.201027
 20
1777.656942
 11
1365.223527
 21
1777.656942
  0
ARC
  8
0
  6
CONTINUOUS
 62
1
 10
1368.298505
 20
1778.278569
 40
0.625086
 50
265.934949
 51
310.934948
  0
ARC
  8
0
  6
CONTINUOUS
 62
1
 10
1368.310324
 20
1778.100340
 40
0.487408
 50
315.934949
 51
350.934948
  0
ARC
  8
0
  6
CONTINUOUS
 62
1
 10
1363.303614
 20
1779.003661
 40
5.574750
 50
350.000000
 51
10.000000
  0
ARC
  8
0
  6
CONTINUOUS
 62
1
 10
1368.118233
 20
1779.708342
 40
0.717801
 50
15.554604
 51
42.554604
  0
ARC
  8
0
  6
CONTINUOUS
 62
1
 10
1368.546591
 20
1780.060884
 40
0.164329
 50
44.434949
 51
82.434950
  0
ARC
  8
0
  6
CONTINUOUS
 62
1
 10
1367.599264
 20
1772.744963
 40
7.541325
 50
82.601295
 51
88.601295
  0
ARC
  8
0
  6
CONTINUOUS
 62
1
 10
1374.381333
 20
1755.299556
 40
25.018156
 50
86.270740
 51
92.597722
  0
ARC
  8
0
  6
CONTINUOUS
 62
1
 10
1374.577759
 20
1790.709320
 40
13.118947
 50
264.068276
 51
270.054813
  0
ARC
  8
0
  6
CONTINUOUS
 62
1
 10
1374.743708
 20
1789.593293
 40
12.003827
 50
269.314075
 51
276.164339
  0
ARC
  8
0
  6
CONTINUOUS
 62
1
 10
1386.232851
 20
1779.003661
 40
13.486742
 50
176.517529
 51
183.733858
  0
ARC
  8
0
  6
CONTINUOUS
 62
1
 10
1363.015765
 20
1778.937098
 40
13.486742
 50
356.551732
 51
3.658589
  0
ARC
  8
0
  6
CONTINUOUS
 62
1
 10
1373.270090
 20
1779.792517
 40
0.500000
 50
92.597722
 51
176.517529
  0
ARC
  8
0
  6
CONTINUOUS
 62
1
 10
1375.976041
 20
1779.765796
 40
0.500000
 50
3.658589
 51
86.270740
  0
ARC
  8
0
  6
CONTINUOUS
 62
1
 10
1375.978995
 20
1778.155981
 40
0.500000
 50
276.164339
 51
356.551732
  0
ARC
  8
0
  6
CONTINUOUS
 62
1
 10
1373.273676
 20
1778.157938
 40
0.500000
 50
183.733858
 51
264.068276
  0
ARC
  8
0
  6
CONTINUOUS
 62
1
 10
1414.917895
 20
1755.299556
 40
25.018156
 50
86.270740
 51
92.597722
  0
ARC
  8
0
  6
CONTINUOUS
 62
1
 10
1415.114321
 20
1790.709320
 40
13.118947
 50
264.068276
 51
270.054813
  0
ARC
  8
0
  6
CONTINUOUS
 62
1
 10
1415.280270
 20
1789.593293
 40
12.003827
 50
269.314075
 51
276.164339
  0
ARC
  8
0
  6
CONTINUOUS
 62
1
 10
1426.769413
 20
1779.003661
 40
13.486742
 50
176.517529
 51
183.733858
  0
ARC
  8
0
  6
CONTINUOUS
 62
1
 10
1403.552328
 20
1778.937098
 40
13.486742
 50
356.551732
 51
3.658589
  0
ARC
  8
0
  6
CONTINUOUS
 62
1
 10
1413.806652
 20
1779.792517
 40
0.500000
 50
92.597722
 51
176.517529
  0
ARC
  8
0
  6
CONTINUOUS
 62
1
 10
1416.512603
 20
1779.765796
 40
0.500000
 50
3.658589
 51
86.270740
  0
ARC
  8
0
  6
CONTINUOUS
 62
1
 10
1416.515558
 20
1778.155981
 40
0.500000
 50
276.164339
 51
356.551732
  0
ARC
  8
0
  6
CONTINUOUS
 62
1
 10
1413.810238
 20
1778.157938
 40
0.500000
 50
183.733858
 51
264.068276
  0
LINE
  8
0
  6
CONTINUOUS
 62
1
 10
1380.532902
 20
1776.307880
 11
1380.532902
 21
1779.871101
  0
LINE
  8
0
  6
CONTINUOUS
 62
1
 10
1385.888839
 20
1779.875536
 11
1385.888839
 21
1776.307880
  0
LINE
  8
0
  6
CONTINUOUS
 62
1
 10
1385.352301
 20
1781.632880
 11
1383.243351
 21
1778.511634
  0
LINE
  8
0
  6
CONTINUOUS
 62
1
 10
1383.243351
 20
1778.511634
 11
1381.128959
 21
1781.632880
  0
LINE
  8
0
  6
CONTINUOUS
 62
1
 10
1392.048214
 20
1776.307880
 11
1392.048214
 21
1780.217255
  0
LINE
  8
0
  6
CONTINUOUS
 62
1
 10
1395.540402
 20
1781.632880
 11
1395.540402
 21
1778.784165
  0
LINE
  8
0
  6
CONTINUOUS
 62
1
 10
1395.540402
 20
1778.784165
 11
1392.691687
 21
1781.632880
  0
LINE
  8
0
  6
CONTINUOUS
 62
1
 10
1399.368734
 20
1776.307880
 11
1399.796356
 21
1777.064442
  0
LINE
  8
0
  6
CONTINUOUS
 62
1
 10
1401.228289
 20
1779.597862
 11
1401.923456
 21
1778.413505
  0
LINE
  8
0
  6
CONTINUOUS
 62
1
 10
1424.228839
 20
1777.746317
 11
1424.228839
 21
1776.307880
  0
LINE
  8
0
  6
CONTINUOUS
 62
1
 10
1421.136027
 20
1779.345380
 11
1421.136027
 21
1780.283817
  0
LINE
  8
0
  6
CONTINUOUS
 62
1
 10
1421.136027
 20
1780.283817
 11
1424.073179
 21
1780.283817
  0
ARC
  8
0
  6
CONTINUOUS
 62
1
 10
1422.849767
 20
1779.991067
 40
1.474159
 50
341.141530
 51
2.001319
  0
LINE
  8
0
  6
CONTINUOUS
 62
1
 10
1421.136027
 20
1776.307880
 11
1421.136027
 21
1777.996317
  0
LINE
  8
0
  6
CONTINUOUS
 62
1
 10
1424.008213
 20
1779.345380
 11
1421.136027
 21
1779.345380
  0
LINE
  8
0
  6
CONTINUOUS
 62
1
 10
1421.136027
 20
1777.996317
 11
1423.978839
 21
1777.996317
  0
LINE
  8
0
  6
CONTINUOUS
 62
1
 10
1407.364152
 20
1780.283817
 11
1407.364152
 21
1776.307880
  0
LINE
  8
0
  6
CONTINUOUS
 62
1
 10
1408.846339
 20
1776.307880
 11
1408.846339
 21
1780.283817
  0
LINE
  8
0
  6
CONTINUOUS
 62
1
 10
1401.923456
 20
1778.413505
 11
1400.558870
 21
1778.413505
  0
LINE
  8
0
  6
CONTINUOUS
 62
1
 10
1399.796356
 20
1777.064442
 11
1402.715297
 21
1777.064442
  0
LINE
  8
0
  6
CONTINUOUS
 62
1
 10
1400.558870
 20
1778.413505
 11
1401.228289
 21
1779.597862
  0
LINE
  8
0
  6
CONTINUOUS
 62
1
 10
1402.715297
 20
1777.064442
 11
1403.159366
 21
1776.307880
  0
LINE
  8
0
  6
CONTINUOUS
 62
1
 10
1405.143214
 20
1780.283817
 11
1407.364152
 21
1780.283817
  0
LINE
  8
0
  6
CONTINUOUS
 62
1
 10
1408.846339
 20
1780.283817
 11
1411.067277
 21
1780.283817
  0
ARC
  8
0
  6
CONTINUOUS
 62
1
 10
1423.978839
 20
1777.746317
 40
0.250000
 50
0.000000
 51
90.000000
  0
ARC
  8
0
  6
CONTINUOUS
 62
1
 10
1424.008213
 20
1779.595380
 40
0.250000
 50
270.000000
 51
341.141530
  0
ARC
  8
0
  6
CONTINUOUS
 62
1
 10
1424.073179
 20
1780.033817
 40
0.250000
 50
2.001319
 51
90.000000
  0
LINE
  8
0
  6
CONTINUOUS
 62
1
 10
1388.327277
 20
1781.632880
 11
1388.327277
 21
1776.307880
  0
LINE
  8
0
  6
CONTINUOUS
 62
1
 10
1389.742902
 20
1776.307880
 11
1389.742902
 21
1781.632880
  0
LINE
  8
0
  6
CONTINUOUS
 62
1
 10
1396.358328
 20
1773.720380
 11
1426.961000
 21
1773.720380
  0
LINE
  8
0
  6
CONTINUOUS
 62
1
 10
1396.541401
 20
1772.720380
 11
1362.628456
 21
1772.720380
  0
LINE
  8
0
  6
CONTINUOUS
 62
1
 10
1776.327729
 20
1106.237875
 11
1811.327729
 21
1106.237875
  0
LINE
  8
0
  6
CONTINUOUS
 62
1
 10
1811.327729
 20
1106.237875
 11
1811.327729
 21
1161.237875
  0
LINE
  8
0
  6
CONTINUOUS
 62
1
 10
1811.327729
 20
1161.237875
 11
1776.327729
 21
1161.237875
  0
LINE
  8
0
  6
CONTINUOUS
 62
1
 10
1776.327729
 20
1161.237875
 11
1776.327729
 21
1106.237875
  0
LINE
  8
0
  6
CONTINUOUS
 62
1
 10
1745.227729
 20
1671.309516
 11
1842.227729
 21
1671.309516
  0
LINE
  8
0
  6
CONTINUOUS
 62
1
 10
1842.227729
 20
1181.309516
 11
1745.227729
 21
1181.309516
  0
LINE
  8
0
  6
CONTINUOUS
 62
1
 10
1743.627729
 20
1670.509516
 11
1743.627729
 21
1182.109516
  0
LINE
  8
0
  6
CONTINUOUS
 62
1
 10
1843.827729
 20
1182.109516
 11
1843.827729
 21
1670.509516
  0
LINE
  8
0
  6
CONTINUOUS
 62
1
 10
1745.227729
 20
1671.309516
 11
1745.227729
 21
1181.309516
  0
LINE
  8
0
  6
CONTINUOUS
 62
1
 10
1842.227729
 20
1181.309516
 11
1842.227729
 21
1671.309516
  0
LINE
  8
0
  6
CONTINUOUS
 62
1
 10
1843.827729
 20
1670.509516
 11
1842.227729
 21
1670.509516
  0
LINE
  8
0
  6
CONTINUOUS
 62
1
 10
1743.627729
 20
1182.109516
 11
1745.227729
 21
1182.109516
  0
LINE
  8
0
  6
CONTINUOUS
 62
1
 10
1842.227729
 20
1182.109516
 11
1843.827729
 21
1182.109516
  0
LINE
  8
0
  6
CONTINUOUS
 62
1
 10
1745.227729
 20
1670.509516
 11
1743.627729
 21
1670.509516
  0
CIRCLE
  8
0
  6
CONTINUOUS
 62
1
 10
1753.727729
 20
1189.809516
 40
3.200000
  0
CIRCLE
  8
0
  6
CONTINUOUS
 62
1
 10
1833.727729
 20
1189.809516
 40
3.200000
  0
CIRCLE
  8
0
  6
CONTINUOUS
 62
1
 10
1793.727729
 20
1663.309516
 40
3.200000
  0
LINE
  8
0
  6
CONTINUOUS
 62
1
 10
1761.727729
 20
1261.309516
 11
1805.727729
 21
1261.309516
  0
LINE
  8
0
  6
CONTINUOUS
 62
1
 10
1805.727729
 20
1261.309516
 11
1805.727729
 21
1276.809516
  0
LINE
  8
0
  6
CONTINUOUS
 62
1
 10
1761.727729
 20
1261.309516
 11
1761.727729
 21
1276.809516
  0
LINE
  8
0
  6
CONTINUOUS
 62
1
 10
1796.227729
 20
1286.309516
 11
1795.727729
 21
1286.309516
  0
ARC
  8
0
  6
CONTINUOUS
 62
1
 10
1771.227729
 20
1276.809516
 40
9.500000
 50
90.000000
 51
180.000000
  0
ARC
  8
0
  6
CONTINUOUS
 62
1
 10
1796.227729
 20
1276.809516
 40
9.500000
 50
0.000000
 51
90.000000
  0
LINE
  8
0
  6
CONTINUOUS
 62
1
 10
1791.727729
 20
1290.309516
 11
1791.727729
 21
1304.809516
  0
LINE
  8
0
  6
CONTINUOUS
 62
1
 10
1775.727729
 20
1290.309516
 11
1775.727729
 21
1304.809516
  0
LINE
  8
0
  6
CONTINUOUS
 62
1
 10
1771.727729
 20
1286.309516
 11
1771.227729
 21
1286.309516
  0
ARC
  8
0
  6
CONTINUOUS
 62
1
 10
1771.727729
 20
1290.309516
 40
4.000000
 50
270.000000
 51
0.000000
  0
ARC
  8
0
  6
CONTINUOUS
 62
1
 10
1795.727729
 20
1290.309516
 40
4.000000
 50
180.000000
 51
270.000000
  0
CIRCLE
  8
0
  6
CONTINUOUS
 62
1
 10
1793.727729
 20
1616.309516
 40
4.800000
  0
CIRCLE
  8
0
  6
CONTINUOUS
 62
1
 10
1793.727729
 20
1520.809516
 40
4.800000
  0
CIRCLE
  8
0
  6
CONTINUOUS
 62
1
 10
1765.227729
 20
1326.809516
 40
9.000000
  0
CIRCLE
  8
0
  6
CONTINUOUS
 62
1
 10
1793.727729
 20
1458.309516
 40
8.000000
  0
LINE
  8
0
  6
CONTINUOUS
 62
1
 10
1804.527729
 20
1494.309271
 11
1803.476575
 21
1494.309271
  0
LINE
  8
0
  6
CONTINUOUS
 62
1
 10
1804.527729
 20
1492.309271
 11
1803.476575
 21
1492.309271
  0
LINE
  8
0
  6
CONTINUOUS
 62
1
 10
1804.527729
 20
1494.309271
 11
1804.527729
 21
1492.309271
  0
LINE
  8
0
  6
CONTINUOUS
 62
1
 10
1777.527729
 20
1304.809516
 11
1777.527729
 21
1304.309516
  0
LINE
  8
0
  6
CONTINUOUS
 62
1
 10
1789.927729
 20
1304.809516
 11
1789.927729
 21
1304.309516
  0
LINE
  8
0
  6
CONTINUOUS
 62
1
 10
1789.927729
 20
1304.309516
 11
1777.527729
 21
1304.309516
  0
ARC
  8
0
  6
CONTINUOUS
 62
1
 10
1776.627729
 20
1304.809516
 40
0.900000
 50
0.000000
 51
180.000000
  0
ARC
  8
0
  6
CONTINUOUS
 62
1
 10
1790.827729
 20
1304.809516
 40
0.900000
 50
0.000000
 51
180.000000
  0
LINE
  8
0
  6
CONTINUOUS
 62
1
 10
1777.527729
 20
1304.809516
 11
1789.927729
 21
1304.809516
  0
ARC
  8
0
  6
CONTINUOUS
 62
1
 10
1793.727729
 20
1493.309271
 40
9.800000
 50
5.856702
 51
354.143298
  0
LINE
  8
0
  6
CONTINUOUS
 62
1
 10
1823.727729
 20
1620.814588
 11
1823.727729
 21
1611.522687
  0
LINE
  8
0
  6
CONTINUOUS
 62
1
 10
1820.727729
 20
1620.814588
 11
1820.727729
 21
1611.522687
  0
ARC
  8
0
  6
CONTINUOUS
 62
1
 10
1822.227729
 20
1620.814588
 40
1.500000
 50
0.000000
 51
180.000000
  0
LINE
  8
0
  6
CONTINUOUS
 62
1
 10
1823.727729
 20
1613.819382
 11
1820.727729
 21
1613.819382
  0
ARC
  8
0
  6
CONTINUOUS
 62
1
 10
1822.227729
 20
1607.814588
 40
4.000000
 50
0.000000
 51
67.975687
  0
ARC
  8
0
  6
CONTINUOUS
 62
1
 10
1822.227729
 20
1607.814588
 40
4.000000
 50
112.024313
 51
0.000000
  0
CIRCLE
  8
0
  6
CONTINUOUS
 62
1
 10
1817.182402
 20
1428.313976
 40
9.250000
  0
CIRCLE
  8
0
  6
CONTINUOUS
 62
1
 10
1817.182402
 20
1428.313976
 40
7.250000
  0
LINE
  8
0
  6
CONTINUOUS
 62
1
 10
1812.642201
 20
1429.313976
 11
1815.450351
 21
1429.313976
  0
LINE
  8
0
  6
CONTINUOUS
 62
1
 10
1812.642201
 20
1427.313976
 11
1815.450351
 21
1427.313976
  0
LINE
  8
0
  6
CONTINUOUS
 62
1
 10
1816.182402
 20
1434.298994
 11
1816.182402
 21
1430.046026
  0
LINE
  8
0
  6
CONTINUOUS
 62
1
 10
1818.182402
 20
1434.298994
 11
1818.182402
 21
1430.046026
  0
ARC
  8
0
  6
CONTINUOUS
 62
1
 10
1817.182402
 20
1428.313976
 40
2.000000
 50
120.000000
 51
150.000000
  0
ARC
  8
0
  6
CONTINUOUS
 62
1
 10
1817.182402
 20
1428.313976
 40
2.000000
 50
210.000000
 51
60.000000
  0
LINE
  8
0
  6
CONTINUOUS
 62
1
 10
1816.182402
 20
1434.298994
 11
1818.182402
 21
1434.298994
  0
LINE
  8
0
  6
CONTINUOUS
 62
1
 10
1812.642201
 20
1427.313976
 11
1812.642201
 21
1429.313976
  0
CIRCLE
  8
0
  6
CONTINUOUS
 62
1
 10
1817.182402
 20
1493.309271
 40
9.250000
  0
ARC
  8
0
  6
CONTINUOUS
 62
1
 10
1817.182402
 20
1493.309271
 40
7.250000
 50
0.000000
 51
168.059456
  0
LINE
  8
0
  6
CONTINUOUS
 62
1
 10
1818.182402
 20
1497.809271
 11
1818.182402
 21
1490.992492
  0
LINE
  8
0
  6
CONTINUOUS
 62
1
 10
1816.182402
 20
1494.934916
 11
1816.182402
 21
1488.118136
  0
LINE
  8
0
  6
CONTINUOUS
 62
1
 10
1810.089272
 20
1494.809271
 11
1818.182402
 21
1497.809271
  0
LINE
  8
0
  6
CONTINUOUS
 62
1
 10
1816.182402
 20
1494.934916
 11
1809.964297
 21
1492.629959
  0
LINE
  8
0
  6
CONTINUOUS
 62
1
 10
1818.182402
 20
1490.992492
 11
1824.432402
 21
1493.309271
  0
ARC
  8
0
  6
CONTINUOUS
 62
1
 10
1817.182402
 20
1493.309271
 40
7.250000
 50
185.376398
 51
341.771516
  0
LINE
  8
0
  6
CONTINUOUS
 62
1
 10
1824.068573
 20
1491.041419
 11
1816.182402
 21
1488.118136
  0
LINE
  8
0
  6
CONTINUOUS
 62
1
 10
1826.432402
 20
1457.309249
 11
1817.182402
 21
1457.809516
  0
LINE
  8
0
  6
CONTINUOUS
 62
1
 10
1817.182402
 20
1458.809516
 11
1826.432402
 21
1459.309784
  0
LINE
  8
0
  6
CONTINUOUS
 62
1
 10
1817.182402
 20
1457.809516
 11
1817.182402
 21
1458.809516
  0
LINE
  8
0
  6
CONTINUOUS
 62
1
 10
1826.432402
 20
1452.273954
 11
1817.182402
 21
1452.774222
  0
LINE
  8
0
  6
CONTINUOUS
 62
1
 10
1817.182402
 20
1453.774222
 11
1826.432402
 21
1454.274489
  0
LINE
  8
0
  6
CONTINUOUS
 62
1
 10
1817.182402
 20
1452.774222
 11
1817.182402
 21
1453.774222
  0
LINE
  8
0
  6
CONTINUOUS
 62
1
 10
1826.432402
 20
1464.345079
 11
1817.182402
 21
1463.844811
  0
LINE
  8
0
  6
CONTINUOUS
 62
1
 10
1817.182402
 20
1462.844811
 11
1826.432402
 21
1462.344544
  0
LINE
  8
0
  6
CONTINUOUS
 62
1
 10
1817.182402
 20
1463.844811
 11
1817.182402
 21
1462.844811
  0
ARC
  8
0
  6
CONTINUOUS
 62
1
 10
1817.182402
 20
1458.309516
 40
9.250000
 50
116.932913
 51
243.067087
  0
ARC
  8
0
  6
CONTINUOUS
 62
1
 10
1817.182402
 20
1458.309516
 40
7.250000
 50
134.497043
 51
225.502957
  0
ARC
  8
0
  6
CONTINUOUS
 62
1
 10
1796.432402
 20
1458.309516
 40
18.500000
 50
333.527467
 51
26.472533
  0
ARC
  8
0
  6
CONTINUOUS
 62
1
 10
1796.432402
 20
1458.309516
 40
16.500000
 50
341.734916
 51
18.265084
  0
LINE
  8
0
  6
CONTINUOUS
 62
1
 10
1826.432402
 20
1464.345079
 11
1826.432402
 21
1462.344544
  0
LINE
  8
0
  6
CONTINUOUS
 62
1
 10
1826.432402
 20
1459.309784
 11
1826.432402
 21
1457.309249
  0
LINE
  8
0
  6
CONTINUOUS
 62
1
 10
1826.432402
 20
1454.274489
 11
1826.432402
 21
1452.273954
  0
LINE
  8
0
  6
CONTINUOUS
 62
1
 10
1781.738363
 20
1318.644333
 11
1790.259245
 21
1326.809516
  0
LINE
  8
0
  6
CONTINUOUS
 62
1
 10
1781.738363
 20
1318.644333
 11
1792.792391
 21
1323.761974
  0
LINE
  8
0
  6
CONTINUOUS
 62
1
 10
1796.006265
 20
1323.761974
 11
1801.875759
 21
1322.560768
  0
LINE
  8
0
  6
CONTINUOUS
 62
1
 10
1792.792391
 20
1323.761974
 11
1795.539562
 21
1317.253310
  0
LINE
  8
0
  6
CONTINUOUS
 62
1
 10
1796.006265
 20
1323.761974
 11
1795.539562
 21
1317.253310
  0
LINE
  8
0
  6
CONTINUOUS
 62
1
 10
1796.944205
 20
1330.246221
 11
1793.627729
 21
1336.031653
  0
LINE
  8
0
  6
CONTINUOUS
 62
1
 10
1791.666695
 20
1329.654491
 11
1786.831425
 21
1330.246221
  0
LINE
  8
0
  6
CONTINUOUS
 62
1
 10
1790.259245
 20
1326.809516
 11
1786.831425
 21
1330.246221
  0
LINE
  8
0
  6
CONTINUOUS
 62
1
 10
1798.951707
 20
1326.809516
 11
1801.875759
 21
1322.560768
  0
LINE
  8
0
  6
CONTINUOUS
 62
1
 10
1796.944205
 20
1330.246221
 11
1802.539509
 21
1332.041018
  0
LINE
  8
0
  6
CONTINUOUS
 62
1
 10
1791.666695
 20
1329.654491
 11
1793.627729
 21
1336.031653
  0
LINE
  8
0
  6
CONTINUOUS
 62
1
 10
1802.539509
 20
1332.041018
 11
1798.951707
 21
1326.809516
  0
CIRCLE
  8
0
  6
CONTINUOUS
 62
1
 10
1793.727729
 20
1423.809516
 40
3.000000
  0
CIRCLE
  8
0
  6
CONTINUOUS
 62
1
 10
1793.727729
 20
1603.809516
 40
3.000000
  0
POLYLINE
  8
0
  6
CONTINUOUS
 62
1
 66
1
 70
2
  0
VERTEX
  8
0
 10
1808.727729
 20
1545.258857
 70
0
 42
0.057944
  0
VERTEX
  8
0
 10
1813.946226
 20
1549.203359
 70
0
 42
0.059305
  0
VERTEX
  8
0
 10
1818.058792
 20
1554.192947
 70
0
 42
0.060571
  0
VERTEX
  8
0
 10
1820.840475
 20
1559.954698
 70
0
 42
0.061435
  0
VERTEX
  8
0
 10
1822.139118
 20
1566.173448
 70
0
 42
0.061671
  0
VERTEX
  8
0
 10
1821.883688
 20
1572.509039
 70
0
 42
0.061214
  0
VERTEX
  8
0
 10
1820.088155
 20
1578.614921
 70
0
 42
0.060187
  0
VERTEX
  8
0
 10
1816.850735
 20
1584.157107
 70
0
 42
0.058855
  0
VERTEX
  8
0
 10
1812.348511
 20
1588.832447
 70
0
 42
0.057528
  0
VERTEX
  8
0
 10
1806.827748
 20
1592.385204
 70
0
 42
0.056477
  0
VERTEX
  8
0
 10
1800.590429
 20
1594.621045
 70
0
 42
0.055892
  0
VERTEX
  8
0
 10
1793.977726
 20
1595.417673
 70
0
  0
SEQEND
  0
POLYLINE
  8
0
  6
CONTINUOUS
 62
1
 66
1
 70
2
  0
VERTEX
  8
0
 10
1778.816266
 20
1545.206941
 70
0
 42
0.053351
  0
VERTEX
  8
0
 10
1784.482596
 20
1542.666295
 70
0
 42
0.052667
  0
VERTEX
  8
0
 10
1790.595578
 20
1541.364527
 70
0
 42
0.052427
  0
VERTEX
  8
0
 10
1796.859880
 20
1541.364527
 70
0
 42
0.052667
  0
VERTEX
  8
0
 10
1802.972862
 20
1542.666295
 70
0
 42
0.053351
  0
VERTEX
  8
0
 10
1808.639192
 20
1545.206941
 70
0
  0
SEQEND
  0
POLYLINE
  8
0
  6
CONTINUOUS
 62
1
 66
1
 70
2
  0
VERTEX
  8
0
 10
1808.718094
 20
1545.280133
 70
0
 42
-0.042310
  0
VERTEX
  8
0
 10
1805.540197
 20
1554.244242
 70
0
 42
-0.042646
  0
VERTEX
  8
0
 10
1803.930004
 20
1563.579488
 70
0
 42
-0.042764
  0
VERTEX
  8
0
 10
1803.930004
 20
1573.039545
 70
0
 42
-0.042646
  0
VERTEX
  8
0
 10
1805.540197
 20
1582.374791
 70
0
 42
-0.042310
  0
VERTEX
  8
0
 10
1808.718094
 20
1591.338900
 70
0
  0
SEQEND
  0
POLYLINE
  8
0
  6
CONTINUOUS
 62
1
 66
1
 70
2
  0
VERTEX
  8
0
 10
1778.737364
 20
1591.338900
 70
0
 42
-0.042310
  0
VERTEX
  8
0
 10
1781.915261
 20
1582.374791
 70
0
 42
-0.042646
  0
VERTEX
  8
0
 10
1783.525454
 20
1573.039545
 70
0
 42
-0.042764
  0
VERTEX
  8
0
 10
1783.525454
 20
1563.579488
 70
0
 42
-0.042646
  0
VERTEX
  8
0
 10
1781.915261
 20
1554.244242
 70
0
 42
-0.042310
  0
VERTEX
  8
0
 10
1778.737364
 20
1545.280133
 70
0
  0
SEQEND
  0
POLYLINE
  8
0
  6
CONTINUOUS
 62
1
 66
1
 70
2
  0
VERTEX
  8
0
 10
1793.477731
 20
1595.417673
 70
0
 42
0.055892
  0
VERTEX
  8
0
 10
1786.865029
 20
1594.621045
 70
0
 42
0.056477
  0
VERTEX
  8
0
 10
1780.627709
 20
1592.385204
 70
0
 42
0.057528
  0
VERTEX
  8
0
 10
1775.106947
 20
1588.832447
 70
0
 42
0.058855
  0
VERTEX
  8
0
 10
1770.604723
 20
1584.157107
 70
0
 42
0.060187
  0
VERTEX
  8
0
 10
1767.367302
 20
1578.614921
 70
0
 42
0.061214
  0
VERTEX
  8
0
 10
1765.571770
 20
1572.509039
 70
0
 42
0.061671
  0
VERTEX
  8
0
 10
1765.316340
 20
1566.173448
 70
0
 42
0.061435
  0
VERTEX
  8
0
 10
1766.614983
 20
1559.954698
 70
0
 42
0.060571
  0
VERTEX
  8
0
 10
1769.396665
 20
1554.192947
 70
0
 42
0.059305
  0
VERTEX
  8
0
 10
1773.509232
 20
1549.203359
 70
0
 42
0.057944
  0
VERTEX
  8
0
 10
1778.727729
 20
1545.258857
 70
0
  0
SEQEND
  0
POLYLINE
  8
0
  6
CONTINUOUS
 62
1
 66
1
 70
2
  0
VERTEX
  8
0
 10
1795.226965
 20
1590.617180
 70
0
 42
-0.059478
  0
VERTEX
  8
0
 10
1800.959270
 20
1589.578034
 70
0
 42
-0.060310
  0
VERTEX
  8
0
 10
1806.245665
 20
1587.227430
 70
0
  0
SEQEND
  0
POLYLINE
  8
0
  6
CONTINUOUS
 62
1
 66
1
 70
2
  0
VERTEX
  8
0
 10
1792.228493
 20
1590.617180
 70
0
 42
0.268165
  0
VERTEX
  8
0
 10
1792.991593
 20
1589.419551
 70
0
 42
0.249457
  0
VERTEX
  8
0
 10
1794.463865
 20
1589.419551
 70
0
 42
0.268165
  0
VERTEX
  8
0
 10
1795.226965
 20
1590.617180
 70
0
  0
SEQEND
  0
POLYLINE
  8
0
  6
CONTINUOUS
 62
1
 66
1
 70
2
  0
VERTEX
  8
0
 10
1793.477731
 20
1595.417673
 70
0
 42
0.412473
  0
VERTEX
  8
0
 10
1793.727729
 20
1595.180916
 70
0
 42
0.412473
  0
VERTEX
  8
0
 10
1793.977726
 20
1595.417673
 70
0
  0
SEQEND
  0
POLYLINE
  8
0
  6
CONTINUOUS
 62
1
 66
1
 70
2
  0
VERTEX
  8
0
 10
1781.209793
 20
1587.227430
 70
0
 42
-0.060310
  0
VERTEX
  8
0
 10
1786.496188
 20
1589.578034
 70
0
 42
-0.059478
  0
VERTEX
  8
0
 10
1792.228493
 20
1590.617180
 70
0
  0
SEQEND
  0
POLYLINE
  8
0
  6
CONTINUOUS
 62
1
 66
1
 70
2
  0
VERTEX
  8
0
 10
1806.245665
 20
1549.391603
 70
0
 42
-0.054470
  0
VERTEX
  8
0
 10
1801.499443
 20
1547.214087
 70
0
 42
-0.053745
  0
VERTEX
  8
0
 10
1796.362458
 20
1546.097251
 70
0
 42
-0.053491
  0
VERTEX
  8
0
 10
1791.092999
 20
1546.097251
 70
0
 42
-0.053745
  0
VERTEX
  8
0
 10
1785.956014
 20
1547.214087
 70
0
 42
-0.054470
  0
VERTEX
  8
0
 10
1781.209793
 20
1549.391603
 70
0
  0
SEQEND
  0
LINE
  8
0
  6
CONTINUOUS
 62
1
 10
1792.228493
 20
1590.617180
 11
1793.477731
 21
1595.417673
  0
LINE
  8
0
  6
CONTINUOUS
 62
1
 10
1793.977726
 20
1595.417673
 11
1795.226965
 21
1590.617180
  0
POLYLINE
  8
0
  6
CONTINUOUS
 62
1
 66
1
 70
2
  0
VERTEX
  8
0
 10
1806.712987
 20
1586.422412
 70
0
 42
0.264500
  0
VERTEX
  8
0
 10
1806.245665
 20
1587.227430
 70
0
  0
SEQEND
  0
POLYLINE
  8
0
  6
CONTINUOUS
 62
1
 66
1
 70
2
  0
VERTEX
  8
0
 10
1806.712987
 20
1550.196621
 70
0
 42
0.081701
  0
VERTEX
  8
0
 10
1806.665012
 20
1550.487708
 70
0
  0
SEQEND
  0
POLYLINE
  8
0
  6
CONTINUOUS
 62
1
 66
1
 70
2
  0
VERTEX
  8
0
 10
1781.209793
 20
1587.227430
 70
0
 42
0.355774
  0
VERTEX
  8
0
 10
1780.790446
 20
1586.131325
 70
0
  0
SEQEND
  0
POLYLINE
  8
0
  6
CONTINUOUS
 62
1
 66
1
 70
2
  0
VERTEX
  8
0
 10
1806.665012
 20
1586.131325
 70
0
 42
0.081701
  0
VERTEX
  8
0
 10
1806.712987
 20
1586.422412
 70
0
  0
SEQEND
  0
POLYLINE
  8
0
  6
CONTINUOUS
 62
1
 66
1
 70
2
  0
VERTEX
  8
0
 10
1806.245665
 20
1549.391603
 70
0
 42
0.264500
  0
VERTEX
  8
0
 10
1806.712987
 20
1550.196621
 70
0
  0
SEQEND
  0
POLYLINE
  8
0
  6
CONTINUOUS
 62
1
 66
1
 70
2
  0
VERTEX
  8
0
 10
1780.790446
 20
1550.487709
 70
0
 42
0.355774
  0
VERTEX
  8
0
 10
1781.209793
 20
1549.391603
 70
0
  0
SEQEND
  0
POLYLINE
  8
0
  6
CONTINUOUS
 62
1
 66
1
 70
2
  0
VERTEX
  8
0
 10
1793.442644
 20
1599.222327
 70
0
 42
0.051213
  0
VERTEX
  8
0
 10
1786.519489
 20
1598.453572
 70
0
 42
0.051668
  0
VERTEX
  8
0
 10
1779.927884
 20
1596.298312
 70
0
 42
0.052496
  0
VERTEX
  8
0
 10
1773.971016
 20
1592.855680
 70
0
 42
0.053573
  0
VERTEX
  8
0
 10
1768.922878
 20
1588.284023
 70
0
 42
0.054721
  0
VERTEX
  8
0
 10
1765.015663
 20
1582.793618
 70
0
 42
0.055723
  0
VERTEX
  8
0
 10
1762.429088
 20
1576.637004
 70
0
 42
0.056370
  0
VERTEX
  8
0
 10
1761.282125
 20
1570.097358
 70
0
 42
0.056516
  0
VERTEX
  8
0
 10
1761.627529
 20
1563.475479
 70
0
 42
0.056127
  0
VERTEX
  8
0
 10
1763.449413
 20
1557.075946
 70
0
 42
0.055293
  0
VERTEX
  8
0
 10
1766.663978
 20
1551.193112
 70
0
 42
0.054196
  0
VERTEX
  8
0
 10
1771.123367
 20
1546.097564
 70
0
 42
0.053055
  0
VERTEX
  8
0
 10
1776.622466
 20
1542.023677
 70
0
  0
SEQEND
  0
POLYLINE
  8
0
  6
CONTINUOUS
 62
1
 66
1
 70
2
  0
VERTEX
  8
0
 10
1810.832992
 20
1542.023677
 70
0
 42
0.053055
  0
VERTEX
  8
0
 10
1816.332091
 20
1546.097564
 70
0
 42
0.054196
  0
VERTEX
  8
0
 10
1820.791480
 20
1551.193112
 70
0
 42
0.055293
  0
VERTEX
  8
0
 10
1824.006045
 20
1557.075946
 70
0
 42
0.056127
  0
VERTEX
  8
0
 10
1825.827929
 20
1563.475479
 70
0
 42
0.056516
  0
VERTEX
  8
0
 10
1826.173333
 20
1570.097358
 70
0
 42
0.056370
  0
VERTEX
  8
0
 10
1825.026370
 20
1576.637004
 70
0
 42
0.055723
  0
VERTEX
  8
0
 10
1822.439795
 20
1582.793618
 70
0
 42
0.054721
  0
VERTEX
  8
0
 10
1818.532580
 20
1588.284023
 70
0
 42
0.053573
  0
VERTEX
  8
0
 10
1813.484442
 20
1592.855680
 70
0
 42
0.052496
  0
VERTEX
  8
0
 10
1807.527574
 20
1596.298312
 70
0
 42
0.051668
  0
VERTEX
  8
0
 10
1800.935969
 20
1598.453572
 70
0
 42
0.051213
  0
VERTEX
  8
0
 10
1794.012814
 20
1599.222327
 70
0
  0
SEQEND
  0
POLYLINE
  8
0
  6
CONTINUOUS
 62
1
 66
1
 70
2
  0
VERTEX
  8
0
 10
1776.723429
 20
1541.964474
 70
0
 42
0.053351
  0
VERTEX
  8
0
 10
1783.185034
 20
1539.067246
 70
0
 42
0.052667
  0
VERTEX
  8
0
 10
1790.155978
 20
1537.582774
 70
0
 42
0.052427
  0
VERTEX
  8
0
 10
1797.299480
 20
1537.582774
 70
0
 42
0.052667
  0
VERTEX
  8
0
 10
1804.270424
 20
1539.067246
 70
0
 42
0.053351
  0
VERTEX
  8
0
 10
1810.732028
 20
1541.964474
 70
0
  0
SEQEND
  0
LINE
  8
0
  6
CONTINUOUS
 62
1
 10
1795.224670
 20
1590.571644
 11
1795.224670
 21
1548.385131
  0
LINE
  8
0
  6
CONTINUOUS
 62
1
 10
1792.228493
 20
1590.617180
 11
1792.228493
 21
1548.385287
  0
ARC
  8
0
  6
CONTINUOUS
 62
1
 10
1793.726579
 20
1548.334317
 40
1.498086
 50
180.000000
 51
1.942686
  0
POLYLINE
  8
0
  6
CONTINUOUS
 62
1
 66
1
 70
2
  0
VERTEX
  8
0
 10
1808.727729
 20
1365.258857
 70
0
 42
0.057944
  0
VERTEX
  8
0
 10
1813.946226
 20
1369.203359
 70
0
 42
0.059305
  0
VERTEX
  8
0
 10
1818.058792
 20
1374.192947
 70
0
 42
0.060571
  0
VERTEX
  8
0
 10
1820.840475
 20
1379.954698
 70
0
 42
0.061435
  0
VERTEX
  8
0
 10
1822.139118
 20
1386.173448
 70
0
 42
0.061671
  0
VERTEX
  8
0
 10
1821.883688
 20
1392.509039
 70
0
 42
0.061214
  0
VERTEX
  8
0
 10
1820.088155
 20
1398.614921
 70
0
 42
0.060187
  0
VERTEX
  8
0
 10
1816.850735
 20
1404.157107
 70
0
 42
0.058855
  0
VERTEX
  8
0
 10
1812.348511
 20
1408.832447
 70
0
 42
0.057528
  0
VERTEX
  8
0
 10
1806.827748
 20
1412.385204
 70
0
 42
0.056477
  0
VERTEX
  8
0
 10
1800.590429
 20
1414.621045
 70
0
 42
0.055892
  0
VERTEX
  8
0
 10
1793.977726
 20
1415.417673
 70
0
  0
SEQEND
  0
POLYLINE
  8
0
  6
CONTINUOUS
 62
1
 66
1
 70
2
  0
VERTEX
  8
0
 10
1778.816266
 20
1365.206941
 70
0
 42
0.053351
  0
VERTEX
  8
0
 10
1784.482596
 20
1362.666295
 70
0
 42
0.052667
  0
VERTEX
  8
0
 10
1790.595578
 20
1361.364527
 70
0
 42
0.052427
  0
VERTEX
  8
0
 10
1796.859880
 20
1361.364527
 70
0
 42
0.052667
  0
VERTEX
  8
0
 10
1802.972862
 20
1362.666295
 70
0
 42
0.053351
  0
VERTEX
  8
0
 10
1808.639192
 20
1365.206941
 70
0
  0
SEQEND
  0
POLYLINE
  8
0
  6
CONTINUOUS
 62
1
 66
1
 70
2
  0
VERTEX
  8
0
 10
1808.718094
 20
1365.280133
 70
0
 42
-0.042310
  0
VERTEX
  8
0
 10
1805.540197
 20
1374.244242
 70
0
 42
-0.042646
  0
VERTEX
  8
0
 10
1803.930004
 20
1383.579488
 70
0
 42
-0.042764
  0
VERTEX
  8
0
 10
1803.930004
 20
1393.039545
 70
0
 42
-0.042646
  0
VERTEX
  8
0
 10
1805.540197
 20
1402.374791
 70
0
 42
-0.042310
  0
VERTEX
  8
0
 10
1808.718094
 20
1411.338900
 70
0
  0
SEQEND
  0
POLYLINE
  8
0
  6
CONTINUOUS
 62
1
 66
1
 70
2
  0
VERTEX
  8
0
 10
1778.737364
 20
1411.338900
 70
0
 42
-0.042310
  0
VERTEX
  8
0
 10
1781.915261
 20
1402.374791
 70
0
 42
-0.042646
  0
VERTEX
  8
0
 10
1783.525454
 20
1393.039545
 70
0
 42
-0.042764
  0
VERTEX
  8
0
 10
1783.525454
 20
1383.579488
 70
0
 42
-0.042646
  0
VERTEX
  8
0
 10
1781.915261
 20
1374.244242
 70
0
 42
-0.042310
  0
VERTEX
  8
0
 10
1778.737364
 20
1365.280133
 70
0
  0
SEQEND
  0
POLYLINE
  8
0
  6
CONTINUOUS
 62
1
 66
1
 70
2
  0
VERTEX
  8
0
 10
1793.477731
 20
1415.417673
 70
0
 42
0.055892
  0
VERTEX
  8
0
 10
1786.865029
 20
1414.621045
 70
0
 42
0.056477
  0
VERTEX
  8
0
 10
1780.627709
 20
1412.385204
 70
0
 42
0.057528
  0
VERTEX
  8
0
 10
1775.106947
 20
1408.832447
 70
0
 42
0.058855
  0
VERTEX
  8
0
 10
1770.604723
 20
1404.157107
 70
0
 42
0.060187
  0
VERTEX
  8
0
 10
1767.367302
 20
1398.614921
 70
0
 42
0.061214
  0
VERTEX
  8
0
 10
1765.571770
 20
1392.509039
 70
0
 42
0.061671
  0
VERTEX
  8
0
 10
1765.316340
 20
1386.173448
 70
0
 42
0.061435
  0
VERTEX
  8
0
 10
1766.614983
 20
1379.954698
 70
0
 42
0.060571
  0
VERTEX
  8
0
 10
1769.396665
 20
1374.192947
 70
0
 42
0.059305
  0
VERTEX
  8
0
 10
1773.509232
 20
1369.203359
 70
0
 42
0.057944
  0
VERTEX
  8
0
 10
1778.727729
 20
1365.258857
 70
0
  0
SEQEND
  0
POLYLINE
  8
0
  6
CONTINUOUS
 62
1
 66
1
 70
2
  0
VERTEX
  8
0
 10
1795.226965
 20
1410.617180
 70
0
 42
-0.059478
  0
VERTEX
  8
0
 10
1800.959270
 20
1409.578034
 70
0
 42
-0.060310
  0
VERTEX
  8
0
 10
1806.245665
 20
1407.227430
 70
0
  0
SEQEND
  0
POLYLINE
  8
0
  6
CONTINUOUS
 62
1
 66
1
 70
2
  0
VERTEX
  8
0
 10
1792.228493
 20
1410.617180
 70
0
 42
0.268165
  0
VERTEX
  8
0
 10
1792.991593
 20
1409.419551
 70
0
 42
0.249457
  0
VERTEX
  8
0
 10
1794.463865
 20
1409.419551
 70
0
 42
0.268165
  0
VERTEX
  8
0
 10
1795.226965
 20
1410.617180
 70
0
  0
SEQEND
  0
POLYLINE
  8
0
  6
CONTINUOUS
 62
1
 66
1
 70
2
  0
VERTEX
  8
0
 10
1793.477731
 20
1415.417673
 70
0
 42
0.412473
  0
VERTEX
  8
0
 10
1793.727729
 20
1415.180916
 70
0
 42
0.412473
  0
VERTEX
  8
0
 10
1793.977726
 20
1415.417673
 70
0
  0
SEQEND
  0
POLYLINE
  8
0
  6
CONTINUOUS
 62
1
 66
1
 70
2
  0
VERTEX
  8
0
 10
1781.209793
 20
1407.227430
 70
0
 42
-0.060310
  0
VERTEX
  8
0
 10
1786.496188
 20
1409.578034
 70
0
 42
-0.059478
  0
VERTEX
  8
0
 10
1792.228493
 20
1410.617180
 70
0
  0
SEQEND
  0
POLYLINE
  8
0
  6
CONTINUOUS
 62
1
 66
1
 70
2
  0
VERTEX
  8
0
 10
1806.245665
 20
1369.391603
 70
0
 42
-0.054470
  0
VERTEX
  8
0
 10
1801.499443
 20
1367.214087
 70
0
 42
-0.053745
  0
VERTEX
  8
0
 10
1796.362458
 20
1366.097251
 70
0
 42
-0.053491
  0
VERTEX
  8
0
 10
1791.092999
 20
1366.097251
 70
0
 42
-0.053745
  0
VERTEX
  8
0
 10
1785.956014
 20
1367.214087
 70
0
 42
-0.054470
  0
VERTEX
  8
0
 10
1781.209793
 20
1369.391603
 70
0
  0
SEQEND
  0
LINE
  8
0
  6
CONTINUOUS
 62
1
 10
1792.228493
 20
1410.617180
 11
1793.477731
 21
1415.417673
  0
LINE
  8
0
  6
CONTINUOUS
 62
1
 10
1793.977726
 20
1415.417673
 11
1795.226965
 21
1410.617180
  0
POLYLINE
  8
0
  6
CONTINUOUS
 62
1
 66
1
 70
2
  0
VERTEX
  8
0
 10
1806.712987
 20
1406.422412
 70
0
 42
0.264500
  0
VERTEX
  8
0
 10
1806.245665
 20
1407.227430
 70
0
  0
SEQEND
  0
POLYLINE
  8
0
  6
CONTINUOUS
 62
1
 66
1
 70
2
  0
VERTEX
  8
0
 10
1806.712987
 20
1370.196621
 70
0
 42
0.081701
  0
VERTEX
  8
0
 10
1806.665012
 20
1370.487708
 70
0
  0
SEQEND
  0
POLYLINE
  8
0
  6
CONTINUOUS
 62
1
 66
1
 70
2
  0
VERTEX
  8
0
 10
1781.209793
 20
1407.227430
 70
0
 42
0.355774
  0
VERTEX
  8
0
 10
1780.790446
 20
1406.131325
 70
0
  0
SEQEND
  0
POLYLINE
  8
0
  6
CONTINUOUS
 62
1
 66
1
 70
2
  0
VERTEX
  8
0
 10
1806.665012
 20
1406.131325
 70
0
 42
0.081701
  0
VERTEX
  8
0
 10
1806.712987
 20
1406.422412
 70
0
  0
SEQEND
  0
POLYLINE
  8
0
  6
CONTINUOUS
 62
1
 66
1
 70
2
  0
VERTEX
  8
0
 10
1806.245665
 20
1369.391603
 70
0
 42
0.264500
  0
VERTEX
  8
0
 10
1806.712987
 20
1370.196621
 70
0
  0
SEQEND
  0
POLYLINE
  8
0
  6
CONTINUOUS
 62
1
 66
1
 70
2
  0
VERTEX
  8
0
 10
1780.790446
 20
1370.487709
 70
0
 42
0.355774
  0
VERTEX
  8
0
 10
1781.209793
 20
1369.391603
 70
0
  0
SEQEND
  0
POLYLINE
  8
0
  6
CONTINUOUS
 62
1
 66
1
 70
2
  0
VERTEX
  8
0
 10
1793.442644
 20
1419.222327
 70
0
 42
0.051213
  0
VERTEX
  8
0
 10
1786.519489
 20
1418.453572
 70
0
 42
0.051668
  0
VERTEX
  8
0
 10
1779.927884
 20
1416.298312
 70
0
 42
0.052496
  0
VERTEX
  8
0
 10
1773.971016
 20
1412.855680
 70
0
 42
0.053573
  0
VERTEX
  8
0
 10
1768.922878
 20
1408.284023
 70
0
 42
0.054721
  0
VERTEX
  8
0
 10
1765.015663
 20
1402.793618
 70
0
 42
0.055723
  0
VERTEX
  8
0
 10
1762.429088
 20
1396.637004
 70
0
 42
0.056370
  0
VERTEX
  8
0
 10
1761.282125
 20
1390.097358
 70
0
 42
0.056516
  0
VERTEX
  8
0
 10
1761.627529
 20
1383.475479
 70
0
 42
0.056127
  0
VERTEX
  8
0
 10
1763.449413
 20
1377.075946
 70
0
 42
0.055293
  0
VERTEX
  8
0
 10
1766.663978
 20
1371.193112
 70
0
 42
0.054196
  0
VERTEX
  8
0
 10
1771.123367
 20
1366.097564
 70
0
 42
0.053055
  0
VERTEX
  8
0
 10
1776.622466
 20
1362.023677
 70
0
  0
SEQEND
  0
POLYLINE
  8
0
  6
CONTINUOUS
 62
1
 66
1
 70
2
  0
VERTEX
  8
0
 10
1810.832992
 20
1362.023677
 70
0
 42
0.053055
  0
VERTEX
  8
0
 10
1816.332091
 20
1366.097564
 70
0
 42
0.054196
  0
VERTEX
  8
0
 10
1820.791480
 20
1371.193112
 70
0
 42
0.055293
  0
VERTEX
  8
0
 10
1824.006045
 20
1377.075946
 70
0
 42
0.056127
  0
VERTEX
  8
0
 10
1825.827929
 20
1383.475479
 70
0
 42
0.056516
  0
VERTEX
  8
0
 10
1826.173333
 20
1390.097358
 70
0
 42
0.056370
  0
VERTEX
  8
0
 10
1825.026370
 20
1396.637004
 70
0
 42
0.055723
  0
VERTEX
  8
0
 10
1822.439795
 20
1402.793618
 70
0
 42
0.054721
  0
VERTEX
  8
0
 10
1818.532580
 20
1408.284023
 70
0
 42
0.053573
  0
VERTEX
  8
0
 10
1813.484442
 20
1412.855680
 70
0
 42
0.052496
  0
VERTEX
  8
0
 10
1807.527574
 20
1416.298312
 70
0
 42
0.051668
  0
VERTEX
  8
0
 10
1800.935969
 20
1418.453572
 70
0
 42
0.051213
  0
VERTEX
  8
0
 10
1794.012814
 20
1419.222327
 70
0
  0
SEQEND
  0
POLYLINE
  8
0
  6
CONTINUOUS
 62
1
 66
1
 70
2
  0
VERTEX
  8
0
 10
1776.723429
 20
1361.964474
 70
0
 42
0.053351
  0
VERTEX
  8
0
 10
1783.185034
 20
1359.067246
 70
0
 42
0.052667
  0
VERTEX
  8
0
 10
1790.155978
 20
1357.582774
 70
0
 42
0.052427
  0
VERTEX
  8
0
 10
1797.299480
 20
1357.582774
 70
0
 42
0.052667
  0
VERTEX
  8
0
 10
1804.270424
 20
1359.067246
 70
0
 42
0.053351
  0
VERTEX
  8
0
 10
1810.732028
 20
1361.964474
 70
0
  0
SEQEND
  0
LINE
  8
0
  6
CONTINUOUS
 62
1
 10
1795.224670
 20
1410.571644
 11
1795.224670
 21
1368.385131
  0
LINE
  8
0
  6
CONTINUOUS
 62
1
 10
1792.228493
 20
1410.617180
 11
1792.228493
 21
1368.385287
  0
ARC
  8
0
  6
CONTINUOUS
 62
1
 10
1793.726579
 20
1368.334317
 40
1.498086
 50
180.000000
 51
1.942686
  0
CIRCLE
  8
0
  6
CONTINUOUS
 62
1
 10
1771.227729
 20
1276.809516
 40
6.000000
  0
CIRCLE
  8
0
  6
CONTINUOUS
 62
1
 10
1796.227729
 20
1276.809516
 40
6.000000
  0
LINE
  8
0
  6
CONTINUOUS
 62
1
 10
943.827729
 20
1718.437875
 11
1843.827729
 21
1718.437875
  0
LINE
  8
0
  6
CONTINUOUS
 62
1
 10
1064.327660
 20
584.937875
 11
975.327660
 21
584.937875
  0
LINE
  8
0
  6
CONTINUOUS
 62
1
 10
975.327660
 20
594.937875
 11
975.327660
 21
584.937875
  0
LINE
  8
0
  6
CONTINUOUS
 62
1
 10
997.389512
 20
579.000375
 11
998.359566
 21
485.875368
  0
ARC
  8
0
  6
CONTINUOUS
 62
1
 10
991.389840
 20
578.937875
 40
6.000000
 50
0.596809
 51
90.000000
  0
ARC
  8
0
  6
CONTINUOUS
 62
1
 10
1048.265496
 20
578.937875
 40
6.000000
 50
90.000000
 51
179.403198
  0
LINE
  8
0
  6
CONTINUOUS
 62
1
 10
1064.327660
 20
594.937875
 11
1064.327660
 21
584.937875
  0
LINE
  8
0
  6
CONTINUOUS
 62
1
 10
1003.327660
 20
445.437222
 11
1003.827660
 21
445.437222
  0
LINE
  8
0
  6
CONTINUOUS
 62
1
 10
1003.827660
 20
445.437222
 11
1003.327660
 21
445.437222
  0
LINE
  8
0
  6
CONTINUOUS
 62
1
 10
1045.827660
 20
445.437222
 11
1034.827660
 21
449.437207
  0
LINE
  8
0
  6
CONTINUOUS
 62
1
 10
993.827660
 20
445.437222
 11
1004.827660
 21
449.437207
  0
ARC
  8
0
  6
CONTINUOUS
 62
1
 10
1035.296090
 20
485.937868
 40
5.999996
 50
269.999969
 51
359.403160
  0
ARC
  8
0
  6
CONTINUOUS
 62
1
 10
1004.359246
 20
485.937868
 40
6.000000
 50
180.596802
 51
270.000000
  0
LINE
  8
0
  6
CONTINUOUS
 62
1
 10
1041.327660
 20
488.937868
 11
998.327660
 21
488.937868
  0
LINE
  8
0
  6
CONTINUOUS
 62
1
 10
1042.265816
 20
579.000375
 11
1041.295769
 21
485.875368
  0
LINE
  8
0
  6
CONTINUOUS
 62
1
 10
1004.827660
 20
479.937868
 11
1004.827660
 21
449.437207
  0
LINE
  8
0
  6
CONTINUOUS
 62
1
 10
1034.827660
 20
479.937868
 11
1034.827660
 21
449.437207
  0
LINE
  8
0
  6
CONTINUOUS
 62
1
 10
1045.827660
 20
445.437222
 11
1035.827660
 21
445.437222
  0
LINE
  8
0
  6
CONTINUOUS
 62
1
 10
993.827660
 20
445.437222
 11
993.827660
 21
444.437222
  0
LINE
  8
0
  6
CONTINUOUS
 62
1
 10
1036.327660
 20
445.437222
 11
993.827660
 21
445.437222
  0
LINE
  8
0
  6
CONTINUOUS
 62
1
 10
1034.827660
 20
449.437207
 11
1004.858605
 21
449.437207
  0
LINE
  8
0
  6
CONTINUOUS
 62
1
 10
1035.296090
 20
479.937868
 11
1004.359246
 21
479.937868
  0
LINE
  8
0
  6
CONTINUOUS
 62
1
 10
1045.827660
 20
445.437222
 11
1045.827660
 21
444.437222
  0
LINE
  8
0
  6
CONTINUOUS
 62
1
 10
1812.327675
 20
584.937875
 11
1723.327675
 21
584.937875
  0
LINE
  8
0
  6
CONTINUOUS
 62
1
 10
1723.327675
 20
594.937875
 11
1723.327675
 21
584.937875
  0
LINE
  8
0
  6
CONTINUOUS
 62
1
 10
1745.389527
 20
579.000375
 11
1746.359582
 21
485.875368
  0
ARC
  8
0
  6
CONTINUOUS
 62
1
 10
1739.389855
 20
578.937875
 40
6.000000
 50
0.596809
 51
90.000000
  0
ARC
  8
0
  6
CONTINUOUS
 62
1
 10
1796.265511
 20
578.937875
 40
6.000000
 50
90.000000
 51
179.403198
  0
LINE
  8
0
  6
CONTINUOUS
 62
1
 10
1812.327675
 20
594.937875
 11
1812.327675
 21
584.937875
  0
LINE
  8
0
  6
CONTINUOUS
 62
1
 10
1751.327675
 20
445.437222
 11
1751.827675
 21
445.437222
  0
LINE
  8
0
  6
CONTINUOUS
 62
1
 10
1751.827675
 20
445.437222
 11
1751.327675
 21
445.437222
  0
LINE
  8
0
  6
CONTINUOUS
 62
1
 10
1793.827675
 20
445.437222
 11
1782.827675
 21
449.437207
  0
LINE
  8
0
  6
CONTINUOUS
 62
1
 10
1741.827675
 20
445.437222
 11
1752.827675
 21
449.437207
  0
ARC
  8
0
  6
CONTINUOUS
 62
1
 10
1783.296105
 20
485.937868
 40
5.999996
 50
269.999969
 51
359.403160
  0
ARC
  8
0
  6
CONTINUOUS
 62
1
 10
1752.359261
 20
485.937868
 40
6.000000
 50
180.596802
 51
270.000000
  0
LINE
  8
0
  6
CONTINUOUS
 62
1
 10
1789.327675
 20
488.937868
 11
1746.327675
 21
488.937868
  0
LINE
  8
0
  6
CONTINUOUS
 62
1
 10
1790.265832
 20
579.000375
 11
1789.295785
 21
485.875368
  0
LINE
  8
0
  6
CONTINUOUS
 62
1
 10
1752.827675
 20
479.937868
 11
1752.827675
 21
449.437207
  0
LINE
  8
0
  6
CONTINUOUS
 62
1
 10
1782.827675
 20
479.937868
 11
1782.827675
 21
449.437207
  0
LINE
  8
0
  6
CONTINUOUS
 62
1
 10
1793.827675
 20
445.437222
 11
1783.827675
 21
445.437222
  0
LINE
  8
0
  6
CONTINUOUS
 62
1
 10
1741.827675
 20
445.437222
 11
1741.827675
 21
444.437222
  0
LINE
  8
0
  6
CONTINUOUS
 62
1
 10
1784.327675
 20
445.437222
 11
1741.827675
 21
445.437222
  0
LINE
  8
0
  6
CONTINUOUS
 62
1
 10
1782.827675
 20
449.437207
 11
1752.858620
 21
449.437207
  0
LINE
  8
0
  6
CONTINUOUS
 62
1
 10
1783.296105
 20
479.937868
 11
1752.359261
 21
479.937868
  0
LINE
  8
0
  6
CONTINUOUS
 62
1
 10
1793.827675
 20
445.437222
 11
1793.827675
 21
444.437222
  0
LINE
  8
0
  6
CONTINUOUS
 62
1
 10
945.827721
 20
594.937875
 11
1841.827737
 21
594.937875
  0
LINE
  8
0
  6
CONTINUOUS
 62
1
 10
1841.827737
 20
635.737875
 11
945.827721
 21
635.737875
  0
LINE
  8
0
  6
CONTINUOUS
 62
1
 10
945.827721
 20
635.737875
 11
945.827721
 21
594.937875
  0
LINE
  8
0
  6
CONTINUOUS
 62
1
 10
1841.827737
 20
635.737875
 11
1841.827737
 21
594.937875
  0
LINE
  8
0
  6
CONTINUOUS
 62
1
 10
1003.827729
 20
635.737875
 11
1003.827729
 21
1011.237875
  0
LINE
  8
0
  6
CONTINUOUS
 62
1
 10
965.827729
 20
635.737875
 11
965.827729
 21
1011.237875
  0
LINE
  8
0
  6
CONTINUOUS
 62
1
 10
1821.827729
 20
635.737875
 11
1821.827729
 21
1011.237875
  0
LINE
  8
0
  6
CONTINUOUS
 62
1
 10
1783.827729
 20
635.737875
 11
1783.827729
 21
1011.237875
  0
LINE
  8
0
  6
CONTINUOUS
 62
1
 10
1003.827729
 20
935.237875
 11
1783.827729
 21
935.237875
  0
LINE
  8
0
  6
CONTINUOUS
 62
1
 10
1783.827729
 20
973.237875
 11
1003.827729
 21
973.237875
  0
LINE
  8
0
  6
CONTINUOUS
 62
1
 10
1821.827729
 20
1009.594086
 11
1783.827729
 21
1009.594086
  0
LINE
  8
0
  6
CONTINUOUS
 62
1
 10
965.827729
 20
1011.237875
 11
1003.827729
 21
1011.237875
  0
LINE
  8
0
  6
CONTINUOUS
 62
1
 10
1783.827729
 20
1011.237875
 11
1821.827729
 21
1011.237875
  0
LINE
  8
0
  6
CONTINUOUS
 62
1
 10
1003.827729
 20
1009.594086
 11
965.827729
 21
1009.594086
  0
LINE
  8
0
  6
CONTINUOUS
 62
1
 10
993.827660
 20
444.437222
 11
1045.827660
 21
444.437222
  0
LINE
  8
0
  6
CONTINUOUS
 62
1
 10
1741.827675
 20
444.437222
 11
1793.827675
 21
444.437222
  0
ENDSEC
  0
EOF
