  0
SECTION
  2
HEADER
  9
$LIMMIN
 10
0.000000
 20
0.000000
  9
$LIMMAX
 10
920.010000
 20
1365.301000
  9
$EXTMIN
 10
0.000000
 20
0.000000
  9
$EXTMAX
 10
920.010000
 20
1365.301000
  9
$ANGBASE
 50
0.0
  9
$ANGDIR
 70
0
  9
$DIMRND
 40
0.100000
  9
$DIMSE1
 70
0
  9
$DIMSE2
 70
0
  9
$DIMTXT
 40
3.500000
  9
$LTSCALE
 40
1.000000
  9
$LUPREC
 70
5
  9
$AUPREC
 70
5
  9
$PDMODE
 70
2
  9
$PDSIZE
 40
6.826505
  0
ENDSEC
  0
SECTION
  2
TABLES
  0
TABLE
  2
VPORT
  70
1
  0
VPORT
  2
*ACTIVE
 70
0
  10
0.0
 20
0.0
 11
1.0
 21
1.0
 12
594.0
 22
420.0
 13
0.0
 23
0.0
 14
10.0
 24
10.0
 15
10.0
 25
10.0
 16
0.0
 26
0.0
 36
1.0
 17
594.0
 27
420.0
 37
100.0
 40
1000.0
 41
1.0
 42
50.0
 43
0.0
 44
0.0
 50
0.0
 51
0.0
 71
0
 72
2000
 73
1
 74
3
 75
0
 76
0
 77
0
 78
1
  0
ENDTAB
  0
TABLE
  2
LTYPE
 70
5
  0
LTYPE
  2
CONTINUOUS
 70
0
  3
Solid line
 72
65
 73
0
 40
0.0
  0
LTYPE
  2
DASHED
 70
0
  3
Dashed line
 72
65
 73
2
 40
6.000000
 49
3.000000
 49
-3.000000
  0
LTYPE
  2
CENTER
 70
0
  3
Chain line
 72
65
 73
4
 40
24.000000
 49
15.000000
 49
-3.000000
 49
3.000000
 49
-3.000000
  0
LTYPE
  2
RANDOM
 70
0
  3
Random line
 72
65
 73
4
 40
22.500000
 49
6.000000
 49
-3.000000
 49
4.500000
 49
-9.000000
  0
LTYPE
  2
CHAIN_2_168430214
  3
CHAIN_2_168430214
 70
0
 72
65
 73
4
 40
24.000000
 49
15.000000
 49
-3.000000
 49
3.000000
 49
-3.000000
  0
ENDTAB
  0
TABLE
  2
STYLE
 70
9
  0
STYLE
  2
STANDARD
 40
0
 41
1.0
 50
0.0
 71
0
 42
0
  3
simplex
  4

 70
0
  0
ENDTAB
  0
TABLE
  2
LAYER
 70
4
  0
LAYER
  2
0
 70
0
 62
7
  6
CONTINUOUS
  0
LAYER
  2
0
 62
1
  6
CONTINUOUS
 70
0
  0
LAYER
  2
MODEL
 62
1
  6
CONTINUOUS
 70
0
  0
LAYER
  2
MODEL-0
 62
1
  6
CONTINUOUS
 70
0
  0
ENDTAB
  0
ENDSEC
  0
SECTION
  2
BLOCKS
  0
ENDSEC
  0
SECTION
  2
ENTITIES
  0
LINE
  8
0
  6
CONTINUOUS
 62
1
 10
795.000000
 20
1233.399666
 11
795.000000
 21
734.300654
  0
LINE
  8
MODEL-0
  6
CONTINUOUS
 62
1
 10
835.000529
 20
1274.300654
 11
120.000049
 21
1274.300654
  0
LINE
  8
MODEL-0
  6
CONTINUOUS
 62
1
 10
120.000049
 20
1312.300654
 11
815.823184
 21
1312.300654
  0
LINE
  8
MODEL-0
  6
CONTINUOUS
 62
1
 10
834.297586
 20
1285.320365
 11
817.520240
 21
1311.597710
  0
ARC
  8
MODEL-0
  6
CONTINUOUS
 62
1
 10
832.600529
 20
1283.623309
 40
2.400000
 50
0.000000
 51
45.000000
  0
ARC
  8
MODEL-0
  6
CONTINUOUS
 62
1
 10
815.823184
 20
1309.900654
 40
2.400000
 50
45.000000
 51
90.000000
  0
LINE
  8
MODEL-0
  6
CONTINUOUS
 62
1
 10
120.000049
 20
1350.264231
 11
120.000049
 21
1274.300654
  0
LINE
  8
MODEL-0
  6
CONTINUOUS
 62
1
 10
120.000049
 20
1350.264231
 11
65.000000
 21
1365.301450
  0
ARC
  8
MODEL-0
  6
CONTINUOUS
 62
1
 10
912.221757
 20
1181.471722
 40
7.000000
 50
270.000000
 51
348.494427
  0
ARC
  8
MODEL-0
  6
CONTINUOUS
 62
1
 10
912.221757
 20
1197.129586
 40
7.000000
 50
11.505573
 51
90.000000
  0
ARC
  8
MODEL-0
  6
CONTINUOUS
 62
1
 10
873.760473
 20
1189.300654
 40
46.250000
 50
348.494427
 51
11.505573
  0
LINE
  8
MODEL-0
  6
CONTINUOUS
 62
1
 10
912.221757
 20
1204.129586
 11
848.110473
 21
1204.129586
  0
LINE
  8
MODEL-0
  6
CONTINUOUS
 62
1
 10
912.221757
 20
1174.471722
 11
848.110473
 21
1174.471722
  0
LINE
  8
MODEL-0
  6
CONTINUOUS
 62
1
 10
65.000000
 20
1365.301450
 11
65.000000
 21
569.300654
  0
LINE
  8
MODEL-0
  6
CONTINUOUS
 62
1
 10
65.000000
 20
569.300654
 11
780.000000
 21
569.300654
  0
LINE
  8
MODEL-0
  6
CONTINUOUS
 62
1
 10
780.000000
 20
565.156865
 11
780.000000
 21
1274.301450
  0
LINE
  8
MODEL-0
  6
CONTINUOUS
 62
1
 10
780.000000
 20
629.300654
 11
820.000000
 21
644.300654
  0
LINE
  8
MODEL-0
  6
CONTINUOUS
 62
1
 10
820.000000
 20
644.300654
 11
820.000000
 21
734.300654
  0
LINE
  8
MODEL-0
  6
CONTINUOUS
 62
1
 10
780.000000
 20
734.300654
 11
820.000000
 21
734.300654
  0
LINE
  8
MODEL-0
  6
CONTINUOUS
 62
1
 10
795.000000
 20
744.300654
 11
848.110473
 21
744.300654
  0
LINE
  8
MODEL-0
  6
CONTINUOUS
 62
1
 10
848.110473
 20
744.300654
 11
848.110473
 21
1214.300654
  0
LINE
  8
MODEL-0
  6
CONTINUOUS
 62
1
 10
848.110473
 20
1214.300654
 11
795.000000
 21
1214.300654
  0
LINE
  8
MODEL-0
  6
CONTINUOUS
 62
1
 10
65.000000
 20
1094.300654
 11
0.000000
 21
1094.300654
  0
LINE
  8
MODEL-0
  6
CONTINUOUS
 62
1
 10
0.000000
 20
1094.300654
 11
0.000000
 21
894.300654
  0
LINE
  8
MODEL-0
  6
CONTINUOUS
 62
1
 10
0.000000
 20
894.300654
 11
65.000000
 21
894.300654
  0
LINE
  8
MODEL-0
  6
CONTINUOUS
 62
1
 10
835.000529
 20
1274.300654
 11
65.000000
 21
1274.300654
  0
LINE
  8
MODEL-0
  6
CONTINUOUS
 62
1
 10
780.000000
 20
1233.399666
 11
852.110473
 21
1233.399666
  0
LINE
  8
MODEL-0
  6
CONTINUOUS
 62
1
 10
853.910473
 20
1235.199666
 11
853.910473
 21
1264.144595
  0
LINE
  8
MODEL-0
  6
CONTINUOUS
 62
1
 10
853.910473
 20
1264.144595
 11
835.000529
 21
1274.300654
  0
ARC
  8
MODEL-0
  6
CONTINUOUS
 62
1
 10
852.110473
 20
1235.199666
 40
1.800000
 50
270.000000
 51
0.000000
  0
LINE
  8
MODEL-0
  6
CHAIN_2_168430214
 62
4
 10
112.402380
 20
954.300654
 11
12.381289
 21
954.300654
  0
LINE
  8
MODEL-0
  6
CHAIN_2_168430214
 62
4
 10
112.402380
 20
890.740654
 11
12.381289
 21
890.740654
  0
LINE
  8
MODEL-0
  6
CONTINUOUS
 62
1
 10
835.000529
 20
1283.623309
 11
835.000529
 21
1274.300654
  0
LINE
  8
MODEL-0
  6
CONTINUOUS
 62
1
 10
178.499988
 20
140.500654
 11
103.499988
 21
140.500654
  0
LINE
  8
MODEL-0
  6
CONTINUOUS
 62
1
 10
103.499988
 20
150.500654
 11
103.499988
 21
140.500654
  0
LINE
  8
MODEL-0
  6
CONTINUOUS
 62
1
 10
118.561840
 20
134.563154
 11
119.531894
 21
41.438146
  0
ARC
  8
MODEL-0
  6
CONTINUOUS
 62
1
 10
112.562168
 20
134.500654
 40
6.000000
 50
0.596809
 51
90.000000
  0
ARC
  8
MODEL-0
  6
CONTINUOUS
 62
1
 10
169.437824
 20
134.500654
 40
6.000000
 50
90.000000
 51
179.403198
  0
LINE
  8
MODEL-0
  6
CONTINUOUS
 62
1
 10
178.499988
 20
150.500654
 11
178.499988
 21
140.500654
  0
LINE
  8
MODEL-0
  6
CONTINUOUS
 62
1
 10
124.499988
 20
1.000000
 11
124.999988
 21
1.000000
  0
LINE
  8
MODEL-0
  6
CONTINUOUS
 62
1
 10
124.999988
 20
1.000000
 11
124.499988
 21
1.000000
  0
LINE
  8
MODEL-0
  6
CONTINUOUS
 62
1
 10
166.999988
 20
1.000000
 11
155.999988
 21
4.999985
  0
LINE
  8
MODEL-0
  6
CONTINUOUS
 62
1
 10
114.999988
 20
1.000000
 11
125.999988
 21
4.999985
  0
ARC
  8
MODEL-0
  6
CONTINUOUS
 62
1
 10
156.468418
 20
41.500646
 40
5.999996
 50
269.999969
 51
359.403160
  0
ARC
  8
MODEL-0
  6
CONTINUOUS
 62
1
 10
125.531574
 20
41.500646
 40
6.000000
 50
180.596802
 51
270.000000
  0
LINE
  8
MODEL-0
  6
CONTINUOUS
 62
1
 10
162.499988
 20
44.500646
 11
119.499988
 21
44.500646
  0
LINE
  8
MODEL-0
  6
CONTINUOUS
 62
1
 10
163.438144
 20
134.563154
 11
162.468097
 21
41.438146
  0
LINE
  8
MODEL-0
  6
CONTINUOUS
 62
1
 10
125.999988
 20
35.500646
 11
125.999988
 21
4.999985
  0
LINE
  8
MODEL-0
  6
CONTINUOUS
 62
1
 10
155.999988
 20
35.500646
 11
155.999988
 21
4.999985
  0
LINE
  8
MODEL-0
  6
CONTINUOUS
 62
1
 10
166.999988
 20
1.000000
 11
156.999988
 21
1.000000
  0
LINE
  8
MODEL-0
  6
CONTINUOUS
 62
1
 10
114.999988
 20
1.000000
 11
114.999988
 21
0.000000
  0
LINE
  8
MODEL-0
  6
CONTINUOUS
 62
1
 10
157.499988
 20
1.000000
 11
114.999988
 21
1.000000
  0
LINE
  8
MODEL-0
  6
CONTINUOUS
 62
1
 10
155.999988
 20
4.999985
 11
126.030933
 21
4.999985
  0
LINE
  8
MODEL-0
  6
CONTINUOUS
 62
1
 10
156.468418
 20
35.500646
 11
125.531574
 21
35.500646
  0
LINE
  8
MODEL-0
  6
CONTINUOUS
 62
1
 10
166.999988
 20
1.000000
 11
166.999988
 21
0.000000
  0
LINE
  8
MODEL-0
  6
CONTINUOUS
 62
1
 10
767.500000
 20
140.500654
 11
692.500000
 21
140.500654
  0
LINE
  8
MODEL-0
  6
CONTINUOUS
 62
1
 10
692.500000
 20
150.500654
 11
692.500000
 21
140.500654
  0
LINE
  8
MODEL-0
  6
CONTINUOUS
 62
1
 10
707.561852
 20
134.563154
 11
708.531907
 21
41.438146
  0
ARC
  8
MODEL-0
  6
CONTINUOUS
 62
1
 10
701.562180
 20
134.500654
 40
6.000000
 50
0.596809
 51
90.000000
  0
ARC
  8
MODEL-0
  6
CONTINUOUS
 62
1
 10
758.437836
 20
134.500654
 40
6.000000
 50
90.000000
 51
179.403198
  0
LINE
  8
MODEL-0
  6
CONTINUOUS
 62
1
 10
767.500000
 20
150.500654
 11
767.500000
 21
140.500654
  0
LINE
  8
MODEL-0
  6
CONTINUOUS
 62
1
 10
713.500000
 20
1.000000
 11
714.000000
 21
1.000000
  0
LINE
  8
MODEL-0
  6
CONTINUOUS
 62
1
 10
714.000000
 20
1.000000
 11
713.500000
 21
1.000000
  0
LINE
  8
MODEL-0
  6
CONTINUOUS
 62
1
 10
756.000000
 20
1.000000
 11
745.000000
 21
4.999985
  0
LINE
  8
MODEL-0
  6
CONTINUOUS
 62
1
 10
704.000000
 20
1.000000
 11
715.000000
 21
4.999985
  0
ARC
  8
MODEL-0
  6
CONTINUOUS
 62
1
 10
745.468430
 20
41.500646
 40
5.999996
 50
269.999969
 51
359.403160
  0
ARC
  8
MODEL-0
  6
CONTINUOUS
 62
1
 10
714.531586
 20
41.500646
 40
6.000000
 50
180.596802
 51
270.000000
  0
LINE
  8
MODEL-0
  6
CONTINUOUS
 62
1
 10
751.500000
 20
44.500646
 11
708.500000
 21
44.500646
  0
LINE
  8
MODEL-0
  6
CONTINUOUS
 62
1
 10
752.438157
 20
134.563154
 11
751.468110
 21
41.438146
  0
LINE
  8
MODEL-0
  6
CONTINUOUS
 62
1
 10
715.000000
 20
35.500646
 11
715.000000
 21
4.999985
  0
LINE
  8
MODEL-0
  6
CONTINUOUS
 62
1
 10
745.000000
 20
35.500646
 11
745.000000
 21
4.999985
  0
LINE
  8
MODEL-0
  6
CONTINUOUS
 62
1
 10
756.000000
 20
1.000000
 11
746.000000
 21
1.000000
  0
LINE
  8
MODEL-0
  6
CONTINUOUS
 62
1
 10
704.000000
 20
1.000000
 11
704.000000
 21
0.000000
  0
LINE
  8
MODEL-0
  6
CONTINUOUS
 62
1
 10
746.500000
 20
1.000000
 11
704.000000
 21
1.000000
  0
LINE
  8
MODEL-0
  6
CONTINUOUS
 62
1
 10
745.000000
 20
4.999985
 11
715.030945
 21
4.999985
  0
LINE
  8
MODEL-0
  6
CONTINUOUS
 62
1
 10
745.468430
 20
35.500646
 11
714.531586
 21
35.500646
  0
LINE
  8
MODEL-0
  6
CONTINUOUS
 62
1
 10
756.000000
 20
1.000000
 11
756.000000
 21
0.000000
  0
LINE
  8
MODEL-0
  6
CONTINUOUS
 62
1
 10
69.999927
 20
150.500654
 11
832.715282
 21
150.500654
  0
LINE
  8
MODEL-0
  6
CONTINUOUS
 62
1
 10
159.999988
 20
565.156865
 11
159.999988
 21
191.300654
  0
LINE
  8
MODEL-0
  6
CONTINUOUS
 62
1
 10
121.999988
 20
565.156865
 11
121.999988
 21
191.300654
  0
LINE
  8
MODEL-0
  6
CONTINUOUS
 62
1
 10
749.000000
 20
565.156865
 11
749.000000
 21
191.300654
  0
LINE
  8
MODEL-0
  6
CONTINUOUS
 62
1
 10
711.000000
 20
565.156865
 11
711.000000
 21
191.300654
  0
LINE
  8
MODEL-0
  6
CONTINUOUS
 62
1
 10
832.715282
 20
191.300654
 11
69.999927
 21
191.300654
  0
LINE
  8
MODEL-0
  6
CONTINUOUS
 62
1
 10
832.715282
 20
191.300654
 11
832.715282
 21
150.500654
  0
LINE
  8
MODEL-0
  6
CONTINUOUS
 62
1
 10
69.999927
 20
191.300654
 11
69.999927
 21
150.500654
  0
LINE
  8
MODEL-0
  6
CONTINUOUS
 62
1
 10
730.000000
 20
1274.301450
 11
730.000000
 21
569.300654
  0
LINE
  8
MODEL-0
  6
CONTINUOUS
 62
1
 10
80.999988
 20
565.156865
 11
80.999988
 21
569.300654
  0
LINE
  8
MODEL-0
  6
CONTINUOUS
 62
1
 10
200.999988
 20
565.156865
 11
200.999988
 21
569.300654
  0
LINE
  8
MODEL-0
  6
CONTINUOUS
 62
1
 10
80.999988
 20
565.156865
 11
200.999988
 21
565.156865
  0
LINE
  8
MODEL-0
  6
CONTINUOUS
 62
1
 10
670.000000
 20
565.156865
 11
670.000000
 21
569.300654
  0
LINE
  8
MODEL-0
  6
CONTINUOUS
 62
1
 10
780.000000
 20
565.156865
 11
670.000000
 21
565.156865
  0
LINE
  8
MODEL-0
  6
CONTINUOUS
 62
1
 10
159.999988
 20
528.800654
 11
711.000000
 21
528.800654
  0
LINE
  8
MODEL-0
  6
CONTINUOUS
 62
1
 10
159.999988
 20
490.800654
 11
711.000000
 21
490.800654
  0
LINE
  8
MODEL-0
  6
CONTINUOUS
 62
1
 10
166.999988
 20
0.000000
 11
114.999988
 21
0.000000
  0
LINE
  8
MODEL-0
  6
CONTINUOUS
 62
1
 10
704.000000
 20
0.000000
 11
756.000000
 21
0.000000
  0
LINE
  8
MODEL-0
  6
CONTINUOUS
 62
1
 10
17.000000
 20
881.094344
 11
65.000000
 21
881.094344
  0
LINE
  8
MODEL-0
  6
CONTINUOUS
 62
1
 10
17.000000
 20
881.094344
 11
17.000000
 21
894.300654
  0
ENDSEC
  0
EOF
