  0
SECTION
  2
HEADER
  9
$LIMMIN
 10
0.000000
 20
0.000000
  9
$LIMMAX
 10
3363.600000
 20
2378.400000
  9
$EXTMIN
 10
0.000000
 20
0.000000
  9
$EXTMAX
 10
3363.600000
 20
2378.400000
  9
$ANGBASE
 50
0.0
  9
$ANGDIR
 70
0
  9
$DIMRND
 40
0.100000
  9
$DIMSE1
 70
0
  9
$DIMSE2
 70
0
  9
$DIMTXT
 40
3.500000
  9
$LTSCALE
 40
1.000000
  9
$LUPREC
 70
5
  9
$AUPREC
 70
5
  9
$PDMODE
 70
2
  9
$PDSIZE
 40
16.818000
  0
ENDSEC
  0
SECTION
  2
TABLES
  0
TABLE
  2
VPORT
  70
1
  0
VPORT
  2
*ACTIVE
 70
0
  10
0.0
 20
0.0
 11
1.0
 21
1.0
 12
594.0
 22
420.0
 13
0.0
 23
0.0
 14
10.0
 24
10.0
 15
10.0
 25
10.0
 16
0.0
 26
0.0
 36
1.0
 17
594.0
 27
420.0
 37
100.0
 40
1000.0
 41
1.0
 42
50.0
 43
0.0
 44
0.0
 50
0.0
 51
0.0
 71
0
 72
2000
 73
1
 74
3
 75
0
 76
0
 77
0
 78
1
  0
ENDTAB
  0
TABLE
  2
LTYPE
 70
4
  0
LTYPE
  2
CONTINUOUS
 70
0
  3
Solid line
 72
65
 73
0
 40
0.0
  0
LTYPE
  2
DASHED
 70
0
  3
Dashed line
 72
65
 73
2
 40
6.000000
 49
3.000000
 49
-3.000000
  0
LTYPE
  2
CENTER
 70
0
  3
Chain line
 72
65
 73
4
 40
24.000000
 49
15.000000
 49
-3.000000
 49
3.000000
 49
-3.000000
  0
LTYPE
  2
RANDOM
 70
0
  3
Random line
 72
65
 73
4
 40
22.500000
 49
6.000000
 49
-3.000000
 49
4.500000
 49
-9.000000
  0
ENDTAB
  0
TABLE
  2
STYLE
 70
9
  0
STYLE
  2
STANDARD
 40
0
 41
1.0
 50
0.0
 71
0
 42
0
  3
simplex
  4

 70
0
  0
ENDTAB
  0
TABLE
  2
LAYER
 70
2
  0
LAYER
  2
0
 70
0
 62
7
  6
CONTINUOUS
  0
LAYER
  2
0
 62
1
  6
CONTINUOUS
 70
0
  0
ENDTAB
  0
ENDSEC
  0
SECTION
  2
BLOCKS
  0
ENDSEC
  0
SECTION
  2
ENTITIES
  0
LINE
  8
0
  6
CONTINUOUS
 62
1
 10
1578.465142
 20
624.418318
 11
1578.465142
 21
680.418318
  0
LINE
  8
0
  6
CONTINUOUS
 62
1
 10
818.465142
 20
614.890534
 11
916.465142
 21
614.890534
  0
LINE
  8
0
  6
CONTINUOUS
 62
1
 10
916.465142
 20
614.890534
 11
916.465142
 21
691.890534
  0
LINE
  8
0
  6
CONTINUOUS
 62
1
 10
916.465142
 20
691.890534
 11
818.465142
 21
691.890534
  0
LINE
  8
0
  6
CONTINUOUS
 62
1
 10
818.465142
 20
691.890534
 11
818.465142
 21
614.890534
  0
LINE
  8
0
  6
CONTINUOUS
 62
1
 10
788.465142
 20
695.418318
 11
1688.465142
 21
695.418318
  0
LINE
  8
0
  6
CONTINUOUS
 62
1
 10
788.465142
 20
590.418318
 11
1688.465142
 21
590.418318
  0
LINE
  8
0
  6
CONTINUOUS
 62
1
 10
788.465142
 20
605.418318
 11
1688.465142
 21
605.418318
  0
LINE
  8
0
  6
CONTINUOUS
 62
1
 10
1673.465142
 20
530.418318
 11
803.465142
 21
530.418318
  0
LINE
  8
0
  6
CONTINUOUS
 62
1
 10
803.465142
 20
530.418318
 11
803.465142
 21
545.418318
  0
LINE
  8
0
  6
CONTINUOUS
 62
1
 10
803.465142
 20
545.418318
 11
803.465142
 21
530.418318
  0
LINE
  8
0
  6
CONTINUOUS
 62
1
 10
803.465142
 20
530.418318
 11
803.465142
 21
545.418318
  0
LINE
  8
0
  6
CONTINUOUS
 62
1
 10
803.465142
 20
545.418318
 11
788.465142
 21
545.418318
  0
LINE
  8
0
  6
CONTINUOUS
 62
1
 10
788.465142
 20
545.418318
 11
788.465142
 21
695.418318
  0
LINE
  8
0
  6
CONTINUOUS
 62
1
 10
788.465142
 20
695.418318
 11
788.465142
 21
1220.418318
  0
LINE
  8
0
  6
CONTINUOUS
 62
1
 10
788.465142
 20
1220.418318
 11
788.465127
 21
1321.118318
  0
LINE
  8
0
  6
CONTINUOUS
 62
1
 10
1688.465127
 20
1321.118318
 11
1688.465142
 21
545.418318
  0
LINE
  8
0
  6
CONTINUOUS
 62
1
 10
1688.465142
 20
545.418318
 11
1673.465142
 21
545.418318
  0
LINE
  8
0
  6
CONTINUOUS
 62
1
 10
1673.465142
 20
545.418318
 11
1673.465142
 21
530.418318
  0
LINE
  8
0
  6
CONTINUOUS
 62
1
 10
1673.465142
 20
530.418318
 11
1673.465142
 21
545.418318
  0
LINE
  8
0
  6
CONTINUOUS
 62
1
 10
1673.465142
 20
545.418318
 11
1673.465142
 21
530.418318
  0
LINE
  8
0
  6
CONTINUOUS
 62
1
 10
1578.465142
 20
1175.418318
 11
1198.465142
 21
1175.418318
  0
LINE
  8
0
  6
CONTINUOUS
 62
1
 10
1198.465142
 20
1175.418318
 11
1198.465142
 21
705.418318
  0
LINE
  8
0
  6
CONTINUOUS
 62
1
 10
1198.465142
 20
705.418318
 11
1578.465142
 21
705.418318
  0
LINE
  8
0
  6
CONTINUOUS
 62
1
 10
1578.465142
 20
705.418318
 11
1578.465142
 21
1175.418318
  0
LINE
  8
0
  6
CONTINUOUS
 62
1
 10
1178.465142
 20
1175.418318
 11
798.465142
 21
1175.418318
  0
LINE
  8
0
  6
CONTINUOUS
 62
1
 10
798.465142
 20
1175.418318
 11
798.465142
 21
705.418318
  0
LINE
  8
0
  6
CONTINUOUS
 62
1
 10
798.465142
 20
705.418318
 11
1178.465142
 21
705.418318
  0
LINE
  8
0
  6
CONTINUOUS
 62
1
 10
1178.465142
 20
705.418318
 11
1178.465142
 21
1175.418318
  0
LINE
  8
0
  6
CONTINUOUS
 62
1
 10
1083.465142
 20
1125.418318
 11
883.465142
 21
1125.418318
  0
ARC
  8
0
  6
CONTINUOUS
 62
1
 10
883.465142
 20
1090.418318
 40
35.000000
 50
90.000000
 51
180.000000
  0
LINE
  8
0
  6
CONTINUOUS
 62
1
 10
848.465142
 20
1090.418318
 11
848.465142
 21
790.418318
  0
ARC
  8
0
  6
CONTINUOUS
 62
1
 10
883.465142
 20
790.418318
 40
35.000000
 50
180.000000
 51
270.000000
  0
LINE
  8
0
  6
CONTINUOUS
 62
1
 10
883.465142
 20
755.418318
 11
1083.465142
 21
755.418318
  0
ARC
  8
0
  6
CONTINUOUS
 62
1
 10
1083.465142
 20
790.418318
 40
35.000000
 50
270.000000
 51
0.000000
  0
LINE
  8
0
  6
CONTINUOUS
 62
1
 10
1118.465142
 20
790.418318
 11
1118.465142
 21
1090.418318
  0
ARC
  8
0
  6
CONTINUOUS
 62
1
 10
1083.465142
 20
1090.418318
 40
35.000000
 50
0.000000
 51
90.000000
  0
ARC
  8
0
  6
CONTINUOUS
 62
1
 10
1293.465142
 20
1090.418318
 40
35.000000
 50
90.001000
 51
180.001000
  0
LINE
  8
0
  6
CONTINUOUS
 62
1
 10
1258.465142
 20
1090.418318
 11
1258.465142
 21
790.418318
  0
ARC
  8
0
  6
CONTINUOUS
 62
1
 10
1293.465142
 20
790.418318
 40
35.000000
 50
180.000000
 51
270.000000
  0
LINE
  8
0
  6
CONTINUOUS
 62
1
 10
1293.465142
 20
755.418318
 11
1493.465142
 21
755.418318
  0
ARC
  8
0
  6
CONTINUOUS
 62
1
 10
1493.465142
 20
790.418318
 40
35.000000
 50
270.000000
 51
0.000000
  0
LINE
  8
0
  6
CONTINUOUS
 62
1
 10
1528.465142
 20
790.418318
 11
1528.465142
 21
1090.418318
  0
ARC
  8
0
  6
CONTINUOUS
 62
1
 10
1493.465142
 20
1090.418318
 40
35.000000
 50
0.000000
 51
90.000000
  0
LINE
  8
0
  6
CONTINUOUS
 62
1
 10
1493.465142
 20
1125.418318
 11
1293.465142
 21
1125.418318
  0
LINE
  8
0
  6
CONTINUOUS
 62
1
 10
1558.465142
 20
624.418318
 11
1558.465142
 21
680.418318
  0
LINE
  8
0
  6
CONTINUOUS
 62
1
 10
1538.465142
 20
680.418318
 11
1538.465142
 21
624.418318
  0
LINE
  8
0
  6
CONTINUOUS
 62
1
 10
1518.465142
 20
624.418318
 11
1518.465142
 21
680.418318
  0
LINE
  8
0
  6
CONTINUOUS
 62
1
 10
1498.465142
 20
680.418318
 11
1498.465142
 21
624.418318
  0
LINE
  8
0
  6
CONTINUOUS
 62
1
 10
1478.465142
 20
624.418318
 11
1478.465142
 21
680.418318
  0
LINE
  8
0
  6
CONTINUOUS
 62
1
 10
1458.465142
 20
680.418318
 11
1458.465142
 21
624.418318
  0
LINE
  8
0
  6
CONTINUOUS
 62
1
 10
1438.465142
 20
624.418318
 11
1438.465142
 21
680.418318
  0
LINE
  8
0
  6
CONTINUOUS
 62
1
 10
1418.465142
 20
680.418318
 11
1418.465142
 21
624.418318
  0
LINE
  8
0
  6
CONTINUOUS
 62
1
 10
1398.465142
 20
624.418318
 11
1398.465142
 21
680.418318
  0
LINE
  8
0
  6
CONTINUOUS
 62
1
 10
1378.465142
 20
680.418318
 11
1378.465142
 21
624.418318
  0
LINE
  8
0
  6
CONTINUOUS
 62
1
 10
1358.465142
 20
624.418318
 11
1358.465142
 21
680.418318
  0
LINE
  8
0
  6
CONTINUOUS
 62
1
 10
1338.465142
 20
680.418318
 11
1338.465142
 21
624.418318
  0
LINE
  8
0
  6
CONTINUOUS
 62
1
 10
1318.465142
 20
624.418318
 11
1318.465142
 21
680.418318
  0
LINE
  8
0
  6
CONTINUOUS
 62
1
 10
1298.465142
 20
680.418318
 11
1298.465142
 21
624.418318
  0
LINE
  8
0
  6
CONTINUOUS
 62
1
 10
1278.465142
 20
624.418318
 11
1278.465142
 21
680.418318
  0
LINE
  8
0
  6
CONTINUOUS
 62
1
 10
1258.465142
 20
680.418318
 11
1258.465142
 21
624.418318
  0
LINE
  8
0
  6
CONTINUOUS
 62
1
 10
1238.465142
 20
624.418318
 11
1238.465142
 21
680.418318
  0
LINE
  8
0
  6
CONTINUOUS
 62
1
 10
1218.465142
 20
680.418318
 11
1218.465142
 21
624.418318
  0
LINE
  8
0
  6
CONTINUOUS
 62
1
 10
1198.465142
 20
624.418318
 11
1198.465142
 21
680.418318
  0
LINE
  8
0
  6
CONTINUOUS
 62
1
 10
1178.465142
 20
680.418318
 11
1178.465142
 21
624.418318
  0
LINE
  8
0
  6
CONTINUOUS
 62
1
 10
1158.465142
 20
624.418318
 11
1158.465142
 21
680.418318
  0
LINE
  8
0
  6
CONTINUOUS
 62
1
 10
1138.465142
 20
680.418318
 11
1138.465142
 21
624.418318
  0
LINE
  8
0
  6
CONTINUOUS
 62
1
 10
1118.465142
 20
624.418318
 11
1118.465142
 21
680.418318
  0
LINE
  8
0
  6
CONTINUOUS
 62
1
 10
1098.465142
 20
680.418318
 11
1098.465142
 21
624.418318
  0
LINE
  8
0
  6
CONTINUOUS
 62
1
 10
1078.465142
 20
624.418318
 11
1078.465142
 21
680.418318
  0
LINE
  8
0
  6
CONTINUOUS
 62
1
 10
1058.465142
 20
680.418318
 11
1058.465142
 21
624.418318
  0
LINE
  8
0
  6
CONTINUOUS
 62
1
 10
1038.465142
 20
624.418318
 11
1038.465142
 21
680.418318
  0
LINE
  8
0
  6
CONTINUOUS
 62
1
 10
1018.465142
 20
680.418318
 11
1018.465142
 21
624.418318
  0
LINE
  8
0
  6
CONTINUOUS
 62
1
 10
998.465142
 20
624.418318
 11
998.465142
 21
680.418318
  0
LINE
  8
0
  6
CONTINUOUS
 62
1
 10
978.465142
 20
680.418318
 11
978.465142
 21
624.418318
  0
LINE
  8
0
  6
CONTINUOUS
 62
1
 10
958.465142
 20
624.418318
 11
958.465142
 21
680.418318
  0
LINE
  8
0
  6
CONTINUOUS
 62
1
 10
938.465142
 20
680.418318
 11
938.465142
 21
624.418318
  0
LINE
  8
0
  6
CONTINUOUS
 62
1
 10
918.465142
 20
624.418318
 11
918.465142
 21
680.418318
  0
LINE
  8
0
  6
CONTINUOUS
 62
1
 10
818.465142
 20
680.418318
 11
818.465142
 21
624.418318
  0
LINE
  8
0
  6
CONTINUOUS
 62
1
 10
803.465142
 20
545.418318
 11
1673.465142
 21
545.418318
  0
LINE
  8
0
  6
CONTINUOUS
 62
1
 10
788.465142
 20
1194.517330
 11
1688.465142
 21
1194.517330
  0
LINE
  8
0
  6
CONTINUOUS
 62
1
 10
788.465127
 20
1336.118245
 11
788.465127
 21
1245.118318
  0
LINE
  8
0
  6
CONTINUOUS
 62
1
 10
1688.465142
 20
1245.118318
 11
788.465127
 21
1245.118318
  0
LINE
  8
0
  6
CONTINUOUS
 62
1
 10
1688.465142
 20
1283.118318
 11
789.365121
 21
1283.118318
  0
LINE
  8
0
  6
CONTINUOUS
 62
1
 10
1688.465142
 20
1245.118318
 11
1688.465142
 21
1336.118245
  0
LINE
  8
0
  6
CONTINUOUS
 62
1
 10
789.365121
 20
1254.618318
 11
1688.465142
 21
1254.618318
  0
LINE
  8
0
  6
CONTINUOUS
 62
1
 10
1688.465142
 20
1336.118245
 11
788.465127
 21
1336.118245
  0
LINE
  8
0
  6
CONTINUOUS
 62
1
 10
1688.465142
 20
1321.081026
 11
788.465127
 21
1321.081026
  0
LINE
  8
0
  6
CONTINUOUS
 62
1
 10
1635.964958
 20
1334.142004
 11
1609.964958
 21
1334.142004
  0
LINE
  8
0
  6
CONTINUOUS
 62
1
 10
1635.964958
 20
1328.305532
 11
1609.964958
 21
1328.305532
  0
LINE
  8
0
  6
CONTINUOUS
 62
1
 10
838.964958
 20
1328.305532
 11
838.964958
 21
1334.142004
  0
LINE
  8
0
  6
CONTINUOUS
 62
1
 10
864.964958
 20
1328.305532
 11
864.964958
 21
1334.142004
  0
LINE
  8
0
  6
CONTINUOUS
 62
1
 10
1609.964958
 20
1328.305532
 11
1609.964958
 21
1334.142004
  0
LINE
  8
0
  6
CONTINUOUS
 62
1
 10
1635.964958
 20
1328.305532
 11
1635.964958
 21
1334.142004
  0
LINE
  8
0
  6
CONTINUOUS
 62
1
 10
864.964958
 20
1328.305532
 11
838.964958
 21
1328.305532
  0
LINE
  8
0
  6
CONTINUOUS
 62
1
 10
864.964958
 20
1334.142004
 11
838.964958
 21
1334.142004
  0
LINE
  8
0
  6
CONTINUOUS
 62
1
 10
890.263725
 20
1335.442454
 11
905.799597
 21
1335.442454
  0
LINE
  8
0
  6
CONTINUOUS
 62
1
 10
1167.939597
 20
1332.842454
 11
1153.723725
 21
1332.842454
  0
LINE
  8
0
  6
CONTINUOUS
 62
1
 10
888.935716
 20
1333.305597
 11
888.275716
 21
1334.865597
  0
LINE
  8
0
  6
CONTINUOUS
 62
1
 10
907.127606
 20
1333.305597
 11
907.787606
 21
1334.865597
  0
LINE
  8
0
  6
CONTINUOUS
 62
1
 10
977.863725
 20
1335.442454
 11
993.399597
 21
1335.442454
  0
LINE
  8
0
  6
CONTINUOUS
 62
1
 10
1000.423725
 20
1335.442454
 11
1014.639597
 21
1335.442454
  0
LINE
  8
0
  6
CONTINUOUS
 62
1
 10
1021.663725
 20
1335.442454
 11
1037.199597
 21
1335.442454
  0
LINE
  8
0
  6
CONTINUOUS
 62
1
 10
1044.223725
 20
1335.442454
 11
1058.439597
 21
1335.442454
  0
LINE
  8
0
  6
CONTINUOUS
 62
1
 10
1065.463725
 20
1335.442454
 11
1080.999597
 21
1335.442454
  0
LINE
  8
0
  6
CONTINUOUS
 62
1
 10
1088.023725
 20
1335.442454
 11
1102.239597
 21
1335.442454
  0
LINE
  8
0
  6
CONTINUOUS
 62
1
 10
1109.263725
 20
1335.442454
 11
1124.799597
 21
1335.442454
  0
LINE
  8
0
  6
CONTINUOUS
 62
1
 10
1131.823725
 20
1335.442454
 11
1146.039597
 21
1335.442454
  0
LINE
  8
0
  6
CONTINUOUS
 62
1
 10
1153.063725
 20
1335.442454
 11
1168.599597
 21
1335.442454
  0
LINE
  8
0
  6
CONTINUOUS
 62
1
 10
976.535716
 20
1333.305597
 11
975.875716
 21
1334.865597
  0
LINE
  8
0
  6
CONTINUOUS
 62
1
 10
1020.335716
 20
1333.305597
 11
1019.675716
 21
1334.865597
  0
LINE
  8
0
  6
CONTINUOUS
 62
1
 10
1064.135716
 20
1333.305597
 11
1063.475716
 21
1334.865597
  0
LINE
  8
0
  6
CONTINUOUS
 62
1
 10
1107.935716
 20
1333.305597
 11
1107.275716
 21
1334.865597
  0
LINE
  8
0
  6
CONTINUOUS
 62
1
 10
1151.735716
 20
1333.305597
 11
1151.075716
 21
1334.865597
  0
LINE
  8
0
  6
CONTINUOUS
 62
1
 10
994.727606
 20
1333.305597
 11
995.387606
 21
1334.865597
  0
LINE
  8
0
  6
CONTINUOUS
 62
1
 10
1038.527606
 20
1333.305597
 11
1039.187606
 21
1334.865597
  0
LINE
  8
0
  6
CONTINUOUS
 62
1
 10
1082.327606
 20
1333.305597
 11
1082.987606
 21
1334.865597
  0
LINE
  8
0
  6
CONTINUOUS
 62
1
 10
1126.127606
 20
1333.305597
 11
1126.787606
 21
1334.865597
  0
LINE
  8
0
  6
CONTINUOUS
 62
1
 10
1169.927606
 20
1333.305597
 11
1170.587606
 21
1334.865597
  0
LINE
  8
0
  6
CONTINUOUS
 62
1
 10
929.027606
 20
1334.979311
 11
929.687606
 21
1333.419311
  0
LINE
  8
0
  6
CONTINUOUS
 62
1
 10
998.435716
 20
1334.979311
 11
997.775716
 21
1333.419311
  0
LINE
  8
0
  6
CONTINUOUS
 62
1
 10
1016.627606
 20
1334.979311
 11
1017.287606
 21
1333.419311
  0
LINE
  8
0
  6
CONTINUOUS
 62
1
 10
1042.235716
 20
1334.979311
 11
1041.575716
 21
1333.419311
  0
LINE
  8
0
  6
CONTINUOUS
 62
1
 10
1060.427606
 20
1334.979311
 11
1061.087606
 21
1333.419311
  0
LINE
  8
0
  6
CONTINUOUS
 62
1
 10
1086.035716
 20
1334.979311
 11
1085.375716
 21
1333.419311
  0
LINE
  8
0
  6
CONTINUOUS
 62
1
 10
1104.227606
 20
1334.979311
 11
1104.887606
 21
1333.419311
  0
LINE
  8
0
  6
CONTINUOUS
 62
1
 10
1129.835716
 20
1334.979311
 11
1129.175716
 21
1333.419311
  0
LINE
  8
0
  6
CONTINUOUS
 62
1
 10
1148.027606
 20
1334.979311
 11
1148.687606
 21
1333.419311
  0
LINE
  8
0
  6
CONTINUOUS
 62
1
 10
905.139597
 20
1332.842454
 11
890.923725
 21
1332.842454
  0
LINE
  8
0
  6
CONTINUOUS
 62
1
 10
927.699597
 20
1332.842454
 11
912.163725
 21
1332.842454
  0
LINE
  8
0
  6
CONTINUOUS
 62
1
 10
992.739597
 20
1332.842454
 11
978.523725
 21
1332.842454
  0
LINE
  8
0
  6
CONTINUOUS
 62
1
 10
1015.299597
 20
1332.842454
 11
999.763725
 21
1332.842454
  0
LINE
  8
0
  6
CONTINUOUS
 62
1
 10
1036.539597
 20
1332.842454
 11
1022.323725
 21
1332.842454
  0
LINE
  8
0
  6
CONTINUOUS
 62
1
 10
1059.099597
 20
1332.842454
 11
1043.563725
 21
1332.842454
  0
LINE
  8
0
  6
CONTINUOUS
 62
1
 10
1080.339597
 20
1332.842454
 11
1066.123725
 21
1332.842454
  0
LINE
  8
0
  6
CONTINUOUS
 62
1
 10
1102.899597
 20
1332.842454
 11
1087.363725
 21
1332.842454
  0
LINE
  8
0
  6
CONTINUOUS
 62
1
 10
1124.139597
 20
1332.842454
 11
1109.923725
 21
1332.842454
  0
LINE
  8
0
  6
CONTINUOUS
 62
1
 10
1146.699597
 20
1332.842454
 11
1131.163725
 21
1332.842454
  0
POLYLINE
  8
0
  6
CONTINUOUS
 62
1
 66
1
 70
2
  0
VERTEX
  8
0
 10
890.263725
 20
1335.442454
 70
0
 42
0.066109
  0
VERTEX
  8
0
 10
888.774201
 20
1335.269466
 70
0
 42
0.408197
  0
VERTEX
  8
0
 10
888.275716
 20
1334.865597
 70
0
  0
SEQEND
  0
POLYLINE
  8
0
  6
CONTINUOUS
 62
1
 66
1
 70
2
  0
VERTEX
  8
0
 10
888.935716
 20
1333.305597
 70
0
 42
0.186677
  0
VERTEX
  8
0
 10
890.923725
 20
1332.842454
 70
0
  0
SEQEND
  0
POLYLINE
  8
0
  6
CONTINUOUS
 62
1
 66
1
 70
2
  0
VERTEX
  8
0
 10
905.139597
 20
1332.842454
 70
0
 42
0.186677
  0
VERTEX
  8
0
 10
907.127606
 20
1333.305597
 70
0
  0
SEQEND
  0
POLYLINE
  8
0
  6
CONTINUOUS
 62
1
 66
1
 70
2
  0
VERTEX
  8
0
 10
907.787606
 20
1334.865597
 70
0
 42
0.408197
  0
VERTEX
  8
0
 10
907.289121
 20
1335.269466
 70
0
 42
0.066109
  0
VERTEX
  8
0
 10
905.799597
 20
1335.442454
 70
0
  0
SEQEND
  0
POLYLINE
  8
0
  6
CONTINUOUS
 62
1
 66
1
 70
2
  0
VERTEX
  8
0
 10
910.835716
 20
1334.979311
 70
0
 42
-0.186677
  0
VERTEX
  8
0
 10
912.823725
 20
1335.442454
 70
0
  0
SEQEND
  0
POLYLINE
  8
0
  6
CONTINUOUS
 62
1
 66
1
 70
2
  0
VERTEX
  8
0
 10
927.039597
 20
1335.442454
 70
0
 42
-0.186677
  0
VERTEX
  8
0
 10
929.027606
 20
1334.979311
 70
0
  0
SEQEND
  0
POLYLINE
  8
0
  6
CONTINUOUS
 62
1
 66
1
 70
2
  0
VERTEX
  8
0
 10
929.687606
 20
1333.419311
 70
0
 42
-0.408197
  0
VERTEX
  8
0
 10
929.189121
 20
1333.015442
 70
0
 42
-0.066109
  0
VERTEX
  8
0
 10
927.699597
 20
1332.842454
 70
0
  0
SEQEND
  0
POLYLINE
  8
0
  6
CONTINUOUS
 62
1
 66
1
 70
2
  0
VERTEX
  8
0
 10
912.163725
 20
1332.842454
 70
0
 42
-0.066109
  0
VERTEX
  8
0
 10
910.674201
 20
1333.015442
 70
0
 42
-0.408197
  0
VERTEX
  8
0
 10
910.175716
 20
1333.419311
 70
0
  0
SEQEND
  0
POLYLINE
  8
0
  6
CONTINUOUS
 62
1
 66
1
 70
2
  0
VERTEX
  8
0
 10
977.863725
 20
1335.442454
 70
0
 42
0.066109
  0
VERTEX
  8
0
 10
976.374201
 20
1335.269466
 70
0
 42
0.408197
  0
VERTEX
  8
0
 10
975.875716
 20
1334.865597
 70
0
  0
SEQEND
  0
POLYLINE
  8
0
  6
CONTINUOUS
 62
1
 66
1
 70
2
  0
VERTEX
  8
0
 10
976.535716
 20
1333.305597
 70
0
 42
0.186677
  0
VERTEX
  8
0
 10
978.523725
 20
1332.842454
 70
0
  0
SEQEND
  0
POLYLINE
  8
0
  6
CONTINUOUS
 62
1
 66
1
 70
2
  0
VERTEX
  8
0
 10
992.739597
 20
1332.842454
 70
0
 42
0.186677
  0
VERTEX
  8
0
 10
994.727606
 20
1333.305597
 70
0
  0
SEQEND
  0
POLYLINE
  8
0
  6
CONTINUOUS
 62
1
 66
1
 70
2
  0
VERTEX
  8
0
 10
995.387606
 20
1334.865597
 70
0
 42
0.408197
  0
VERTEX
  8
0
 10
994.889121
 20
1335.269466
 70
0
 42
0.066109
  0
VERTEX
  8
0
 10
993.399597
 20
1335.442454
 70
0
  0
SEQEND
  0
POLYLINE
  8
0
  6
CONTINUOUS
 62
1
 66
1
 70
2
  0
VERTEX
  8
0
 10
998.435716
 20
1334.979311
 70
0
 42
-0.186677
  0
VERTEX
  8
0
 10
1000.423725
 20
1335.442454
 70
0
  0
SEQEND
  0
POLYLINE
  8
0
  6
CONTINUOUS
 62
1
 66
1
 70
2
  0
VERTEX
  8
0
 10
1014.639597
 20
1335.442454
 70
0
 42
-0.186677
  0
VERTEX
  8
0
 10
1016.627606
 20
1334.979311
 70
0
  0
SEQEND
  0
POLYLINE
  8
0
  6
CONTINUOUS
 62
1
 66
1
 70
2
  0
VERTEX
  8
0
 10
1017.287606
 20
1333.419311
 70
0
 42
-0.408197
  0
VERTEX
  8
0
 10
1016.789121
 20
1333.015442
 70
0
 42
-0.066109
  0
VERTEX
  8
0
 10
1015.299597
 20
1332.842454
 70
0
  0
SEQEND
  0
POLYLINE
  8
0
  6
CONTINUOUS
 62
1
 66
1
 70
2
  0
VERTEX
  8
0
 10
999.763725
 20
1332.842454
 70
0
 42
-0.066109
  0
VERTEX
  8
0
 10
998.274201
 20
1333.015442
 70
0
 42
-0.408197
  0
VERTEX
  8
0
 10
997.775716
 20
1333.419311
 70
0
  0
SEQEND
  0
POLYLINE
  8
0
  6
CONTINUOUS
 62
1
 66
1
 70
2
  0
VERTEX
  8
0
 10
1020.335716
 20
1333.305597
 70
0
 42
0.186677
  0
VERTEX
  8
0
 10
1022.323725
 20
1332.842454
 70
0
  0
SEQEND
  0
POLYLINE
  8
0
  6
CONTINUOUS
 62
1
 66
1
 70
2
  0
VERTEX
  8
0
 10
1036.539597
 20
1332.842454
 70
0
 42
0.186677
  0
VERTEX
  8
0
 10
1038.527606
 20
1333.305597
 70
0
  0
SEQEND
  0
POLYLINE
  8
0
  6
CONTINUOUS
 62
1
 66
1
 70
2
  0
VERTEX
  8
0
 10
1039.187606
 20
1334.865597
 70
0
 42
0.408197
  0
VERTEX
  8
0
 10
1038.689121
 20
1335.269466
 70
0
 42
0.066109
  0
VERTEX
  8
0
 10
1037.199597
 20
1335.442454
 70
0
  0
SEQEND
  0
POLYLINE
  8
0
  6
CONTINUOUS
 62
1
 66
1
 70
2
  0
VERTEX
  8
0
 10
1021.663725
 20
1335.442454
 70
0
 42
0.066109
  0
VERTEX
  8
0
 10
1020.174201
 20
1335.269466
 70
0
 42
0.408197
  0
VERTEX
  8
0
 10
1019.675716
 20
1334.865597
 70
0
  0
SEQEND
  0
POLYLINE
  8
0
  6
CONTINUOUS
 62
1
 66
1
 70
2
  0
VERTEX
  8
0
 10
1044.223725
 20
1335.442454
 70
0
 42
0.186677
  0
VERTEX
  8
0
 10
1042.235716
 20
1334.979311
 70
0
  0
SEQEND
  0
POLYLINE
  8
0
  6
CONTINUOUS
 62
1
 66
1
 70
2
  0
VERTEX
  8
0
 10
1041.575716
 20
1333.419311
 70
0
 42
0.408197
  0
VERTEX
  8
0
 10
1042.074201
 20
1333.015442
 70
0
 42
0.066109
  0
VERTEX
  8
0
 10
1043.563725
 20
1332.842454
 70
0
  0
SEQEND
  0
POLYLINE
  8
0
  6
CONTINUOUS
 62
1
 66
1
 70
2
  0
VERTEX
  8
0
 10
1059.099597
 20
1332.842454
 70
0
 42
0.066109
  0
VERTEX
  8
0
 10
1060.589121
 20
1333.015442
 70
0
 42
0.408197
  0
VERTEX
  8
0
 10
1061.087606
 20
1333.419311
 70
0
  0
SEQEND
  0
POLYLINE
  8
0
  6
CONTINUOUS
 62
1
 66
1
 70
2
  0
VERTEX
  8
0
 10
1060.427606
 20
1334.979311
 70
0
 42
0.186677
  0
VERTEX
  8
0
 10
1058.439597
 20
1335.442454
 70
0
  0
SEQEND
  0
POLYLINE
  8
0
  6
CONTINUOUS
 62
1
 66
1
 70
2
  0
VERTEX
  8
0
 10
1063.475716
 20
1334.865597
 70
0
 42
-0.408197
  0
VERTEX
  8
0
 10
1063.974201
 20
1335.269466
 70
0
 42
-0.066109
  0
VERTEX
  8
0
 10
1065.463725
 20
1335.442454
 70
0
  0
SEQEND
  0
POLYLINE
  8
0
  6
CONTINUOUS
 62
1
 66
1
 70
2
  0
VERTEX
  8
0
 10
1080.999597
 20
1335.442454
 70
0
 42
-0.066109
  0
VERTEX
  8
0
 10
1082.489121
 20
1335.269466
 70
0
 42
-0.408197
  0
VERTEX
  8
0
 10
1082.987606
 20
1334.865597
 70
0
  0
SEQEND
  0
POLYLINE
  8
0
  6
CONTINUOUS
 62
1
 66
1
 70
2
  0
VERTEX
  8
0
 10
1082.327606
 20
1333.305597
 70
0
 42
-0.186677
  0
VERTEX
  8
0
 10
1080.339597
 20
1332.842454
 70
0
  0
SEQEND
  0
POLYLINE
  8
0
  6
CONTINUOUS
 62
1
 66
1
 70
2
  0
VERTEX
  8
0
 10
1066.123725
 20
1332.842454
 70
0
 42
-0.186677
  0
VERTEX
  8
0
 10
1064.135716
 20
1333.305597
 70
0
  0
SEQEND
  0
POLYLINE
  8
0
  6
CONTINUOUS
 62
1
 66
1
 70
2
  0
VERTEX
  8
0
 10
1085.375716
 20
1333.419311
 70
0
 42
0.408197
  0
VERTEX
  8
0
 10
1085.874201
 20
1333.015442
 70
0
 42
0.066109
  0
VERTEX
  8
0
 10
1087.363725
 20
1332.842454
 70
0
  0
SEQEND
  0
POLYLINE
  8
0
  6
CONTINUOUS
 62
1
 66
1
 70
2
  0
VERTEX
  8
0
 10
1102.899597
 20
1332.842454
 70
0
 42
0.066109
  0
VERTEX
  8
0
 10
1104.389121
 20
1333.015442
 70
0
 42
0.408197
  0
VERTEX
  8
0
 10
1104.887606
 20
1333.419311
 70
0
  0
SEQEND
  0
POLYLINE
  8
0
  6
CONTINUOUS
 62
1
 66
1
 70
2
  0
VERTEX
  8
0
 10
1104.227606
 20
1334.979311
 70
0
 42
0.186677
  0
VERTEX
  8
0
 10
1102.239597
 20
1335.442454
 70
0
  0
SEQEND
  0
POLYLINE
  8
0
  6
CONTINUOUS
 62
1
 66
1
 70
2
  0
VERTEX
  8
0
 10
1088.023725
 20
1335.442454
 70
0
 42
0.186677
  0
VERTEX
  8
0
 10
1086.035716
 20
1334.979311
 70
0
  0
SEQEND
  0
POLYLINE
  8
0
  6
CONTINUOUS
 62
1
 66
1
 70
2
  0
VERTEX
  8
0
 10
1109.263725
 20
1335.442454
 70
0
 42
0.066109
  0
VERTEX
  8
0
 10
1107.774201
 20
1335.269466
 70
0
 42
0.408197
  0
VERTEX
  8
0
 10
1107.275716
 20
1334.865597
 70
0
  0
SEQEND
  0
POLYLINE
  8
0
  6
CONTINUOUS
 62
1
 66
1
 70
2
  0
VERTEX
  8
0
 10
1107.935716
 20
1333.305597
 70
0
 42
0.186677
  0
VERTEX
  8
0
 10
1109.923725
 20
1332.842454
 70
0
  0
SEQEND
  0
POLYLINE
  8
0
  6
CONTINUOUS
 62
1
 66
1
 70
2
  0
VERTEX
  8
0
 10
1124.139597
 20
1332.842454
 70
0
 42
0.186677
  0
VERTEX
  8
0
 10
1126.127606
 20
1333.305597
 70
0
  0
SEQEND
  0
POLYLINE
  8
0
  6
CONTINUOUS
 62
1
 66
1
 70
2
  0
VERTEX
  8
0
 10
1126.787606
 20
1334.865597
 70
0
 42
0.408197
  0
VERTEX
  8
0
 10
1126.289121
 20
1335.269466
 70
0
 42
0.066109
  0
VERTEX
  8
0
 10
1124.799597
 20
1335.442454
 70
0
  0
SEQEND
  0
POLYLINE
  8
0
  6
CONTINUOUS
 62
1
 66
1
 70
2
  0
VERTEX
  8
0
 10
1131.823725
 20
1335.442454
 70
0
 42
0.186677
  0
VERTEX
  8
0
 10
1129.835716
 20
1334.979311
 70
0
  0
SEQEND
  0
POLYLINE
  8
0
  6
CONTINUOUS
 62
1
 66
1
 70
2
  0
VERTEX
  8
0
 10
1129.175716
 20
1333.419311
 70
0
 42
0.408197
  0
VERTEX
  8
0
 10
1129.674201
 20
1333.015442
 70
0
 42
0.066109
  0
VERTEX
  8
0
 10
1131.163725
 20
1332.842454
 70
0
  0
SEQEND
  0
POLYLINE
  8
0
  6
CONTINUOUS
 62
1
 66
1
 70
2
  0
VERTEX
  8
0
 10
1146.699597
 20
1332.842454
 70
0
 42
0.066109
  0
VERTEX
  8
0
 10
1148.189121
 20
1333.015442
 70
0
 42
0.408197
  0
VERTEX
  8
0
 10
1148.687606
 20
1333.419311
 70
0
  0
SEQEND
  0
POLYLINE
  8
0
  6
CONTINUOUS
 62
1
 66
1
 70
2
  0
VERTEX
  8
0
 10
1146.039597
 20
1335.442454
 70
0
 42
-0.186677
  0
VERTEX
  8
0
 10
1148.027606
 20
1334.979311
 70
0
  0
SEQEND
  0
POLYLINE
  8
0
  6
CONTINUOUS
 62
1
 66
1
 70
2
  0
VERTEX
  8
0
 10
1153.063725
 20
1335.442454
 70
0
 42
0.066109
  0
VERTEX
  8
0
 10
1151.574201
 20
1335.269466
 70
0
 42
0.408197
  0
VERTEX
  8
0
 10
1151.075716
 20
1334.865597
 70
0
  0
SEQEND
  0
POLYLINE
  8
0
  6
CONTINUOUS
 62
1
 66
1
 70
2
  0
VERTEX
  8
0
 10
1151.735716
 20
1333.305597
 70
0
 42
0.186677
  0
VERTEX
  8
0
 10
1153.723725
 20
1332.842454
 70
0
  0
SEQEND
  0
POLYLINE
  8
0
  6
CONTINUOUS
 62
1
 66
1
 70
2
  0
VERTEX
  8
0
 10
1167.939597
 20
1332.842454
 70
0
 42
0.186677
  0
VERTEX
  8
0
 10
1169.927606
 20
1333.305597
 70
0
  0
SEQEND
  0
POLYLINE
  8
0
  6
CONTINUOUS
 62
1
 66
1
 70
2
  0
VERTEX
  8
0
 10
1170.587606
 20
1334.865597
 70
0
 42
0.408197
  0
VERTEX
  8
0
 10
1170.089121
 20
1335.269466
 70
0
 42
0.066109
  0
VERTEX
  8
0
 10
1168.599597
 20
1335.442454
 70
0
  0
SEQEND
  0
LINE
  8
0
  6
CONTINUOUS
 62
1
 10
1156.989597
 20
1332.062454
 11
1142.773725
 21
1332.062454
  0
LINE
  8
0
  6
CONTINUOUS
 62
1
 10
945.673725
 20
1329.462454
 11
959.889597
 21
1329.462454
  0
LINE
  8
0
  6
CONTINUOUS
 62
1
 10
989.473725
 20
1329.462454
 11
1003.689597
 21
1329.462454
  0
LINE
  8
0
  6
CONTINUOUS
 62
1
 10
1010.713725
 20
1329.462454
 11
1026.249597
 21
1329.462454
  0
LINE
  8
0
  6
CONTINUOUS
 62
1
 10
1033.273725
 20
1329.462454
 11
1047.489597
 21
1329.462454
  0
LINE
  8
0
  6
CONTINUOUS
 62
1
 10
1054.513725
 20
1329.462454
 11
1070.049597
 21
1329.462454
  0
LINE
  8
0
  6
CONTINUOUS
 62
1
 10
1077.073725
 20
1329.462454
 11
1091.289597
 21
1329.462454
  0
LINE
  8
0
  6
CONTINUOUS
 62
1
 10
1098.313725
 20
1329.462454
 11
1113.849597
 21
1329.462454
  0
LINE
  8
0
  6
CONTINUOUS
 62
1
 10
1120.873725
 20
1329.462454
 11
1135.089597
 21
1329.462454
  0
LINE
  8
0
  6
CONTINUOUS
 62
1
 10
1142.113725
 20
1329.462454
 11
1157.649597
 21
1329.462454
  0
LINE
  8
0
  6
CONTINUOUS
 62
1
 10
965.585716
 20
1331.599311
 11
964.925716
 21
1330.039311
  0
LINE
  8
0
  6
CONTINUOUS
 62
1
 10
1009.385716
 20
1331.599311
 11
1008.725716
 21
1330.039311
  0
LINE
  8
0
  6
CONTINUOUS
 62
1
 10
1053.185716
 20
1331.599311
 11
1052.525716
 21
1330.039311
  0
LINE
  8
0
  6
CONTINUOUS
 62
1
 10
1096.985716
 20
1331.599311
 11
1096.325716
 21
1330.039311
  0
LINE
  8
0
  6
CONTINUOUS
 62
1
 10
1140.785716
 20
1331.599311
 11
1140.125716
 21
1330.039311
  0
LINE
  8
0
  6
CONTINUOUS
 62
1
 10
983.777606
 20
1331.599311
 11
984.437606
 21
1330.039311
  0
LINE
  8
0
  6
CONTINUOUS
 62
1
 10
1027.577606
 20
1331.599311
 11
1028.237606
 21
1330.039311
  0
LINE
  8
0
  6
CONTINUOUS
 62
1
 10
1071.377606
 20
1331.599311
 11
1072.037606
 21
1330.039311
  0
LINE
  8
0
  6
CONTINUOUS
 62
1
 10
1115.177606
 20
1331.599311
 11
1115.837606
 21
1330.039311
  0
LINE
  8
0
  6
CONTINUOUS
 62
1
 10
1158.977606
 20
1331.599311
 11
1159.637606
 21
1330.039311
  0
LINE
  8
0
  6
CONTINUOUS
 62
1
 10
943.685716
 20
1329.925597
 11
943.025716
 21
1331.485597
  0
LINE
  8
0
  6
CONTINUOUS
 62
1
 10
987.485716
 20
1329.925597
 11
986.825716
 21
1331.485597
  0
LINE
  8
0
  6
CONTINUOUS
 62
1
 10
1005.677606
 20
1329.925597
 11
1006.337606
 21
1331.485597
  0
LINE
  8
0
  6
CONTINUOUS
 62
1
 10
1031.285716
 20
1329.925597
 11
1030.625716
 21
1331.485597
  0
LINE
  8
0
  6
CONTINUOUS
 62
1
 10
1049.477606
 20
1329.925597
 11
1050.137606
 21
1331.485597
  0
LINE
  8
0
  6
CONTINUOUS
 62
1
 10
1075.085716
 20
1329.925597
 11
1074.425716
 21
1331.485597
  0
LINE
  8
0
  6
CONTINUOUS
 62
1
 10
1093.277606
 20
1329.925597
 11
1093.937606
 21
1331.485597
  0
LINE
  8
0
  6
CONTINUOUS
 62
1
 10
1118.885716
 20
1329.925597
 11
1118.225716
 21
1331.485597
  0
LINE
  8
0
  6
CONTINUOUS
 62
1
 10
1137.077606
 20
1329.925597
 11
1137.737606
 21
1331.485597
  0
LINE
  8
0
  6
CONTINUOUS
 62
1
 10
960.549597
 20
1332.062454
 11
945.013725
 21
1332.062454
  0
LINE
  8
0
  6
CONTINUOUS
 62
1
 10
981.789597
 20
1332.062454
 11
967.573725
 21
1332.062454
  0
LINE
  8
0
  6
CONTINUOUS
 62
1
 10
1004.349597
 20
1332.062454
 11
988.813725
 21
1332.062454
  0
LINE
  8
0
  6
CONTINUOUS
 62
1
 10
1025.589597
 20
1332.062454
 11
1011.373725
 21
1332.062454
  0
LINE
  8
0
  6
CONTINUOUS
 62
1
 10
1048.149597
 20
1332.062454
 11
1032.613725
 21
1332.062454
  0
LINE
  8
0
  6
CONTINUOUS
 62
1
 10
1069.389597
 20
1332.062454
 11
1055.173725
 21
1332.062454
  0
LINE
  8
0
  6
CONTINUOUS
 62
1
 10
1091.949597
 20
1332.062454
 11
1076.413725
 21
1332.062454
  0
LINE
  8
0
  6
CONTINUOUS
 62
1
 10
1113.189597
 20
1332.062454
 11
1098.973725
 21
1332.062454
  0
LINE
  8
0
  6
CONTINUOUS
 62
1
 10
1135.749597
 20
1332.062454
 11
1120.213725
 21
1332.062454
  0
POLYLINE
  8
0
  6
CONTINUOUS
 62
1
 66
1
 70
2
  0
VERTEX
  8
0
 10
943.685716
 20
1329.925597
 70
0
 42
0.186677
  0
VERTEX
  8
0
 10
945.673725
 20
1329.462454
 70
0
  0
SEQEND
  0
POLYLINE
  8
0
  6
CONTINUOUS
 62
1
 66
1
 70
2
  0
VERTEX
  8
0
 10
959.889597
 20
1329.462454
 70
0
 42
0.186677
  0
VERTEX
  8
0
 10
961.877606
 20
1329.925597
 70
0
  0
SEQEND
  0
POLYLINE
  8
0
  6
CONTINUOUS
 62
1
 66
1
 70
2
  0
VERTEX
  8
0
 10
962.537606
 20
1331.485597
 70
0
 42
0.408197
  0
VERTEX
  8
0
 10
962.039121
 20
1331.889466
 70
0
 42
0.066109
  0
VERTEX
  8
0
 10
960.549597
 20
1332.062454
 70
0
  0
SEQEND
  0
POLYLINE
  8
0
  6
CONTINUOUS
 62
1
 66
1
 70
2
  0
VERTEX
  8
0
 10
945.013725
 20
1332.062454
 70
0
 42
0.066109
  0
VERTEX
  8
0
 10
943.524201
 20
1331.889466
 70
0
 42
0.408197
  0
VERTEX
  8
0
 10
943.025716
 20
1331.485597
 70
0
  0
SEQEND
  0
POLYLINE
  8
0
  6
CONTINUOUS
 62
1
 66
1
 70
2
  0
VERTEX
  8
0
 10
966.913725
 20
1329.462454
 70
0
 42
-0.066109
  0
VERTEX
  8
0
 10
965.424201
 20
1329.635442
 70
0
 42
-0.408197
  0
VERTEX
  8
0
 10
964.925716
 20
1330.039311
 70
0
  0
SEQEND
  0
POLYLINE
  8
0
  6
CONTINUOUS
 62
1
 66
1
 70
2
  0
VERTEX
  8
0
 10
965.585716
 20
1331.599311
 70
0
 42
-0.186677
  0
VERTEX
  8
0
 10
967.573725
 20
1332.062454
 70
0
  0
SEQEND
  0
POLYLINE
  8
0
  6
CONTINUOUS
 62
1
 66
1
 70
2
  0
VERTEX
  8
0
 10
981.789597
 20
1332.062454
 70
0
 42
-0.186677
  0
VERTEX
  8
0
 10
983.777606
 20
1331.599311
 70
0
  0
SEQEND
  0
POLYLINE
  8
0
  6
CONTINUOUS
 62
1
 66
1
 70
2
  0
VERTEX
  8
0
 10
984.437606
 20
1330.039311
 70
0
 42
-0.408197
  0
VERTEX
  8
0
 10
983.939121
 20
1329.635442
 70
0
 42
-0.066109
  0
VERTEX
  8
0
 10
982.449597
 20
1329.462454
 70
0
  0
SEQEND
  0
POLYLINE
  8
0
  6
CONTINUOUS
 62
1
 66
1
 70
2
  0
VERTEX
  8
0
 10
987.485716
 20
1329.925597
 70
0
 42
0.186677
  0
VERTEX
  8
0
 10
989.473725
 20
1329.462454
 70
0
  0
SEQEND
  0
POLYLINE
  8
0
  6
CONTINUOUS
 62
1
 66
1
 70
2
  0
VERTEX
  8
0
 10
1003.689597
 20
1329.462454
 70
0
 42
0.186677
  0
VERTEX
  8
0
 10
1005.677606
 20
1329.925597
 70
0
  0
SEQEND
  0
POLYLINE
  8
0
  6
CONTINUOUS
 62
1
 66
1
 70
2
  0
VERTEX
  8
0
 10
1006.337606
 20
1331.485597
 70
0
 42
0.408197
  0
VERTEX
  8
0
 10
1005.839121
 20
1331.889466
 70
0
 42
0.066109
  0
VERTEX
  8
0
 10
1004.349597
 20
1332.062454
 70
0
  0
SEQEND
  0
POLYLINE
  8
0
  6
CONTINUOUS
 62
1
 66
1
 70
2
  0
VERTEX
  8
0
 10
988.813725
 20
1332.062454
 70
0
 42
0.066109
  0
VERTEX
  8
0
 10
987.324201
 20
1331.889466
 70
0
 42
0.408197
  0
VERTEX
  8
0
 10
986.825716
 20
1331.485597
 70
0
  0
SEQEND
  0
POLYLINE
  8
0
  6
CONTINUOUS
 62
1
 66
1
 70
2
  0
VERTEX
  8
0
 10
1009.385716
 20
1331.599311
 70
0
 42
-0.186677
  0
VERTEX
  8
0
 10
1011.373725
 20
1332.062454
 70
0
  0
SEQEND
  0
POLYLINE
  8
0
  6
CONTINUOUS
 62
1
 66
1
 70
2
  0
VERTEX
  8
0
 10
1025.589597
 20
1332.062454
 70
0
 42
-0.186677
  0
VERTEX
  8
0
 10
1027.577606
 20
1331.599311
 70
0
  0
SEQEND
  0
POLYLINE
  8
0
  6
CONTINUOUS
 62
1
 66
1
 70
2
  0
VERTEX
  8
0
 10
1028.237606
 20
1330.039311
 70
0
 42
-0.408197
  0
VERTEX
  8
0
 10
1027.739121
 20
1329.635442
 70
0
 42
-0.066109
  0
VERTEX
  8
0
 10
1026.249597
 20
1329.462454
 70
0
  0
SEQEND
  0
POLYLINE
  8
0
  6
CONTINUOUS
 62
1
 66
1
 70
2
  0
VERTEX
  8
0
 10
1010.713725
 20
1329.462454
 70
0
 42
-0.066109
  0
VERTEX
  8
0
 10
1009.224201
 20
1329.635442
 70
0
 42
-0.408197
  0
VERTEX
  8
0
 10
1008.725716
 20
1330.039311
 70
0
  0
SEQEND
  0
POLYLINE
  8
0
  6
CONTINUOUS
 62
1
 66
1
 70
2
  0
VERTEX
  8
0
 10
1033.273725
 20
1329.462454
 70
0
 42
-0.186677
  0
VERTEX
  8
0
 10
1031.285716
 20
1329.925597
 70
0
  0
SEQEND
  0
POLYLINE
  8
0
  6
CONTINUOUS
 62
1
 66
1
 70
2
  0
VERTEX
  8
0
 10
1030.625716
 20
1331.485597
 70
0
 42
-0.408197
  0
VERTEX
  8
0
 10
1031.124201
 20
1331.889466
 70
0
 42
-0.066109
  0
VERTEX
  8
0
 10
1032.613725
 20
1332.062454
 70
0
  0
SEQEND
  0
POLYLINE
  8
0
  6
CONTINUOUS
 62
1
 66
1
 70
2
  0
VERTEX
  8
0
 10
1048.149597
 20
1332.062454
 70
0
 42
-0.066109
  0
VERTEX
  8
0
 10
1049.639121
 20
1331.889466
 70
0
 42
-0.408197
  0
VERTEX
  8
0
 10
1050.137606
 20
1331.485597
 70
0
  0
SEQEND
  0
POLYLINE
  8
0
  6
CONTINUOUS
 62
1
 66
1
 70
2
  0
VERTEX
  8
0
 10
1049.477606
 20
1329.925597
 70
0
 42
-0.186677
  0
VERTEX
  8
0
 10
1047.489597
 20
1329.462454
 70
0
  0
SEQEND
  0
POLYLINE
  8
0
  6
CONTINUOUS
 62
1
 66
1
 70
2
  0
VERTEX
  8
0
 10
1052.525716
 20
1330.039311
 70
0
 42
0.408197
  0
VERTEX
  8
0
 10
1053.024201
 20
1329.635442
 70
0
 42
0.066109
  0
VERTEX
  8
0
 10
1054.513725
 20
1329.462454
 70
0
  0
SEQEND
  0
POLYLINE
  8
0
  6
CONTINUOUS
 62
1
 66
1
 70
2
  0
VERTEX
  8
0
 10
1070.049597
 20
1329.462454
 70
0
 42
0.066109
  0
VERTEX
  8
0
 10
1071.539121
 20
1329.635442
 70
0
 42
0.408197
  0
VERTEX
  8
0
 10
1072.037606
 20
1330.039311
 70
0
  0
SEQEND
  0
POLYLINE
  8
0
  6
CONTINUOUS
 62
1
 66
1
 70
2
  0
VERTEX
  8
0
 10
1071.377606
 20
1331.599311
 70
0
 42
0.186677
  0
VERTEX
  8
0
 10
1069.389597
 20
1332.062454
 70
0
  0
SEQEND
  0
POLYLINE
  8
0
  6
CONTINUOUS
 62
1
 66
1
 70
2
  0
VERTEX
  8
0
 10
1055.173725
 20
1332.062454
 70
0
 42
0.186677
  0
VERTEX
  8
0
 10
1053.185716
 20
1331.599311
 70
0
  0
SEQEND
  0
POLYLINE
  8
0
  6
CONTINUOUS
 62
1
 66
1
 70
2
  0
VERTEX
  8
0
 10
1074.425716
 20
1331.485597
 70
0
 42
-0.408197
  0
VERTEX
  8
0
 10
1074.924201
 20
1331.889466
 70
0
 42
-0.066109
  0
VERTEX
  8
0
 10
1076.413725
 20
1332.062454
 70
0
  0
SEQEND
  0
POLYLINE
  8
0
  6
CONTINUOUS
 62
1
 66
1
 70
2
  0
VERTEX
  8
0
 10
1091.949597
 20
1332.062454
 70
0
 42
-0.066109
  0
VERTEX
  8
0
 10
1093.439121
 20
1331.889466
 70
0
 42
-0.408197
  0
VERTEX
  8
0
 10
1093.937606
 20
1331.485597
 70
0
  0
SEQEND
  0
POLYLINE
  8
0
  6
CONTINUOUS
 62
1
 66
1
 70
2
  0
VERTEX
  8
0
 10
1093.277606
 20
1329.925597
 70
0
 42
-0.186677
  0
VERTEX
  8
0
 10
1091.289597
 20
1329.462454
 70
0
  0
SEQEND
  0
POLYLINE
  8
0
  6
CONTINUOUS
 62
1
 66
1
 70
2
  0
VERTEX
  8
0
 10
1077.073725
 20
1329.462454
 70
0
 42
-0.186677
  0
VERTEX
  8
0
 10
1075.085716
 20
1329.925597
 70
0
  0
SEQEND
  0
POLYLINE
  8
0
  6
CONTINUOUS
 62
1
 66
1
 70
2
  0
VERTEX
  8
0
 10
1098.313725
 20
1329.462454
 70
0
 42
-0.066109
  0
VERTEX
  8
0
 10
1096.824201
 20
1329.635442
 70
0
 42
-0.408197
  0
VERTEX
  8
0
 10
1096.325716
 20
1330.039311
 70
0
  0
SEQEND
  0
POLYLINE
  8
0
  6
CONTINUOUS
 62
1
 66
1
 70
2
  0
VERTEX
  8
0
 10
1096.985716
 20
1331.599311
 70
0
 42
-0.186677
  0
VERTEX
  8
0
 10
1098.973725
 20
1332.062454
 70
0
  0
SEQEND
  0
POLYLINE
  8
0
  6
CONTINUOUS
 62
1
 66
1
 70
2
  0
VERTEX
  8
0
 10
1113.189597
 20
1332.062454
 70
0
 42
-0.186677
  0
VERTEX
  8
0
 10
1115.177606
 20
1331.599311
 70
0
  0
SEQEND
  0
POLYLINE
  8
0
  6
CONTINUOUS
 62
1
 66
1
 70
2
  0
VERTEX
  8
0
 10
1115.837606
 20
1330.039311
 70
0
 42
-0.408197
  0
VERTEX
  8
0
 10
1115.339121
 20
1329.635442
 70
0
 42
-0.066109
  0
VERTEX
  8
0
 10
1113.849597
 20
1329.462454
 70
0
  0
SEQEND
  0
POLYLINE
  8
0
  6
CONTINUOUS
 62
1
 66
1
 70
2
  0
VERTEX
  8
0
 10
1120.873725
 20
1329.462454
 70
0
 42
-0.186677
  0
VERTEX
  8
0
 10
1118.885716
 20
1329.925597
 70
0
  0
SEQEND
  0
POLYLINE
  8
0
  6
CONTINUOUS
 62
1
 66
1
 70
2
  0
VERTEX
  8
0
 10
1118.225716
 20
1331.485597
 70
0
 42
-0.408197
  0
VERTEX
  8
0
 10
1118.724201
 20
1331.889466
 70
0
 42
-0.066109
  0
VERTEX
  8
0
 10
1120.213725
 20
1332.062454
 70
0
  0
SEQEND
  0
POLYLINE
  8
0
  6
CONTINUOUS
 62
1
 66
1
 70
2
  0
VERTEX
  8
0
 10
1135.749597
 20
1332.062454
 70
0
 42
-0.066109
  0
VERTEX
  8
0
 10
1137.239121
 20
1331.889466
 70
0
 42
-0.408197
  0
VERTEX
  8
0
 10
1137.737606
 20
1331.485597
 70
0
  0
SEQEND
  0
POLYLINE
  8
0
  6
CONTINUOUS
 62
1
 66
1
 70
2
  0
VERTEX
  8
0
 10
1135.089597
 20
1329.462454
 70
0
 42
0.186677
  0
VERTEX
  8
0
 10
1137.077606
 20
1329.925597
 70
0
  0
SEQEND
  0
POLYLINE
  8
0
  6
CONTINUOUS
 62
1
 66
1
 70
2
  0
VERTEX
  8
0
 10
1142.113725
 20
1329.462454
 70
0
 42
-0.066109
  0
VERTEX
  8
0
 10
1140.624201
 20
1329.635442
 70
0
 42
-0.408197
  0
VERTEX
  8
0
 10
1140.125716
 20
1330.039311
 70
0
  0
SEQEND
  0
POLYLINE
  8
0
  6
CONTINUOUS
 62
1
 66
1
 70
2
  0
VERTEX
  8
0
 10
1140.785716
 20
1331.599311
 70
0
 42
-0.186677
  0
VERTEX
  8
0
 10
1142.773725
 20
1332.062454
 70
0
  0
SEQEND
  0
POLYLINE
  8
0
  6
CONTINUOUS
 62
1
 66
1
 70
2
  0
VERTEX
  8
0
 10
1156.989597
 20
1332.062454
 70
0
 42
-0.186677
  0
VERTEX
  8
0
 10
1158.977606
 20
1331.599311
 70
0
  0
SEQEND
  0
POLYLINE
  8
0
  6
CONTINUOUS
 62
1
 66
1
 70
2
  0
VERTEX
  8
0
 10
1159.637606
 20
1330.039311
 70
0
 42
-0.408197
  0
VERTEX
  8
0
 10
1159.139121
 20
1329.635442
 70
0
 42
-0.066109
  0
VERTEX
  8
0
 10
1157.649597
 20
1329.462454
 70
0
  0
SEQEND
  0
LINE
  8
0
  6
CONTINUOUS
 62
1
 10
910.835716
 20
1334.979311
 11
910.175716
 21
1333.419311
  0
LINE
  8
0
  6
CONTINUOUS
 62
1
 10
912.823725
 20
1335.442454
 11
927.039597
 21
1335.442454
  0
LINE
  8
0
  6
CONTINUOUS
 62
1
 10
961.877606
 20
1329.925597
 11
962.537606
 21
1331.485597
  0
LINE
  8
0
  6
CONTINUOUS
 62
1
 10
966.913725
 20
1329.462454
 11
982.449597
 21
1329.462454
  0
LINE
  8
0
  6
CONTINUOUS
 62
1
 10
1274.140196
 20
1332.062454
 11
1288.356069
 21
1332.062454
  0
LINE
  8
0
  6
CONTINUOUS
 62
1
 10
1310.256069
 20
1329.462454
 11
1296.040196
 21
1329.462454
  0
LINE
  8
0
  6
CONTINUOUS
 62
1
 10
1289.016069
 20
1329.462454
 11
1273.480196
 21
1329.462454
  0
LINE
  8
0
  6
CONTINUOUS
 62
1
 10
1290.344077
 20
1331.599311
 11
1291.004077
 21
1330.039311
  0
LINE
  8
0
  6
CONTINUOUS
 62
1
 10
1272.152187
 20
1331.599311
 11
1271.492187
 21
1330.039311
  0
LINE
  8
0
  6
CONTINUOUS
 62
1
 10
1312.244077
 20
1329.925597
 11
1312.904077
 21
1331.485597
  0
LINE
  8
0
  6
CONTINUOUS
 62
1
 10
1294.052187
 20
1329.925597
 11
1293.392187
 21
1331.485597
  0
LINE
  8
0
  6
CONTINUOUS
 62
1
 10
1295.380196
 20
1332.062454
 11
1310.916069
 21
1332.062454
  0
POLYLINE
  8
0
  6
CONTINUOUS
 62
1
 66
1
 70
2
  0
VERTEX
  8
0
 10
1310.256069
 20
1329.462454
 70
0
 42
0.186677
  0
VERTEX
  8
0
 10
1312.244077
 20
1329.925597
 70
0
  0
SEQEND
  0
POLYLINE
  8
0
  6
CONTINUOUS
 62
1
 66
1
 70
2
  0
VERTEX
  8
0
 10
1312.904077
 20
1331.485597
 70
0
 42
0.408197
  0
VERTEX
  8
0
 10
1312.405592
 20
1331.889466
 70
0
 42
0.066109
  0
VERTEX
  8
0
 10
1310.916069
 20
1332.062454
 70
0
  0
SEQEND
  0
POLYLINE
  8
0
  6
CONTINUOUS
 62
1
 66
1
 70
2
  0
VERTEX
  8
0
 10
1295.380196
 20
1332.062454
 70
0
 42
0.066109
  0
VERTEX
  8
0
 10
1293.890672
 20
1331.889466
 70
0
 42
0.408197
  0
VERTEX
  8
0
 10
1293.392187
 20
1331.485597
 70
0
  0
SEQEND
  0
POLYLINE
  8
0
  6
CONTINUOUS
 62
1
 66
1
 70
2
  0
VERTEX
  8
0
 10
1296.040196
 20
1329.462454
 70
0
 42
-0.186677
  0
VERTEX
  8
0
 10
1294.052187
 20
1329.925597
 70
0
  0
SEQEND
  0
POLYLINE
  8
0
  6
CONTINUOUS
 62
1
 66
1
 70
2
  0
VERTEX
  8
0
 10
1289.016069
 20
1329.462454
 70
0
 42
0.066109
  0
VERTEX
  8
0
 10
1290.505592
 20
1329.635442
 70
0
 42
0.408197
  0
VERTEX
  8
0
 10
1291.004077
 20
1330.039311
 70
0
  0
SEQEND
  0
POLYLINE
  8
0
  6
CONTINUOUS
 62
1
 66
1
 70
2
  0
VERTEX
  8
0
 10
1290.344077
 20
1331.599311
 70
0
 42
0.186677
  0
VERTEX
  8
0
 10
1288.356069
 20
1332.062454
 70
0
  0
SEQEND
  0
POLYLINE
  8
0
  6
CONTINUOUS
 62
1
 66
1
 70
2
  0
VERTEX
  8
0
 10
1274.140196
 20
1332.062454
 70
0
 42
0.186677
  0
VERTEX
  8
0
 10
1272.152187
 20
1331.599311
 70
0
  0
SEQEND
  0
POLYLINE
  8
0
  6
CONTINUOUS
 62
1
 66
1
 70
2
  0
VERTEX
  8
0
 10
1271.492187
 20
1330.039311
 70
0
 42
0.408197
  0
VERTEX
  8
0
 10
1271.990672
 20
1329.635442
 70
0
 42
0.066109
  0
VERTEX
  8
0
 10
1273.480196
 20
1329.462454
 70
0
  0
SEQEND
  0
LINE
  8
0
  6
CONTINUOUS
 62
1
 10
1266.456069
 20
1329.462454
 11
1252.240196
 21
1329.462454
  0
LINE
  8
0
  6
CONTINUOUS
 62
1
 10
1268.444077
 20
1329.925597
 11
1269.104077
 21
1331.485597
  0
LINE
  8
0
  6
CONTINUOUS
 62
1
 10
1250.252187
 20
1329.925597
 11
1249.592187
 21
1331.485597
  0
LINE
  8
0
  6
CONTINUOUS
 62
1
 10
1251.580196
 20
1332.062454
 11
1267.116069
 21
1332.062454
  0
POLYLINE
  8
0
  6
CONTINUOUS
 62
1
 66
1
 70
2
  0
VERTEX
  8
0
 10
1266.456069
 20
1329.462454
 70
0
 42
0.186677
  0
VERTEX
  8
0
 10
1268.444077
 20
1329.925597
 70
0
  0
SEQEND
  0
POLYLINE
  8
0
  6
CONTINUOUS
 62
1
 66
1
 70
2
  0
VERTEX
  8
0
 10
1269.104077
 20
1331.485597
 70
0
 42
0.408197
  0
VERTEX
  8
0
 10
1268.605592
 20
1331.889466
 70
0
 42
0.066109
  0
VERTEX
  8
0
 10
1267.116069
 20
1332.062454
 70
0
  0
SEQEND
  0
POLYLINE
  8
0
  6
CONTINUOUS
 62
1
 66
1
 70
2
  0
VERTEX
  8
0
 10
1251.580196
 20
1332.062454
 70
0
 42
0.066109
  0
VERTEX
  8
0
 10
1250.090672
 20
1331.889466
 70
0
 42
0.408197
  0
VERTEX
  8
0
 10
1249.592187
 20
1331.485597
 70
0
  0
SEQEND
  0
POLYLINE
  8
0
  6
CONTINUOUS
 62
1
 66
1
 70
2
  0
VERTEX
  8
0
 10
1252.240196
 20
1329.462454
 70
0
 42
-0.186677
  0
VERTEX
  8
0
 10
1250.252187
 20
1329.925597
 70
0
  0
SEQEND
  0
LINE
  8
0
  6
CONTINUOUS
 62
1
 10
1317.940196
 20
1332.062454
 11
1332.156069
 21
1332.062454
  0
LINE
  8
0
  6
CONTINUOUS
 62
1
 10
1529.256069
 20
1329.462454
 11
1515.040196
 21
1329.462454
  0
LINE
  8
0
  6
CONTINUOUS
 62
1
 10
1485.456069
 20
1329.462454
 11
1471.240196
 21
1329.462454
  0
LINE
  8
0
  6
CONTINUOUS
 62
1
 10
1464.216069
 20
1329.462454
 11
1448.680196
 21
1329.462454
  0
LINE
  8
0
  6
CONTINUOUS
 62
1
 10
1441.656069
 20
1329.462454
 11
1427.440196
 21
1329.462454
  0
LINE
  8
0
  6
CONTINUOUS
 62
1
 10
1420.416069
 20
1329.462454
 11
1404.880196
 21
1329.462454
  0
LINE
  8
0
  6
CONTINUOUS
 62
1
 10
1397.856069
 20
1329.462454
 11
1383.640196
 21
1329.462454
  0
LINE
  8
0
  6
CONTINUOUS
 62
1
 10
1376.616069
 20
1329.462454
 11
1361.080196
 21
1329.462454
  0
LINE
  8
0
  6
CONTINUOUS
 62
1
 10
1354.056069
 20
1329.462454
 11
1339.840196
 21
1329.462454
  0
LINE
  8
0
  6
CONTINUOUS
 62
1
 10
1332.816069
 20
1329.462454
 11
1317.280196
 21
1329.462454
  0
LINE
  8
0
  6
CONTINUOUS
 62
1
 10
1509.344077
 20
1331.599311
 11
1510.004077
 21
1330.039311
  0
LINE
  8
0
  6
CONTINUOUS
 62
1
 10
1465.544077
 20
1331.599311
 11
1466.204077
 21
1330.039311
  0
LINE
  8
0
  6
CONTINUOUS
 62
1
 10
1421.744077
 20
1331.599311
 11
1422.404077
 21
1330.039311
  0
LINE
  8
0
  6
CONTINUOUS
 62
1
 10
1377.944077
 20
1331.599311
 11
1378.604077
 21
1330.039311
  0
LINE
  8
0
  6
CONTINUOUS
 62
1
 10
1334.144077
 20
1331.599311
 11
1334.804077
 21
1330.039311
  0
LINE
  8
0
  6
CONTINUOUS
 62
1
 10
1491.152187
 20
1331.599311
 11
1490.492187
 21
1330.039311
  0
LINE
  8
0
  6
CONTINUOUS
 62
1
 10
1447.352187
 20
1331.599311
 11
1446.692187
 21
1330.039311
  0
LINE
  8
0
  6
CONTINUOUS
 62
1
 10
1403.552187
 20
1331.599311
 11
1402.892187
 21
1330.039311
  0
LINE
  8
0
  6
CONTINUOUS
 62
1
 10
1359.752187
 20
1331.599311
 11
1359.092187
 21
1330.039311
  0
LINE
  8
0
  6
CONTINUOUS
 62
1
 10
1315.952187
 20
1331.599311
 11
1315.292187
 21
1330.039311
  0
LINE
  8
0
  6
CONTINUOUS
 62
1
 10
1531.244077
 20
1329.925597
 11
1531.904077
 21
1331.485597
  0
LINE
  8
0
  6
CONTINUOUS
 62
1
 10
1487.444077
 20
1329.925597
 11
1488.104077
 21
1331.485597
  0
LINE
  8
0
  6
CONTINUOUS
 62
1
 10
1469.252187
 20
1329.925597
 11
1468.592187
 21
1331.485597
  0
LINE
  8
0
  6
CONTINUOUS
 62
1
 10
1443.644077
 20
1329.925597
 11
1444.304077
 21
1331.485597
  0
LINE
  8
0
  6
CONTINUOUS
 62
1
 10
1425.452187
 20
1329.925597
 11
1424.792187
 21
1331.485597
  0
LINE
  8
0
  6
CONTINUOUS
 62
1
 10
1399.844077
 20
1329.925597
 11
1400.504077
 21
1331.485597
  0
LINE
  8
0
  6
CONTINUOUS
 62
1
 10
1381.652187
 20
1329.925597
 11
1380.992187
 21
1331.485597
  0
LINE
  8
0
  6
CONTINUOUS
 62
1
 10
1356.044077
 20
1329.925597
 11
1356.704077
 21
1331.485597
  0
LINE
  8
0
  6
CONTINUOUS
 62
1
 10
1337.852187
 20
1329.925597
 11
1337.192187
 21
1331.485597
  0
LINE
  8
0
  6
CONTINUOUS
 62
1
 10
1514.380196
 20
1332.062454
 11
1529.916069
 21
1332.062454
  0
LINE
  8
0
  6
CONTINUOUS
 62
1
 10
1493.140196
 20
1332.062454
 11
1507.356069
 21
1332.062454
  0
LINE
  8
0
  6
CONTINUOUS
 62
1
 10
1470.580196
 20
1332.062454
 11
1486.116069
 21
1332.062454
  0
LINE
  8
0
  6
CONTINUOUS
 62
1
 10
1449.340196
 20
1332.062454
 11
1463.556069
 21
1332.062454
  0
LINE
  8
0
  6
CONTINUOUS
 62
1
 10
1426.780196
 20
1332.062454
 11
1442.316069
 21
1332.062454
  0
LINE
  8
0
  6
CONTINUOUS
 62
1
 10
1405.540196
 20
1332.062454
 11
1419.756069
 21
1332.062454
  0
LINE
  8
0
  6
CONTINUOUS
 62
1
 10
1382.980196
 20
1332.062454
 11
1398.516069
 21
1332.062454
  0
LINE
  8
0
  6
CONTINUOUS
 62
1
 10
1361.740196
 20
1332.062454
 11
1375.956069
 21
1332.062454
  0
LINE
  8
0
  6
CONTINUOUS
 62
1
 10
1339.180196
 20
1332.062454
 11
1354.716069
 21
1332.062454
  0
POLYLINE
  8
0
  6
CONTINUOUS
 62
1
 66
1
 70
2
  0
VERTEX
  8
0
 10
1531.244077
 20
1329.925597
 70
0
 42
-0.186677
  0
VERTEX
  8
0
 10
1529.256069
 20
1329.462454
 70
0
  0
SEQEND
  0
POLYLINE
  8
0
  6
CONTINUOUS
 62
1
 66
1
 70
2
  0
VERTEX
  8
0
 10
1515.040196
 20
1329.462454
 70
0
 42
-0.186677
  0
VERTEX
  8
0
 10
1513.052187
 20
1329.925597
 70
0
  0
SEQEND
  0
POLYLINE
  8
0
  6
CONTINUOUS
 62
1
 66
1
 70
2
  0
VERTEX
  8
0
 10
1512.392187
 20
1331.485597
 70
0
 42
-0.408197
  0
VERTEX
  8
0
 10
1512.890672
 20
1331.889466
 70
0
 42
-0.066109
  0
VERTEX
  8
0
 10
1514.380196
 20
1332.062454
 70
0
  0
SEQEND
  0
POLYLINE
  8
0
  6
CONTINUOUS
 62
1
 66
1
 70
2
  0
VERTEX
  8
0
 10
1529.916069
 20
1332.062454
 70
0
 42
-0.066109
  0
VERTEX
  8
0
 10
1531.405592
 20
1331.889466
 70
0
 42
-0.408197
  0
VERTEX
  8
0
 10
1531.904077
 20
1331.485597
 70
0
  0
SEQEND
  0
POLYLINE
  8
0
  6
CONTINUOUS
 62
1
 66
1
 70
2
  0
VERTEX
  8
0
 10
1508.016069
 20
1329.462454
 70
0
 42
0.066109
  0
VERTEX
  8
0
 10
1509.505592
 20
1329.635442
 70
0
 42
0.408197
  0
VERTEX
  8
0
 10
1510.004077
 20
1330.039311
 70
0
  0
SEQEND
  0
POLYLINE
  8
0
  6
CONTINUOUS
 62
1
 66
1
 70
2
  0
VERTEX
  8
0
 10
1509.344077
 20
1331.599311
 70
0
 42
0.186677
  0
VERTEX
  8
0
 10
1507.356069
 20
1332.062454
 70
0
  0
SEQEND
  0
POLYLINE
  8
0
  6
CONTINUOUS
 62
1
 66
1
 70
2
  0
VERTEX
  8
0
 10
1493.140196
 20
1332.062454
 70
0
 42
0.186677
  0
VERTEX
  8
0
 10
1491.152187
 20
1331.599311
 70
0
  0
SEQEND
  0
POLYLINE
  8
0
  6
CONTINUOUS
 62
1
 66
1
 70
2
  0
VERTEX
  8
0
 10
1490.492187
 20
1330.039311
 70
0
 42
0.408197
  0
VERTEX
  8
0
 10
1490.990672
 20
1329.635442
 70
0
 42
0.066109
  0
VERTEX
  8
0
 10
1492.480196
 20
1329.462454
 70
0
  0
SEQEND
  0
POLYLINE
  8
0
  6
CONTINUOUS
 62
1
 66
1
 70
2
  0
VERTEX
  8
0
 10
1487.444077
 20
1329.925597
 70
0
 42
-0.186677
  0
VERTEX
  8
0
 10
1485.456069
 20
1329.462454
 70
0
  0
SEQEND
  0
POLYLINE
  8
0
  6
CONTINUOUS
 62
1
 66
1
 70
2
  0
VERTEX
  8
0
 10
1471.240196
 20
1329.462454
 70
0
 42
-0.186677
  0
VERTEX
  8
0
 10
1469.252187
 20
1329.925597
 70
0
  0
SEQEND
  0
POLYLINE
  8
0
  6
CONTINUOUS
 62
1
 66
1
 70
2
  0
VERTEX
  8
0
 10
1468.592187
 20
1331.485597
 70
0
 42
-0.408197
  0
VERTEX
  8
0
 10
1469.090672
 20
1331.889466
 70
0
 42
-0.066109
  0
VERTEX
  8
0
 10
1470.580196
 20
1332.062454
 70
0
  0
SEQEND
  0
POLYLINE
  8
0
  6
CONTINUOUS
 62
1
 66
1
 70
2
  0
VERTEX
  8
0
 10
1486.116069
 20
1332.062454
 70
0
 42
-0.066109
  0
VERTEX
  8
0
 10
1487.605592
 20
1331.889466
 70
0
 42
-0.408197
  0
VERTEX
  8
0
 10
1488.104077
 20
1331.485597
 70
0
  0
SEQEND
  0
POLYLINE
  8
0
  6
CONTINUOUS
 62
1
 66
1
 70
2
  0
VERTEX
  8
0
 10
1465.544077
 20
1331.599311
 70
0
 42
0.186677
  0
VERTEX
  8
0
 10
1463.556069
 20
1332.062454
 70
0
  0
SEQEND
  0
POLYLINE
  8
0
  6
CONTINUOUS
 62
1
 66
1
 70
2
  0
VERTEX
  8
0
 10
1449.340196
 20
1332.062454
 70
0
 42
0.186677
  0
VERTEX
  8
0
 10
1447.352187
 20
1331.599311
 70
0
  0
SEQEND
  0
POLYLINE
  8
0
  6
CONTINUOUS
 62
1
 66
1
 70
2
  0
VERTEX
  8
0
 10
1446.692187
 20
1330.039311
 70
0
 42
0.408197
  0
VERTEX
  8
0
 10
1447.190672
 20
1329.635442
 70
0
 42
0.066109
  0
VERTEX
  8
0
 10
1448.680196
 20
1329.462454
 70
0
  0
SEQEND
  0
POLYLINE
  8
0
  6
CONTINUOUS
 62
1
 66
1
 70
2
  0
VERTEX
  8
0
 10
1464.216069
 20
1329.462454
 70
0
 42
0.066109
  0
VERTEX
  8
0
 10
1465.705592
 20
1329.635442
 70
0
 42
0.408197
  0
VERTEX
  8
0
 10
1466.204077
 20
1330.039311
 70
0
  0
SEQEND
  0
POLYLINE
  8
0
  6
CONTINUOUS
 62
1
 66
1
 70
2
  0
VERTEX
  8
0
 10
1441.656069
 20
1329.462454
 70
0
 42
0.186677
  0
VERTEX
  8
0
 10
1443.644077
 20
1329.925597
 70
0
  0
SEQEND
  0
POLYLINE
  8
0
  6
CONTINUOUS
 62
1
 66
1
 70
2
  0
VERTEX
  8
0
 10
1444.304077
 20
1331.485597
 70
0
 42
0.408197
  0
VERTEX
  8
0
 10
1443.805592
 20
1331.889466
 70
0
 42
0.066109
  0
VERTEX
  8
0
 10
1442.316069
 20
1332.062454
 70
0
  0
SEQEND
  0
POLYLINE
  8
0
  6
CONTINUOUS
 62
1
 66
1
 70
2
  0
VERTEX
  8
0
 10
1426.780196
 20
1332.062454
 70
0
 42
0.066109
  0
VERTEX
  8
0
 10
1425.290672
 20
1331.889466
 70
0
 42
0.408197
  0
VERTEX
  8
0
 10
1424.792187
 20
1331.485597
 70
0
  0
SEQEND
  0
POLYLINE
  8
0
  6
CONTINUOUS
 62
1
 66
1
 70
2
  0
VERTEX
  8
0
 10
1425.452187
 20
1329.925597
 70
0
 42
0.186677
  0
VERTEX
  8
0
 10
1427.440196
 20
1329.462454
 70
0
  0
SEQEND
  0
POLYLINE
  8
0
  6
CONTINUOUS
 62
1
 66
1
 70
2
  0
VERTEX
  8
0
 10
1422.404077
 20
1330.039311
 70
0
 42
-0.408197
  0
VERTEX
  8
0
 10
1421.905592
 20
1329.635442
 70
0
 42
-0.066109
  0
VERTEX
  8
0
 10
1420.416069
 20
1329.462454
 70
0
  0
SEQEND
  0
POLYLINE
  8
0
  6
CONTINUOUS
 62
1
 66
1
 70
2
  0
VERTEX
  8
0
 10
1404.880196
 20
1329.462454
 70
0
 42
-0.066109
  0
VERTEX
  8
0
 10
1403.390672
 20
1329.635442
 70
0
 42
-0.408197
  0
VERTEX
  8
0
 10
1402.892187
 20
1330.039311
 70
0
  0
SEQEND
  0
POLYLINE
  8
0
  6
CONTINUOUS
 62
1
 66
1
 70
2
  0
VERTEX
  8
0
 10
1403.552187
 20
1331.599311
 70
0
 42
-0.186677
  0
VERTEX
  8
0
 10
1405.540196
 20
1332.062454
 70
0
  0
SEQEND
  0
POLYLINE
  8
0
  6
CONTINUOUS
 62
1
 66
1
 70
2
  0
VERTEX
  8
0
 10
1419.756069
 20
1332.062454
 70
0
 42
-0.186677
  0
VERTEX
  8
0
 10
1421.744077
 20
1331.599311
 70
0
  0
SEQEND
  0
POLYLINE
  8
0
  6
CONTINUOUS
 62
1
 66
1
 70
2
  0
VERTEX
  8
0
 10
1400.504077
 20
1331.485597
 70
0
 42
0.408197
  0
VERTEX
  8
0
 10
1400.005592
 20
1331.889466
 70
0
 42
0.066109
  0
VERTEX
  8
0
 10
1398.516069
 20
1332.062454
 70
0
  0
SEQEND
  0
POLYLINE
  8
0
  6
CONTINUOUS
 62
1
 66
1
 70
2
  0
VERTEX
  8
0
 10
1382.980196
 20
1332.062454
 70
0
 42
0.066109
  0
VERTEX
  8
0
 10
1381.490672
 20
1331.889466
 70
0
 42
0.408197
  0
VERTEX
  8
0
 10
1380.992187
 20
1331.485597
 70
0
  0
SEQEND
  0
POLYLINE
  8
0
  6
CONTINUOUS
 62
1
 66
1
 70
2
  0
VERTEX
  8
0
 10
1381.652187
 20
1329.925597
 70
0
 42
0.186677
  0
VERTEX
  8
0
 10
1383.640196
 20
1329.462454
 70
0
  0
SEQEND
  0
POLYLINE
  8
0
  6
CONTINUOUS
 62
1
 66
1
 70
2
  0
VERTEX
  8
0
 10
1397.856069
 20
1329.462454
 70
0
 42
0.186677
  0
VERTEX
  8
0
 10
1399.844077
 20
1329.925597
 70
0
  0
SEQEND
  0
POLYLINE
  8
0
  6
CONTINUOUS
 62
1
 66
1
 70
2
  0
VERTEX
  8
0
 10
1376.616069
 20
1329.462454
 70
0
 42
0.066109
  0
VERTEX
  8
0
 10
1378.105592
 20
1329.635442
 70
0
 42
0.408197
  0
VERTEX
  8
0
 10
1378.604077
 20
1330.039311
 70
0
  0
SEQEND
  0
POLYLINE
  8
0
  6
CONTINUOUS
 62
1
 66
1
 70
2
  0
VERTEX
  8
0
 10
1377.944077
 20
1331.599311
 70
0
 42
0.186677
  0
VERTEX
  8
0
 10
1375.956069
 20
1332.062454
 70
0
  0
SEQEND
  0
POLYLINE
  8
0
  6
CONTINUOUS
 62
1
 66
1
 70
2
  0
VERTEX
  8
0
 10
1361.740196
 20
1332.062454
 70
0
 42
0.186677
  0
VERTEX
  8
0
 10
1359.752187
 20
1331.599311
 70
0
  0
SEQEND
  0
POLYLINE
  8
0
  6
CONTINUOUS
 62
1
 66
1
 70
2
  0
VERTEX
  8
0
 10
1359.092187
 20
1330.039311
 70
0
 42
0.408197
  0
VERTEX
  8
0
 10
1359.590672
 20
1329.635442
 70
0
 42
0.066109
  0
VERTEX
  8
0
 10
1361.080196
 20
1329.462454
 70
0
  0
SEQEND
  0
POLYLINE
  8
0
  6
CONTINUOUS
 62
1
 66
1
 70
2
  0
VERTEX
  8
0
 10
1354.056069
 20
1329.462454
 70
0
 42
0.186677
  0
VERTEX
  8
0
 10
1356.044077
 20
1329.925597
 70
0
  0
SEQEND
  0
POLYLINE
  8
0
  6
CONTINUOUS
 62
1
 66
1
 70
2
  0
VERTEX
  8
0
 10
1356.704077
 20
1331.485597
 70
0
 42
0.408197
  0
VERTEX
  8
0
 10
1356.205592
 20
1331.889466
 70
0
 42
0.066109
  0
VERTEX
  8
0
 10
1354.716069
 20
1332.062454
 70
0
  0
SEQEND
  0
POLYLINE
  8
0
  6
CONTINUOUS
 62
1
 66
1
 70
2
  0
VERTEX
  8
0
 10
1339.180196
 20
1332.062454
 70
0
 42
0.066109
  0
VERTEX
  8
0
 10
1337.690672
 20
1331.889466
 70
0
 42
0.408197
  0
VERTEX
  8
0
 10
1337.192187
 20
1331.485597
 70
0
  0
SEQEND
  0
POLYLINE
  8
0
  6
CONTINUOUS
 62
1
 66
1
 70
2
  0
VERTEX
  8
0
 10
1339.840196
 20
1329.462454
 70
0
 42
-0.186677
  0
VERTEX
  8
0
 10
1337.852187
 20
1329.925597
 70
0
  0
SEQEND
  0
POLYLINE
  8
0
  6
CONTINUOUS
 62
1
 66
1
 70
2
  0
VERTEX
  8
0
 10
1332.816069
 20
1329.462454
 70
0
 42
0.066109
  0
VERTEX
  8
0
 10
1334.305592
 20
1329.635442
 70
0
 42
0.408197
  0
VERTEX
  8
0
 10
1334.804077
 20
1330.039311
 70
0
  0
SEQEND
  0
POLYLINE
  8
0
  6
CONTINUOUS
 62
1
 66
1
 70
2
  0
VERTEX
  8
0
 10
1334.144077
 20
1331.599311
 70
0
 42
0.186677
  0
VERTEX
  8
0
 10
1332.156069
 20
1332.062454
 70
0
  0
SEQEND
  0
POLYLINE
  8
0
  6
CONTINUOUS
 62
1
 66
1
 70
2
  0
VERTEX
  8
0
 10
1317.940196
 20
1332.062454
 70
0
 42
0.186677
  0
VERTEX
  8
0
 10
1315.952187
 20
1331.599311
 70
0
  0
SEQEND
  0
POLYLINE
  8
0
  6
CONTINUOUS
 62
1
 66
1
 70
2
  0
VERTEX
  8
0
 10
1315.292187
 20
1330.039311
 70
0
 42
0.408197
  0
VERTEX
  8
0
 10
1315.790672
 20
1329.635442
 70
0
 42
0.066109
  0
VERTEX
  8
0
 10
1317.280196
 20
1329.462454
 70
0
  0
SEQEND
  0
LINE
  8
0
  6
CONTINUOUS
 62
1
 10
1513.052187
 20
1329.925597
 11
1512.392187
 21
1331.485597
  0
LINE
  8
0
  6
CONTINUOUS
 62
1
 10
1508.016069
 20
1329.462454
 11
1492.480196
 21
1329.462454
  0
LINE
  8
0
  6
CONTINUOUS
 62
1
 10
1299.339597
 20
1332.842454
 11
1285.123725
 21
1332.842454
  0
LINE
  8
0
  6
CONTINUOUS
 62
1
 10
1263.223725
 20
1335.442454
 11
1277.439597
 21
1335.442454
  0
LINE
  8
0
  6
CONTINUOUS
 62
1
 10
1284.463725
 20
1335.442454
 11
1299.999597
 21
1335.442454
  0
LINE
  8
0
  6
CONTINUOUS
 62
1
 10
1283.135716
 20
1333.305597
 11
1282.475716
 21
1334.865597
  0
LINE
  8
0
  6
CONTINUOUS
 62
1
 10
1301.327606
 20
1333.305597
 11
1301.987606
 21
1334.865597
  0
LINE
  8
0
  6
CONTINUOUS
 62
1
 10
1261.235716
 20
1334.979311
 11
1260.575716
 21
1333.419311
  0
LINE
  8
0
  6
CONTINUOUS
 62
1
 10
1279.427606
 20
1334.979311
 11
1280.087606
 21
1333.419311
  0
LINE
  8
0
  6
CONTINUOUS
 62
1
 10
1278.099597
 20
1332.842454
 11
1262.563725
 21
1332.842454
  0
POLYLINE
  8
0
  6
CONTINUOUS
 62
1
 66
1
 70
2
  0
VERTEX
  8
0
 10
1263.223725
 20
1335.442454
 70
0
 42
0.186677
  0
VERTEX
  8
0
 10
1261.235716
 20
1334.979311
 70
0
  0
SEQEND
  0
POLYLINE
  8
0
  6
CONTINUOUS
 62
1
 66
1
 70
2
  0
VERTEX
  8
0
 10
1260.575716
 20
1333.419311
 70
0
 42
0.408197
  0
VERTEX
  8
0
 10
1261.074201
 20
1333.015442
 70
0
 42
0.066109
  0
VERTEX
  8
0
 10
1262.563725
 20
1332.842454
 70
0
  0
SEQEND
  0
POLYLINE
  8
0
  6
CONTINUOUS
 62
1
 66
1
 70
2
  0
VERTEX
  8
0
 10
1278.099597
 20
1332.842454
 70
0
 42
0.066109
  0
VERTEX
  8
0
 10
1279.589121
 20
1333.015442
 70
0
 42
0.408197
  0
VERTEX
  8
0
 10
1280.087606
 20
1333.419311
 70
0
  0
SEQEND
  0
POLYLINE
  8
0
  6
CONTINUOUS
 62
1
 66
1
 70
2
  0
VERTEX
  8
0
 10
1277.439597
 20
1335.442454
 70
0
 42
-0.186677
  0
VERTEX
  8
0
 10
1279.427606
 20
1334.979311
 70
0
  0
SEQEND
  0
POLYLINE
  8
0
  6
CONTINUOUS
 62
1
 66
1
 70
2
  0
VERTEX
  8
0
 10
1284.463725
 20
1335.442454
 70
0
 42
0.066109
  0
VERTEX
  8
0
 10
1282.974201
 20
1335.269466
 70
0
 42
0.408197
  0
VERTEX
  8
0
 10
1282.475716
 20
1334.865597
 70
0
  0
SEQEND
  0
POLYLINE
  8
0
  6
CONTINUOUS
 62
1
 66
1
 70
2
  0
VERTEX
  8
0
 10
1283.135716
 20
1333.305597
 70
0
 42
0.186677
  0
VERTEX
  8
0
 10
1285.123725
 20
1332.842454
 70
0
  0
SEQEND
  0
POLYLINE
  8
0
  6
CONTINUOUS
 62
1
 66
1
 70
2
  0
VERTEX
  8
0
 10
1299.339597
 20
1332.842454
 70
0
 42
0.186677
  0
VERTEX
  8
0
 10
1301.327606
 20
1333.305597
 70
0
  0
SEQEND
  0
POLYLINE
  8
0
  6
CONTINUOUS
 62
1
 66
1
 70
2
  0
VERTEX
  8
0
 10
1301.987606
 20
1334.865597
 70
0
 42
0.408197
  0
VERTEX
  8
0
 10
1301.489121
 20
1335.269466
 70
0
 42
0.066109
  0
VERTEX
  8
0
 10
1299.999597
 20
1335.442454
 70
0
  0
SEQEND
  0
LINE
  8
0
  6
CONTINUOUS
 62
1
 10
1343.139597
 20
1332.842454
 11
1328.923725
 21
1332.842454
  0
LINE
  8
0
  6
CONTINUOUS
 62
1
 10
1307.023725
 20
1335.442454
 11
1321.239597
 21
1335.442454
  0
LINE
  8
0
  6
CONTINUOUS
 62
1
 10
1328.263725
 20
1335.442454
 11
1343.799597
 21
1335.442454
  0
LINE
  8
0
  6
CONTINUOUS
 62
1
 10
1326.935716
 20
1333.305597
 11
1326.275716
 21
1334.865597
  0
LINE
  8
0
  6
CONTINUOUS
 62
1
 10
1345.127606
 20
1333.305597
 11
1345.787606
 21
1334.865597
  0
LINE
  8
0
  6
CONTINUOUS
 62
1
 10
1305.035716
 20
1334.979311
 11
1304.375716
 21
1333.419311
  0
LINE
  8
0
  6
CONTINUOUS
 62
1
 10
1323.227606
 20
1334.979311
 11
1323.887606
 21
1333.419311
  0
LINE
  8
0
  6
CONTINUOUS
 62
1
 10
1321.899597
 20
1332.842454
 11
1306.363725
 21
1332.842454
  0
POLYLINE
  8
0
  6
CONTINUOUS
 62
1
 66
1
 70
2
  0
VERTEX
  8
0
 10
1307.023725
 20
1335.442454
 70
0
 42
0.186677
  0
VERTEX
  8
0
 10
1305.035716
 20
1334.979311
 70
0
  0
SEQEND
  0
POLYLINE
  8
0
  6
CONTINUOUS
 62
1
 66
1
 70
2
  0
VERTEX
  8
0
 10
1304.375716
 20
1333.419311
 70
0
 42
0.408197
  0
VERTEX
  8
0
 10
1304.874201
 20
1333.015442
 70
0
 42
0.066109
  0
VERTEX
  8
0
 10
1306.363725
 20
1332.842454
 70
0
  0
SEQEND
  0
POLYLINE
  8
0
  6
CONTINUOUS
 62
1
 66
1
 70
2
  0
VERTEX
  8
0
 10
1321.899597
 20
1332.842454
 70
0
 42
0.066109
  0
VERTEX
  8
0
 10
1323.389121
 20
1333.015442
 70
0
 42
0.408197
  0
VERTEX
  8
0
 10
1323.887606
 20
1333.419311
 70
0
  0
SEQEND
  0
POLYLINE
  8
0
  6
CONTINUOUS
 62
1
 66
1
 70
2
  0
VERTEX
  8
0
 10
1321.239597
 20
1335.442454
 70
0
 42
-0.186677
  0
VERTEX
  8
0
 10
1323.227606
 20
1334.979311
 70
0
  0
SEQEND
  0
POLYLINE
  8
0
  6
CONTINUOUS
 62
1
 66
1
 70
2
  0
VERTEX
  8
0
 10
1328.263725
 20
1335.442454
 70
0
 42
0.066109
  0
VERTEX
  8
0
 10
1326.774201
 20
1335.269466
 70
0
 42
0.408197
  0
VERTEX
  8
0
 10
1326.275716
 20
1334.865597
 70
0
  0
SEQEND
  0
POLYLINE
  8
0
  6
CONTINUOUS
 62
1
 66
1
 70
2
  0
VERTEX
  8
0
 10
1326.935716
 20
1333.305597
 70
0
 42
0.186677
  0
VERTEX
  8
0
 10
1328.923725
 20
1332.842454
 70
0
  0
SEQEND
  0
POLYLINE
  8
0
  6
CONTINUOUS
 62
1
 66
1
 70
2
  0
VERTEX
  8
0
 10
1343.139597
 20
1332.842454
 70
0
 42
0.186677
  0
VERTEX
  8
0
 10
1345.127606
 20
1333.305597
 70
0
  0
SEQEND
  0
POLYLINE
  8
0
  6
CONTINUOUS
 62
1
 66
1
 70
2
  0
VERTEX
  8
0
 10
1345.787606
 20
1334.865597
 70
0
 42
0.408197
  0
VERTEX
  8
0
 10
1345.289121
 20
1335.269466
 70
0
 42
0.066109
  0
VERTEX
  8
0
 10
1343.799597
 20
1335.442454
 70
0
  0
SEQEND
  0
LINE
  8
0
  6
CONTINUOUS
 62
1
 10
1386.939597
 20
1332.842454
 11
1372.723725
 21
1332.842454
  0
LINE
  8
0
  6
CONTINUOUS
 62
1
 10
1350.823725
 20
1335.442454
 11
1365.039597
 21
1335.442454
  0
LINE
  8
0
  6
CONTINUOUS
 62
1
 10
1372.063725
 20
1335.442454
 11
1387.599597
 21
1335.442454
  0
LINE
  8
0
  6
CONTINUOUS
 62
1
 10
1370.735716
 20
1333.305597
 11
1370.075716
 21
1334.865597
  0
LINE
  8
0
  6
CONTINUOUS
 62
1
 10
1388.927606
 20
1333.305597
 11
1389.587606
 21
1334.865597
  0
LINE
  8
0
  6
CONTINUOUS
 62
1
 10
1348.835716
 20
1334.979311
 11
1348.175716
 21
1333.419311
  0
LINE
  8
0
  6
CONTINUOUS
 62
1
 10
1367.027606
 20
1334.979311
 11
1367.687606
 21
1333.419311
  0
LINE
  8
0
  6
CONTINUOUS
 62
1
 10
1365.699597
 20
1332.842454
 11
1350.163725
 21
1332.842454
  0
POLYLINE
  8
0
  6
CONTINUOUS
 62
1
 66
1
 70
2
  0
VERTEX
  8
0
 10
1350.823725
 20
1335.442454
 70
0
 42
0.186677
  0
VERTEX
  8
0
 10
1348.835716
 20
1334.979311
 70
0
  0
SEQEND
  0
POLYLINE
  8
0
  6
CONTINUOUS
 62
1
 66
1
 70
2
  0
VERTEX
  8
0
 10
1348.175716
 20
1333.419311
 70
0
 42
0.408197
  0
VERTEX
  8
0
 10
1348.674201
 20
1333.015442
 70
0
 42
0.066109
  0
VERTEX
  8
0
 10
1350.163725
 20
1332.842454
 70
0
  0
SEQEND
  0
POLYLINE
  8
0
  6
CONTINUOUS
 62
1
 66
1
 70
2
  0
VERTEX
  8
0
 10
1365.699597
 20
1332.842454
 70
0
 42
0.066109
  0
VERTEX
  8
0
 10
1367.189121
 20
1333.015442
 70
0
 42
0.408197
  0
VERTEX
  8
0
 10
1367.687606
 20
1333.419311
 70
0
  0
SEQEND
  0
POLYLINE
  8
0
  6
CONTINUOUS
 62
1
 66
1
 70
2
  0
VERTEX
  8
0
 10
1365.039597
 20
1335.442454
 70
0
 42
-0.186677
  0
VERTEX
  8
0
 10
1367.027606
 20
1334.979311
 70
0
  0
SEQEND
  0
POLYLINE
  8
0
  6
CONTINUOUS
 62
1
 66
1
 70
2
  0
VERTEX
  8
0
 10
1372.063725
 20
1335.442454
 70
0
 42
0.066109
  0
VERTEX
  8
0
 10
1370.574201
 20
1335.269466
 70
0
 42
0.408197
  0
VERTEX
  8
0
 10
1370.075716
 20
1334.865597
 70
0
  0
SEQEND
  0
POLYLINE
  8
0
  6
CONTINUOUS
 62
1
 66
1
 70
2
  0
VERTEX
  8
0
 10
1370.735716
 20
1333.305597
 70
0
 42
0.186677
  0
VERTEX
  8
0
 10
1372.723725
 20
1332.842454
 70
0
  0
SEQEND
  0
POLYLINE
  8
0
  6
CONTINUOUS
 62
1
 66
1
 70
2
  0
VERTEX
  8
0
 10
1386.939597
 20
1332.842454
 70
0
 42
0.186677
  0
VERTEX
  8
0
 10
1388.927606
 20
1333.305597
 70
0
  0
SEQEND
  0
POLYLINE
  8
0
  6
CONTINUOUS
 62
1
 66
1
 70
2
  0
VERTEX
  8
0
 10
1389.587606
 20
1334.865597
 70
0
 42
0.408197
  0
VERTEX
  8
0
 10
1389.089121
 20
1335.269466
 70
0
 42
0.066109
  0
VERTEX
  8
0
 10
1387.599597
 20
1335.442454
 70
0
  0
SEQEND
  0
LINE
  8
0
  6
CONTINUOUS
 62
1
 10
1430.739597
 20
1332.842454
 11
1416.523725
 21
1332.842454
  0
LINE
  8
0
  6
CONTINUOUS
 62
1
 10
1394.623725
 20
1335.442454
 11
1408.839597
 21
1335.442454
  0
LINE
  8
0
  6
CONTINUOUS
 62
1
 10
1415.863725
 20
1335.442454
 11
1431.399597
 21
1335.442454
  0
LINE
  8
0
  6
CONTINUOUS
 62
1
 10
1414.535716
 20
1333.305597
 11
1413.875716
 21
1334.865597
  0
LINE
  8
0
  6
CONTINUOUS
 62
1
 10
1432.727606
 20
1333.305597
 11
1433.387606
 21
1334.865597
  0
LINE
  8
0
  6
CONTINUOUS
 62
1
 10
1392.635716
 20
1334.979311
 11
1391.975716
 21
1333.419311
  0
LINE
  8
0
  6
CONTINUOUS
 62
1
 10
1410.827606
 20
1334.979311
 11
1411.487606
 21
1333.419311
  0
LINE
  8
0
  6
CONTINUOUS
 62
1
 10
1409.499597
 20
1332.842454
 11
1393.963725
 21
1332.842454
  0
POLYLINE
  8
0
  6
CONTINUOUS
 62
1
 66
1
 70
2
  0
VERTEX
  8
0
 10
1394.623725
 20
1335.442454
 70
0
 42
0.186677
  0
VERTEX
  8
0
 10
1392.635716
 20
1334.979311
 70
0
  0
SEQEND
  0
POLYLINE
  8
0
  6
CONTINUOUS
 62
1
 66
1
 70
2
  0
VERTEX
  8
0
 10
1391.975716
 20
1333.419311
 70
0
 42
0.408197
  0
VERTEX
  8
0
 10
1392.474201
 20
1333.015442
 70
0
 42
0.066109
  0
VERTEX
  8
0
 10
1393.963725
 20
1332.842454
 70
0
  0
SEQEND
  0
POLYLINE
  8
0
  6
CONTINUOUS
 62
1
 66
1
 70
2
  0
VERTEX
  8
0
 10
1409.499597
 20
1332.842454
 70
0
 42
0.066109
  0
VERTEX
  8
0
 10
1410.989121
 20
1333.015442
 70
0
 42
0.408197
  0
VERTEX
  8
0
 10
1411.487606
 20
1333.419311
 70
0
  0
SEQEND
  0
POLYLINE
  8
0
  6
CONTINUOUS
 62
1
 66
1
 70
2
  0
VERTEX
  8
0
 10
1408.839597
 20
1335.442454
 70
0
 42
-0.186677
  0
VERTEX
  8
0
 10
1410.827606
 20
1334.979311
 70
0
  0
SEQEND
  0
POLYLINE
  8
0
  6
CONTINUOUS
 62
1
 66
1
 70
2
  0
VERTEX
  8
0
 10
1415.863725
 20
1335.442454
 70
0
 42
0.066109
  0
VERTEX
  8
0
 10
1414.374201
 20
1335.269466
 70
0
 42
0.408197
  0
VERTEX
  8
0
 10
1413.875716
 20
1334.865597
 70
0
  0
SEQEND
  0
POLYLINE
  8
0
  6
CONTINUOUS
 62
1
 66
1
 70
2
  0
VERTEX
  8
0
 10
1414.535716
 20
1333.305597
 70
0
 42
0.186677
  0
VERTEX
  8
0
 10
1416.523725
 20
1332.842454
 70
0
  0
SEQEND
  0
POLYLINE
  8
0
  6
CONTINUOUS
 62
1
 66
1
 70
2
  0
VERTEX
  8
0
 10
1430.739597
 20
1332.842454
 70
0
 42
0.186677
  0
VERTEX
  8
0
 10
1432.727606
 20
1333.305597
 70
0
  0
SEQEND
  0
POLYLINE
  8
0
  6
CONTINUOUS
 62
1
 66
1
 70
2
  0
VERTEX
  8
0
 10
1433.387606
 20
1334.865597
 70
0
 42
0.408197
  0
VERTEX
  8
0
 10
1432.889121
 20
1335.269466
 70
0
 42
0.066109
  0
VERTEX
  8
0
 10
1431.399597
 20
1335.442454
 70
0
  0
SEQEND
  0
LINE
  8
0
  6
CONTINUOUS
 62
1
 10
1474.539597
 20
1332.842454
 11
1460.323725
 21
1332.842454
  0
LINE
  8
0
  6
CONTINUOUS
 62
1
 10
1438.423725
 20
1335.442454
 11
1452.639597
 21
1335.442454
  0
LINE
  8
0
  6
CONTINUOUS
 62
1
 10
1459.663725
 20
1335.442454
 11
1475.199597
 21
1335.442454
  0
LINE
  8
0
  6
CONTINUOUS
 62
1
 10
1458.335716
 20
1333.305597
 11
1457.675716
 21
1334.865597
  0
LINE
  8
0
  6
CONTINUOUS
 62
1
 10
1476.527606
 20
1333.305597
 11
1477.187606
 21
1334.865597
  0
LINE
  8
0
  6
CONTINUOUS
 62
1
 10
1436.435716
 20
1334.979311
 11
1435.775716
 21
1333.419311
  0
LINE
  8
0
  6
CONTINUOUS
 62
1
 10
1454.627606
 20
1334.979311
 11
1455.287606
 21
1333.419311
  0
LINE
  8
0
  6
CONTINUOUS
 62
1
 10
1453.299597
 20
1332.842454
 11
1437.763725
 21
1332.842454
  0
POLYLINE
  8
0
  6
CONTINUOUS
 62
1
 66
1
 70
2
  0
VERTEX
  8
0
 10
1438.423725
 20
1335.442454
 70
0
 42
0.186677
  0
VERTEX
  8
0
 10
1436.435716
 20
1334.979311
 70
0
  0
SEQEND
  0
POLYLINE
  8
0
  6
CONTINUOUS
 62
1
 66
1
 70
2
  0
VERTEX
  8
0
 10
1435.775716
 20
1333.419311
 70
0
 42
0.408197
  0
VERTEX
  8
0
 10
1436.274201
 20
1333.015442
 70
0
 42
0.066109
  0
VERTEX
  8
0
 10
1437.763725
 20
1332.842454
 70
0
  0
SEQEND
  0
POLYLINE
  8
0
  6
CONTINUOUS
 62
1
 66
1
 70
2
  0
VERTEX
  8
0
 10
1453.299597
 20
1332.842454
 70
0
 42
0.066109
  0
VERTEX
  8
0
 10
1454.789121
 20
1333.015442
 70
0
 42
0.408197
  0
VERTEX
  8
0
 10
1455.287606
 20
1333.419311
 70
0
  0
SEQEND
  0
POLYLINE
  8
0
  6
CONTINUOUS
 62
1
 66
1
 70
2
  0
VERTEX
  8
0
 10
1452.639597
 20
1335.442454
 70
0
 42
-0.186677
  0
VERTEX
  8
0
 10
1454.627606
 20
1334.979311
 70
0
  0
SEQEND
  0
POLYLINE
  8
0
  6
CONTINUOUS
 62
1
 66
1
 70
2
  0
VERTEX
  8
0
 10
1459.663725
 20
1335.442454
 70
0
 42
0.066109
  0
VERTEX
  8
0
 10
1458.174201
 20
1335.269466
 70
0
 42
0.408197
  0
VERTEX
  8
0
 10
1457.675716
 20
1334.865597
 70
0
  0
SEQEND
  0
POLYLINE
  8
0
  6
CONTINUOUS
 62
1
 66
1
 70
2
  0
VERTEX
  8
0
 10
1458.335716
 20
1333.305597
 70
0
 42
0.186677
  0
VERTEX
  8
0
 10
1460.323725
 20
1332.842454
 70
0
  0
SEQEND
  0
POLYLINE
  8
0
  6
CONTINUOUS
 62
1
 66
1
 70
2
  0
VERTEX
  8
0
 10
1474.539597
 20
1332.842454
 70
0
 42
0.186677
  0
VERTEX
  8
0
 10
1476.527606
 20
1333.305597
 70
0
  0
SEQEND
  0
POLYLINE
  8
0
  6
CONTINUOUS
 62
1
 66
1
 70
2
  0
VERTEX
  8
0
 10
1477.187606
 20
1334.865597
 70
0
 42
0.408197
  0
VERTEX
  8
0
 10
1476.689121
 20
1335.269466
 70
0
 42
0.066109
  0
VERTEX
  8
0
 10
1475.199597
 20
1335.442454
 70
0
  0
SEQEND
  0
LINE
  8
0
  6
CONTINUOUS
 62
1
 10
1518.339597
 20
1332.842454
 11
1504.123725
 21
1332.842454
  0
LINE
  8
0
  6
CONTINUOUS
 62
1
 10
1482.223725
 20
1335.442454
 11
1496.439597
 21
1335.442454
  0
LINE
  8
0
  6
CONTINUOUS
 62
1
 10
1503.463725
 20
1335.442454
 11
1518.999597
 21
1335.442454
  0
LINE
  8
0
  6
CONTINUOUS
 62
1
 10
1502.135716
 20
1333.305597
 11
1501.475716
 21
1334.865597
  0
LINE
  8
0
  6
CONTINUOUS
 62
1
 10
1520.327606
 20
1333.305597
 11
1520.987606
 21
1334.865597
  0
LINE
  8
0
  6
CONTINUOUS
 62
1
 10
1480.235716
 20
1334.979311
 11
1479.575716
 21
1333.419311
  0
LINE
  8
0
  6
CONTINUOUS
 62
1
 10
1498.427606
 20
1334.979311
 11
1499.087606
 21
1333.419311
  0
LINE
  8
0
  6
CONTINUOUS
 62
1
 10
1497.099597
 20
1332.842454
 11
1481.563725
 21
1332.842454
  0
POLYLINE
  8
0
  6
CONTINUOUS
 62
1
 66
1
 70
2
  0
VERTEX
  8
0
 10
1482.223725
 20
1335.442454
 70
0
 42
0.186677
  0
VERTEX
  8
0
 10
1480.235716
 20
1334.979311
 70
0
  0
SEQEND
  0
POLYLINE
  8
0
  6
CONTINUOUS
 62
1
 66
1
 70
2
  0
VERTEX
  8
0
 10
1479.575716
 20
1333.419311
 70
0
 42
0.408197
  0
VERTEX
  8
0
 10
1480.074201
 20
1333.015442
 70
0
 42
0.066109
  0
VERTEX
  8
0
 10
1481.563725
 20
1332.842454
 70
0
  0
SEQEND
  0
POLYLINE
  8
0
  6
CONTINUOUS
 62
1
 66
1
 70
2
  0
VERTEX
  8
0
 10
1497.099597
 20
1332.842454
 70
0
 42
0.066109
  0
VERTEX
  8
0
 10
1498.589121
 20
1333.015442
 70
0
 42
0.408197
  0
VERTEX
  8
0
 10
1499.087606
 20
1333.419311
 70
0
  0
SEQEND
  0
POLYLINE
  8
0
  6
CONTINUOUS
 62
1
 66
1
 70
2
  0
VERTEX
  8
0
 10
1496.439597
 20
1335.442454
 70
0
 42
-0.186677
  0
VERTEX
  8
0
 10
1498.427606
 20
1334.979311
 70
0
  0
SEQEND
  0
POLYLINE
  8
0
  6
CONTINUOUS
 62
1
 66
1
 70
2
  0
VERTEX
  8
0
 10
1503.463725
 20
1335.442454
 70
0
 42
0.066109
  0
VERTEX
  8
0
 10
1501.974201
 20
1335.269466
 70
0
 42
0.408197
  0
VERTEX
  8
0
 10
1501.475716
 20
1334.865597
 70
0
  0
SEQEND
  0
POLYLINE
  8
0
  6
CONTINUOUS
 62
1
 66
1
 70
2
  0
VERTEX
  8
0
 10
1502.135716
 20
1333.305597
 70
0
 42
0.186677
  0
VERTEX
  8
0
 10
1504.123725
 20
1332.842454
 70
0
  0
SEQEND
  0
POLYLINE
  8
0
  6
CONTINUOUS
 62
1
 66
1
 70
2
  0
VERTEX
  8
0
 10
1518.339597
 20
1332.842454
 70
0
 42
0.186677
  0
VERTEX
  8
0
 10
1520.327606
 20
1333.305597
 70
0
  0
SEQEND
  0
POLYLINE
  8
0
  6
CONTINUOUS
 62
1
 66
1
 70
2
  0
VERTEX
  8
0
 10
1520.987606
 20
1334.865597
 70
0
 42
0.408197
  0
VERTEX
  8
0
 10
1520.489121
 20
1335.269466
 70
0
 42
0.066109
  0
VERTEX
  8
0
 10
1518.999597
 20
1335.442454
 70
0
  0
SEQEND
  0
LINE
  8
0
  6
CONTINUOUS
 62
1
 10
1526.023725
 20
1335.442454
 11
1540.239597
 21
1335.442454
  0
LINE
  8
0
  6
CONTINUOUS
 62
1
 10
1524.035716
 20
1334.979311
 11
1523.375716
 21
1333.419311
  0
LINE
  8
0
  6
CONTINUOUS
 62
1
 10
1542.227606
 20
1334.979311
 11
1542.887606
 21
1333.419311
  0
LINE
  8
0
  6
CONTINUOUS
 62
1
 10
1540.899597
 20
1332.842454
 11
1525.363725
 21
1332.842454
  0
POLYLINE
  8
0
  6
CONTINUOUS
 62
1
 66
1
 70
2
  0
VERTEX
  8
0
 10
1526.023725
 20
1335.442454
 70
0
 42
0.186677
  0
VERTEX
  8
0
 10
1524.035716
 20
1334.979311
 70
0
  0
SEQEND
  0
POLYLINE
  8
0
  6
CONTINUOUS
 62
1
 66
1
 70
2
  0
VERTEX
  8
0
 10
1523.375716
 20
1333.419311
 70
0
 42
0.408197
  0
VERTEX
  8
0
 10
1523.874201
 20
1333.015442
 70
0
 42
0.066109
  0
VERTEX
  8
0
 10
1525.363725
 20
1332.842454
 70
0
  0
SEQEND
  0
POLYLINE
  8
0
  6
CONTINUOUS
 62
1
 66
1
 70
2
  0
VERTEX
  8
0
 10
1540.899597
 20
1332.842454
 70
0
 42
0.066109
  0
VERTEX
  8
0
 10
1542.389121
 20
1333.015442
 70
0
 42
0.408197
  0
VERTEX
  8
0
 10
1542.887606
 20
1333.419311
 70
0
  0
SEQEND
  0
POLYLINE
  8
0
  6
CONTINUOUS
 62
1
 66
1
 70
2
  0
VERTEX
  8
0
 10
1540.239597
 20
1335.442454
 70
0
 42
-0.186677
  0
VERTEX
  8
0
 10
1542.227606
 20
1334.979311
 70
0
  0
SEQEND
  0
LINE
  8
0
  6
CONTINUOUS
 62
1
 10
1573.056069
 20
1329.462454
 11
1558.840196
 21
1329.462454
  0
LINE
  8
0
  6
CONTINUOUS
 62
1
 10
1553.144077
 20
1331.599311
 11
1553.804077
 21
1330.039311
  0
LINE
  8
0
  6
CONTINUOUS
 62
1
 10
1534.952187
 20
1331.599311
 11
1534.292187
 21
1330.039311
  0
LINE
  8
0
  6
CONTINUOUS
 62
1
 10
1575.044077
 20
1329.925597
 11
1575.704077
 21
1331.485597
  0
LINE
  8
0
  6
CONTINUOUS
 62
1
 10
1558.180196
 20
1332.062454
 11
1573.716069
 21
1332.062454
  0
LINE
  8
0
  6
CONTINUOUS
 62
1
 10
1536.940196
 20
1332.062454
 11
1551.156069
 21
1332.062454
  0
POLYLINE
  8
0
  6
CONTINUOUS
 62
1
 66
1
 70
2
  0
VERTEX
  8
0
 10
1575.044077
 20
1329.925597
 70
0
 42
-0.186677
  0
VERTEX
  8
0
 10
1573.056069
 20
1329.462454
 70
0
  0
SEQEND
  0
POLYLINE
  8
0
  6
CONTINUOUS
 62
1
 66
1
 70
2
  0
VERTEX
  8
0
 10
1558.840196
 20
1329.462454
 70
0
 42
-0.186677
  0
VERTEX
  8
0
 10
1556.852187
 20
1329.925597
 70
0
  0
SEQEND
  0
POLYLINE
  8
0
  6
CONTINUOUS
 62
1
 66
1
 70
2
  0
VERTEX
  8
0
 10
1556.192187
 20
1331.485597
 70
0
 42
-0.408197
  0
VERTEX
  8
0
 10
1556.690672
 20
1331.889466
 70
0
 42
-0.066109
  0
VERTEX
  8
0
 10
1558.180196
 20
1332.062454
 70
0
  0
SEQEND
  0
POLYLINE
  8
0
  6
CONTINUOUS
 62
1
 66
1
 70
2
  0
VERTEX
  8
0
 10
1573.716069
 20
1332.062454
 70
0
 42
-0.066109
  0
VERTEX
  8
0
 10
1575.205592
 20
1331.889466
 70
0
 42
-0.408197
  0
VERTEX
  8
0
 10
1575.704077
 20
1331.485597
 70
0
  0
SEQEND
  0
POLYLINE
  8
0
  6
CONTINUOUS
 62
1
 66
1
 70
2
  0
VERTEX
  8
0
 10
1551.816069
 20
1329.462454
 70
0
 42
0.066109
  0
VERTEX
  8
0
 10
1553.305592
 20
1329.635442
 70
0
 42
0.408197
  0
VERTEX
  8
0
 10
1553.804077
 20
1330.039311
 70
0
  0
SEQEND
  0
POLYLINE
  8
0
  6
CONTINUOUS
 62
1
 66
1
 70
2
  0
VERTEX
  8
0
 10
1553.144077
 20
1331.599311
 70
0
 42
0.186677
  0
VERTEX
  8
0
 10
1551.156069
 20
1332.062454
 70
0
  0
SEQEND
  0
POLYLINE
  8
0
  6
CONTINUOUS
 62
1
 66
1
 70
2
  0
VERTEX
  8
0
 10
1536.940196
 20
1332.062454
 70
0
 42
0.186677
  0
VERTEX
  8
0
 10
1534.952187
 20
1331.599311
 70
0
  0
SEQEND
  0
POLYLINE
  8
0
  6
CONTINUOUS
 62
1
 66
1
 70
2
  0
VERTEX
  8
0
 10
1534.292187
 20
1330.039311
 70
0
 42
0.408197
  0
VERTEX
  8
0
 10
1534.790672
 20
1329.635442
 70
0
 42
0.066109
  0
VERTEX
  8
0
 10
1536.280196
 20
1329.462454
 70
0
  0
SEQEND
  0
LINE
  8
0
  6
CONTINUOUS
 62
1
 10
1556.852187
 20
1329.925597
 11
1556.192187
 21
1331.485597
  0
LINE
  8
0
  6
CONTINUOUS
 62
1
 10
1551.816069
 20
1329.462454
 11
1536.280196
 21
1329.462454
  0
LINE
  8
0
  6
CONTINUOUS
 62
1
 10
1562.139597
 20
1332.842454
 11
1547.923725
 21
1332.842454
  0
LINE
  8
0
  6
CONTINUOUS
 62
1
 10
1547.263725
 20
1335.442454
 11
1562.799597
 21
1335.442454
  0
LINE
  8
0
  6
CONTINUOUS
 62
1
 10
1545.935716
 20
1333.305597
 11
1545.275716
 21
1334.865597
  0
LINE
  8
0
  6
CONTINUOUS
 62
1
 10
1564.127606
 20
1333.305597
 11
1564.787606
 21
1334.865597
  0
POLYLINE
  8
0
  6
CONTINUOUS
 62
1
 66
1
 70
2
  0
VERTEX
  8
0
 10
1547.263725
 20
1335.442454
 70
0
 42
0.066109
  0
VERTEX
  8
0
 10
1545.774201
 20
1335.269466
 70
0
 42
0.408197
  0
VERTEX
  8
0
 10
1545.275716
 20
1334.865597
 70
0
  0
SEQEND
  0
POLYLINE
  8
0
  6
CONTINUOUS
 62
1
 66
1
 70
2
  0
VERTEX
  8
0
 10
1545.935716
 20
1333.305597
 70
0
 42
0.186677
  0
VERTEX
  8
0
 10
1547.923725
 20
1332.842454
 70
0
  0
SEQEND
  0
POLYLINE
  8
0
  6
CONTINUOUS
 62
1
 66
1
 70
2
  0
VERTEX
  8
0
 10
1562.139597
 20
1332.842454
 70
0
 42
0.186677
  0
VERTEX
  8
0
 10
1564.127606
 20
1333.305597
 70
0
  0
SEQEND
  0
POLYLINE
  8
0
  6
CONTINUOUS
 62
1
 66
1
 70
2
  0
VERTEX
  8
0
 10
1564.787606
 20
1334.865597
 70
0
 42
0.408197
  0
VERTEX
  8
0
 10
1564.289121
 20
1335.269466
 70
0
 42
0.066109
  0
VERTEX
  8
0
 10
1562.799597
 20
1335.442454
 70
0
  0
SEQEND
  0
LINE
  8
0
  6
CONTINUOUS
 62
1
 10
1569.823725
 20
1335.442454
 11
1584.039597
 21
1335.442454
  0
LINE
  8
0
  6
CONTINUOUS
 62
1
 10
1567.835716
 20
1334.979311
 11
1567.175716
 21
1333.419311
  0
LINE
  8
0
  6
CONTINUOUS
 62
1
 10
1586.027606
 20
1334.979311
 11
1586.687606
 21
1333.419311
  0
LINE
  8
0
  6
CONTINUOUS
 62
1
 10
1584.699597
 20
1332.842454
 11
1569.163725
 21
1332.842454
  0
POLYLINE
  8
0
  6
CONTINUOUS
 62
1
 66
1
 70
2
  0
VERTEX
  8
0
 10
1569.823725
 20
1335.442454
 70
0
 42
0.186677
  0
VERTEX
  8
0
 10
1567.835716
 20
1334.979311
 70
0
  0
SEQEND
  0
POLYLINE
  8
0
  6
CONTINUOUS
 62
1
 66
1
 70
2
  0
VERTEX
  8
0
 10
1567.175716
 20
1333.419311
 70
0
 42
0.408197
  0
VERTEX
  8
0
 10
1567.674201
 20
1333.015442
 70
0
 42
0.066109
  0
VERTEX
  8
0
 10
1569.163725
 20
1332.842454
 70
0
  0
SEQEND
  0
POLYLINE
  8
0
  6
CONTINUOUS
 62
1
 66
1
 70
2
  0
VERTEX
  8
0
 10
1584.699597
 20
1332.842454
 70
0
 42
0.066109
  0
VERTEX
  8
0
 10
1586.189121
 20
1333.015442
 70
0
 42
0.408197
  0
VERTEX
  8
0
 10
1586.687606
 20
1333.419311
 70
0
  0
SEQEND
  0
POLYLINE
  8
0
  6
CONTINUOUS
 62
1
 66
1
 70
2
  0
VERTEX
  8
0
 10
1584.039597
 20
1335.442454
 70
0
 42
-0.186677
  0
VERTEX
  8
0
 10
1586.027606
 20
1334.979311
 70
0
  0
SEQEND
  0
LINE
  8
0
  6
CONTINUOUS
 62
1
 10
1596.944077
 20
1331.599311
 11
1597.604077
 21
1330.039311
  0
LINE
  8
0
  6
CONTINUOUS
 62
1
 10
1578.752187
 20
1331.599311
 11
1578.092187
 21
1330.039311
  0
LINE
  8
0
  6
CONTINUOUS
 62
1
 10
1580.740196
 20
1332.062454
 11
1594.956069
 21
1332.062454
  0
POLYLINE
  8
0
  6
CONTINUOUS
 62
1
 66
1
 70
2
  0
VERTEX
  8
0
 10
1595.616069
 20
1329.462454
 70
0
 42
0.066109
  0
VERTEX
  8
0
 10
1597.105592
 20
1329.635442
 70
0
 42
0.408197
  0
VERTEX
  8
0
 10
1597.604077
 20
1330.039311
 70
0
  0
SEQEND
  0
POLYLINE
  8
0
  6
CONTINUOUS
 62
1
 66
1
 70
2
  0
VERTEX
  8
0
 10
1596.944077
 20
1331.599311
 70
0
 42
0.186677
  0
VERTEX
  8
0
 10
1594.956069
 20
1332.062454
 70
0
  0
SEQEND
  0
POLYLINE
  8
0
  6
CONTINUOUS
 62
1
 66
1
 70
2
  0
VERTEX
  8
0
 10
1580.740196
 20
1332.062454
 70
0
 42
0.186677
  0
VERTEX
  8
0
 10
1578.752187
 20
1331.599311
 70
0
  0
SEQEND
  0
POLYLINE
  8
0
  6
CONTINUOUS
 62
1
 66
1
 70
2
  0
VERTEX
  8
0
 10
1578.092187
 20
1330.039311
 70
0
 42
0.408197
  0
VERTEX
  8
0
 10
1578.590672
 20
1329.635442
 70
0
 42
0.066109
  0
VERTEX
  8
0
 10
1580.080196
 20
1329.462454
 70
0
  0
SEQEND
  0
LINE
  8
0
  6
CONTINUOUS
 62
1
 10
1595.616069
 20
1329.462454
 11
1580.080196
 21
1329.462454
  0
LINE
  8
0
  6
CONTINUOUS
 62
1
 10
934.063725
 20
1335.442454
 11
949.599597
 21
1335.442454
  0
LINE
  8
0
  6
CONTINUOUS
 62
1
 10
956.623725
 20
1335.442454
 11
970.839597
 21
1335.442454
  0
LINE
  8
0
  6
CONTINUOUS
 62
1
 10
932.735716
 20
1333.305597
 11
932.075716
 21
1334.865597
  0
LINE
  8
0
  6
CONTINUOUS
 62
1
 10
950.927606
 20
1333.305597
 11
951.587606
 21
1334.865597
  0
LINE
  8
0
  6
CONTINUOUS
 62
1
 10
954.635716
 20
1334.979311
 11
953.975716
 21
1333.419311
  0
LINE
  8
0
  6
CONTINUOUS
 62
1
 10
972.827606
 20
1334.979311
 11
973.487606
 21
1333.419311
  0
LINE
  8
0
  6
CONTINUOUS
 62
1
 10
948.939597
 20
1332.842454
 11
934.723725
 21
1332.842454
  0
LINE
  8
0
  6
CONTINUOUS
 62
1
 10
971.499597
 20
1332.842454
 11
955.963725
 21
1332.842454
  0
POLYLINE
  8
0
  6
CONTINUOUS
 62
1
 66
1
 70
2
  0
VERTEX
  8
0
 10
934.063725
 20
1335.442454
 70
0
 42
0.066109
  0
VERTEX
  8
0
 10
932.574201
 20
1335.269466
 70
0
 42
0.408197
  0
VERTEX
  8
0
 10
932.075716
 20
1334.865597
 70
0
  0
SEQEND
  0
POLYLINE
  8
0
  6
CONTINUOUS
 62
1
 66
1
 70
2
  0
VERTEX
  8
0
 10
932.735716
 20
1333.305597
 70
0
 42
0.186677
  0
VERTEX
  8
0
 10
934.723725
 20
1332.842454
 70
0
  0
SEQEND
  0
POLYLINE
  8
0
  6
CONTINUOUS
 62
1
 66
1
 70
2
  0
VERTEX
  8
0
 10
948.939597
 20
1332.842454
 70
0
 42
0.186677
  0
VERTEX
  8
0
 10
950.927606
 20
1333.305597
 70
0
  0
SEQEND
  0
POLYLINE
  8
0
  6
CONTINUOUS
 62
1
 66
1
 70
2
  0
VERTEX
  8
0
 10
951.587606
 20
1334.865597
 70
0
 42
0.408197
  0
VERTEX
  8
0
 10
951.089121
 20
1335.269466
 70
0
 42
0.066109
  0
VERTEX
  8
0
 10
949.599597
 20
1335.442454
 70
0
  0
SEQEND
  0
POLYLINE
  8
0
  6
CONTINUOUS
 62
1
 66
1
 70
2
  0
VERTEX
  8
0
 10
954.635716
 20
1334.979311
 70
0
 42
-0.186677
  0
VERTEX
  8
0
 10
956.623725
 20
1335.442454
 70
0
  0
SEQEND
  0
POLYLINE
  8
0
  6
CONTINUOUS
 62
1
 66
1
 70
2
  0
VERTEX
  8
0
 10
970.839597
 20
1335.442454
 70
0
 42
-0.186677
  0
VERTEX
  8
0
 10
972.827606
 20
1334.979311
 70
0
  0
SEQEND
  0
POLYLINE
  8
0
  6
CONTINUOUS
 62
1
 66
1
 70
2
  0
VERTEX
  8
0
 10
973.487606
 20
1333.419311
 70
0
 42
-0.408197
  0
VERTEX
  8
0
 10
972.989121
 20
1333.015442
 70
0
 42
-0.066109
  0
VERTEX
  8
0
 10
971.499597
 20
1332.842454
 70
0
  0
SEQEND
  0
POLYLINE
  8
0
  6
CONTINUOUS
 62
1
 66
1
 70
2
  0
VERTEX
  8
0
 10
955.963725
 20
1332.842454
 70
0
 42
-0.066109
  0
VERTEX
  8
0
 10
954.474201
 20
1333.015442
 70
0
 42
-0.408197
  0
VERTEX
  8
0
 10
953.975716
 20
1333.419311
 70
0
  0
SEQEND
  0
LINE
  8
0
  6
CONTINUOUS
 62
1
 10
901.213725
 20
1332.062454
 11
916.749597
 21
1332.062454
  0
LINE
  8
0
  6
CONTINUOUS
 62
1
 10
923.773725
 20
1332.062454
 11
937.989597
 21
1332.062454
  0
LINE
  8
0
  6
CONTINUOUS
 62
1
 10
899.885716
 20
1329.925597
 11
899.225716
 21
1331.485597
  0
LINE
  8
0
  6
CONTINUOUS
 62
1
 10
918.077606
 20
1329.925597
 11
918.737606
 21
1331.485597
  0
LINE
  8
0
  6
CONTINUOUS
 62
1
 10
921.785716
 20
1331.599311
 11
921.125716
 21
1330.039311
  0
LINE
  8
0
  6
CONTINUOUS
 62
1
 10
939.977606
 20
1331.599311
 11
940.637606
 21
1330.039311
  0
LINE
  8
0
  6
CONTINUOUS
 62
1
 10
916.089597
 20
1329.462454
 11
901.873725
 21
1329.462454
  0
LINE
  8
0
  6
CONTINUOUS
 62
1
 10
938.649597
 20
1329.462454
 11
923.113725
 21
1329.462454
  0
POLYLINE
  8
0
  6
CONTINUOUS
 62
1
 66
1
 70
2
  0
VERTEX
  8
0
 10
901.213725
 20
1332.062454
 70
0
 42
0.066109
  0
VERTEX
  8
0
 10
899.724201
 20
1331.889466
 70
0
 42
0.408197
  0
VERTEX
  8
0
 10
899.225716
 20
1331.485597
 70
0
  0
SEQEND
  0
POLYLINE
  8
0
  6
CONTINUOUS
 62
1
 66
1
 70
2
  0
VERTEX
  8
0
 10
899.885716
 20
1329.925597
 70
0
 42
0.186677
  0
VERTEX
  8
0
 10
901.873725
 20
1329.462454
 70
0
  0
SEQEND
  0
POLYLINE
  8
0
  6
CONTINUOUS
 62
1
 66
1
 70
2
  0
VERTEX
  8
0
 10
916.089597
 20
1329.462454
 70
0
 42
0.186677
  0
VERTEX
  8
0
 10
918.077606
 20
1329.925597
 70
0
  0
SEQEND
  0
POLYLINE
  8
0
  6
CONTINUOUS
 62
1
 66
1
 70
2
  0
VERTEX
  8
0
 10
918.737606
 20
1331.485597
 70
0
 42
0.408197
  0
VERTEX
  8
0
 10
918.239121
 20
1331.889466
 70
0
 42
0.066109
  0
VERTEX
  8
0
 10
916.749597
 20
1332.062454
 70
0
  0
SEQEND
  0
POLYLINE
  8
0
  6
CONTINUOUS
 62
1
 66
1
 70
2
  0
VERTEX
  8
0
 10
921.785716
 20
1331.599311
 70
0
 42
-0.186677
  0
VERTEX
  8
0
 10
923.773725
 20
1332.062454
 70
0
  0
SEQEND
  0
POLYLINE
  8
0
  6
CONTINUOUS
 62
1
 66
1
 70
2
  0
VERTEX
  8
0
 10
937.989597
 20
1332.062454
 70
0
 42
-0.186677
  0
VERTEX
  8
0
 10
939.977606
 20
1331.599311
 70
0
  0
SEQEND
  0
POLYLINE
  8
0
  6
CONTINUOUS
 62
1
 66
1
 70
2
  0
VERTEX
  8
0
 10
940.637606
 20
1330.039311
 70
0
 42
-0.408197
  0
VERTEX
  8
0
 10
940.139121
 20
1329.635442
 70
0
 42
-0.066109
  0
VERTEX
  8
0
 10
938.649597
 20
1329.462454
 70
0
  0
SEQEND
  0
POLYLINE
  8
0
  6
CONTINUOUS
 62
1
 66
1
 70
2
  0
VERTEX
  8
0
 10
923.113725
 20
1329.462454
 70
0
 42
-0.066109
  0
VERTEX
  8
0
 10
921.624201
 20
1329.635442
 70
0
 42
-0.408197
  0
VERTEX
  8
0
 10
921.125716
 20
1330.039311
 70
0
  0
SEQEND
  0
LINE
  8
0
  6
CONTINUOUS
 62
1
 10
879.973725
 20
1332.062454
 11
894.189597
 21
1332.062454
  0
LINE
  8
0
  6
CONTINUOUS
 62
1
 10
877.985716
 20
1331.599311
 11
877.325716
 21
1330.039311
  0
LINE
  8
0
  6
CONTINUOUS
 62
1
 10
896.177606
 20
1331.599311
 11
896.837606
 21
1330.039311
  0
LINE
  8
0
  6
CONTINUOUS
 62
1
 10
894.849597
 20
1329.462454
 11
879.313725
 21
1329.462454
  0
POLYLINE
  8
0
  6
CONTINUOUS
 62
1
 66
1
 70
2
  0
VERTEX
  8
0
 10
877.985716
 20
1331.599311
 70
0
 42
-0.186677
  0
VERTEX
  8
0
 10
879.973725
 20
1332.062454
 70
0
  0
SEQEND
  0
POLYLINE
  8
0
  6
CONTINUOUS
 62
1
 66
1
 70
2
  0
VERTEX
  8
0
 10
894.189597
 20
1332.062454
 70
0
 42
-0.186677
  0
VERTEX
  8
0
 10
896.177606
 20
1331.599311
 70
0
  0
SEQEND
  0
POLYLINE
  8
0
  6
CONTINUOUS
 62
1
 66
1
 70
2
  0
VERTEX
  8
0
 10
896.837606
 20
1330.039311
 70
0
 42
-0.408197
  0
VERTEX
  8
0
 10
896.339121
 20
1329.635442
 70
0
 42
-0.066109
  0
VERTEX
  8
0
 10
894.849597
 20
1329.462454
 70
0
  0
SEQEND
  0
POLYLINE
  8
0
  6
CONTINUOUS
 62
1
 66
1
 70
2
  0
VERTEX
  8
0
 10
879.313725
 20
1329.462454
 70
0
 42
-0.066109
  0
VERTEX
  8
0
 10
877.824201
 20
1329.635442
 70
0
 42
-0.408197
  0
VERTEX
  8
0
 10
877.325716
 20
1330.039311
 70
0
  0
SEQEND
  0
LINE
  8
0
  6
CONTINUOUS
 62
1
 10
1211.739597
 20
1326.082454
 11
1197.523725
 21
1326.082454
  0
LINE
  8
0
  6
CONTINUOUS
 62
1
 10
1175.623725
 20
1328.682454
 11
1189.839597
 21
1328.682454
  0
LINE
  8
0
  6
CONTINUOUS
 62
1
 10
1196.863725
 20
1328.682454
 11
1212.399597
 21
1328.682454
  0
LINE
  8
0
  6
CONTINUOUS
 62
1
 10
1195.535716
 20
1326.545597
 11
1194.875716
 21
1328.105597
  0
LINE
  8
0
  6
CONTINUOUS
 62
1
 10
1213.727606
 20
1326.545597
 11
1214.387606
 21
1328.105597
  0
LINE
  8
0
  6
CONTINUOUS
 62
1
 10
1173.635716
 20
1328.219311
 11
1172.975716
 21
1326.659311
  0
LINE
  8
0
  6
CONTINUOUS
 62
1
 10
1191.827606
 20
1328.219311
 11
1192.487606
 21
1326.659311
  0
LINE
  8
0
  6
CONTINUOUS
 62
1
 10
1190.499597
 20
1326.082454
 11
1174.963725
 21
1326.082454
  0
POLYLINE
  8
0
  6
CONTINUOUS
 62
1
 66
1
 70
2
  0
VERTEX
  8
0
 10
1175.623725
 20
1328.682454
 70
0
 42
0.186677
  0
VERTEX
  8
0
 10
1173.635716
 20
1328.219311
 70
0
  0
SEQEND
  0
POLYLINE
  8
0
  6
CONTINUOUS
 62
1
 66
1
 70
2
  0
VERTEX
  8
0
 10
1172.975716
 20
1326.659311
 70
0
 42
0.408197
  0
VERTEX
  8
0
 10
1173.474201
 20
1326.255442
 70
0
 42
0.066109
  0
VERTEX
  8
0
 10
1174.963725
 20
1326.082454
 70
0
  0
SEQEND
  0
POLYLINE
  8
0
  6
CONTINUOUS
 62
1
 66
1
 70
2
  0
VERTEX
  8
0
 10
1190.499597
 20
1326.082454
 70
0
 42
0.066109
  0
VERTEX
  8
0
 10
1191.989121
 20
1326.255442
 70
0
 42
0.408197
  0
VERTEX
  8
0
 10
1192.487606
 20
1326.659311
 70
0
  0
SEQEND
  0
POLYLINE
  8
0
  6
CONTINUOUS
 62
1
 66
1
 70
2
  0
VERTEX
  8
0
 10
1189.839597
 20
1328.682454
 70
0
 42
-0.186677
  0
VERTEX
  8
0
 10
1191.827606
 20
1328.219311
 70
0
  0
SEQEND
  0
POLYLINE
  8
0
  6
CONTINUOUS
 62
1
 66
1
 70
2
  0
VERTEX
  8
0
 10
1196.863725
 20
1328.682454
 70
0
 42
0.066109
  0
VERTEX
  8
0
 10
1195.374201
 20
1328.509466
 70
0
 42
0.408197
  0
VERTEX
  8
0
 10
1194.875716
 20
1328.105597
 70
0
  0
SEQEND
  0
POLYLINE
  8
0
  6
CONTINUOUS
 62
1
 66
1
 70
2
  0
VERTEX
  8
0
 10
1195.535716
 20
1326.545597
 70
0
 42
0.186677
  0
VERTEX
  8
0
 10
1197.523725
 20
1326.082454
 70
0
  0
SEQEND
  0
POLYLINE
  8
0
  6
CONTINUOUS
 62
1
 66
1
 70
2
  0
VERTEX
  8
0
 10
1211.739597
 20
1326.082454
 70
0
 42
0.186677
  0
VERTEX
  8
0
 10
1213.727606
 20
1326.545597
 70
0
  0
SEQEND
  0
POLYLINE
  8
0
  6
CONTINUOUS
 62
1
 66
1
 70
2
  0
VERTEX
  8
0
 10
1214.387606
 20
1328.105597
 70
0
 42
0.408197
  0
VERTEX
  8
0
 10
1213.889121
 20
1328.509466
 70
0
 42
0.066109
  0
VERTEX
  8
0
 10
1212.399597
 20
1328.682454
 70
0
  0
SEQEND
  0
LINE
  8
0
  6
CONTINUOUS
 62
1
 10
1255.539597
 20
1326.082454
 11
1241.323725
 21
1326.082454
  0
LINE
  8
0
  6
CONTINUOUS
 62
1
 10
1219.423725
 20
1328.682454
 11
1233.639597
 21
1328.682454
  0
LINE
  8
0
  6
CONTINUOUS
 62
1
 10
1240.663725
 20
1328.682454
 11
1256.199597
 21
1328.682454
  0
LINE
  8
0
  6
CONTINUOUS
 62
1
 10
1239.335716
 20
1326.545597
 11
1238.675716
 21
1328.105597
  0
LINE
  8
0
  6
CONTINUOUS
 62
1
 10
1257.527606
 20
1326.545597
 11
1258.187606
 21
1328.105597
  0
LINE
  8
0
  6
CONTINUOUS
 62
1
 10
1217.435716
 20
1328.219311
 11
1216.775716
 21
1326.659311
  0
LINE
  8
0
  6
CONTINUOUS
 62
1
 10
1235.627606
 20
1328.219311
 11
1236.287606
 21
1326.659311
  0
LINE
  8
0
  6
CONTINUOUS
 62
1
 10
1234.299597
 20
1326.082454
 11
1218.763725
 21
1326.082454
  0
POLYLINE
  8
0
  6
CONTINUOUS
 62
1
 66
1
 70
2
  0
VERTEX
  8
0
 10
1219.423725
 20
1328.682454
 70
0
 42
0.186677
  0
VERTEX
  8
0
 10
1217.435716
 20
1328.219311
 70
0
  0
SEQEND
  0
POLYLINE
  8
0
  6
CONTINUOUS
 62
1
 66
1
 70
2
  0
VERTEX
  8
0
 10
1216.775716
 20
1326.659311
 70
0
 42
0.408197
  0
VERTEX
  8
0
 10
1217.274201
 20
1326.255442
 70
0
 42
0.066109
  0
VERTEX
  8
0
 10
1218.763725
 20
1326.082454
 70
0
  0
SEQEND
  0
POLYLINE
  8
0
  6
CONTINUOUS
 62
1
 66
1
 70
2
  0
VERTEX
  8
0
 10
1234.299597
 20
1326.082454
 70
0
 42
0.066109
  0
VERTEX
  8
0
 10
1235.789121
 20
1326.255442
 70
0
 42
0.408197
  0
VERTEX
  8
0
 10
1236.287606
 20
1326.659311
 70
0
  0
SEQEND
  0
POLYLINE
  8
0
  6
CONTINUOUS
 62
1
 66
1
 70
2
  0
VERTEX
  8
0
 10
1233.639597
 20
1328.682454
 70
0
 42
-0.186677
  0
VERTEX
  8
0
 10
1235.627606
 20
1328.219311
 70
0
  0
SEQEND
  0
POLYLINE
  8
0
  6
CONTINUOUS
 62
1
 66
1
 70
2
  0
VERTEX
  8
0
 10
1240.663725
 20
1328.682454
 70
0
 42
0.066109
  0
VERTEX
  8
0
 10
1239.174201
 20
1328.509466
 70
0
 42
0.408197
  0
VERTEX
  8
0
 10
1238.675716
 20
1328.105597
 70
0
  0
SEQEND
  0
POLYLINE
  8
0
  6
CONTINUOUS
 62
1
 66
1
 70
2
  0
VERTEX
  8
0
 10
1239.335716
 20
1326.545597
 70
0
 42
0.186677
  0
VERTEX
  8
0
 10
1241.323725
 20
1326.082454
 70
0
  0
SEQEND
  0
POLYLINE
  8
0
  6
CONTINUOUS
 62
1
 66
1
 70
2
  0
VERTEX
  8
0
 10
1255.539597
 20
1326.082454
 70
0
 42
0.186677
  0
VERTEX
  8
0
 10
1257.527606
 20
1326.545597
 70
0
  0
SEQEND
  0
POLYLINE
  8
0
  6
CONTINUOUS
 62
1
 66
1
 70
2
  0
VERTEX
  8
0
 10
1258.187606
 20
1328.105597
 70
0
 42
0.408197
  0
VERTEX
  8
0
 10
1257.689121
 20
1328.509466
 70
0
 42
0.066109
  0
VERTEX
  8
0
 10
1256.199597
 20
1328.682454
 70
0
  0
SEQEND
  0
LINE
  8
0
  6
CONTINUOUS
 62
1
 10
890.263725
 20
1328.682454
 11
905.799597
 21
1328.682454
  0
LINE
  8
0
  6
CONTINUOUS
 62
1
 10
1167.939597
 20
1326.082454
 11
1153.723725
 21
1326.082454
  0
LINE
  8
0
  6
CONTINUOUS
 62
1
 10
888.935716
 20
1326.545597
 11
888.275716
 21
1328.105597
  0
LINE
  8
0
  6
CONTINUOUS
 62
1
 10
907.127606
 20
1326.545597
 11
907.787606
 21
1328.105597
  0
LINE
  8
0
  6
CONTINUOUS
 62
1
 10
977.863725
 20
1328.682454
 11
993.399597
 21
1328.682454
  0
LINE
  8
0
  6
CONTINUOUS
 62
1
 10
1000.423725
 20
1328.682454
 11
1014.639597
 21
1328.682454
  0
LINE
  8
0
  6
CONTINUOUS
 62
1
 10
1021.663725
 20
1328.682454
 11
1037.199597
 21
1328.682454
  0
LINE
  8
0
  6
CONTINUOUS
 62
1
 10
1044.223725
 20
1328.682454
 11
1058.439597
 21
1328.682454
  0
LINE
  8
0
  6
CONTINUOUS
 62
1
 10
1065.463725
 20
1328.682454
 11
1080.999597
 21
1328.682454
  0
LINE
  8
0
  6
CONTINUOUS
 62
1
 10
1088.023725
 20
1328.682454
 11
1102.239597
 21
1328.682454
  0
LINE
  8
0
  6
CONTINUOUS
 62
1
 10
1109.263725
 20
1328.682454
 11
1124.799597
 21
1328.682454
  0
LINE
  8
0
  6
CONTINUOUS
 62
1
 10
1131.823725
 20
1328.682454
 11
1146.039597
 21
1328.682454
  0
LINE
  8
0
  6
CONTINUOUS
 62
1
 10
1153.063725
 20
1328.682454
 11
1168.599597
 21
1328.682454
  0
LINE
  8
0
  6
CONTINUOUS
 62
1
 10
976.535716
 20
1326.545597
 11
975.875716
 21
1328.105597
  0
LINE
  8
0
  6
CONTINUOUS
 62
1
 10
1020.335716
 20
1326.545597
 11
1019.675716
 21
1328.105597
  0
LINE
  8
0
  6
CONTINUOUS
 62
1
 10
1064.135716
 20
1326.545597
 11
1063.475716
 21
1328.105597
  0
LINE
  8
0
  6
CONTINUOUS
 62
1
 10
1107.935716
 20
1326.545597
 11
1107.275716
 21
1328.105597
  0
LINE
  8
0
  6
CONTINUOUS
 62
1
 10
1151.735716
 20
1326.545597
 11
1151.075716
 21
1328.105597
  0
LINE
  8
0
  6
CONTINUOUS
 62
1
 10
994.727606
 20
1326.545597
 11
995.387606
 21
1328.105597
  0
LINE
  8
0
  6
CONTINUOUS
 62
1
 10
1038.527606
 20
1326.545597
 11
1039.187606
 21
1328.105597
  0
LINE
  8
0
  6
CONTINUOUS
 62
1
 10
1082.327606
 20
1326.545597
 11
1082.987606
 21
1328.105597
  0
LINE
  8
0
  6
CONTINUOUS
 62
1
 10
1126.127606
 20
1326.545597
 11
1126.787606
 21
1328.105597
  0
LINE
  8
0
  6
CONTINUOUS
 62
1
 10
1169.927606
 20
1326.545597
 11
1170.587606
 21
1328.105597
  0
LINE
  8
0
  6
CONTINUOUS
 62
1
 10
929.027606
 20
1328.219311
 11
929.687606
 21
1326.659311
  0
LINE
  8
0
  6
CONTINUOUS
 62
1
 10
998.435716
 20
1328.219311
 11
997.775716
 21
1326.659311
  0
LINE
  8
0
  6
CONTINUOUS
 62
1
 10
1016.627606
 20
1328.219311
 11
1017.287606
 21
1326.659311
  0
LINE
  8
0
  6
CONTINUOUS
 62
1
 10
1042.235716
 20
1328.219311
 11
1041.575716
 21
1326.659311
  0
LINE
  8
0
  6
CONTINUOUS
 62
1
 10
1060.427606
 20
1328.219311
 11
1061.087606
 21
1326.659311
  0
LINE
  8
0
  6
CONTINUOUS
 62
1
 10
1086.035716
 20
1328.219311
 11
1085.375716
 21
1326.659311
  0
LINE
  8
0
  6
CONTINUOUS
 62
1
 10
1104.227606
 20
1328.219311
 11
1104.887606
 21
1326.659311
  0
LINE
  8
0
  6
CONTINUOUS
 62
1
 10
1129.835716
 20
1328.219311
 11
1129.175716
 21
1326.659311
  0
LINE
  8
0
  6
CONTINUOUS
 62
1
 10
1148.027606
 20
1328.219311
 11
1148.687606
 21
1326.659311
  0
LINE
  8
0
  6
CONTINUOUS
 62
1
 10
905.139597
 20
1326.082454
 11
890.923725
 21
1326.082454
  0
LINE
  8
0
  6
CONTINUOUS
 62
1
 10
927.699597
 20
1326.082454
 11
912.163725
 21
1326.082454
  0
LINE
  8
0
  6
CONTINUOUS
 62
1
 10
992.739597
 20
1326.082454
 11
978.523725
 21
1326.082454
  0
LINE
  8
0
  6
CONTINUOUS
 62
1
 10
1015.299597
 20
1326.082454
 11
999.763725
 21
1326.082454
  0
LINE
  8
0
  6
CONTINUOUS
 62
1
 10
1036.539597
 20
1326.082454
 11
1022.323725
 21
1326.082454
  0
LINE
  8
0
  6
CONTINUOUS
 62
1
 10
1059.099597
 20
1326.082454
 11
1043.563725
 21
1326.082454
  0
LINE
  8
0
  6
CONTINUOUS
 62
1
 10
1080.339597
 20
1326.082454
 11
1066.123725
 21
1326.082454
  0
LINE
  8
0
  6
CONTINUOUS
 62
1
 10
1102.899597
 20
1326.082454
 11
1087.363725
 21
1326.082454
  0
LINE
  8
0
  6
CONTINUOUS
 62
1
 10
1124.139597
 20
1326.082454
 11
1109.923725
 21
1326.082454
  0
LINE
  8
0
  6
CONTINUOUS
 62
1
 10
1146.699597
 20
1326.082454
 11
1131.163725
 21
1326.082454
  0
POLYLINE
  8
0
  6
CONTINUOUS
 62
1
 66
1
 70
2
  0
VERTEX
  8
0
 10
890.263725
 20
1328.682454
 70
0
 42
0.066109
  0
VERTEX
  8
0
 10
888.774201
 20
1328.509466
 70
0
 42
0.408197
  0
VERTEX
  8
0
 10
888.275716
 20
1328.105597
 70
0
  0
SEQEND
  0
POLYLINE
  8
0
  6
CONTINUOUS
 62
1
 66
1
 70
2
  0
VERTEX
  8
0
 10
888.935716
 20
1326.545597
 70
0
 42
0.186677
  0
VERTEX
  8
0
 10
890.923725
 20
1326.082454
 70
0
  0
SEQEND
  0
POLYLINE
  8
0
  6
CONTINUOUS
 62
1
 66
1
 70
2
  0
VERTEX
  8
0
 10
905.139597
 20
1326.082454
 70
0
 42
0.186677
  0
VERTEX
  8
0
 10
907.127606
 20
1326.545597
 70
0
  0
SEQEND
  0
POLYLINE
  8
0
  6
CONTINUOUS
 62
1
 66
1
 70
2
  0
VERTEX
  8
0
 10
907.787606
 20
1328.105597
 70
0
 42
0.408197
  0
VERTEX
  8
0
 10
907.289121
 20
1328.509466
 70
0
 42
0.066109
  0
VERTEX
  8
0
 10
905.799597
 20
1328.682454
 70
0
  0
SEQEND
  0
POLYLINE
  8
0
  6
CONTINUOUS
 62
1
 66
1
 70
2
  0
VERTEX
  8
0
 10
910.835716
 20
1328.219311
 70
0
 42
-0.186677
  0
VERTEX
  8
0
 10
912.823725
 20
1328.682454
 70
0
  0
SEQEND
  0
POLYLINE
  8
0
  6
CONTINUOUS
 62
1
 66
1
 70
2
  0
VERTEX
  8
0
 10
927.039597
 20
1328.682454
 70
0
 42
-0.186677
  0
VERTEX
  8
0
 10
929.027606
 20
1328.219311
 70
0
  0
SEQEND
  0
POLYLINE
  8
0
  6
CONTINUOUS
 62
1
 66
1
 70
2
  0
VERTEX
  8
0
 10
929.687606
 20
1326.659311
 70
0
 42
-0.408197
  0
VERTEX
  8
0
 10
929.189121
 20
1326.255442
 70
0
 42
-0.066109
  0
VERTEX
  8
0
 10
927.699597
 20
1326.082454
 70
0
  0
SEQEND
  0
POLYLINE
  8
0
  6
CONTINUOUS
 62
1
 66
1
 70
2
  0
VERTEX
  8
0
 10
912.163725
 20
1326.082454
 70
0
 42
-0.066109
  0
VERTEX
  8
0
 10
910.674201
 20
1326.255442
 70
0
 42
-0.408197
  0
VERTEX
  8
0
 10
910.175716
 20
1326.659311
 70
0
  0
SEQEND
  0
POLYLINE
  8
0
  6
CONTINUOUS
 62
1
 66
1
 70
2
  0
VERTEX
  8
0
 10
977.863725
 20
1328.682454
 70
0
 42
0.066109
  0
VERTEX
  8
0
 10
976.374201
 20
1328.509466
 70
0
 42
0.408197
  0
VERTEX
  8
0
 10
975.875716
 20
1328.105597
 70
0
  0
SEQEND
  0
POLYLINE
  8
0
  6
CONTINUOUS
 62
1
 66
1
 70
2
  0
VERTEX
  8
0
 10
976.535716
 20
1326.545597
 70
0
 42
0.186677
  0
VERTEX
  8
0
 10
978.523725
 20
1326.082454
 70
0
  0
SEQEND
  0
POLYLINE
  8
0
  6
CONTINUOUS
 62
1
 66
1
 70
2
  0
VERTEX
  8
0
 10
992.739597
 20
1326.082454
 70
0
 42
0.186677
  0
VERTEX
  8
0
 10
994.727606
 20
1326.545597
 70
0
  0
SEQEND
  0
POLYLINE
  8
0
  6
CONTINUOUS
 62
1
 66
1
 70
2
  0
VERTEX
  8
0
 10
995.387606
 20
1328.105597
 70
0
 42
0.408197
  0
VERTEX
  8
0
 10
994.889121
 20
1328.509466
 70
0
 42
0.066109
  0
VERTEX
  8
0
 10
993.399597
 20
1328.682454
 70
0
  0
SEQEND
  0
POLYLINE
  8
0
  6
CONTINUOUS
 62
1
 66
1
 70
2
  0
VERTEX
  8
0
 10
998.435716
 20
1328.219311
 70
0
 42
-0.186677
  0
VERTEX
  8
0
 10
1000.423725
 20
1328.682454
 70
0
  0
SEQEND
  0
POLYLINE
  8
0
  6
CONTINUOUS
 62
1
 66
1
 70
2
  0
VERTEX
  8
0
 10
1014.639597
 20
1328.682454
 70
0
 42
-0.186677
  0
VERTEX
  8
0
 10
1016.627606
 20
1328.219311
 70
0
  0
SEQEND
  0
POLYLINE
  8
0
  6
CONTINUOUS
 62
1
 66
1
 70
2
  0
VERTEX
  8
0
 10
1017.287606
 20
1326.659311
 70
0
 42
-0.408197
  0
VERTEX
  8
0
 10
1016.789121
 20
1326.255442
 70
0
 42
-0.066109
  0
VERTEX
  8
0
 10
1015.299597
 20
1326.082454
 70
0
  0
SEQEND
  0
POLYLINE
  8
0
  6
CONTINUOUS
 62
1
 66
1
 70
2
  0
VERTEX
  8
0
 10
999.763725
 20
1326.082454
 70
0
 42
-0.066109
  0
VERTEX
  8
0
 10
998.274201
 20
1326.255442
 70
0
 42
-0.408197
  0
VERTEX
  8
0
 10
997.775716
 20
1326.659311
 70
0
  0
SEQEND
  0
POLYLINE
  8
0
  6
CONTINUOUS
 62
1
 66
1
 70
2
  0
VERTEX
  8
0
 10
1020.335716
 20
1326.545597
 70
0
 42
0.186677
  0
VERTEX
  8
0
 10
1022.323725
 20
1326.082454
 70
0
  0
SEQEND
  0
POLYLINE
  8
0
  6
CONTINUOUS
 62
1
 66
1
 70
2
  0
VERTEX
  8
0
 10
1036.539597
 20
1326.082454
 70
0
 42
0.186677
  0
VERTEX
  8
0
 10
1038.527606
 20
1326.545597
 70
0
  0
SEQEND
  0
POLYLINE
  8
0
  6
CONTINUOUS
 62
1
 66
1
 70
2
  0
VERTEX
  8
0
 10
1039.187606
 20
1328.105597
 70
0
 42
0.408197
  0
VERTEX
  8
0
 10
1038.689121
 20
1328.509466
 70
0
 42
0.066109
  0
VERTEX
  8
0
 10
1037.199597
 20
1328.682454
 70
0
  0
SEQEND
  0
POLYLINE
  8
0
  6
CONTINUOUS
 62
1
 66
1
 70
2
  0
VERTEX
  8
0
 10
1021.663725
 20
1328.682454
 70
0
 42
0.066109
  0
VERTEX
  8
0
 10
1020.174201
 20
1328.509466
 70
0
 42
0.408197
  0
VERTEX
  8
0
 10
1019.675716
 20
1328.105597
 70
0
  0
SEQEND
  0
POLYLINE
  8
0
  6
CONTINUOUS
 62
1
 66
1
 70
2
  0
VERTEX
  8
0
 10
1044.223725
 20
1328.682454
 70
0
 42
0.186677
  0
VERTEX
  8
0
 10
1042.235716
 20
1328.219311
 70
0
  0
SEQEND
  0
POLYLINE
  8
0
  6
CONTINUOUS
 62
1
 66
1
 70
2
  0
VERTEX
  8
0
 10
1041.575716
 20
1326.659311
 70
0
 42
0.408197
  0
VERTEX
  8
0
 10
1042.074201
 20
1326.255442
 70
0
 42
0.066109
  0
VERTEX
  8
0
 10
1043.563725
 20
1326.082454
 70
0
  0
SEQEND
  0
POLYLINE
  8
0
  6
CONTINUOUS
 62
1
 66
1
 70
2
  0
VERTEX
  8
0
 10
1059.099597
 20
1326.082454
 70
0
 42
0.066109
  0
VERTEX
  8
0
 10
1060.589121
 20
1326.255442
 70
0
 42
0.408197
  0
VERTEX
  8
0
 10
1061.087606
 20
1326.659311
 70
0
  0
SEQEND
  0
POLYLINE
  8
0
  6
CONTINUOUS
 62
1
 66
1
 70
2
  0
VERTEX
  8
0
 10
1060.427606
 20
1328.219311
 70
0
 42
0.186677
  0
VERTEX
  8
0
 10
1058.439597
 20
1328.682454
 70
0
  0
SEQEND
  0
POLYLINE
  8
0
  6
CONTINUOUS
 62
1
 66
1
 70
2
  0
VERTEX
  8
0
 10
1063.475716
 20
1328.105597
 70
0
 42
-0.408197
  0
VERTEX
  8
0
 10
1063.974201
 20
1328.509466
 70
0
 42
-0.066109
  0
VERTEX
  8
0
 10
1065.463725
 20
1328.682454
 70
0
  0
SEQEND
  0
POLYLINE
  8
0
  6
CONTINUOUS
 62
1
 66
1
 70
2
  0
VERTEX
  8
0
 10
1080.999597
 20
1328.682454
 70
0
 42
-0.066109
  0
VERTEX
  8
0
 10
1082.489121
 20
1328.509466
 70
0
 42
-0.408197
  0
VERTEX
  8
0
 10
1082.987606
 20
1328.105597
 70
0
  0
SEQEND
  0
POLYLINE
  8
0
  6
CONTINUOUS
 62
1
 66
1
 70
2
  0
VERTEX
  8
0
 10
1082.327606
 20
1326.545597
 70
0
 42
-0.186677
  0
VERTEX
  8
0
 10
1080.339597
 20
1326.082454
 70
0
  0
SEQEND
  0
POLYLINE
  8
0
  6
CONTINUOUS
 62
1
 66
1
 70
2
  0
VERTEX
  8
0
 10
1066.123725
 20
1326.082454
 70
0
 42
-0.186677
  0
VERTEX
  8
0
 10
1064.135716
 20
1326.545597
 70
0
  0
SEQEND
  0
POLYLINE
  8
0
  6
CONTINUOUS
 62
1
 66
1
 70
2
  0
VERTEX
  8
0
 10
1085.375716
 20
1326.659311
 70
0
 42
0.408197
  0
VERTEX
  8
0
 10
1085.874201
 20
1326.255442
 70
0
 42
0.066109
  0
VERTEX
  8
0
 10
1087.363725
 20
1326.082454
 70
0
  0
SEQEND
  0
POLYLINE
  8
0
  6
CONTINUOUS
 62
1
 66
1
 70
2
  0
VERTEX
  8
0
 10
1102.899597
 20
1326.082454
 70
0
 42
0.066109
  0
VERTEX
  8
0
 10
1104.389121
 20
1326.255442
 70
0
 42
0.408197
  0
VERTEX
  8
0
 10
1104.887606
 20
1326.659311
 70
0
  0
SEQEND
  0
POLYLINE
  8
0
  6
CONTINUOUS
 62
1
 66
1
 70
2
  0
VERTEX
  8
0
 10
1104.227606
 20
1328.219311
 70
0
 42
0.186677
  0
VERTEX
  8
0
 10
1102.239597
 20
1328.682454
 70
0
  0
SEQEND
  0
POLYLINE
  8
0
  6
CONTINUOUS
 62
1
 66
1
 70
2
  0
VERTEX
  8
0
 10
1088.023725
 20
1328.682454
 70
0
 42
0.186677
  0
VERTEX
  8
0
 10
1086.035716
 20
1328.219311
 70
0
  0
SEQEND
  0
POLYLINE
  8
0
  6
CONTINUOUS
 62
1
 66
1
 70
2
  0
VERTEX
  8
0
 10
1109.263725
 20
1328.682454
 70
0
 42
0.066109
  0
VERTEX
  8
0
 10
1107.774201
 20
1328.509466
 70
0
 42
0.408197
  0
VERTEX
  8
0
 10
1107.275716
 20
1328.105597
 70
0
  0
SEQEND
  0
POLYLINE
  8
0
  6
CONTINUOUS
 62
1
 66
1
 70
2
  0
VERTEX
  8
0
 10
1107.935716
 20
1326.545597
 70
0
 42
0.186677
  0
VERTEX
  8
0
 10
1109.923725
 20
1326.082454
 70
0
  0
SEQEND
  0
POLYLINE
  8
0
  6
CONTINUOUS
 62
1
 66
1
 70
2
  0
VERTEX
  8
0
 10
1124.139597
 20
1326.082454
 70
0
 42
0.186677
  0
VERTEX
  8
0
 10
1126.127606
 20
1326.545597
 70
0
  0
SEQEND
  0
POLYLINE
  8
0
  6
CONTINUOUS
 62
1
 66
1
 70
2
  0
VERTEX
  8
0
 10
1126.787606
 20
1328.105597
 70
0
 42
0.408197
  0
VERTEX
  8
0
 10
1126.289121
 20
1328.509466
 70
0
 42
0.066109
  0
VERTEX
  8
0
 10
1124.799597
 20
1328.682454
 70
0
  0
SEQEND
  0
POLYLINE
  8
0
  6
CONTINUOUS
 62
1
 66
1
 70
2
  0
VERTEX
  8
0
 10
1131.823725
 20
1328.682454
 70
0
 42
0.186677
  0
VERTEX
  8
0
 10
1129.835716
 20
1328.219311
 70
0
  0
SEQEND
  0
POLYLINE
  8
0
  6
CONTINUOUS
 62
1
 66
1
 70
2
  0
VERTEX
  8
0
 10
1129.175716
 20
1326.659311
 70
0
 42
0.408197
  0
VERTEX
  8
0
 10
1129.674201
 20
1326.255442
 70
0
 42
0.066109
  0
VERTEX
  8
0
 10
1131.163725
 20
1326.082454
 70
0
  0
SEQEND
  0
POLYLINE
  8
0
  6
CONTINUOUS
 62
1
 66
1
 70
2
  0
VERTEX
  8
0
 10
1146.699597
 20
1326.082454
 70
0
 42
0.066109
  0
VERTEX
  8
0
 10
1148.189121
 20
1326.255442
 70
0
 42
0.408197
  0
VERTEX
  8
0
 10
1148.687606
 20
1326.659311
 70
0
  0
SEQEND
  0
POLYLINE
  8
0
  6
CONTINUOUS
 62
1
 66
1
 70
2
  0
VERTEX
  8
0
 10
1146.039597
 20
1328.682454
 70
0
 42
-0.186677
  0
VERTEX
  8
0
 10
1148.027606
 20
1328.219311
 70
0
  0
SEQEND
  0
POLYLINE
  8
0
  6
CONTINUOUS
 62
1
 66
1
 70
2
  0
VERTEX
  8
0
 10
1153.063725
 20
1328.682454
 70
0
 42
0.066109
  0
VERTEX
  8
0
 10
1151.574201
 20
1328.509466
 70
0
 42
0.408197
  0
VERTEX
  8
0
 10
1151.075716
 20
1328.105597
 70
0
  0
SEQEND
  0
POLYLINE
  8
0
  6
CONTINUOUS
 62
1
 66
1
 70
2
  0
VERTEX
  8
0
 10
1151.735716
 20
1326.545597
 70
0
 42
0.186677
  0
VERTEX
  8
0
 10
1153.723725
 20
1326.082454
 70
0
  0
SEQEND
  0
POLYLINE
  8
0
  6
CONTINUOUS
 62
1
 66
1
 70
2
  0
VERTEX
  8
0
 10
1167.939597
 20
1326.082454
 70
0
 42
0.186677
  0
VERTEX
  8
0
 10
1169.927606
 20
1326.545597
 70
0
  0
SEQEND
  0
POLYLINE
  8
0
  6
CONTINUOUS
 62
1
 66
1
 70
2
  0
VERTEX
  8
0
 10
1170.587606
 20
1328.105597
 70
0
 42
0.408197
  0
VERTEX
  8
0
 10
1170.089121
 20
1328.509466
 70
0
 42
0.066109
  0
VERTEX
  8
0
 10
1168.599597
 20
1328.682454
 70
0
  0
SEQEND
  0
LINE
  8
0
  6
CONTINUOUS
 62
1
 10
910.835716
 20
1328.219311
 11
910.175716
 21
1326.659311
  0
LINE
  8
0
  6
CONTINUOUS
 62
1
 10
912.823725
 20
1328.682454
 11
927.039597
 21
1328.682454
  0
LINE
  8
0
  6
CONTINUOUS
 62
1
 10
1299.339597
 20
1326.082454
 11
1285.123725
 21
1326.082454
  0
LINE
  8
0
  6
CONTINUOUS
 62
1
 10
1263.223725
 20
1328.682454
 11
1277.439597
 21
1328.682454
  0
LINE
  8
0
  6
CONTINUOUS
 62
1
 10
1284.463725
 20
1328.682454
 11
1299.999597
 21
1328.682454
  0
LINE
  8
0
  6
CONTINUOUS
 62
1
 10
1283.135716
 20
1326.545597
 11
1282.475716
 21
1328.105597
  0
LINE
  8
0
  6
CONTINUOUS
 62
1
 10
1301.327606
 20
1326.545597
 11
1301.987606
 21
1328.105597
  0
LINE
  8
0
  6
CONTINUOUS
 62
1
 10
1261.235716
 20
1328.219311
 11
1260.575716
 21
1326.659311
  0
LINE
  8
0
  6
CONTINUOUS
 62
1
 10
1279.427606
 20
1328.219311
 11
1280.087606
 21
1326.659311
  0
LINE
  8
0
  6
CONTINUOUS
 62
1
 10
1278.099597
 20
1326.082454
 11
1262.563725
 21
1326.082454
  0
POLYLINE
  8
0
  6
CONTINUOUS
 62
1
 66
1
 70
2
  0
VERTEX
  8
0
 10
1263.223725
 20
1328.682454
 70
0
 42
0.186677
  0
VERTEX
  8
0
 10
1261.235716
 20
1328.219311
 70
0
  0
SEQEND
  0
POLYLINE
  8
0
  6
CONTINUOUS
 62
1
 66
1
 70
2
  0
VERTEX
  8
0
 10
1260.575716
 20
1326.659311
 70
0
 42
0.408197
  0
VERTEX
  8
0
 10
1261.074201
 20
1326.255442
 70
0
 42
0.066109
  0
VERTEX
  8
0
 10
1262.563725
 20
1326.082454
 70
0
  0
SEQEND
  0
POLYLINE
  8
0
  6
CONTINUOUS
 62
1
 66
1
 70
2
  0
VERTEX
  8
0
 10
1278.099597
 20
1326.082454
 70
0
 42
0.066109
  0
VERTEX
  8
0
 10
1279.589121
 20
1326.255442
 70
0
 42
0.408197
  0
VERTEX
  8
0
 10
1280.087606
 20
1326.659311
 70
0
  0
SEQEND
  0
POLYLINE
  8
0
  6
CONTINUOUS
 62
1
 66
1
 70
2
  0
VERTEX
  8
0
 10
1277.439597
 20
1328.682454
 70
0
 42
-0.186677
  0
VERTEX
  8
0
 10
1279.427606
 20
1328.219311
 70
0
  0
SEQEND
  0
POLYLINE
  8
0
  6
CONTINUOUS
 62
1
 66
1
 70
2
  0
VERTEX
  8
0
 10
1284.463725
 20
1328.682454
 70
0
 42
0.066109
  0
VERTEX
  8
0
 10
1282.974201
 20
1328.509466
 70
0
 42
0.408197
  0
VERTEX
  8
0
 10
1282.475716
 20
1328.105597
 70
0
  0
SEQEND
  0
POLYLINE
  8
0
  6
CONTINUOUS
 62
1
 66
1
 70
2
  0
VERTEX
  8
0
 10
1283.135716
 20
1326.545597
 70
0
 42
0.186677
  0
VERTEX
  8
0
 10
1285.123725
 20
1326.082454
 70
0
  0
SEQEND
  0
POLYLINE
  8
0
  6
CONTINUOUS
 62
1
 66
1
 70
2
  0
VERTEX
  8
0
 10
1299.339597
 20
1326.082454
 70
0
 42
0.186677
  0
VERTEX
  8
0
 10
1301.327606
 20
1326.545597
 70
0
  0
SEQEND
  0
POLYLINE
  8
0
  6
CONTINUOUS
 62
1
 66
1
 70
2
  0
VERTEX
  8
0
 10
1301.987606
 20
1328.105597
 70
0
 42
0.408197
  0
VERTEX
  8
0
 10
1301.489121
 20
1328.509466
 70
0
 42
0.066109
  0
VERTEX
  8
0
 10
1299.999597
 20
1328.682454
 70
0
  0
SEQEND
  0
LINE
  8
0
  6
CONTINUOUS
 62
1
 10
1343.139597
 20
1326.082454
 11
1328.923725
 21
1326.082454
  0
LINE
  8
0
  6
CONTINUOUS
 62
1
 10
1307.023725
 20
1328.682454
 11
1321.239597
 21
1328.682454
  0
LINE
  8
0
  6
CONTINUOUS
 62
1
 10
1328.263725
 20
1328.682454
 11
1343.799597
 21
1328.682454
  0
LINE
  8
0
  6
CONTINUOUS
 62
1
 10
1326.935716
 20
1326.545597
 11
1326.275716
 21
1328.105597
  0
LINE
  8
0
  6
CONTINUOUS
 62
1
 10
1345.127606
 20
1326.545597
 11
1345.787606
 21
1328.105597
  0
LINE
  8
0
  6
CONTINUOUS
 62
1
 10
1305.035716
 20
1328.219311
 11
1304.375716
 21
1326.659311
  0
LINE
  8
0
  6
CONTINUOUS
 62
1
 10
1323.227606
 20
1328.219311
 11
1323.887606
 21
1326.659311
  0
LINE
  8
0
  6
CONTINUOUS
 62
1
 10
1321.899597
 20
1326.082454
 11
1306.363725
 21
1326.082454
  0
POLYLINE
  8
0
  6
CONTINUOUS
 62
1
 66
1
 70
2
  0
VERTEX
  8
0
 10
1307.023725
 20
1328.682454
 70
0
 42
0.186677
  0
VERTEX
  8
0
 10
1305.035716
 20
1328.219311
 70
0
  0
SEQEND
  0
POLYLINE
  8
0
  6
CONTINUOUS
 62
1
 66
1
 70
2
  0
VERTEX
  8
0
 10
1304.375716
 20
1326.659311
 70
0
 42
0.408197
  0
VERTEX
  8
0
 10
1304.874201
 20
1326.255442
 70
0
 42
0.066109
  0
VERTEX
  8
0
 10
1306.363725
 20
1326.082454
 70
0
  0
SEQEND
  0
POLYLINE
  8
0
  6
CONTINUOUS
 62
1
 66
1
 70
2
  0
VERTEX
  8
0
 10
1321.899597
 20
1326.082454
 70
0
 42
0.066109
  0
VERTEX
  8
0
 10
1323.389121
 20
1326.255442
 70
0
 42
0.408197
  0
VERTEX
  8
0
 10
1323.887606
 20
1326.659311
 70
0
  0
SEQEND
  0
POLYLINE
  8
0
  6
CONTINUOUS
 62
1
 66
1
 70
2
  0
VERTEX
  8
0
 10
1321.239597
 20
1328.682454
 70
0
 42
-0.186677
  0
VERTEX
  8
0
 10
1323.227606
 20
1328.219311
 70
0
  0
SEQEND
  0
POLYLINE
  8
0
  6
CONTINUOUS
 62
1
 66
1
 70
2
  0
VERTEX
  8
0
 10
1328.263725
 20
1328.682454
 70
0
 42
0.066109
  0
VERTEX
  8
0
 10
1326.774201
 20
1328.509466
 70
0
 42
0.408197
  0
VERTEX
  8
0
 10
1326.275716
 20
1328.105597
 70
0
  0
SEQEND
  0
POLYLINE
  8
0
  6
CONTINUOUS
 62
1
 66
1
 70
2
  0
VERTEX
  8
0
 10
1326.935716
 20
1326.545597
 70
0
 42
0.186677
  0
VERTEX
  8
0
 10
1328.923725
 20
1326.082454
 70
0
  0
SEQEND
  0
POLYLINE
  8
0
  6
CONTINUOUS
 62
1
 66
1
 70
2
  0
VERTEX
  8
0
 10
1343.139597
 20
1326.082454
 70
0
 42
0.186677
  0
VERTEX
  8
0
 10
1345.127606
 20
1326.545597
 70
0
  0
SEQEND
  0
POLYLINE
  8
0
  6
CONTINUOUS
 62
1
 66
1
 70
2
  0
VERTEX
  8
0
 10
1345.787606
 20
1328.105597
 70
0
 42
0.408197
  0
VERTEX
  8
0
 10
1345.289121
 20
1328.509466
 70
0
 42
0.066109
  0
VERTEX
  8
0
 10
1343.799597
 20
1328.682454
 70
0
  0
SEQEND
  0
LINE
  8
0
  6
CONTINUOUS
 62
1
 10
1386.939597
 20
1326.082454
 11
1372.723725
 21
1326.082454
  0
LINE
  8
0
  6
CONTINUOUS
 62
1
 10
1350.823725
 20
1328.682454
 11
1365.039597
 21
1328.682454
  0
LINE
  8
0
  6
CONTINUOUS
 62
1
 10
1372.063725
 20
1328.682454
 11
1387.599597
 21
1328.682454
  0
LINE
  8
0
  6
CONTINUOUS
 62
1
 10
1370.735716
 20
1326.545597
 11
1370.075716
 21
1328.105597
  0
LINE
  8
0
  6
CONTINUOUS
 62
1
 10
1388.927606
 20
1326.545597
 11
1389.587606
 21
1328.105597
  0
LINE
  8
0
  6
CONTINUOUS
 62
1
 10
1348.835716
 20
1328.219311
 11
1348.175716
 21
1326.659311
  0
LINE
  8
0
  6
CONTINUOUS
 62
1
 10
1367.027606
 20
1328.219311
 11
1367.687606
 21
1326.659311
  0
LINE
  8
0
  6
CONTINUOUS
 62
1
 10
1365.699597
 20
1326.082454
 11
1350.163725
 21
1326.082454
  0
POLYLINE
  8
0
  6
CONTINUOUS
 62
1
 66
1
 70
2
  0
VERTEX
  8
0
 10
1350.823725
 20
1328.682454
 70
0
 42
0.186677
  0
VERTEX
  8
0
 10
1348.835716
 20
1328.219311
 70
0
  0
SEQEND
  0
POLYLINE
  8
0
  6
CONTINUOUS
 62
1
 66
1
 70
2
  0
VERTEX
  8
0
 10
1348.175716
 20
1326.659311
 70
0
 42
0.408197
  0
VERTEX
  8
0
 10
1348.674201
 20
1326.255442
 70
0
 42
0.066109
  0
VERTEX
  8
0
 10
1350.163725
 20
1326.082454
 70
0
  0
SEQEND
  0
POLYLINE
  8
0
  6
CONTINUOUS
 62
1
 66
1
 70
2
  0
VERTEX
  8
0
 10
1365.699597
 20
1326.082454
 70
0
 42
0.066109
  0
VERTEX
  8
0
 10
1367.189121
 20
1326.255442
 70
0
 42
0.408197
  0
VERTEX
  8
0
 10
1367.687606
 20
1326.659311
 70
0
  0
SEQEND
  0
POLYLINE
  8
0
  6
CONTINUOUS
 62
1
 66
1
 70
2
  0
VERTEX
  8
0
 10
1365.039597
 20
1328.682454
 70
0
 42
-0.186677
  0
VERTEX
  8
0
 10
1367.027606
 20
1328.219311
 70
0
  0
SEQEND
  0
POLYLINE
  8
0
  6
CONTINUOUS
 62
1
 66
1
 70
2
  0
VERTEX
  8
0
 10
1372.063725
 20
1328.682454
 70
0
 42
0.066109
  0
VERTEX
  8
0
 10
1370.574201
 20
1328.509466
 70
0
 42
0.408197
  0
VERTEX
  8
0
 10
1370.075716
 20
1328.105597
 70
0
  0
SEQEND
  0
POLYLINE
  8
0
  6
CONTINUOUS
 62
1
 66
1
 70
2
  0
VERTEX
  8
0
 10
1370.735716
 20
1326.545597
 70
0
 42
0.186677
  0
VERTEX
  8
0
 10
1372.723725
 20
1326.082454
 70
0
  0
SEQEND
  0
POLYLINE
  8
0
  6
CONTINUOUS
 62
1
 66
1
 70
2
  0
VERTEX
  8
0
 10
1386.939597
 20
1326.082454
 70
0
 42
0.186677
  0
VERTEX
  8
0
 10
1388.927606
 20
1326.545597
 70
0
  0
SEQEND
  0
POLYLINE
  8
0
  6
CONTINUOUS
 62
1
 66
1
 70
2
  0
VERTEX
  8
0
 10
1389.587606
 20
1328.105597
 70
0
 42
0.408197
  0
VERTEX
  8
0
 10
1389.089121
 20
1328.509466
 70
0
 42
0.066109
  0
VERTEX
  8
0
 10
1387.599597
 20
1328.682454
 70
0
  0
SEQEND
  0
LINE
  8
0
  6
CONTINUOUS
 62
1
 10
1430.739597
 20
1326.082454
 11
1416.523725
 21
1326.082454
  0
LINE
  8
0
  6
CONTINUOUS
 62
1
 10
1394.623725
 20
1328.682454
 11
1408.839597
 21
1328.682454
  0
LINE
  8
0
  6
CONTINUOUS
 62
1
 10
1415.863725
 20
1328.682454
 11
1431.399597
 21
1328.682454
  0
LINE
  8
0
  6
CONTINUOUS
 62
1
 10
1414.535716
 20
1326.545597
 11
1413.875716
 21
1328.105597
  0
LINE
  8
0
  6
CONTINUOUS
 62
1
 10
1432.727606
 20
1326.545597
 11
1433.387606
 21
1328.105597
  0
LINE
  8
0
  6
CONTINUOUS
 62
1
 10
1392.635716
 20
1328.219311
 11
1391.975716
 21
1326.659311
  0
LINE
  8
0
  6
CONTINUOUS
 62
1
 10
1410.827606
 20
1328.219311
 11
1411.487606
 21
1326.659311
  0
LINE
  8
0
  6
CONTINUOUS
 62
1
 10
1409.499597
 20
1326.082454
 11
1393.963725
 21
1326.082454
  0
POLYLINE
  8
0
  6
CONTINUOUS
 62
1
 66
1
 70
2
  0
VERTEX
  8
0
 10
1394.623725
 20
1328.682454
 70
0
 42
0.186677
  0
VERTEX
  8
0
 10
1392.635716
 20
1328.219311
 70
0
  0
SEQEND
  0
POLYLINE
  8
0
  6
CONTINUOUS
 62
1
 66
1
 70
2
  0
VERTEX
  8
0
 10
1391.975716
 20
1326.659311
 70
0
 42
0.408197
  0
VERTEX
  8
0
 10
1392.474201
 20
1326.255442
 70
0
 42
0.066109
  0
VERTEX
  8
0
 10
1393.963725
 20
1326.082454
 70
0
  0
SEQEND
  0
POLYLINE
  8
0
  6
CONTINUOUS
 62
1
 66
1
 70
2
  0
VERTEX
  8
0
 10
1409.499597
 20
1326.082454
 70
0
 42
0.066109
  0
VERTEX
  8
0
 10
1410.989121
 20
1326.255442
 70
0
 42
0.408197
  0
VERTEX
  8
0
 10
1411.487606
 20
1326.659311
 70
0
  0
SEQEND
  0
POLYLINE
  8
0
  6
CONTINUOUS
 62
1
 66
1
 70
2
  0
VERTEX
  8
0
 10
1408.839597
 20
1328.682454
 70
0
 42
-0.186677
  0
VERTEX
  8
0
 10
1410.827606
 20
1328.219311
 70
0
  0
SEQEND
  0
POLYLINE
  8
0
  6
CONTINUOUS
 62
1
 66
1
 70
2
  0
VERTEX
  8
0
 10
1415.863725
 20
1328.682454
 70
0
 42
0.066109
  0
VERTEX
  8
0
 10
1414.374201
 20
1328.509466
 70
0
 42
0.408197
  0
VERTEX
  8
0
 10
1413.875716
 20
1328.105597
 70
0
  0
SEQEND
  0
POLYLINE
  8
0
  6
CONTINUOUS
 62
1
 66
1
 70
2
  0
VERTEX
  8
0
 10
1414.535716
 20
1326.545597
 70
0
 42
0.186677
  0
VERTEX
  8
0
 10
1416.523725
 20
1326.082454
 70
0
  0
SEQEND
  0
POLYLINE
  8
0
  6
CONTINUOUS
 62
1
 66
1
 70
2
  0
VERTEX
  8
0
 10
1430.739597
 20
1326.082454
 70
0
 42
0.186677
  0
VERTEX
  8
0
 10
1432.727606
 20
1326.545597
 70
0
  0
SEQEND
  0
POLYLINE
  8
0
  6
CONTINUOUS
 62
1
 66
1
 70
2
  0
VERTEX
  8
0
 10
1433.387606
 20
1328.105597
 70
0
 42
0.408197
  0
VERTEX
  8
0
 10
1432.889121
 20
1328.509466
 70
0
 42
0.066109
  0
VERTEX
  8
0
 10
1431.399597
 20
1328.682454
 70
0
  0
SEQEND
  0
LINE
  8
0
  6
CONTINUOUS
 62
1
 10
1474.539597
 20
1326.082454
 11
1460.323725
 21
1326.082454
  0
LINE
  8
0
  6
CONTINUOUS
 62
1
 10
1438.423725
 20
1328.682454
 11
1452.639597
 21
1328.682454
  0
LINE
  8
0
  6
CONTINUOUS
 62
1
 10
1459.663725
 20
1328.682454
 11
1475.199597
 21
1328.682454
  0
LINE
  8
0
  6
CONTINUOUS
 62
1
 10
1458.335716
 20
1326.545597
 11
1457.675716
 21
1328.105597
  0
LINE
  8
0
  6
CONTINUOUS
 62
1
 10
1476.527606
 20
1326.545597
 11
1477.187606
 21
1328.105597
  0
LINE
  8
0
  6
CONTINUOUS
 62
1
 10
1436.435716
 20
1328.219311
 11
1435.775716
 21
1326.659311
  0
LINE
  8
0
  6
CONTINUOUS
 62
1
 10
1454.627606
 20
1328.219311
 11
1455.287606
 21
1326.659311
  0
LINE
  8
0
  6
CONTINUOUS
 62
1
 10
1453.299597
 20
1326.082454
 11
1437.763725
 21
1326.082454
  0
POLYLINE
  8
0
  6
CONTINUOUS
 62
1
 66
1
 70
2
  0
VERTEX
  8
0
 10
1438.423725
 20
1328.682454
 70
0
 42
0.186677
  0
VERTEX
  8
0
 10
1436.435716
 20
1328.219311
 70
0
  0
SEQEND
  0
POLYLINE
  8
0
  6
CONTINUOUS
 62
1
 66
1
 70
2
  0
VERTEX
  8
0
 10
1435.775716
 20
1326.659311
 70
0
 42
0.408197
  0
VERTEX
  8
0
 10
1436.274201
 20
1326.255442
 70
0
 42
0.066109
  0
VERTEX
  8
0
 10
1437.763725
 20
1326.082454
 70
0
  0
SEQEND
  0
POLYLINE
  8
0
  6
CONTINUOUS
 62
1
 66
1
 70
2
  0
VERTEX
  8
0
 10
1453.299597
 20
1326.082454
 70
0
 42
0.066109
  0
VERTEX
  8
0
 10
1454.789121
 20
1326.255442
 70
0
 42
0.408197
  0
VERTEX
  8
0
 10
1455.287606
 20
1326.659311
 70
0
  0
SEQEND
  0
POLYLINE
  8
0
  6
CONTINUOUS
 62
1
 66
1
 70
2
  0
VERTEX
  8
0
 10
1452.639597
 20
1328.682454
 70
0
 42
-0.186677
  0
VERTEX
  8
0
 10
1454.627606
 20
1328.219311
 70
0
  0
SEQEND
  0
POLYLINE
  8
0
  6
CONTINUOUS
 62
1
 66
1
 70
2
  0
VERTEX
  8
0
 10
1459.663725
 20
1328.682454
 70
0
 42
0.066109
  0
VERTEX
  8
0
 10
1458.174201
 20
1328.509466
 70
0
 42
0.408197
  0
VERTEX
  8
0
 10
1457.675716
 20
1328.105597
 70
0
  0
SEQEND
  0
POLYLINE
  8
0
  6
CONTINUOUS
 62
1
 66
1
 70
2
  0
VERTEX
  8
0
 10
1458.335716
 20
1326.545597
 70
0
 42
0.186677
  0
VERTEX
  8
0
 10
1460.323725
 20
1326.082454
 70
0
  0
SEQEND
  0
POLYLINE
  8
0
  6
CONTINUOUS
 62
1
 66
1
 70
2
  0
VERTEX
  8
0
 10
1474.539597
 20
1326.082454
 70
0
 42
0.186677
  0
VERTEX
  8
0
 10
1476.527606
 20
1326.545597
 70
0
  0
SEQEND
  0
POLYLINE
  8
0
  6
CONTINUOUS
 62
1
 66
1
 70
2
  0
VERTEX
  8
0
 10
1477.187606
 20
1328.105597
 70
0
 42
0.408197
  0
VERTEX
  8
0
 10
1476.689121
 20
1328.509466
 70
0
 42
0.066109
  0
VERTEX
  8
0
 10
1475.199597
 20
1328.682454
 70
0
  0
SEQEND
  0
LINE
  8
0
  6
CONTINUOUS
 62
1
 10
1518.339597
 20
1326.082454
 11
1504.123725
 21
1326.082454
  0
LINE
  8
0
  6
CONTINUOUS
 62
1
 10
1482.223725
 20
1328.682454
 11
1496.439597
 21
1328.682454
  0
LINE
  8
0
  6
CONTINUOUS
 62
1
 10
1503.463725
 20
1328.682454
 11
1518.999597
 21
1328.682454
  0
LINE
  8
0
  6
CONTINUOUS
 62
1
 10
1502.135716
 20
1326.545597
 11
1501.475716
 21
1328.105597
  0
LINE
  8
0
  6
CONTINUOUS
 62
1
 10
1520.327606
 20
1326.545597
 11
1520.987606
 21
1328.105597
  0
LINE
  8
0
  6
CONTINUOUS
 62
1
 10
1480.235716
 20
1328.219311
 11
1479.575716
 21
1326.659311
  0
LINE
  8
0
  6
CONTINUOUS
 62
1
 10
1498.427606
 20
1328.219311
 11
1499.087606
 21
1326.659311
  0
LINE
  8
0
  6
CONTINUOUS
 62
1
 10
1497.099597
 20
1326.082454
 11
1481.563725
 21
1326.082454
  0
POLYLINE
  8
0
  6
CONTINUOUS
 62
1
 66
1
 70
2
  0
VERTEX
  8
0
 10
1482.223725
 20
1328.682454
 70
0
 42
0.186677
  0
VERTEX
  8
0
 10
1480.235716
 20
1328.219311
 70
0
  0
SEQEND
  0
POLYLINE
  8
0
  6
CONTINUOUS
 62
1
 66
1
 70
2
  0
VERTEX
  8
0
 10
1479.575716
 20
1326.659311
 70
0
 42
0.408197
  0
VERTEX
  8
0
 10
1480.074201
 20
1326.255442
 70
0
 42
0.066109
  0
VERTEX
  8
0
 10
1481.563725
 20
1326.082454
 70
0
  0
SEQEND
  0
POLYLINE
  8
0
  6
CONTINUOUS
 62
1
 66
1
 70
2
  0
VERTEX
  8
0
 10
1497.099597
 20
1326.082454
 70
0
 42
0.066109
  0
VERTEX
  8
0
 10
1498.589121
 20
1326.255442
 70
0
 42
0.408197
  0
VERTEX
  8
0
 10
1499.087606
 20
1326.659311
 70
0
  0
SEQEND
  0
POLYLINE
  8
0
  6
CONTINUOUS
 62
1
 66
1
 70
2
  0
VERTEX
  8
0
 10
1496.439597
 20
1328.682454
 70
0
 42
-0.186677
  0
VERTEX
  8
0
 10
1498.427606
 20
1328.219311
 70
0
  0
SEQEND
  0
POLYLINE
  8
0
  6
CONTINUOUS
 62
1
 66
1
 70
2
  0
VERTEX
  8
0
 10
1503.463725
 20
1328.682454
 70
0
 42
0.066109
  0
VERTEX
  8
0
 10
1501.974201
 20
1328.509466
 70
0
 42
0.408197
  0
VERTEX
  8
0
 10
1501.475716
 20
1328.105597
 70
0
  0
SEQEND
  0
POLYLINE
  8
0
  6
CONTINUOUS
 62
1
 66
1
 70
2
  0
VERTEX
  8
0
 10
1502.135716
 20
1326.545597
 70
0
 42
0.186677
  0
VERTEX
  8
0
 10
1504.123725
 20
1326.082454
 70
0
  0
SEQEND
  0
POLYLINE
  8
0
  6
CONTINUOUS
 62
1
 66
1
 70
2
  0
VERTEX
  8
0
 10
1518.339597
 20
1326.082454
 70
0
 42
0.186677
  0
VERTEX
  8
0
 10
1520.327606
 20
1326.545597
 70
0
  0
SEQEND
  0
POLYLINE
  8
0
  6
CONTINUOUS
 62
1
 66
1
 70
2
  0
VERTEX
  8
0
 10
1520.987606
 20
1328.105597
 70
0
 42
0.408197
  0
VERTEX
  8
0
 10
1520.489121
 20
1328.509466
 70
0
 42
0.066109
  0
VERTEX
  8
0
 10
1518.999597
 20
1328.682454
 70
0
  0
SEQEND
  0
LINE
  8
0
  6
CONTINUOUS
 62
1
 10
1526.023725
 20
1328.682454
 11
1540.239597
 21
1328.682454
  0
LINE
  8
0
  6
CONTINUOUS
 62
1
 10
1524.035716
 20
1328.219311
 11
1523.375716
 21
1326.659311
  0
LINE
  8
0
  6
CONTINUOUS
 62
1
 10
1542.227606
 20
1328.219311
 11
1542.887606
 21
1326.659311
  0
LINE
  8
0
  6
CONTINUOUS
 62
1
 10
1540.899597
 20
1326.082454
 11
1525.363725
 21
1326.082454
  0
POLYLINE
  8
0
  6
CONTINUOUS
 62
1
 66
1
 70
2
  0
VERTEX
  8
0
 10
1526.023725
 20
1328.682454
 70
0
 42
0.186677
  0
VERTEX
  8
0
 10
1524.035716
 20
1328.219311
 70
0
  0
SEQEND
  0
POLYLINE
  8
0
  6
CONTINUOUS
 62
1
 66
1
 70
2
  0
VERTEX
  8
0
 10
1523.375716
 20
1326.659311
 70
0
 42
0.408197
  0
VERTEX
  8
0
 10
1523.874201
 20
1326.255442
 70
0
 42
0.066109
  0
VERTEX
  8
0
 10
1525.363725
 20
1326.082454
 70
0
  0
SEQEND
  0
POLYLINE
  8
0
  6
CONTINUOUS
 62
1
 66
1
 70
2
  0
VERTEX
  8
0
 10
1540.899597
 20
1326.082454
 70
0
 42
0.066109
  0
VERTEX
  8
0
 10
1542.389121
 20
1326.255442
 70
0
 42
0.408197
  0
VERTEX
  8
0
 10
1542.887606
 20
1326.659311
 70
0
  0
SEQEND
  0
POLYLINE
  8
0
  6
CONTINUOUS
 62
1
 66
1
 70
2
  0
VERTEX
  8
0
 10
1540.239597
 20
1328.682454
 70
0
 42
-0.186677
  0
VERTEX
  8
0
 10
1542.227606
 20
1328.219311
 70
0
  0
SEQEND
  0
LINE
  8
0
  6
CONTINUOUS
 62
1
 10
1562.139597
 20
1326.082454
 11
1547.923725
 21
1326.082454
  0
LINE
  8
0
  6
CONTINUOUS
 62
1
 10
1547.263725
 20
1328.682454
 11
1562.799597
 21
1328.682454
  0
LINE
  8
0
  6
CONTINUOUS
 62
1
 10
1545.935716
 20
1326.545597
 11
1545.275716
 21
1328.105597
  0
LINE
  8
0
  6
CONTINUOUS
 62
1
 10
1564.127606
 20
1326.545597
 11
1564.787606
 21
1328.105597
  0
POLYLINE
  8
0
  6
CONTINUOUS
 62
1
 66
1
 70
2
  0
VERTEX
  8
0
 10
1547.263725
 20
1328.682454
 70
0
 42
0.066109
  0
VERTEX
  8
0
 10
1545.774201
 20
1328.509466
 70
0
 42
0.408197
  0
VERTEX
  8
0
 10
1545.275716
 20
1328.105597
 70
0
  0
SEQEND
  0
POLYLINE
  8
0
  6
CONTINUOUS
 62
1
 66
1
 70
2
  0
VERTEX
  8
0
 10
1545.935716
 20
1326.545597
 70
0
 42
0.186677
  0
VERTEX
  8
0
 10
1547.923725
 20
1326.082454
 70
0
  0
SEQEND
  0
POLYLINE
  8
0
  6
CONTINUOUS
 62
1
 66
1
 70
2
  0
VERTEX
  8
0
 10
1562.139597
 20
1326.082454
 70
0
 42
0.186677
  0
VERTEX
  8
0
 10
1564.127606
 20
1326.545597
 70
0
  0
SEQEND
  0
POLYLINE
  8
0
  6
CONTINUOUS
 62
1
 66
1
 70
2
  0
VERTEX
  8
0
 10
1564.787606
 20
1328.105597
 70
0
 42
0.408197
  0
VERTEX
  8
0
 10
1564.289121
 20
1328.509466
 70
0
 42
0.066109
  0
VERTEX
  8
0
 10
1562.799597
 20
1328.682454
 70
0
  0
SEQEND
  0
LINE
  8
0
  6
CONTINUOUS
 62
1
 10
1569.823725
 20
1328.682454
 11
1584.039597
 21
1328.682454
  0
LINE
  8
0
  6
CONTINUOUS
 62
1
 10
1567.835716
 20
1328.219311
 11
1567.175716
 21
1326.659311
  0
LINE
  8
0
  6
CONTINUOUS
 62
1
 10
1586.027606
 20
1328.219311
 11
1586.687606
 21
1326.659311
  0
LINE
  8
0
  6
CONTINUOUS
 62
1
 10
1584.699597
 20
1326.082454
 11
1569.163725
 21
1326.082454
  0
POLYLINE
  8
0
  6
CONTINUOUS
 62
1
 66
1
 70
2
  0
VERTEX
  8
0
 10
1569.823725
 20
1328.682454
 70
0
 42
0.186677
  0
VERTEX
  8
0
 10
1567.835716
 20
1328.219311
 70
0
  0
SEQEND
  0
POLYLINE
  8
0
  6
CONTINUOUS
 62
1
 66
1
 70
2
  0
VERTEX
  8
0
 10
1567.175716
 20
1326.659311
 70
0
 42
0.408197
  0
VERTEX
  8
0
 10
1567.674201
 20
1326.255442
 70
0
 42
0.066109
  0
VERTEX
  8
0
 10
1569.163725
 20
1326.082454
 70
0
  0
SEQEND
  0
POLYLINE
  8
0
  6
CONTINUOUS
 62
1
 66
1
 70
2
  0
VERTEX
  8
0
 10
1584.699597
 20
1326.082454
 70
0
 42
0.066109
  0
VERTEX
  8
0
 10
1586.189121
 20
1326.255442
 70
0
 42
0.408197
  0
VERTEX
  8
0
 10
1586.687606
 20
1326.659311
 70
0
  0
SEQEND
  0
POLYLINE
  8
0
  6
CONTINUOUS
 62
1
 66
1
 70
2
  0
VERTEX
  8
0
 10
1584.039597
 20
1328.682454
 70
0
 42
-0.186677
  0
VERTEX
  8
0
 10
1586.027606
 20
1328.219311
 70
0
  0
SEQEND
  0
LINE
  8
0
  6
CONTINUOUS
 62
1
 10
934.063725
 20
1328.682454
 11
949.599597
 21
1328.682454
  0
LINE
  8
0
  6
CONTINUOUS
 62
1
 10
956.623725
 20
1328.682454
 11
970.839597
 21
1328.682454
  0
LINE
  8
0
  6
CONTINUOUS
 62
1
 10
932.735716
 20
1326.545597
 11
932.075716
 21
1328.105597
  0
LINE
  8
0
  6
CONTINUOUS
 62
1
 10
950.927606
 20
1326.545597
 11
951.587606
 21
1328.105597
  0
LINE
  8
0
  6
CONTINUOUS
 62
1
 10
954.635716
 20
1328.219311
 11
953.975716
 21
1326.659311
  0
LINE
  8
0
  6
CONTINUOUS
 62
1
 10
972.827606
 20
1328.219311
 11
973.487606
 21
1326.659311
  0
LINE
  8
0
  6
CONTINUOUS
 62
1
 10
948.939597
 20
1326.082454
 11
934.723725
 21
1326.082454
  0
LINE
  8
0
  6
CONTINUOUS
 62
1
 10
971.499597
 20
1326.082454
 11
955.963725
 21
1326.082454
  0
POLYLINE
  8
0
  6
CONTINUOUS
 62
1
 66
1
 70
2
  0
VERTEX
  8
0
 10
934.063725
 20
1328.682454
 70
0
 42
0.066109
  0
VERTEX
  8
0
 10
932.574201
 20
1328.509466
 70
0
 42
0.408197
  0
VERTEX
  8
0
 10
932.075716
 20
1328.105597
 70
0
  0
SEQEND
  0
POLYLINE
  8
0
  6
CONTINUOUS
 62
1
 66
1
 70
2
  0
VERTEX
  8
0
 10
932.735716
 20
1326.545597
 70
0
 42
0.186677
  0
VERTEX
  8
0
 10
934.723725
 20
1326.082454
 70
0
  0
SEQEND
  0
POLYLINE
  8
0
  6
CONTINUOUS
 62
1
 66
1
 70
2
  0
VERTEX
  8
0
 10
948.939597
 20
1326.082454
 70
0
 42
0.186677
  0
VERTEX
  8
0
 10
950.927606
 20
1326.545597
 70
0
  0
SEQEND
  0
POLYLINE
  8
0
  6
CONTINUOUS
 62
1
 66
1
 70
2
  0
VERTEX
  8
0
 10
951.587606
 20
1328.105597
 70
0
 42
0.408197
  0
VERTEX
  8
0
 10
951.089121
 20
1328.509466
 70
0
 42
0.066109
  0
VERTEX
  8
0
 10
949.599597
 20
1328.682454
 70
0
  0
SEQEND
  0
POLYLINE
  8
0
  6
CONTINUOUS
 62
1
 66
1
 70
2
  0
VERTEX
  8
0
 10
954.635716
 20
1328.219311
 70
0
 42
-0.186677
  0
VERTEX
  8
0
 10
956.623725
 20
1328.682454
 70
0
  0
SEQEND
  0
POLYLINE
  8
0
  6
CONTINUOUS
 62
1
 66
1
 70
2
  0
VERTEX
  8
0
 10
970.839597
 20
1328.682454
 70
0
 42
-0.186677
  0
VERTEX
  8
0
 10
972.827606
 20
1328.219311
 70
0
  0
SEQEND
  0
POLYLINE
  8
0
  6
CONTINUOUS
 62
1
 66
1
 70
2
  0
VERTEX
  8
0
 10
973.487606
 20
1326.659311
 70
0
 42
-0.408197
  0
VERTEX
  8
0
 10
972.989121
 20
1326.255442
 70
0
 42
-0.066109
  0
VERTEX
  8
0
 10
971.499597
 20
1326.082454
 70
0
  0
SEQEND
  0
POLYLINE
  8
0
  6
CONTINUOUS
 62
1
 66
1
 70
2
  0
VERTEX
  8
0
 10
955.963725
 20
1326.082454
 70
0
 42
-0.066109
  0
VERTEX
  8
0
 10
954.474201
 20
1326.255442
 70
0
 42
-0.408197
  0
VERTEX
  8
0
 10
953.975716
 20
1326.659311
 70
0
  0
SEQEND
  0
LINE
  8
0
  6
CONTINUOUS
 62
1
 10
1211.739597
 20
1332.842454
 11
1197.523725
 21
1332.842454
  0
LINE
  8
0
  6
CONTINUOUS
 62
1
 10
1175.623725
 20
1335.442454
 11
1189.839597
 21
1335.442454
  0
LINE
  8
0
  6
CONTINUOUS
 62
1
 10
1196.863725
 20
1335.442454
 11
1212.399597
 21
1335.442454
  0
LINE
  8
0
  6
CONTINUOUS
 62
1
 10
1195.535716
 20
1333.305597
 11
1194.875716
 21
1334.865597
  0
LINE
  8
0
  6
CONTINUOUS
 62
1
 10
1213.727606
 20
1333.305597
 11
1214.387606
 21
1334.865597
  0
LINE
  8
0
  6
CONTINUOUS
 62
1
 10
1173.635716
 20
1334.979311
 11
1172.975716
 21
1333.419311
  0
LINE
  8
0
  6
CONTINUOUS
 62
1
 10
1191.827606
 20
1334.979311
 11
1192.487606
 21
1333.419311
  0
LINE
  8
0
  6
CONTINUOUS
 62
1
 10
1190.499597
 20
1332.842454
 11
1174.963725
 21
1332.842454
  0
POLYLINE
  8
0
  6
CONTINUOUS
 62
1
 66
1
 70
2
  0
VERTEX
  8
0
 10
1175.623725
 20
1335.442454
 70
0
 42
0.186677
  0
VERTEX
  8
0
 10
1173.635716
 20
1334.979311
 70
0
  0
SEQEND
  0
POLYLINE
  8
0
  6
CONTINUOUS
 62
1
 66
1
 70
2
  0
VERTEX
  8
0
 10
1172.975716
 20
1333.419311
 70
0
 42
0.408197
  0
VERTEX
  8
0
 10
1173.474201
 20
1333.015442
 70
0
 42
0.066109
  0
VERTEX
  8
0
 10
1174.963725
 20
1332.842454
 70
0
  0
SEQEND
  0
POLYLINE
  8
0
  6
CONTINUOUS
 62
1
 66
1
 70
2
  0
VERTEX
  8
0
 10
1190.499597
 20
1332.842454
 70
0
 42
0.066109
  0
VERTEX
  8
0
 10
1191.989121
 20
1333.015442
 70
0
 42
0.408197
  0
VERTEX
  8
0
 10
1192.487606
 20
1333.419311
 70
0
  0
SEQEND
  0
POLYLINE
  8
0
  6
CONTINUOUS
 62
1
 66
1
 70
2
  0
VERTEX
  8
0
 10
1189.839597
 20
1335.442454
 70
0
 42
-0.186677
  0
VERTEX
  8
0
 10
1191.827606
 20
1334.979311
 70
0
  0
SEQEND
  0
POLYLINE
  8
0
  6
CONTINUOUS
 62
1
 66
1
 70
2
  0
VERTEX
  8
0
 10
1196.863725
 20
1335.442454
 70
0
 42
0.066109
  0
VERTEX
  8
0
 10
1195.374201
 20
1335.269466
 70
0
 42
0.408197
  0
VERTEX
  8
0
 10
1194.875716
 20
1334.865597
 70
0
  0
SEQEND
  0
POLYLINE
  8
0
  6
CONTINUOUS
 62
1
 66
1
 70
2
  0
VERTEX
  8
0
 10
1195.535716
 20
1333.305597
 70
0
 42
0.186677
  0
VERTEX
  8
0
 10
1197.523725
 20
1332.842454
 70
0
  0
SEQEND
  0
POLYLINE
  8
0
  6
CONTINUOUS
 62
1
 66
1
 70
2
  0
VERTEX
  8
0
 10
1211.739597
 20
1332.842454
 70
0
 42
0.186677
  0
VERTEX
  8
0
 10
1213.727606
 20
1333.305597
 70
0
  0
SEQEND
  0
POLYLINE
  8
0
  6
CONTINUOUS
 62
1
 66
1
 70
2
  0
VERTEX
  8
0
 10
1214.387606
 20
1334.865597
 70
0
 42
0.408197
  0
VERTEX
  8
0
 10
1213.889121
 20
1335.269466
 70
0
 42
0.066109
  0
VERTEX
  8
0
 10
1212.399597
 20
1335.442454
 70
0
  0
SEQEND
  0
LINE
  8
0
  6
CONTINUOUS
 62
1
 10
1200.789597
 20
1332.062454
 11
1186.573725
 21
1332.062454
  0
LINE
  8
0
  6
CONTINUOUS
 62
1
 10
1164.673725
 20
1329.462454
 11
1178.889597
 21
1329.462454
  0
LINE
  8
0
  6
CONTINUOUS
 62
1
 10
1185.913725
 20
1329.462454
 11
1201.449597
 21
1329.462454
  0
LINE
  8
0
  6
CONTINUOUS
 62
1
 10
1184.585716
 20
1331.599311
 11
1183.925716
 21
1330.039311
  0
LINE
  8
0
  6
CONTINUOUS
 62
1
 10
1202.777606
 20
1331.599311
 11
1203.437606
 21
1330.039311
  0
LINE
  8
0
  6
CONTINUOUS
 62
1
 10
1162.685716
 20
1329.925597
 11
1162.025716
 21
1331.485597
  0
LINE
  8
0
  6
CONTINUOUS
 62
1
 10
1180.877606
 20
1329.925597
 11
1181.537606
 21
1331.485597
  0
LINE
  8
0
  6
CONTINUOUS
 62
1
 10
1179.549597
 20
1332.062454
 11
1164.013725
 21
1332.062454
  0
POLYLINE
  8
0
  6
CONTINUOUS
 62
1
 66
1
 70
2
  0
VERTEX
  8
0
 10
1164.673725
 20
1329.462454
 70
0
 42
-0.186677
  0
VERTEX
  8
0
 10
1162.685716
 20
1329.925597
 70
0
  0
SEQEND
  0
POLYLINE
  8
0
  6
CONTINUOUS
 62
1
 66
1
 70
2
  0
VERTEX
  8
0
 10
1162.025716
 20
1331.485597
 70
0
 42
-0.408197
  0
VERTEX
  8
0
 10
1162.524201
 20
1331.889466
 70
0
 42
-0.066109
  0
VERTEX
  8
0
 10
1164.013725
 20
1332.062454
 70
0
  0
SEQEND
  0
POLYLINE
  8
0
  6
CONTINUOUS
 62
1
 66
1
 70
2
  0
VERTEX
  8
0
 10
1179.549597
 20
1332.062454
 70
0
 42
-0.066109
  0
VERTEX
  8
0
 10
1181.039121
 20
1331.889466
 70
0
 42
-0.408197
  0
VERTEX
  8
0
 10
1181.537606
 20
1331.485597
 70
0
  0
SEQEND
  0
POLYLINE
  8
0
  6
CONTINUOUS
 62
1
 66
1
 70
2
  0
VERTEX
  8
0
 10
1178.889597
 20
1329.462454
 70
0
 42
0.186677
  0
VERTEX
  8
0
 10
1180.877606
 20
1329.925597
 70
0
  0
SEQEND
  0
POLYLINE
  8
0
  6
CONTINUOUS
 62
1
 66
1
 70
2
  0
VERTEX
  8
0
 10
1185.913725
 20
1329.462454
 70
0
 42
-0.066109
  0
VERTEX
  8
0
 10
1184.424201
 20
1329.635442
 70
0
 42
-0.408197
  0
VERTEX
  8
0
 10
1183.925716
 20
1330.039311
 70
0
  0
SEQEND
  0
POLYLINE
  8
0
  6
CONTINUOUS
 62
1
 66
1
 70
2
  0
VERTEX
  8
0
 10
1184.585716
 20
1331.599311
 70
0
 42
-0.186677
  0
VERTEX
  8
0
 10
1186.573725
 20
1332.062454
 70
0
  0
SEQEND
  0
POLYLINE
  8
0
  6
CONTINUOUS
 62
1
 66
1
 70
2
  0
VERTEX
  8
0
 10
1200.789597
 20
1332.062454
 70
0
 42
-0.186677
  0
VERTEX
  8
0
 10
1202.777606
 20
1331.599311
 70
0
  0
SEQEND
  0
POLYLINE
  8
0
  6
CONTINUOUS
 62
1
 66
1
 70
2
  0
VERTEX
  8
0
 10
1203.437606
 20
1330.039311
 70
0
 42
-0.408197
  0
VERTEX
  8
0
 10
1202.939121
 20
1329.635442
 70
0
 42
-0.066109
  0
VERTEX
  8
0
 10
1201.449597
 20
1329.462454
 70
0
  0
SEQEND
  0
LINE
  8
0
  6
CONTINUOUS
 62
1
 10
1255.539597
 20
1332.842454
 11
1241.323725
 21
1332.842454
  0
LINE
  8
0
  6
CONTINUOUS
 62
1
 10
1219.423725
 20
1335.442454
 11
1233.639597
 21
1335.442454
  0
LINE
  8
0
  6
CONTINUOUS
 62
1
 10
1240.663725
 20
1335.442454
 11
1256.199597
 21
1335.442454
  0
LINE
  8
0
  6
CONTINUOUS
 62
1
 10
1239.335716
 20
1333.305597
 11
1238.675716
 21
1334.865597
  0
LINE
  8
0
  6
CONTINUOUS
 62
1
 10
1257.527606
 20
1333.305597
 11
1258.187606
 21
1334.865597
  0
LINE
  8
0
  6
CONTINUOUS
 62
1
 10
1217.435716
 20
1334.979311
 11
1216.775716
 21
1333.419311
  0
LINE
  8
0
  6
CONTINUOUS
 62
1
 10
1235.627606
 20
1334.979311
 11
1236.287606
 21
1333.419311
  0
LINE
  8
0
  6
CONTINUOUS
 62
1
 10
1234.299597
 20
1332.842454
 11
1218.763725
 21
1332.842454
  0
POLYLINE
  8
0
  6
CONTINUOUS
 62
1
 66
1
 70
2
  0
VERTEX
  8
0
 10
1219.423725
 20
1335.442454
 70
0
 42
0.186677
  0
VERTEX
  8
0
 10
1217.435716
 20
1334.979311
 70
0
  0
SEQEND
  0
POLYLINE
  8
0
  6
CONTINUOUS
 62
1
 66
1
 70
2
  0
VERTEX
  8
0
 10
1216.775716
 20
1333.419311
 70
0
 42
0.408197
  0
VERTEX
  8
0
 10
1217.274201
 20
1333.015442
 70
0
 42
0.066109
  0
VERTEX
  8
0
 10
1218.763725
 20
1332.842454
 70
0
  0
SEQEND
  0
POLYLINE
  8
0
  6
CONTINUOUS
 62
1
 66
1
 70
2
  0
VERTEX
  8
0
 10
1234.299597
 20
1332.842454
 70
0
 42
0.066109
  0
VERTEX
  8
0
 10
1235.789121
 20
1333.015442
 70
0
 42
0.408197
  0
VERTEX
  8
0
 10
1236.287606
 20
1333.419311
 70
0
  0
SEQEND
  0
POLYLINE
  8
0
  6
CONTINUOUS
 62
1
 66
1
 70
2
  0
VERTEX
  8
0
 10
1233.639597
 20
1335.442454
 70
0
 42
-0.186677
  0
VERTEX
  8
0
 10
1235.627606
 20
1334.979311
 70
0
  0
SEQEND
  0
POLYLINE
  8
0
  6
CONTINUOUS
 62
1
 66
1
 70
2
  0
VERTEX
  8
0
 10
1240.663725
 20
1335.442454
 70
0
 42
0.066109
  0
VERTEX
  8
0
 10
1239.174201
 20
1335.269466
 70
0
 42
0.408197
  0
VERTEX
  8
0
 10
1238.675716
 20
1334.865597
 70
0
  0
SEQEND
  0
POLYLINE
  8
0
  6
CONTINUOUS
 62
1
 66
1
 70
2
  0
VERTEX
  8
0
 10
1239.335716
 20
1333.305597
 70
0
 42
0.186677
  0
VERTEX
  8
0
 10
1241.323725
 20
1332.842454
 70
0
  0
SEQEND
  0
POLYLINE
  8
0
  6
CONTINUOUS
 62
1
 66
1
 70
2
  0
VERTEX
  8
0
 10
1255.539597
 20
1332.842454
 70
0
 42
0.186677
  0
VERTEX
  8
0
 10
1257.527606
 20
1333.305597
 70
0
  0
SEQEND
  0
POLYLINE
  8
0
  6
CONTINUOUS
 62
1
 66
1
 70
2
  0
VERTEX
  8
0
 10
1258.187606
 20
1334.865597
 70
0
 42
0.408197
  0
VERTEX
  8
0
 10
1257.689121
 20
1335.269466
 70
0
 42
0.066109
  0
VERTEX
  8
0
 10
1256.199597
 20
1335.442454
 70
0
  0
SEQEND
  0
LINE
  8
0
  6
CONTINUOUS
 62
1
 10
1244.589597
 20
1332.062454
 11
1230.373725
 21
1332.062454
  0
LINE
  8
0
  6
CONTINUOUS
 62
1
 10
1208.473725
 20
1329.462454
 11
1222.689597
 21
1329.462454
  0
LINE
  8
0
  6
CONTINUOUS
 62
1
 10
1229.713725
 20
1329.462454
 11
1245.249597
 21
1329.462454
  0
LINE
  8
0
  6
CONTINUOUS
 62
1
 10
1228.385716
 20
1331.599311
 11
1227.725716
 21
1330.039311
  0
LINE
  8
0
  6
CONTINUOUS
 62
1
 10
1246.577606
 20
1331.599311
 11
1247.237606
 21
1330.039311
  0
LINE
  8
0
  6
CONTINUOUS
 62
1
 10
1206.485716
 20
1329.925597
 11
1205.825716
 21
1331.485597
  0
LINE
  8
0
  6
CONTINUOUS
 62
1
 10
1224.677606
 20
1329.925597
 11
1225.337606
 21
1331.485597
  0
LINE
  8
0
  6
CONTINUOUS
 62
1
 10
1223.349597
 20
1332.062454
 11
1207.813725
 21
1332.062454
  0
POLYLINE
  8
0
  6
CONTINUOUS
 62
1
 66
1
 70
2
  0
VERTEX
  8
0
 10
1208.473725
 20
1329.462454
 70
0
 42
-0.186677
  0
VERTEX
  8
0
 10
1206.485716
 20
1329.925597
 70
0
  0
SEQEND
  0
POLYLINE
  8
0
  6
CONTINUOUS
 62
1
 66
1
 70
2
  0
VERTEX
  8
0
 10
1205.825716
 20
1331.485597
 70
0
 42
-0.408197
  0
VERTEX
  8
0
 10
1206.324201
 20
1331.889466
 70
0
 42
-0.066109
  0
VERTEX
  8
0
 10
1207.813725
 20
1332.062454
 70
0
  0
SEQEND
  0
POLYLINE
  8
0
  6
CONTINUOUS
 62
1
 66
1
 70
2
  0
VERTEX
  8
0
 10
1223.349597
 20
1332.062454
 70
0
 42
-0.066109
  0
VERTEX
  8
0
 10
1224.839121
 20
1331.889466
 70
0
 42
-0.408197
  0
VERTEX
  8
0
 10
1225.337606
 20
1331.485597
 70
0
  0
SEQEND
  0
POLYLINE
  8
0
  6
CONTINUOUS
 62
1
 66
1
 70
2
  0
VERTEX
  8
0
 10
1222.689597
 20
1329.462454
 70
0
 42
0.186677
  0
VERTEX
  8
0
 10
1224.677606
 20
1329.925597
 70
0
  0
SEQEND
  0
POLYLINE
  8
0
  6
CONTINUOUS
 62
1
 66
1
 70
2
  0
VERTEX
  8
0
 10
1229.713725
 20
1329.462454
 70
0
 42
-0.066109
  0
VERTEX
  8
0
 10
1228.224201
 20
1329.635442
 70
0
 42
-0.408197
  0
VERTEX
  8
0
 10
1227.725716
 20
1330.039311
 70
0
  0
SEQEND
  0
POLYLINE
  8
0
  6
CONTINUOUS
 62
1
 66
1
 70
2
  0
VERTEX
  8
0
 10
1228.385716
 20
1331.599311
 70
0
 42
-0.186677
  0
VERTEX
  8
0
 10
1230.373725
 20
1332.062454
 70
0
  0
SEQEND
  0
POLYLINE
  8
0
  6
CONTINUOUS
 62
1
 66
1
 70
2
  0
VERTEX
  8
0
 10
1244.589597
 20
1332.062454
 70
0
 42
-0.186677
  0
VERTEX
  8
0
 10
1246.577606
 20
1331.599311
 70
0
  0
SEQEND
  0
POLYLINE
  8
0
  6
CONTINUOUS
 62
1
 66
1
 70
2
  0
VERTEX
  8
0
 10
1247.237606
 20
1330.039311
 70
0
 42
-0.408197
  0
VERTEX
  8
0
 10
1246.739121
 20
1329.635442
 70
0
 42
-0.066109
  0
VERTEX
  8
0
 10
1245.249597
 20
1329.462454
 70
0
  0
SEQEND
  0
LINE
  8
0
  6
CONTINUOUS
 62
4
 10
961.681661
 20
1329.462454
 11
961.732496
 21
1329.582610
  0
LINE
  8
0
  6
CONTINUOUS
 62
4
 10
961.101042
 20
1329.462454
 11
961.681661
 21
1329.462454
  0
LINE
  8
0
  6
CONTINUOUS
 62
4
 10
964.681661
 20
1329.462454
 11
965.468915
 21
1329.462454
  0
LINE
  8
0
  6
CONTINUOUS
 62
4
 10
964.763164
 20
1329.655098
 11
964.681661
 21
1329.462454
  0
LINE
  8
0
  6
CONTINUOUS
 62
4
 10
943.881661
 20
1329.462454
 11
943.830826
 21
1329.582610
  0
LINE
  8
0
  6
CONTINUOUS
 62
4
 10
944.462280
 20
1329.462454
 11
943.881661
 21
1329.462454
  0
LINE
  8
0
  6
CONTINUOUS
 62
1
 10
1085.576980
 20
1283.118318
 11
788.465127
 21
1283.118318
  0
LINE
  8
0
  6
CONTINUOUS
 62
1
 10
1385.576980
 20
1283.118318
 11
1091.352816
 21
1283.118318
  0
LINE
  8
0
  6
CONTINUOUS
 62
1
 10
922.789644
 20
1165.418318
 11
1110.641208
 21
1165.418318
  0
LINE
  8
0
  6
CONTINUOUS
 62
1
 10
922.789644
 20
1135.418318
 11
1110.641208
 21
1135.418318
  0
ARC
  8
0
  6
CONTINUOUS
 62
1
 10
961.215709
 20
1150.418318
 40
46.250000
 50
168.239471
 51
191.760529
  0
ARC
  8
0
  6
CONTINUOUS
 62
1
 10
922.789644
 20
1158.418318
 40
7.000000
 50
90.000000
 51
168.239471
  0
ARC
  8
0
  6
CONTINUOUS
 62
1
 10
922.789644
 20
1142.418318
 40
7.000000
 50
191.760529
 51
270.000000
  0
ARC
  8
0
  6
CONTINUOUS
 62
1
 10
1072.215142
 20
1150.418318
 40
46.250000
 50
348.239471
 51
11.760529
  0
ARC
  8
0
  6
CONTINUOUS
 62
1
 10
1110.641208
 20
1142.418318
 40
7.000000
 50
270.000000
 51
348.239471
  0
ARC
  8
0
  6
CONTINUOUS
 62
1
 10
1110.641208
 20
1158.418318
 40
7.000000
 50
11.760529
 51
90.000000
  0
LINE
  8
0
  6
CONTINUOUS
 62
1
 10
1454.140641
 20
1165.418318
 11
1266.289077
 21
1165.418318
  0
LINE
  8
0
  6
CONTINUOUS
 62
1
 10
1454.140641
 20
1135.418318
 11
1266.289077
 21
1135.418318
  0
ARC
  8
0
  6
CONTINUOUS
 62
1
 10
1415.714575
 20
1150.418318
 40
46.250000
 50
348.239471
 51
11.760529
  0
ARC
  8
0
  6
CONTINUOUS
 62
1
 10
1454.140641
 20
1158.418318
 40
7.000000
 50
11.760529
 51
90.000000
  0
ARC
  8
0
  6
CONTINUOUS
 62
1
 10
1454.140641
 20
1142.418318
 40
7.000000
 50
270.000000
 51
348.239471
  0
ARC
  8
0
  6
CONTINUOUS
 62
1
 10
1304.715142
 20
1150.418318
 40
46.250000
 50
168.239471
 51
191.760529
  0
ARC
  8
0
  6
CONTINUOUS
 62
1
 10
1266.289077
 20
1142.418318
 40
7.000000
 50
191.760529
 51
270.000000
  0
ARC
  8
0
  6
CONTINUOUS
 62
1
 10
1266.289077
 20
1158.418318
 40
7.000000
 50
90.000000
 51
168.239471
  0
LINE
  8
0
  6
CONTINUOUS
 62
1
 10
1271.598413
 20
1299.400823
 11
1241.178814
 21
1299.400823
  0
LINE
  8
0
  6
CONTINUOUS
 62
1
 10
1273.339728
 20
1300.976691
 11
1274.239728
 21
1309.976691
  0
ARC
  8
0
  6
CONTINUOUS
 62
1
 10
1206.365870
 20
1310.150823
 40
1.750000
 50
90.000000
 51
185.710593
  0
ARC
  8
0
  6
CONTINUOUS
 62
1
 10
1207.265870
 20
1301.150823
 40
1.750000
 50
185.710593
 51
270.000000
  0
ARC
  8
0
  6
CONTINUOUS
 62
1
 10
1272.498413
 20
1310.150823
 40
1.750000
 50
354.289407
 51
90.000000
  0
ARC
  8
0
  6
CONTINUOUS
 62
1
 10
1271.598413
 20
1301.150823
 40
1.750000
 50
270.000000
 51
354.289407
  0
LINE
  8
0
  6
CONTINUOUS
 62
1
 10
1272.498413
 20
1310.900823
 11
1206.365870
 21
1310.900823
  0
LINE
  8
0
  6
CONTINUOUS
 62
1
 10
1206.519592
 20
1301.076195
 11
1205.619592
 21
1310.076195
  0
ARC
  8
0
  6
CONTINUOUS
 62
1
 10
1207.265870
 20
1301.150823
 40
0.750000
 50
185.710593
 51
270.000000
  0
ARC
  8
0
  6
CONTINUOUS
 62
1
 10
1206.365870
 20
1310.150823
 40
0.750000
 50
90.000000
 51
185.710593
  0
LINE
  8
0
  6
CONTINUOUS
 62
1
 10
1207.265870
 20
1300.400823
 11
1240.995742
 21
1300.400823
  0
ARC
  8
0
  6
CONTINUOUS
 62
1
 10
1271.598413
 20
1301.150823
 40
0.750000
 50
270.000000
 51
354.289407
  0
LINE
  8
0
  6
CONTINUOUS
 62
1
 10
1273.244691
 20
1310.076195
 11
1272.344691
 21
1301.076195
  0
ARC
  8
0
  6
CONTINUOUS
 62
1
 10
1272.498413
 20
1310.150823
 40
0.750000
 50
354.289407
 51
90.000000
  0
LINE
  8
0
  6
CONTINUOUS
 62
1
 10
1206.365870
 20
1311.900823
 11
1272.498413
 21
1311.900823
  0
LINE
  8
0
  6
CONTINUOUS
 62
1
 10
1204.624555
 20
1309.976691
 11
1205.524555
 21
1300.976691
  0
LINE
  8
0
  6
CONTINUOUS
 62
1
 10
1208.445315
 20
1305.917073
 11
1208.445315
 21
1308.313323
  0
LINE
  8
0
  6
CONTINUOUS
 62
1
 10
1208.445315
 20
1308.313323
 11
1210.708440
 21
1308.313323
  0
LINE
  8
0
  6
CONTINUOUS
 62
1
 10
1210.708440
 20
1308.313323
 11
1212.638753
 21
1308.313323
  0
ARC
  8
0
  6
CONTINUOUS
 62
1
 10
1212.770452
 20
1304.877514
 40
3.438332
 50
67.195153
 51
92.195154
  0
ARC
  8
0
  6
CONTINUOUS
 62
1
 10
1213.365078
 20
1306.790677
 40
1.457137
 50
15.568594
 51
59.568592
  0
ARC
  8
0
  6
CONTINUOUS
 62
1
 10
1209.746726
 20
1305.748221
 40
5.222623
 50
358.931407
 51
15.931408
  0
ARC
  8
0
  6
CONTINUOUS
 62
1
 10
1209.746726
 20
1305.553424
 40
5.222623
 50
344.068591
 51
1.068592
  0
ARC
  8
0
  6
CONTINUOUS
 62
1
 10
1213.346971
 20
1304.530296
 40
1.479831
 50
294.898706
 51
343.898705
  0
ARC
  8
0
  6
CONTINUOUS
 62
1
 10
1212.693796
 20
1307.113909
 40
4.128121
 50
272.007979
 51
288.007980
  0
LINE
  8
0
  6
CONTINUOUS
 62
1
 10
1212.838440
 20
1302.988323
 11
1210.508753
 21
1302.988323
  0
LINE
  8
0
  6
CONTINUOUS
 62
1
 10
1210.508753
 20
1302.988323
 11
1208.445315
 21
1302.988323
  0
LINE
  8
0
  6
CONTINUOUS
 62
1
 10
1208.445315
 20
1302.988323
 11
1208.445315
 21
1305.917073
  0
ARC
  8
0
  6
CONTINUOUS
 62
1
 10
1218.897932
 20
1304.785971
 40
2.931820
 50
181.309932
 51
201.309932
  0
ARC
  8
0
  6
CONTINUOUS
 62
1
 10
1227.716207
 20
1305.633704
 40
11.784885
 50
172.451842
 51
184.451842
  0
ARC
  8
0
  6
CONTINUOUS
 62
1
 10
1217.187053
 20
1307.077589
 40
1.158306
 50
107.840192
 51
174.840192
  0
ARC
  8
0
  6
CONTINUOUS
 62
1
 10
1217.815777
 20
1304.741491
 40
3.576611
 50
92.962322
 51
105.962322
  0
ARC
  8
0
  6
CONTINUOUS
 62
1
 10
1219.394847
 20
1267.913227
 40
40.438584
 50
87.500000
 51
92.500000
  0
ARC
  8
0
  6
CONTINUOUS
 62
1
 10
1220.766458
 20
1305.432721
 40
2.907192
 50
67.244882
 51
82.244881
  0
ARC
  8
0
  6
CONTINUOUS
 62
1
 10
1221.372042
 20
1307.189502
 40
1.059848
 50
21.685924
 51
60.685925
  0
ARC
  8
0
  6
CONTINUOUS
 62
1
 10
1219.814259
 20
1306.548956
 40
2.744140
 50
2.094757
 51
22.094757
  0
ARC
  8
0
  6
CONTINUOUS
 62
1
 10
1210.807236
 20
1305.734504
 40
11.784885
 50
352.451842
 51
4.451842
  0
ARC
  8
0
  6
CONTINUOUS
 62
1
 10
1220.883497
 20
1304.387114
 40
1.618990
 50
321.880135
 51
352.880135
  0
ARC
  8
0
  6
CONTINUOUS
 62
1
 10
1221.229318
 20
1304.457203
 40
1.415905
 50
277.943953
 51
310.943955
  0
ARC
  8
0
  6
CONTINUOUS
 62
1
 10
1219.704372
 20
1313.327051
 40
10.415276
 50
272.509006
 51
279.509006
  0
LINE
  8
0
  6
CONTINUOUS
 62
1
 10
1220.160315
 20
1302.921760
 11
1217.764065
 21
1302.921760
  0
ARC
  8
0
  6
CONTINUOUS
 62
1
 10
1217.895235
 20
1306.173547
 40
3.254431
 50
249.690068
 51
267.690068
  0
ARC
  8
0
  6
CONTINUOUS
 62
1
 10
1217.207462
 20
1304.162345
 40
1.130789
 50
203.000001
 51
247.000000
  0
LINE
  8
0
  6
CONTINUOUS
 62
1
 10
1225.170315
 20
1302.988323
 11
1223.688128
 21
1302.988323
  0
LINE
  8
0
  6
CONTINUOUS
 62
1
 10
1223.688128
 20
1302.988323
 11
1223.688128
 21
1305.717385
  0
LINE
  8
0
  6
CONTINUOUS
 62
1
 10
1223.688128
 20
1305.717385
 11
1223.688128
 21
1308.313323
  0
LINE
  8
0
  6
CONTINUOUS
 62
1
 10
1223.688128
 20
1308.313323
 11
1225.766373
 21
1308.313323
  0
LINE
  8
0
  6
CONTINUOUS
 62
1
 10
1229.989714
 20
1308.313323
 11
1232.008440
 21
1308.313323
  0
LINE
  8
0
  6
CONTINUOUS
 62
1
 10
1232.008440
 20
1308.313323
 11
1232.008440
 21
1305.584260
  0
LINE
  8
0
  6
CONTINUOUS
 62
1
 10
1232.008440
 20
1305.584260
 11
1232.008440
 21
1302.988323
  0
LINE
  8
0
  6
CONTINUOUS
 62
1
 10
1232.008440
 20
1302.988323
 11
1230.526253
 21
1302.988323
  0
LINE
  8
0
  6
CONTINUOUS
 62
1
 10
1230.526253
 20
1306.555979
 11
1228.147815
 21
1302.988323
  0
LINE
  8
0
  6
CONTINUOUS
 62
1
 10
1228.147815
 20
1302.988323
 11
1227.615315
 21
1302.988323
  0
LINE
  8
0
  6
CONTINUOUS
 62
1
 10
1227.615315
 20
1302.988323
 11
1226.150940
 21
1305.118323
  0
LINE
  8
0
  6
CONTINUOUS
 62
1
 10
1226.150940
 20
1305.118323
 11
1225.170315
 21
1306.551544
  0
LINE
  8
0
  6
CONTINUOUS
 62
1
 10
1232.964690
 20
1308.313323
 11
1234.380315
 21
1308.313323
  0
LINE
  8
0
  6
CONTINUOUS
 62
1
 10
1234.380315
 20
1302.988323
 11
1232.964690
 21
1302.988323
  0
LINE
  8
0
  6
CONTINUOUS
 62
1
 10
1235.270003
 20
1306.116760
 11
1235.270003
 21
1308.313323
  0
LINE
  8
0
  6
CONTINUOUS
 62
1
 10
1235.270003
 20
1308.313323
 11
1237.329100
 21
1308.313323
  0
LINE
  8
0
  6
CONTINUOUS
 62
1
 10
1240.177815
 20
1308.313323
 11
1241.593440
 21
1308.313323
  0
LINE
  8
0
  6
CONTINUOUS
 62
1
 10
1241.593440
 20
1308.313323
 11
1241.593440
 21
1305.783948
  0
LINE
  8
0
  6
CONTINUOUS
 62
1
 10
1241.593440
 20
1305.783948
 11
1241.593440
 21
1302.988323
  0
LINE
  8
0
  6
CONTINUOUS
 62
1
 10
1241.593440
 20
1302.988323
 11
1240.595003
 21
1302.988323
  0
LINE
  8
0
  6
CONTINUOUS
 62
1
 10
1240.595003
 20
1302.988323
 11
1236.685628
 21
1306.897698
  0
LINE
  8
0
  6
CONTINUOUS
 62
1
 10
1236.685628
 20
1302.988323
 11
1235.270003
 21
1302.988323
  0
LINE
  8
0
  6
CONTINUOUS
 62
1
 10
1235.270003
 20
1302.988323
 11
1235.270003
 21
1306.116760
  0
LINE
  8
0
  6
CONTINUOUS
 62
1
 10
1244.122815
 20
1306.116760
 11
1245.387503
 21
1308.313323
  0
LINE
  8
0
  6
CONTINUOUS
 62
1
 10
1245.387503
 20
1308.313323
 11
1246.319378
 21
1308.313323
  0
LINE
  8
0
  6
CONTINUOUS
 62
1
 10
1246.319378
 20
1308.313323
 11
1247.783753
 21
1305.850510
  0
LINE
  8
0
  6
CONTINUOUS
 62
1
 10
1247.783753
 20
1305.850510
 11
1249.381253
 21
1302.988323
  0
LINE
  8
0
  6
CONTINUOUS
 62
1
 10
1249.381253
 20
1302.988323
 11
1247.796779
 21
1302.988323
  0
LINE
  8
0
  6
CONTINUOUS
 62
1
 10
1244.006148
 20
1302.988323
 11
1242.392190
 21
1302.988323
  0
LINE
  8
0
  6
CONTINUOUS
 62
1
 10
1242.392190
 20
1302.988323
 11
1244.122815
 21
1306.116760
  0
LINE
  8
0
  6
CONTINUOUS
 62
1
 10
1253.483753
 20
1302.988323
 11
1252.001565
 21
1302.988323
  0
LINE
  8
0
  6
CONTINUOUS
 62
1
 10
1249.780628
 20
1306.964260
 11
1249.780628
 21
1308.313323
  0
LINE
  8
0
  6
CONTINUOUS
 62
1
 10
1249.780628
 20
1308.313323
 11
1252.775940
 21
1308.313323
  0
LINE
  8
0
  6
CONTINUOUS
 62
1
 10
1252.775940
 20
1308.313323
 11
1255.704690
 21
1308.313323
  0
LINE
  8
0
  6
CONTINUOUS
 62
1
 10
1255.704690
 20
1308.313323
 11
1255.704690
 21
1306.964260
  0
ARC
  8
0
  6
CONTINUOUS
 62
1
 10
1259.434494
 20
1304.785971
 40
2.931820
 50
181.309932
 51
201.309932
  0
ARC
  8
0
  6
CONTINUOUS
 62
1
 10
1268.252769
 20
1305.633704
 40
11.784885
 50
172.451842
 51
184.451842
  0
ARC
  8
0
  6
CONTINUOUS
 62
1
 10
1257.723615
 20
1307.077589
 40
1.158306
 50
107.840192
 51
174.840192
  0
ARC
  8
0
  6
CONTINUOUS
 62
1
 10
1258.352339
 20
1304.741491
 40
3.576611
 50
92.962322
 51
105.962322
  0
ARC
  8
0
  6
CONTINUOUS
 62
1
 10
1259.931409
 20
1267.913227
 40
40.438584
 50
87.500000
 51
92.500000
  0
ARC
  8
0
  6
CONTINUOUS
 62
1
 10
1261.303020
 20
1305.432721
 40
2.907192
 50
67.244882
 51
82.244881
  0
ARC
  8
0
  6
CONTINUOUS
 62
1
 10
1261.908605
 20
1307.189502
 40
1.059848
 50
21.685924
 51
60.685925
  0
ARC
  8
0
  6
CONTINUOUS
 62
1
 10
1260.350821
 20
1306.548956
 40
2.744140
 50
2.094757
 51
22.094757
  0
ARC
  8
0
  6
CONTINUOUS
 62
1
 10
1251.343799
 20
1305.734504
 40
11.784885
 50
352.451842
 51
4.451842
  0
ARC
  8
0
  6
CONTINUOUS
 62
1
 10
1261.420059
 20
1304.387114
 40
1.618990
 50
321.880135
 51
352.880135
  0
ARC
  8
0
  6
CONTINUOUS
 62
1
 10
1261.765881
 20
1304.457203
 40
1.415905
 50
277.943953
 51
310.943955
  0
ARC
  8
0
  6
CONTINUOUS
 62
1
 10
1260.240934
 20
1313.327051
 40
10.415276
 50
272.509006
 51
279.509006
  0
LINE
  8
0
  6
CONTINUOUS
 62
1
 10
1260.696878
 20
1302.921760
 11
1258.300628
 21
1302.921760
  0
ARC
  8
0
  6
CONTINUOUS
 62
1
 10
1258.431798
 20
1306.173547
 40
3.254431
 50
249.690068
 51
267.690068
  0
ARC
  8
0
  6
CONTINUOUS
 62
1
 10
1257.744025
 20
1304.162345
 40
1.130789
 50
203.000001
 51
247.000000
  0
LINE
  8
0
  6
CONTINUOUS
 62
1
 10
1264.357815
 20
1305.650823
 11
1264.357815
 21
1308.313323
  0
LINE
  8
0
  6
CONTINUOUS
 62
1
 10
1264.357815
 20
1308.313323
 11
1266.620940
 21
1308.313323
  0
LINE
  8
0
  6
CONTINUOUS
 62
1
 10
1266.620940
 20
1308.313323
 11
1268.884065
 21
1308.313323
  0
ARC
  8
0
  6
CONTINUOUS
 62
1
 10
1268.924301
 20
1306.091926
 40
2.221762
 50
70.037678
 51
91.037678
  0
ARC
  8
0
  6
CONTINUOUS
 62
1
 10
1269.293472
 20
1307.191792
 40
1.062325
 50
21.499998
 51
68.500000
  0
ARC
  8
0
  6
CONTINUOUS
 62
1
 10
1267.894725
 20
1306.770984
 40
2.520882
 50
358.746162
 51
18.746162
  0
ARC
  8
0
  6
CONTINUOUS
 62
1
 10
1268.396854
 20
1306.583411
 40
2.022488
 50
338.753837
 51
3.753838
  0
ARC
  8
0
  6
CONTINUOUS
 62
1
 10
1269.288538
 20
1306.446723
 40
1.158531
 50
283.027374
 51
329.027373
  0
ARC
  8
0
  6
CONTINUOUS
 62
1
 10
1269.444329
 20
1304.388032
 40
0.935927
 50
34.536244
 51
83.536243
  0
ARC
  8
0
  6
CONTINUOUS
 62
1
 10
1268.716118
 20
1304.272671
 40
1.632441
 50
359.309933
 51
23.309932
  0
LINE
  8
0
  6
CONTINUOUS
 62
1
 10
1270.348440
 20
1304.253010
 11
1270.348440
 21
1302.988323
  0
LINE
  8
0
  6
CONTINUOUS
 62
1
 10
1270.348440
 20
1302.988323
 11
1268.866253
 21
1302.988323
  0
LINE
  8
0
  6
CONTINUOUS
 62
1
 10
1265.773440
 20
1302.988323
 11
1264.357815
 21
1302.988323
  0
LINE
  8
0
  6
CONTINUOUS
 62
1
 10
1264.357815
 20
1302.988323
 11
1264.357815
 21
1305.650823
  0
LINE
  8
0
  6
CONTINUOUS
 62
1
 10
1209.860940
 20
1304.337385
 11
1209.860940
 21
1306.964260
  0
LINE
  8
0
  6
CONTINUOUS
 62
1
 10
1209.860940
 20
1306.964260
 11
1212.439065
 21
1306.964260
  0
LINE
  8
0
  6
CONTINUOUS
 62
1
 10
1212.838440
 20
1304.337385
 11
1209.860940
 21
1304.337385
  0
ARC
  8
0
  6
CONTINUOUS
 62
1
 10
1212.935919
 20
1304.959012
 40
0.625086
 50
265.934949
 51
310.934948
  0
ARC
  8
0
  6
CONTINUOUS
 62
1
 10
1212.947738
 20
1304.780784
 40
0.487408
 50
315.934949
 51
350.934948
  0
ARC
  8
0
  6
CONTINUOUS
 62
1
 10
1207.941028
 20
1305.684104
 40
5.574750
 50
350.000000
 51
10.000000
  0
ARC
  8
0
  6
CONTINUOUS
 62
1
 10
1212.755647
 20
1306.388785
 40
0.717801
 50
15.554604
 51
42.554604
  0
ARC
  8
0
  6
CONTINUOUS
 62
1
 10
1213.184005
 20
1306.741327
 40
0.164329
 50
44.434949
 51
82.434950
  0
ARC
  8
0
  6
CONTINUOUS
 62
1
 10
1212.236677
 20
1299.425406
 40
7.541325
 50
82.601295
 51
88.601295
  0
ARC
  8
0
  6
CONTINUOUS
 62
1
 10
1219.018746
 20
1281.979999
 40
25.018156
 50
86.270740
 51
92.597722
  0
ARC
  8
0
  6
CONTINUOUS
 62
1
 10
1219.215172
 20
1317.389763
 40
13.118947
 50
264.068276
 51
270.054813
  0
ARC
  8
0
  6
CONTINUOUS
 62
1
 10
1219.381121
 20
1316.273736
 40
12.003827
 50
269.314075
 51
276.164339
  0
ARC
  8
0
  6
CONTINUOUS
 62
1
 10
1230.870264
 20
1305.684104
 40
13.486742
 50
176.517529
 51
183.733858
  0
ARC
  8
0
  6
CONTINUOUS
 62
1
 10
1207.653179
 20
1305.617542
 40
13.486742
 50
356.551732
 51
3.658589
  0
ARC
  8
0
  6
CONTINUOUS
 62
1
 10
1217.907503
 20
1306.472960
 40
0.500000
 50
92.597722
 51
176.517529
  0
ARC
  8
0
  6
CONTINUOUS
 62
1
 10
1220.613454
 20
1306.446239
 40
0.500000
 50
3.658589
 51
86.270740
  0
ARC
  8
0
  6
CONTINUOUS
 62
1
 10
1220.616409
 20
1304.836424
 40
0.500000
 50
276.164339
 51
356.551732
  0
ARC
  8
0
  6
CONTINUOUS
 62
1
 10
1217.911089
 20
1304.838381
 40
0.500000
 50
183.733858
 51
264.068276
  0
ARC
  8
0
  6
CONTINUOUS
 62
1
 10
1259.555309
 20
1281.979999
 40
25.018156
 50
86.270740
 51
92.597722
  0
ARC
  8
0
  6
CONTINUOUS
 62
1
 10
1259.751735
 20
1317.389763
 40
13.118947
 50
264.068276
 51
270.054813
  0
ARC
  8
0
  6
CONTINUOUS
 62
1
 10
1259.917684
 20
1316.273736
 40
12.003827
 50
269.314075
 51
276.164339
  0
ARC
  8
0
  6
CONTINUOUS
 62
1
 10
1271.406827
 20
1305.684104
 40
13.486742
 50
176.517529
 51
183.733858
  0
ARC
  8
0
  6
CONTINUOUS
 62
1
 10
1248.189741
 20
1305.617542
 40
13.486742
 50
356.551732
 51
3.658589
  0
ARC
  8
0
  6
CONTINUOUS
 62
1
 10
1258.444066
 20
1306.472960
 40
0.500000
 50
92.597722
 51
176.517529
  0
ARC
  8
0
  6
CONTINUOUS
 62
1
 10
1261.150016
 20
1306.446239
 40
0.500000
 50
3.658589
 51
86.270740
  0
ARC
  8
0
  6
CONTINUOUS
 62
1
 10
1261.152971
 20
1304.836424
 40
0.500000
 50
276.164339
 51
356.551732
  0
ARC
  8
0
  6
CONTINUOUS
 62
1
 10
1258.447651
 20
1304.838381
 40
0.500000
 50
183.733858
 51
264.068276
  0
LINE
  8
0
  6
CONTINUOUS
 62
1
 10
1225.170315
 20
1302.988323
 11
1225.170315
 21
1306.551544
  0
LINE
  8
0
  6
CONTINUOUS
 62
1
 10
1230.526253
 20
1306.555979
 11
1230.526253
 21
1302.988323
  0
LINE
  8
0
  6
CONTINUOUS
 62
1
 10
1229.989714
 20
1308.313323
 11
1227.880765
 21
1305.192077
  0
LINE
  8
0
  6
CONTINUOUS
 62
1
 10
1227.880765
 20
1305.192077
 11
1225.766373
 21
1308.313323
  0
LINE
  8
0
  6
CONTINUOUS
 62
1
 10
1236.685628
 20
1302.988323
 11
1236.685628
 21
1306.897698
  0
LINE
  8
0
  6
CONTINUOUS
 62
1
 10
1240.177815
 20
1308.313323
 11
1240.177815
 21
1305.464608
  0
LINE
  8
0
  6
CONTINUOUS
 62
1
 10
1240.177815
 20
1305.464608
 11
1237.329100
 21
1308.313323
  0
LINE
  8
0
  6
CONTINUOUS
 62
1
 10
1244.006148
 20
1302.988323
 11
1244.433770
 21
1303.744885
  0
LINE
  8
0
  6
CONTINUOUS
 62
1
 10
1245.865703
 20
1306.278305
 11
1246.560869
 21
1305.093948
  0
LINE
  8
0
  6
CONTINUOUS
 62
1
 10
1268.866253
 20
1304.426760
 11
1268.866253
 21
1302.988323
  0
LINE
  8
0
  6
CONTINUOUS
 62
1
 10
1265.773440
 20
1306.025823
 11
1265.773440
 21
1306.964260
  0
LINE
  8
0
  6
CONTINUOUS
 62
1
 10
1265.773440
 20
1306.964260
 11
1268.710592
 21
1306.964260
  0
ARC
  8
0
  6
CONTINUOUS
 62
1
 10
1267.487180
 20
1306.671510
 40
1.474159
 50
341.141530
 51
2.001319
  0
LINE
  8
0
  6
CONTINUOUS
 62
1
 10
1265.773440
 20
1302.988323
 11
1265.773440
 21
1304.676760
  0
LINE
  8
0
  6
CONTINUOUS
 62
1
 10
1268.645626
 20
1306.025823
 11
1265.773440
 21
1306.025823
  0
LINE
  8
0
  6
CONTINUOUS
 62
1
 10
1265.773440
 20
1304.676760
 11
1268.616253
 21
1304.676760
  0
LINE
  8
0
  6
CONTINUOUS
 62
1
 10
1252.001565
 20
1306.964260
 11
1252.001565
 21
1302.988323
  0
LINE
  8
0
  6
CONTINUOUS
 62
1
 10
1253.483753
 20
1302.988323
 11
1253.483753
 21
1306.964260
  0
LINE
  8
0
  6
CONTINUOUS
 62
1
 10
1246.560869
 20
1305.093948
 11
1245.196283
 21
1305.093948
  0
LINE
  8
0
  6
CONTINUOUS
 62
1
 10
1244.433770
 20
1303.744885
 11
1247.352710
 21
1303.744885
  0
LINE
  8
0
  6
CONTINUOUS
 62
1
 10
1245.196283
 20
1305.093948
 11
1245.865703
 21
1306.278305
  0
LINE
  8
0
  6
CONTINUOUS
 62
1
 10
1247.352710
 20
1303.744885
 11
1247.796779
 21
1302.988323
  0
LINE
  8
0
  6
CONTINUOUS
 62
1
 10
1249.780628
 20
1306.964260
 11
1252.001565
 21
1306.964260
  0
LINE
  8
0
  6
CONTINUOUS
 62
1
 10
1253.483753
 20
1306.964260
 11
1255.704690
 21
1306.964260
  0
ARC
  8
0
  6
CONTINUOUS
 62
1
 10
1268.616253
 20
1304.426760
 40
0.250000
 50
0.000000
 51
90.000000
  0
ARC
  8
0
  6
CONTINUOUS
 62
1
 10
1268.645626
 20
1306.275823
 40
0.250000
 50
270.000000
 51
341.141530
  0
ARC
  8
0
  6
CONTINUOUS
 62
1
 10
1268.710592
 20
1306.714260
 40
0.250000
 50
2.001319
 51
90.000000
  0
LINE
  8
0
  6
CONTINUOUS
 62
1
 10
1232.964690
 20
1308.313323
 11
1232.964690
 21
1302.988323
  0
LINE
  8
0
  6
CONTINUOUS
 62
1
 10
1234.380315
 20
1302.988323
 11
1234.380315
 21
1308.313323
  0
LINE
  8
0
  6
CONTINUOUS
 62
1
 10
1240.995742
 20
1300.400823
 11
1271.598413
 21
1300.400823
  0
LINE
  8
0
  6
CONTINUOUS
 62
1
 10
1241.178814
 20
1299.400823
 11
1207.265870
 21
1299.400823
  0
LINE
  8
0
  6
CONTINUOUS
 62
1
 10
1620.965142
 20
622.918318
 11
1655.965142
 21
622.918318
  0
LINE
  8
0
  6
CONTINUOUS
 62
1
 10
1655.965142
 20
622.918318
 11
1655.965142
 21
677.918318
  0
LINE
  8
0
  6
CONTINUOUS
 62
1
 10
1655.965142
 20
677.918318
 11
1620.965142
 21
677.918318
  0
LINE
  8
0
  6
CONTINUOUS
 62
1
 10
1620.965142
 20
677.918318
 11
1620.965142
 21
622.918318
  0
LINE
  8
0
  6
CONTINUOUS
 62
1
 10
1589.865142
 20
1187.989960
 11
1686.865142
 21
1187.989960
  0
LINE
  8
0
  6
CONTINUOUS
 62
1
 10
1686.865142
 20
697.989960
 11
1589.865142
 21
697.989960
  0
LINE
  8
0
  6
CONTINUOUS
 62
1
 10
1588.265142
 20
1187.189960
 11
1588.265142
 21
698.789960
  0
LINE
  8
0
  6
CONTINUOUS
 62
1
 10
1688.465142
 20
698.789960
 11
1688.465142
 21
1187.189960
  0
LINE
  8
0
  6
CONTINUOUS
 62
1
 10
1589.865142
 20
1187.989960
 11
1589.865142
 21
697.989960
  0
LINE
  8
0
  6
CONTINUOUS
 62
1
 10
1686.865142
 20
697.989960
 11
1686.865142
 21
1187.989960
  0
LINE
  8
0
  6
CONTINUOUS
 62
1
 10
1688.465142
 20
1187.189960
 11
1686.865142
 21
1187.189960
  0
LINE
  8
0
  6
CONTINUOUS
 62
1
 10
1588.265142
 20
698.789960
 11
1589.865142
 21
698.789960
  0
LINE
  8
0
  6
CONTINUOUS
 62
1
 10
1686.865142
 20
698.789960
 11
1688.465142
 21
698.789960
  0
LINE
  8
0
  6
CONTINUOUS
 62
1
 10
1589.865142
 20
1187.189960
 11
1588.265142
 21
1187.189960
  0
CIRCLE
  8
0
  6
CONTINUOUS
 62
1
 10
1598.365142
 20
706.489960
 40
3.200000
  0
CIRCLE
  8
0
  6
CONTINUOUS
 62
1
 10
1678.365142
 20
706.489960
 40
3.200000
  0
CIRCLE
  8
0
  6
CONTINUOUS
 62
1
 10
1638.365142
 20
1179.989960
 40
3.200000
  0
LINE
  8
0
  6
CONTINUOUS
 62
1
 10
1606.365142
 20
777.989960
 11
1650.365142
 21
777.989960
  0
LINE
  8
0
  6
CONTINUOUS
 62
1
 10
1650.365142
 20
777.989960
 11
1650.365142
 21
793.489960
  0
LINE
  8
0
  6
CONTINUOUS
 62
1
 10
1606.365142
 20
777.989960
 11
1606.365142
 21
793.489960
  0
LINE
  8
0
  6
CONTINUOUS
 62
1
 10
1640.865142
 20
802.989960
 11
1640.365142
 21
802.989960
  0
ARC
  8
0
  6
CONTINUOUS
 62
1
 10
1615.865142
 20
793.489960
 40
9.500000
 50
90.000000
 51
180.000000
  0
ARC
  8
0
  6
CONTINUOUS
 62
1
 10
1640.865142
 20
793.489960
 40
9.500000
 50
0.000000
 51
90.000000
  0
LINE
  8
0
  6
CONTINUOUS
 62
1
 10
1636.365142
 20
806.989960
 11
1636.365142
 21
821.489960
  0
LINE
  8
0
  6
CONTINUOUS
 62
1
 10
1620.365142
 20
806.989960
 11
1620.365142
 21
821.489960
  0
LINE
  8
0
  6
CONTINUOUS
 62
1
 10
1616.365142
 20
802.989960
 11
1615.865142
 21
802.989960
  0
ARC
  8
0
  6
CONTINUOUS
 62
1
 10
1616.365142
 20
806.989960
 40
4.000000
 50
270.000000
 51
0.000000
  0
ARC
  8
0
  6
CONTINUOUS
 62
1
 10
1640.365142
 20
806.989960
 40
4.000000
 50
180.000000
 51
270.000000
  0
CIRCLE
  8
0
  6
CONTINUOUS
 62
1
 10
1638.365142
 20
1132.989960
 40
4.800000
  0
CIRCLE
  8
0
  6
CONTINUOUS
 62
1
 10
1638.365142
 20
1037.489960
 40
4.800000
  0
CIRCLE
  8
0
  6
CONTINUOUS
 62
1
 10
1609.865142
 20
843.489960
 40
9.000000
  0
CIRCLE
  8
0
  6
CONTINUOUS
 62
1
 10
1638.365142
 20
974.989960
 40
8.000000
  0
LINE
  8
0
  6
CONTINUOUS
 62
1
 10
1649.165142
 20
1010.989714
 11
1648.113988
 21
1010.989714
  0
LINE
  8
0
  6
CONTINUOUS
 62
1
 10
1649.165142
 20
1008.989714
 11
1648.113988
 21
1008.989714
  0
LINE
  8
0
  6
CONTINUOUS
 62
1
 10
1649.165142
 20
1010.989714
 11
1649.165142
 21
1008.989714
  0
LINE
  8
0
  6
CONTINUOUS
 62
1
 10
1622.165142
 20
821.489960
 11
1622.165142
 21
820.989960
  0
LINE
  8
0
  6
CONTINUOUS
 62
1
 10
1634.565142
 20
821.489960
 11
1634.565142
 21
820.989960
  0
LINE
  8
0
  6
CONTINUOUS
 62
1
 10
1634.565142
 20
820.989960
 11
1622.165142
 21
820.989960
  0
ARC
  8
0
  6
CONTINUOUS
 62
1
 10
1621.265142
 20
821.489960
 40
0.900000
 50
0.000000
 51
180.000000
  0
ARC
  8
0
  6
CONTINUOUS
 62
1
 10
1635.465142
 20
821.489960
 40
0.900000
 50
0.000000
 51
180.000000
  0
LINE
  8
0
  6
CONTINUOUS
 62
1
 10
1622.165142
 20
821.489960
 11
1634.565142
 21
821.489960
  0
ARC
  8
0
  6
CONTINUOUS
 62
1
 10
1638.365142
 20
1009.989714
 40
9.800000
 50
5.856702
 51
354.143298
  0
LINE
  8
0
  6
CONTINUOUS
 62
1
 10
1668.365142
 20
1137.495031
 11
1668.365142
 21
1128.203130
  0
LINE
  8
0
  6
CONTINUOUS
 62
1
 10
1665.365142
 20
1137.495031
 11
1665.365142
 21
1128.203130
  0
ARC
  8
0
  6
CONTINUOUS
 62
1
 10
1666.865142
 20
1137.495031
 40
1.500000
 50
0.000000
 51
180.000000
  0
LINE
  8
0
  6
CONTINUOUS
 62
1
 10
1668.365142
 20
1130.499825
 11
1665.365142
 21
1130.499825
  0
ARC
  8
0
  6
CONTINUOUS
 62
1
 10
1666.865142
 20
1124.495031
 40
4.000000
 50
0.000000
 51
67.975687
  0
ARC
  8
0
  6
CONTINUOUS
 62
1
 10
1666.865142
 20
1124.495031
 40
4.000000
 50
112.024313
 51
0.000000
  0
CIRCLE
  8
0
  6
CONTINUOUS
 62
1
 10
1661.819815
 20
944.994419
 40
9.250000
  0
CIRCLE
  8
0
  6
CONTINUOUS
 62
1
 10
1661.819815
 20
944.994419
 40
7.250000
  0
LINE
  8
0
  6
CONTINUOUS
 62
1
 10
1657.279614
 20
945.994419
 11
1660.087765
 21
945.994419
  0
LINE
  8
0
  6
CONTINUOUS
 62
1
 10
1657.279614
 20
943.994419
 11
1660.087765
 21
943.994419
  0
LINE
  8
0
  6
CONTINUOUS
 62
1
 10
1660.819815
 20
950.979437
 11
1660.819815
 21
946.726469
  0
LINE
  8
0
  6
CONTINUOUS
 62
1
 10
1662.819815
 20
950.979437
 11
1662.819815
 21
946.726469
  0
ARC
  8
0
  6
CONTINUOUS
 62
1
 10
1661.819815
 20
944.994419
 40
2.000000
 50
120.000000
 51
150.000000
  0
ARC
  8
0
  6
CONTINUOUS
 62
1
 10
1661.819815
 20
944.994419
 40
2.000000
 50
210.000000
 51
60.000000
  0
LINE
  8
0
  6
CONTINUOUS
 62
1
 10
1660.819815
 20
950.979437
 11
1662.819815
 21
950.979437
  0
LINE
  8
0
  6
CONTINUOUS
 62
1
 10
1657.279614
 20
943.994419
 11
1657.279614
 21
945.994419
  0
CIRCLE
  8
0
  6
CONTINUOUS
 62
1
 10
1661.819815
 20
1009.989714
 40
9.250000
  0
ARC
  8
0
  6
CONTINUOUS
 62
1
 10
1661.819815
 20
1009.989714
 40
7.250000
 50
0.000000
 51
168.059456
  0
LINE
  8
0
  6
CONTINUOUS
 62
1
 10
1662.819815
 20
1014.489714
 11
1662.819815
 21
1007.672935
  0
LINE
  8
0
  6
CONTINUOUS
 62
1
 10
1660.819815
 20
1011.615359
 11
1660.819815
 21
1004.798579
  0
LINE
  8
0
  6
CONTINUOUS
 62
1
 10
1654.726685
 20
1011.489714
 11
1662.819815
 21
1014.489714
  0
LINE
  8
0
  6
CONTINUOUS
 62
1
 10
1660.819815
 20
1011.615359
 11
1654.601711
 21
1009.310402
  0
LINE
  8
0
  6
CONTINUOUS
 62
1
 10
1662.819815
 20
1007.672935
 11
1669.069815
 21
1009.989714
  0
ARC
  8
0
  6
CONTINUOUS
 62
1
 10
1661.819815
 20
1009.989714
 40
7.250000
 50
185.376398
 51
341.771516
  0
LINE
  8
0
  6
CONTINUOUS
 62
1
 10
1668.705986
 20
1007.721863
 11
1660.819815
 21
1004.798579
  0
LINE
  8
0
  6
CONTINUOUS
 62
1
 10
1671.069815
 20
973.989692
 11
1661.819815
 21
974.489960
  0
LINE
  8
0
  6
CONTINUOUS
 62
1
 10
1661.819815
 20
975.489960
 11
1671.069815
 21
975.990227
  0
LINE
  8
0
  6
CONTINUOUS
 62
1
 10
1661.819815
 20
974.489960
 11
1661.819815
 21
975.489960
  0
LINE
  8
0
  6
CONTINUOUS
 62
1
 10
1671.069815
 20
968.954398
 11
1661.819815
 21
969.454665
  0
LINE
  8
0
  6
CONTINUOUS
 62
1
 10
1661.819815
 20
970.454665
 11
1671.069815
 21
970.954932
  0
LINE
  8
0
  6
CONTINUOUS
 62
1
 10
1661.819815
 20
969.454665
 11
1661.819815
 21
970.454665
  0
LINE
  8
0
  6
CONTINUOUS
 62
1
 10
1671.069815
 20
981.025522
 11
1661.819815
 21
980.525254
  0
LINE
  8
0
  6
CONTINUOUS
 62
1
 10
1661.819815
 20
979.525254
 11
1671.069815
 21
979.024987
  0
LINE
  8
0
  6
CONTINUOUS
 62
1
 10
1661.819815
 20
980.525254
 11
1661.819815
 21
979.525254
  0
ARC
  8
0
  6
CONTINUOUS
 62
1
 10
1661.819815
 20
974.989960
 40
9.250000
 50
116.932913
 51
243.067087
  0
ARC
  8
0
  6
CONTINUOUS
 62
1
 10
1661.819815
 20
974.989960
 40
7.250000
 50
134.497043
 51
225.502957
  0
ARC
  8
0
  6
CONTINUOUS
 62
1
 10
1641.069815
 20
974.989960
 40
18.500000
 50
333.527467
 51
26.472533
  0
ARC
  8
0
  6
CONTINUOUS
 62
1
 10
1641.069815
 20
974.989960
 40
16.500000
 50
341.734916
 51
18.265084
  0
LINE
  8
0
  6
CONTINUOUS
 62
1
 10
1671.069815
 20
981.025522
 11
1671.069815
 21
979.024987
  0
LINE
  8
0
  6
CONTINUOUS
 62
1
 10
1671.069815
 20
975.990227
 11
1671.069815
 21
973.989692
  0
LINE
  8
0
  6
CONTINUOUS
 62
1
 10
1671.069815
 20
970.954932
 11
1671.069815
 21
968.954398
  0
LINE
  8
0
  6
CONTINUOUS
 62
1
 10
1626.375776
 20
835.324776
 11
1634.896659
 21
843.489960
  0
LINE
  8
0
  6
CONTINUOUS
 62
1
 10
1626.375776
 20
835.324776
 11
1637.429804
 21
840.442417
  0
LINE
  8
0
  6
CONTINUOUS
 62
1
 10
1640.643679
 20
840.442417
 11
1646.513172
 21
839.241211
  0
LINE
  8
0
  6
CONTINUOUS
 62
1
 10
1637.429804
 20
840.442417
 11
1640.176975
 21
833.933753
  0
LINE
  8
0
  6
CONTINUOUS
 62
1
 10
1640.643679
 20
840.442417
 11
1640.176975
 21
833.933753
  0
LINE
  8
0
  6
CONTINUOUS
 62
1
 10
1641.581619
 20
846.926664
 11
1638.265142
 21
852.712096
  0
LINE
  8
0
  6
CONTINUOUS
 62
1
 10
1636.304109
 20
846.334934
 11
1631.468838
 21
846.926664
  0
LINE
  8
0
  6
CONTINUOUS
 62
1
 10
1634.896659
 20
843.489960
 11
1631.468838
 21
846.926664
  0
LINE
  8
0
  6
CONTINUOUS
 62
1
 10
1643.589121
 20
843.489960
 11
1646.513172
 21
839.241211
  0
LINE
  8
0
  6
CONTINUOUS
 62
1
 10
1641.581619
 20
846.926664
 11
1647.176922
 21
848.721462
  0
LINE
  8
0
  6
CONTINUOUS
 62
1
 10
1636.304109
 20
846.334934
 11
1638.265142
 21
852.712096
  0
LINE
  8
0
  6
CONTINUOUS
 62
1
 10
1647.176922
 20
848.721462
 11
1643.589121
 21
843.489960
  0
CIRCLE
  8
0
  6
CONTINUOUS
 62
1
 10
1638.365142
 20
940.489960
 40
3.000000
  0
CIRCLE
  8
0
  6
CONTINUOUS
 62
1
 10
1638.365142
 20
1120.489960
 40
3.000000
  0
POLYLINE
  8
0
  6
CONTINUOUS
 62
1
 66
1
 70
2
  0
VERTEX
  8
0
 10
1653.365142
 20
1061.939300
 70
0
 42
0.057944
  0
VERTEX
  8
0
 10
1658.583639
 20
1065.883802
 70
0
 42
0.059305
  0
VERTEX
  8
0
 10
1662.696206
 20
1070.873390
 70
0
 42
0.060571
  0
VERTEX
  8
0
 10
1665.477888
 20
1076.635141
 70
0
 42
0.061435
  0
VERTEX
  8
0
 10
1666.776531
 20
1082.853891
 70
0
 42
0.061671
  0
VERTEX
  8
0
 10
1666.521101
 20
1089.189482
 70
0
 42
0.061214
  0
VERTEX
  8
0
 10
1664.725569
 20
1095.295364
 70
0
 42
0.060187
  0
VERTEX
  8
0
 10
1661.488149
 20
1100.837550
 70
0
 42
0.058855
  0
VERTEX
  8
0
 10
1656.985924
 20
1105.512890
 70
0
 42
0.057528
  0
VERTEX
  8
0
 10
1651.465162
 20
1109.065647
 70
0
 42
0.056477
  0
VERTEX
  8
0
 10
1645.227842
 20
1111.301488
 70
0
 42
0.055892
  0
VERTEX
  8
0
 10
1638.615140
 20
1112.098117
 70
0
  0
SEQEND
  0
POLYLINE
  8
0
  6
CONTINUOUS
 62
1
 66
1
 70
2
  0
VERTEX
  8
0
 10
1623.453680
 20
1061.887384
 70
0
 42
0.053351
  0
VERTEX
  8
0
 10
1629.120010
 20
1059.346738
 70
0
 42
0.052667
  0
VERTEX
  8
0
 10
1635.232991
 20
1058.044970
 70
0
 42
0.052427
  0
VERTEX
  8
0
 10
1641.497293
 20
1058.044970
 70
0
 42
0.052667
  0
VERTEX
  8
0
 10
1647.610275
 20
1059.346738
 70
0
 42
0.053351
  0
VERTEX
  8
0
 10
1653.276605
 20
1061.887384
 70
0
  0
SEQEND
  0
POLYLINE
  8
0
  6
CONTINUOUS
 62
1
 66
1
 70
2
  0
VERTEX
  8
0
 10
1653.355507
 20
1061.960576
 70
0
 42
-0.042310
  0
VERTEX
  8
0
 10
1650.177610
 20
1070.924685
 70
0
 42
-0.042646
  0
VERTEX
  8
0
 10
1648.567418
 20
1080.259931
 70
0
 42
-0.042764
  0
VERTEX
  8
0
 10
1648.567418
 20
1089.719988
 70
0
 42
-0.042646
  0
VERTEX
  8
0
 10
1650.177610
 20
1099.055234
 70
0
 42
-0.042310
  0
VERTEX
  8
0
 10
1653.355507
 20
1108.019343
 70
0
  0
SEQEND
  0
POLYLINE
  8
0
  6
CONTINUOUS
 62
1
 66
1
 70
2
  0
VERTEX
  8
0
 10
1623.374778
 20
1108.019343
 70
0
 42
-0.042310
  0
VERTEX
  8
0
 10
1626.552675
 20
1099.055234
 70
0
 42
-0.042646
  0
VERTEX
  8
0
 10
1628.162867
 20
1089.719988
 70
0
 42
-0.042764
  0
VERTEX
  8
0
 10
1628.162867
 20
1080.259931
 70
0
 42
-0.042646
  0
VERTEX
  8
0
 10
1626.552675
 20
1070.924685
 70
0
 42
-0.042310
  0
VERTEX
  8
0
 10
1623.374778
 20
1061.960576
 70
0
  0
SEQEND
  0
POLYLINE
  8
0
  6
CONTINUOUS
 62
1
 66
1
 70
2
  0
VERTEX
  8
0
 10
1638.115145
 20
1112.098117
 70
0
 42
0.055892
  0
VERTEX
  8
0
 10
1631.502442
 20
1111.301488
 70
0
 42
0.056477
  0
VERTEX
  8
0
 10
1625.265123
 20
1109.065647
 70
0
 42
0.057528
  0
VERTEX
  8
0
 10
1619.744361
 20
1105.512890
 70
0
 42
0.058855
  0
VERTEX
  8
0
 10
1615.242136
 20
1100.837550
 70
0
 42
0.060187
  0
VERTEX
  8
0
 10
1612.004716
 20
1095.295364
 70
0
 42
0.061214
  0
VERTEX
  8
0
 10
1610.209184
 20
1089.189482
 70
0
 42
0.061671
  0
VERTEX
  8
0
 10
1609.953753
 20
1082.853891
 70
0
 42
0.061435
  0
VERTEX
  8
0
 10
1611.252396
 20
1076.635141
 70
0
 42
0.060571
  0
VERTEX
  8
0
 10
1614.034079
 20
1070.873390
 70
0
 42
0.059305
  0
VERTEX
  8
0
 10
1618.146645
 20
1065.883802
 70
0
 42
0.057944
  0
VERTEX
  8
0
 10
1623.365142
 20
1061.939300
 70
0
  0
SEQEND
  0
POLYLINE
  8
0
  6
CONTINUOUS
 62
1
 66
1
 70
2
  0
VERTEX
  8
0
 10
1639.864378
 20
1107.297623
 70
0
 42
-0.059478
  0
VERTEX
  8
0
 10
1645.596684
 20
1106.258477
 70
0
 42
-0.060310
  0
VERTEX
  8
0
 10
1650.883078
 20
1103.907873
 70
0
  0
SEQEND
  0
POLYLINE
  8
0
  6
CONTINUOUS
 62
1
 66
1
 70
2
  0
VERTEX
  8
0
 10
1636.865906
 20
1107.297623
 70
0
 42
0.268165
  0
VERTEX
  8
0
 10
1637.629006
 20
1106.099994
 70
0
 42
0.249457
  0
VERTEX
  8
0
 10
1639.101278
 20
1106.099994
 70
0
 42
0.268165
  0
VERTEX
  8
0
 10
1639.864378
 20
1107.297623
 70
0
  0
SEQEND
  0
POLYLINE
  8
0
  6
CONTINUOUS
 62
1
 66
1
 70
2
  0
VERTEX
  8
0
 10
1638.115145
 20
1112.098117
 70
0
 42
0.412473
  0
VERTEX
  8
0
 10
1638.365142
 20
1111.861360
 70
0
 42
0.412473
  0
VERTEX
  8
0
 10
1638.615140
 20
1112.098117
 70
0
  0
SEQEND
  0
POLYLINE
  8
0
  6
CONTINUOUS
 62
1
 66
1
 70
2
  0
VERTEX
  8
0
 10
1625.847206
 20
1103.907873
 70
0
 42
-0.060310
  0
VERTEX
  8
0
 10
1631.133601
 20
1106.258477
 70
0
 42
-0.059478
  0
VERTEX
  8
0
 10
1636.865906
 20
1107.297623
 70
0
  0
SEQEND
  0
POLYLINE
  8
0
  6
CONTINUOUS
 62
1
 66
1
 70
2
  0
VERTEX
  8
0
 10
1650.883078
 20
1066.072046
 70
0
 42
-0.054470
  0
VERTEX
  8
0
 10
1646.136856
 20
1063.894530
 70
0
 42
-0.053745
  0
VERTEX
  8
0
 10
1640.999872
 20
1062.777694
 70
0
 42
-0.053491
  0
VERTEX
  8
0
 10
1635.730413
 20
1062.777694
 70
0
 42
-0.053745
  0
VERTEX
  8
0
 10
1630.593428
 20
1063.894530
 70
0
 42
-0.054470
  0
VERTEX
  8
0
 10
1625.847206
 20
1066.072046
 70
0
  0
SEQEND
  0
LINE
  8
0
  6
CONTINUOUS
 62
1
 10
1636.865906
 20
1107.297623
 11
1638.115145
 21
1112.098117
  0
LINE
  8
0
  6
CONTINUOUS
 62
1
 10
1638.615140
 20
1112.098117
 11
1639.864378
 21
1107.297623
  0
POLYLINE
  8
0
  6
CONTINUOUS
 62
1
 66
1
 70
2
  0
VERTEX
  8
0
 10
1651.350400
 20
1103.102856
 70
0
 42
0.264500
  0
VERTEX
  8
0
 10
1650.883078
 20
1103.907873
 70
0
  0
SEQEND
  0
POLYLINE
  8
0
  6
CONTINUOUS
 62
1
 66
1
 70
2
  0
VERTEX
  8
0
 10
1651.350400
 20
1066.877064
 70
0
 42
0.081701
  0
VERTEX
  8
0
 10
1651.302425
 20
1067.168151
 70
0
  0
SEQEND
  0
POLYLINE
  8
0
  6
CONTINUOUS
 62
1
 66
1
 70
2
  0
VERTEX
  8
0
 10
1625.847206
 20
1103.907873
 70
0
 42
0.355774
  0
VERTEX
  8
0
 10
1625.427860
 20
1102.811768
 70
0
  0
SEQEND
  0
POLYLINE
  8
0
  6
CONTINUOUS
 62
1
 66
1
 70
2
  0
VERTEX
  8
0
 10
1651.302425
 20
1102.811768
 70
0
 42
0.081701
  0
VERTEX
  8
0
 10
1651.350400
 20
1103.102856
 70
0
  0
SEQEND
  0
POLYLINE
  8
0
  6
CONTINUOUS
 62
1
 66
1
 70
2
  0
VERTEX
  8
0
 10
1650.883078
 20
1066.072046
 70
0
 42
0.264500
  0
VERTEX
  8
0
 10
1651.350400
 20
1066.877064
 70
0
  0
SEQEND
  0
POLYLINE
  8
0
  6
CONTINUOUS
 62
1
 66
1
 70
2
  0
VERTEX
  8
0
 10
1625.427860
 20
1067.168152
 70
0
 42
0.355774
  0
VERTEX
  8
0
 10
1625.847206
 20
1066.072046
 70
0
  0
SEQEND
  0
POLYLINE
  8
0
  6
CONTINUOUS
 62
1
 66
1
 70
2
  0
VERTEX
  8
0
 10
1638.080057
 20
1115.902770
 70
0
 42
0.051213
  0
VERTEX
  8
0
 10
1631.156902
 20
1115.134015
 70
0
 42
0.051668
  0
VERTEX
  8
0
 10
1624.565297
 20
1112.978755
 70
0
 42
0.052496
  0
VERTEX
  8
0
 10
1618.608429
 20
1109.536123
 70
0
 42
0.053573
  0
VERTEX
  8
0
 10
1613.560291
 20
1104.964466
 70
0
 42
0.054721
  0
VERTEX
  8
0
 10
1609.653076
 20
1099.474062
 70
0
 42
0.055723
  0
VERTEX
  8
0
 10
1607.066501
 20
1093.317447
 70
0
 42
0.056370
  0
VERTEX
  8
0
 10
1605.919538
 20
1086.777801
 70
0
 42
0.056516
  0
VERTEX
  8
0
 10
1606.264942
 20
1080.155922
 70
0
 42
0.056127
  0
VERTEX
  8
0
 10
1608.086826
 20
1073.756389
 70
0
 42
0.055293
  0
VERTEX
  8
0
 10
1611.301391
 20
1067.873555
 70
0
 42
0.054196
  0
VERTEX
  8
0
 10
1615.760780
 20
1062.778007
 70
0
 42
0.053055
  0
VERTEX
  8
0
 10
1621.259879
 20
1058.704120
 70
0
  0
SEQEND
  0
POLYLINE
  8
0
  6
CONTINUOUS
 62
1
 66
1
 70
2
  0
VERTEX
  8
0
 10
1655.470405
 20
1058.704120
 70
0
 42
0.053055
  0
VERTEX
  8
0
 10
1660.969504
 20
1062.778007
 70
0
 42
0.054196
  0
VERTEX
  8
0
 10
1665.428893
 20
1067.873555
 70
0
 42
0.055293
  0
VERTEX
  8
0
 10
1668.643458
 20
1073.756389
 70
0
 42
0.056127
  0
VERTEX
  8
0
 10
1670.465343
 20
1080.155922
 70
0
 42
0.056516
  0
VERTEX
  8
0
 10
1670.810747
 20
1086.777801
 70
0
 42
0.056370
  0
VERTEX
  8
0
 10
1669.663783
 20
1093.317447
 70
0
 42
0.055723
  0
VERTEX
  8
0
 10
1667.077208
 20
1099.474062
 70
0
 42
0.054721
  0
VERTEX
  8
0
 10
1663.169993
 20
1104.964466
 70
0
 42
0.053573
  0
VERTEX
  8
0
 10
1658.121855
 20
1109.536123
 70
0
 42
0.052496
  0
VERTEX
  8
0
 10
1652.164987
 20
1112.978755
 70
0
 42
0.051668
  0
VERTEX
  8
0
 10
1645.573382
 20
1115.134015
 70
0
 42
0.051213
  0
VERTEX
  8
0
 10
1638.650227
 20
1115.902770
 70
0
  0
SEQEND
  0
POLYLINE
  8
0
  6
CONTINUOUS
 62
1
 66
1
 70
2
  0
VERTEX
  8
0
 10
1621.360843
 20
1058.644917
 70
0
 42
0.053351
  0
VERTEX
  8
0
 10
1627.822447
 20
1055.747689
 70
0
 42
0.052667
  0
VERTEX
  8
0
 10
1634.793391
 20
1054.263217
 70
0
 42
0.052427
  0
VERTEX
  8
0
 10
1641.936894
 20
1054.263217
 70
0
 42
0.052667
  0
VERTEX
  8
0
 10
1648.907837
 20
1055.747689
 70
0
 42
0.053351
  0
VERTEX
  8
0
 10
1655.369442
 20
1058.644917
 70
0
  0
SEQEND
  0
LINE
  8
0
  6
CONTINUOUS
 62
1
 10
1639.862083
 20
1107.252087
 11
1639.862083
 21
1065.065574
  0
LINE
  8
0
  6
CONTINUOUS
 62
1
 10
1636.865906
 20
1107.297623
 11
1636.865906
 21
1065.065730
  0
ARC
  8
0
  6
CONTINUOUS
 62
1
 10
1638.363993
 20
1065.014760
 40
1.498086
 50
180.000000
 51
1.942686
  0
POLYLINE
  8
0
  6
CONTINUOUS
 62
1
 66
1
 70
2
  0
VERTEX
  8
0
 10
1653.365142
 20
881.939300
 70
0
 42
0.057944
  0
VERTEX
  8
0
 10
1658.583639
 20
885.883802
 70
0
 42
0.059305
  0
VERTEX
  8
0
 10
1662.696206
 20
890.873390
 70
0
 42
0.060571
  0
VERTEX
  8
0
 10
1665.477888
 20
896.635141
 70
0
 42
0.061435
  0
VERTEX
  8
0
 10
1666.776531
 20
902.853891
 70
0
 42
0.061671
  0
VERTEX
  8
0
 10
1666.521101
 20
909.189482
 70
0
 42
0.061214
  0
VERTEX
  8
0
 10
1664.725569
 20
915.295364
 70
0
 42
0.060187
  0
VERTEX
  8
0
 10
1661.488149
 20
920.837550
 70
0
 42
0.058855
  0
VERTEX
  8
0
 10
1656.985924
 20
925.512890
 70
0
 42
0.057528
  0
VERTEX
  8
0
 10
1651.465162
 20
929.065647
 70
0
 42
0.056477
  0
VERTEX
  8
0
 10
1645.227842
 20
931.301488
 70
0
 42
0.055892
  0
VERTEX
  8
0
 10
1638.615140
 20
932.098117
 70
0
  0
SEQEND
  0
POLYLINE
  8
0
  6
CONTINUOUS
 62
1
 66
1
 70
2
  0
VERTEX
  8
0
 10
1623.453680
 20
881.887384
 70
0
 42
0.053351
  0
VERTEX
  8
0
 10
1629.120010
 20
879.346738
 70
0
 42
0.052667
  0
VERTEX
  8
0
 10
1635.232991
 20
878.044970
 70
0
 42
0.052427
  0
VERTEX
  8
0
 10
1641.497293
 20
878.044970
 70
0
 42
0.052667
  0
VERTEX
  8
0
 10
1647.610275
 20
879.346738
 70
0
 42
0.053351
  0
VERTEX
  8
0
 10
1653.276605
 20
881.887384
 70
0
  0
SEQEND
  0
POLYLINE
  8
0
  6
CONTINUOUS
 62
1
 66
1
 70
2
  0
VERTEX
  8
0
 10
1653.355507
 20
881.960576
 70
0
 42
-0.042310
  0
VERTEX
  8
0
 10
1650.177610
 20
890.924685
 70
0
 42
-0.042646
  0
VERTEX
  8
0
 10
1648.567418
 20
900.259931
 70
0
 42
-0.042764
  0
VERTEX
  8
0
 10
1648.567418
 20
909.719988
 70
0
 42
-0.042646
  0
VERTEX
  8
0
 10
1650.177610
 20
919.055234
 70
0
 42
-0.042310
  0
VERTEX
  8
0
 10
1653.355507
 20
928.019343
 70
0
  0
SEQEND
  0
POLYLINE
  8
0
  6
CONTINUOUS
 62
1
 66
1
 70
2
  0
VERTEX
  8
0
 10
1623.374778
 20
928.019343
 70
0
 42
-0.042310
  0
VERTEX
  8
0
 10
1626.552675
 20
919.055234
 70
0
 42
-0.042646
  0
VERTEX
  8
0
 10
1628.162867
 20
909.719988
 70
0
 42
-0.042764
  0
VERTEX
  8
0
 10
1628.162867
 20
900.259931
 70
0
 42
-0.042646
  0
VERTEX
  8
0
 10
1626.552675
 20
890.924685
 70
0
 42
-0.042310
  0
VERTEX
  8
0
 10
1623.374778
 20
881.960576
 70
0
  0
SEQEND
  0
POLYLINE
  8
0
  6
CONTINUOUS
 62
1
 66
1
 70
2
  0
VERTEX
  8
0
 10
1638.115145
 20
932.098117
 70
0
 42
0.055892
  0
VERTEX
  8
0
 10
1631.502442
 20
931.301488
 70
0
 42
0.056477
  0
VERTEX
  8
0
 10
1625.265123
 20
929.065647
 70
0
 42
0.057528
  0
VERTEX
  8
0
 10
1619.744361
 20
925.512890
 70
0
 42
0.058855
  0
VERTEX
  8
0
 10
1615.242136
 20
920.837550
 70
0
 42
0.060187
  0
VERTEX
  8
0
 10
1612.004716
 20
915.295364
 70
0
 42
0.061214
  0
VERTEX
  8
0
 10
1610.209184
 20
909.189482
 70
0
 42
0.061671
  0
VERTEX
  8
0
 10
1609.953753
 20
902.853891
 70
0
 42
0.061435
  0
VERTEX
  8
0
 10
1611.252396
 20
896.635141
 70
0
 42
0.060571
  0
VERTEX
  8
0
 10
1614.034079
 20
890.873390
 70
0
 42
0.059305
  0
VERTEX
  8
0
 10
1618.146645
 20
885.883802
 70
0
 42
0.057944
  0
VERTEX
  8
0
 10
1623.365142
 20
881.939300
 70
0
  0
SEQEND
  0
POLYLINE
  8
0
  6
CONTINUOUS
 62
1
 66
1
 70
2
  0
VERTEX
  8
0
 10
1639.864378
 20
927.297623
 70
0
 42
-0.059478
  0
VERTEX
  8
0
 10
1645.596684
 20
926.258477
 70
0
 42
-0.060310
  0
VERTEX
  8
0
 10
1650.883078
 20
923.907873
 70
0
  0
SEQEND
  0
POLYLINE
  8
0
  6
CONTINUOUS
 62
1
 66
1
 70
2
  0
VERTEX
  8
0
 10
1636.865906
 20
927.297623
 70
0
 42
0.268165
  0
VERTEX
  8
0
 10
1637.629006
 20
926.099994
 70
0
 42
0.249457
  0
VERTEX
  8
0
 10
1639.101278
 20
926.099994
 70
0
 42
0.268165
  0
VERTEX
  8
0
 10
1639.864378
 20
927.297623
 70
0
  0
SEQEND
  0
POLYLINE
  8
0
  6
CONTINUOUS
 62
1
 66
1
 70
2
  0
VERTEX
  8
0
 10
1638.115145
 20
932.098117
 70
0
 42
0.412473
  0
VERTEX
  8
0
 10
1638.365142
 20
931.861360
 70
0
 42
0.412473
  0
VERTEX
  8
0
 10
1638.615140
 20
932.098117
 70
0
  0
SEQEND
  0
POLYLINE
  8
0
  6
CONTINUOUS
 62
1
 66
1
 70
2
  0
VERTEX
  8
0
 10
1625.847206
 20
923.907873
 70
0
 42
-0.060310
  0
VERTEX
  8
0
 10
1631.133601
 20
926.258477
 70
0
 42
-0.059478
  0
VERTEX
  8
0
 10
1636.865906
 20
927.297623
 70
0
  0
SEQEND
  0
POLYLINE
  8
0
  6
CONTINUOUS
 62
1
 66
1
 70
2
  0
VERTEX
  8
0
 10
1650.883078
 20
886.072046
 70
0
 42
-0.054470
  0
VERTEX
  8
0
 10
1646.136856
 20
883.894530
 70
0
 42
-0.053745
  0
VERTEX
  8
0
 10
1640.999872
 20
882.777694
 70
0
 42
-0.053491
  0
VERTEX
  8
0
 10
1635.730413
 20
882.777694
 70
0
 42
-0.053745
  0
VERTEX
  8
0
 10
1630.593428
 20
883.894530
 70
0
 42
-0.054470
  0
VERTEX
  8
0
 10
1625.847206
 20
886.072046
 70
0
  0
SEQEND
  0
LINE
  8
0
  6
CONTINUOUS
 62
1
 10
1636.865906
 20
927.297623
 11
1638.115145
 21
932.098117
  0
LINE
  8
0
  6
CONTINUOUS
 62
1
 10
1638.615140
 20
932.098117
 11
1639.864378
 21
927.297623
  0
POLYLINE
  8
0
  6
CONTINUOUS
 62
1
 66
1
 70
2
  0
VERTEX
  8
0
 10
1651.350400
 20
923.102856
 70
0
 42
0.264500
  0
VERTEX
  8
0
 10
1650.883078
 20
923.907873
 70
0
  0
SEQEND
  0
POLYLINE
  8
0
  6
CONTINUOUS
 62
1
 66
1
 70
2
  0
VERTEX
  8
0
 10
1651.350400
 20
886.877064
 70
0
 42
0.081701
  0
VERTEX
  8
0
 10
1651.302425
 20
887.168151
 70
0
  0
SEQEND
  0
POLYLINE
  8
0
  6
CONTINUOUS
 62
1
 66
1
 70
2
  0
VERTEX
  8
0
 10
1625.847206
 20
923.907873
 70
0
 42
0.355774
  0
VERTEX
  8
0
 10
1625.427860
 20
922.811768
 70
0
  0
SEQEND
  0
POLYLINE
  8
0
  6
CONTINUOUS
 62
1
 66
1
 70
2
  0
VERTEX
  8
0
 10
1651.302425
 20
922.811768
 70
0
 42
0.081701
  0
VERTEX
  8
0
 10
1651.350400
 20
923.102856
 70
0
  0
SEQEND
  0
POLYLINE
  8
0
  6
CONTINUOUS
 62
1
 66
1
 70
2
  0
VERTEX
  8
0
 10
1650.883078
 20
886.072046
 70
0
 42
0.264500
  0
VERTEX
  8
0
 10
1651.350400
 20
886.877064
 70
0
  0
SEQEND
  0
POLYLINE
  8
0
  6
CONTINUOUS
 62
1
 66
1
 70
2
  0
VERTEX
  8
0
 10
1625.427860
 20
887.168152
 70
0
 42
0.355774
  0
VERTEX
  8
0
 10
1625.847206
 20
886.072046
 70
0
  0
SEQEND
  0
POLYLINE
  8
0
  6
CONTINUOUS
 62
1
 66
1
 70
2
  0
VERTEX
  8
0
 10
1638.080057
 20
935.902770
 70
0
 42
0.051213
  0
VERTEX
  8
0
 10
1631.156902
 20
935.134015
 70
0
 42
0.051668
  0
VERTEX
  8
0
 10
1624.565297
 20
932.978755
 70
0
 42
0.052496
  0
VERTEX
  8
0
 10
1618.608429
 20
929.536123
 70
0
 42
0.053573
  0
VERTEX
  8
0
 10
1613.560291
 20
924.964466
 70
0
 42
0.054721
  0
VERTEX
  8
0
 10
1609.653076
 20
919.474062
 70
0
 42
0.055723
  0
VERTEX
  8
0
 10
1607.066501
 20
913.317447
 70
0
 42
0.056370
  0
VERTEX
  8
0
 10
1605.919538
 20
906.777801
 70
0
 42
0.056516
  0
VERTEX
  8
0
 10
1606.264942
 20
900.155922
 70
0
 42
0.056127
  0
VERTEX
  8
0
 10
1608.086826
 20
893.756389
 70
0
 42
0.055293
  0
VERTEX
  8
0
 10
1611.301391
 20
887.873555
 70
0
 42
0.054196
  0
VERTEX
  8
0
 10
1615.760780
 20
882.778007
 70
0
 42
0.053055
  0
VERTEX
  8
0
 10
1621.259879
 20
878.704120
 70
0
  0
SEQEND
  0
POLYLINE
  8
0
  6
CONTINUOUS
 62
1
 66
1
 70
2
  0
VERTEX
  8
0
 10
1655.470405
 20
878.704120
 70
0
 42
0.053055
  0
VERTEX
  8
0
 10
1660.969504
 20
882.778007
 70
0
 42
0.054196
  0
VERTEX
  8
0
 10
1665.428893
 20
887.873555
 70
0
 42
0.055293
  0
VERTEX
  8
0
 10
1668.643458
 20
893.756389
 70
0
 42
0.056127
  0
VERTEX
  8
0
 10
1670.465343
 20
900.155922
 70
0
 42
0.056516
  0
VERTEX
  8
0
 10
1670.810747
 20
906.777801
 70
0
 42
0.056370
  0
VERTEX
  8
0
 10
1669.663783
 20
913.317447
 70
0
 42
0.055723
  0
VERTEX
  8
0
 10
1667.077208
 20
919.474062
 70
0
 42
0.054721
  0
VERTEX
  8
0
 10
1663.169993
 20
924.964466
 70
0
 42
0.053573
  0
VERTEX
  8
0
 10
1658.121855
 20
929.536123
 70
0
 42
0.052496
  0
VERTEX
  8
0
 10
1652.164987
 20
932.978755
 70
0
 42
0.051668
  0
VERTEX
  8
0
 10
1645.573382
 20
935.134015
 70
0
 42
0.051213
  0
VERTEX
  8
0
 10
1638.650227
 20
935.902770
 70
0
  0
SEQEND
  0
POLYLINE
  8
0
  6
CONTINUOUS
 62
1
 66
1
 70
2
  0
VERTEX
  8
0
 10
1621.360843
 20
878.644917
 70
0
 42
0.053351
  0
VERTEX
  8
0
 10
1627.822447
 20
875.747689
 70
0
 42
0.052667
  0
VERTEX
  8
0
 10
1634.793391
 20
874.263217
 70
0
 42
0.052427
  0
VERTEX
  8
0
 10
1641.936894
 20
874.263217
 70
0
 42
0.052667
  0
VERTEX
  8
0
 10
1648.907837
 20
875.747689
 70
0
 42
0.053351
  0
VERTEX
  8
0
 10
1655.369442
 20
878.644917
 70
0
  0
SEQEND
  0
LINE
  8
0
  6
CONTINUOUS
 62
1
 10
1639.862083
 20
927.252087
 11
1639.862083
 21
885.065574
  0
LINE
  8
0
  6
CONTINUOUS
 62
1
 10
1636.865906
 20
927.297623
 11
1636.865906
 21
885.065730
  0
ARC
  8
0
  6
CONTINUOUS
 62
1
 10
1638.363993
 20
885.014760
 40
1.498086
 50
180.000000
 51
1.942686
  0
CIRCLE
  8
0
  6
CONTINUOUS
 62
1
 10
1615.865142
 20
793.489960
 40
6.000000
  0
CIRCLE
  8
0
  6
CONTINUOUS
 62
1
 10
1640.865142
 20
793.489960
 40
6.000000
  0
LINE
  8
0
  6
CONTINUOUS
 62
1
 10
788.465142
 20
1235.118318
 11
1688.465142
 21
1235.118318
  0
LINE
  8
0
  6
CONTINUOUS
 62
1
 10
1688.465142
 20
1245.118318
 11
788.465142
 21
1245.118318
  0
LINE
  8
0
  6
CONTINUOUS
 62
1
 10
835.906814
 20
530.418318
 11
836.697044
 21
454.556464
  0
LINE
  8
0
  6
CONTINUOUS
 62
1
 10
841.665138
 20
414.118318
 11
842.165138
 21
414.118318
  0
LINE
  8
0
  6
CONTINUOUS
 62
1
 10
842.165138
 20
414.118318
 11
841.665138
 21
414.118318
  0
LINE
  8
0
  6
CONTINUOUS
 62
1
 10
884.165138
 20
414.118318
 11
873.165138
 21
418.118303
  0
LINE
  8
0
  6
CONTINUOUS
 62
1
 10
832.165138
 20
414.118318
 11
843.165138
 21
418.118303
  0
ARC
  8
0
  6
CONTINUOUS
 62
1
 10
873.633567
 20
454.618964
 40
5.999996
 50
269.999969
 51
359.403160
  0
ARC
  8
0
  6
CONTINUOUS
 62
1
 10
842.696723
 20
454.618964
 40
6.000000
 50
180.596802
 51
270.000000
  0
LINE
  8
0
  6
CONTINUOUS
 62
1
 10
879.665138
 20
457.618964
 11
836.665138
 21
457.618964
  0
LINE
  8
0
  6
CONTINUOUS
 62
1
 10
880.423470
 20
530.418318
 11
879.633247
 21
454.556464
  0
LINE
  8
0
  6
CONTINUOUS
 62
1
 10
843.165138
 20
448.618964
 11
843.165138
 21
418.118303
  0
LINE
  8
0
  6
CONTINUOUS
 62
1
 10
873.165138
 20
448.618964
 11
873.165138
 21
418.118303
  0
LINE
  8
0
  6
CONTINUOUS
 62
1
 10
884.165138
 20
414.118318
 11
874.165138
 21
414.118318
  0
LINE
  8
0
  6
CONTINUOUS
 62
1
 10
832.165138
 20
414.118318
 11
832.165138
 21
413.118318
  0
LINE
  8
0
  6
CONTINUOUS
 62
1
 10
874.665138
 20
414.118318
 11
832.165138
 21
414.118318
  0
LINE
  8
0
  6
CONTINUOUS
 62
1
 10
873.165138
 20
418.118303
 11
843.196083
 21
418.118303
  0
LINE
  8
0
  6
CONTINUOUS
 62
1
 10
873.633567
 20
448.618964
 11
842.696723
 21
448.618964
  0
LINE
  8
0
  6
CONTINUOUS
 62
1
 10
884.165138
 20
414.118318
 11
884.165138
 21
413.118318
  0
LINE
  8
0
  6
CONTINUOUS
 62
1
 10
1596.506814
 20
530.418318
 11
1597.297044
 21
454.556464
  0
LINE
  8
0
  6
CONTINUOUS
 62
1
 10
1602.265138
 20
414.118318
 11
1602.765138
 21
414.118318
  0
LINE
  8
0
  6
CONTINUOUS
 62
1
 10
1602.765138
 20
414.118318
 11
1602.265138
 21
414.118318
  0
LINE
  8
0
  6
CONTINUOUS
 62
1
 10
1644.765138
 20
414.118318
 11
1633.765138
 21
418.118303
  0
LINE
  8
0
  6
CONTINUOUS
 62
1
 10
1592.765138
 20
414.118318
 11
1603.765138
 21
418.118303
  0
ARC
  8
0
  6
CONTINUOUS
 62
1
 10
1634.233567
 20
454.618964
 40
5.999996
 50
269.999969
 51
359.403160
  0
ARC
  8
0
  6
CONTINUOUS
 62
1
 10
1603.296723
 20
454.618964
 40
6.000000
 50
180.596802
 51
270.000000
  0
LINE
  8
0
  6
CONTINUOUS
 62
1
 10
1640.265138
 20
457.618964
 11
1597.265138
 21
457.618964
  0
LINE
  8
0
  6
CONTINUOUS
 62
1
 10
1641.023470
 20
530.418318
 11
1640.233247
 21
454.556464
  0
LINE
  8
0
  6
CONTINUOUS
 62
1
 10
1603.765138
 20
448.618964
 11
1603.765138
 21
418.118303
  0
LINE
  8
0
  6
CONTINUOUS
 62
1
 10
1633.765138
 20
448.618964
 11
1633.765138
 21
418.118303
  0
LINE
  8
0
  6
CONTINUOUS
 62
1
 10
1644.765138
 20
414.118318
 11
1634.765138
 21
414.118318
  0
LINE
  8
0
  6
CONTINUOUS
 62
1
 10
1592.765138
 20
414.118318
 11
1592.765138
 21
413.118318
  0
LINE
  8
0
  6
CONTINUOUS
 62
1
 10
1635.265138
 20
414.118318
 11
1592.765138
 21
414.118318
  0
LINE
  8
0
  6
CONTINUOUS
 62
1
 10
1633.765138
 20
418.118303
 11
1603.796083
 21
418.118303
  0
LINE
  8
0
  6
CONTINUOUS
 62
1
 10
1634.233567
 20
448.618964
 11
1603.296723
 21
448.618964
  0
LINE
  8
0
  6
CONTINUOUS
 62
1
 10
1644.765138
 20
414.118318
 11
1644.765138
 21
413.118318
  0
LINE
  8
0
  6
CONTINUOUS
 62
1
 10
832.165138
 20
413.118318
 11
884.165138
 21
413.118318
  0
LINE
  8
0
  6
CONTINUOUS
 62
1
 10
1592.765138
 20
413.118318
 11
1644.765138
 21
413.118318
  0
ENDSEC
  0
EOF
