  0
SECTION
  2
HEADER
  9
$LIMMIN
 10
0.000000
 20
0.000000
  9
$LIMMAX
 10
987.510000
 20
923.000000
  9
$EXTMIN
 10
0.000000
 20
0.000000
  9
$EXTMAX
 10
987.510000
 20
923.000000
  9
$ANGBASE
 50
0.0
  9
$ANGDIR
 70
0
  9
$DIMRND
 40
0.100000
  9
$DIMSE1
 70
0
  9
$DIMSE2
 70
0
  9
$DIMTXT
 40
3.500000
  9
$LTSCALE
 40
1.000000
  9
$LUPREC
 70
5
  9
$AUPREC
 70
5
  9
$PDMODE
 70
2
  9
$PDSIZE
 40
4.937550
  0
ENDSEC
  0
SECTION
  2
TABLES
  0
TABLE
  2
VPORT
  70
1
  0
VPORT
  2
*ACTIVE
 70
0
  10
0.0
 20
0.0
 11
1.0
 21
1.0
 12
594.0
 22
420.0
 13
0.0
 23
0.0
 14
10.0
 24
10.0
 15
10.0
 25
10.0
 16
0.0
 26
0.0
 36
1.0
 17
594.0
 27
420.0
 37
100.0
 40
1000.0
 41
1.0
 42
50.0
 43
0.0
 44
0.0
 50
0.0
 51
0.0
 71
0
 72
2000
 73
1
 74
3
 75
0
 76
0
 77
0
 78
1
  0
ENDTAB
  0
TABLE
  2
LTYPE
 70
8
  0
LTYPE
  2
CONTINUOUS
 70
0
  3
Solid line
 72
65
 73
0
 40
0.0
  0
LTYPE
  2
DASHED
 70
0
  3
Dashed line
 72
65
 73
2
 40
6.000000
 49
3.000000
 49
-3.000000
  0
LTYPE
  2
CENTER
 70
0
  3
Chain line
 72
65
 73
4
 40
24.000000
 49
15.000000
 49
-3.000000
 49
3.000000
 49
-3.000000
  0
LTYPE
  2
RANDOM
 70
0
  3
Random line
 72
65
 73
4
 40
22.500000
 49
6.000000
 49
-3.000000
 49
4.500000
 49
-9.000000
  0
LTYPE
  2
CHAIN_2_168430214
  3
CHAIN_2_168430214
 70
0
 72
65
 73
4
 40
24.000000
 49
15.000000
 49
-3.000000
 49
3.000000
 49
-3.000000
  0
LTYPE
  2
DASH_2_167774853
  3
DASH_2_167774853
 70
0
 72
65
 73
2
 40
6.000000
 49
3.000000
 49
-3.000000
  0
LTYPE
  2
DASH_2_167774853
  3
DASH_2_167774853
 70
0
 72
65
 73
2
 40
6.000000
 49
3.000000
 49
-3.000000
  0
LTYPE
  2
CHAIN_2_336860294
  3
CHAIN_2_336860294
 70
0
 72
65
 73
4
 40
48.000000
 49
30.000000
 49
-6.000000
 49
6.000000
 49
-6.000000
  0
ENDTAB
  0
TABLE
  2
STYLE
 70
9
  0
STYLE
  2
STANDARD
 40
0
 41
1.0
 50
0.0
 71
0
 42
0
  3
simplex
  4

 70
0
  0
ENDTAB
  0
TABLE
  2
LAYER
 70
4
  0
LAYER
  2
0
 70
0
 62
7
  6
CONTINUOUS
  0
LAYER
  2
0
 62
1
  6
CONTINUOUS
 70
0
  0
LAYER
  2
MODEL
 62
1
  6
CONTINUOUS
 70
0
  0
LAYER
  2
MODEL-0
 62
1
  6
CONTINUOUS
 70
0
  0
ENDTAB
  0
ENDSEC
  0
SECTION
  2
BLOCKS
  0
BLOCK
  2
CTR
  8
0
 70
0
 10
0.0
 20
0.0
 30
0.0
  0
LINE
  8
0
  6
CHAIN_2_336860294
 62
4
 10
0.000000
 20
7.500000
 11
0.000000
 21
-7.500000
  0
LINE
  8
0
  6
CHAIN_2_336860294
 62
4
 10
-7.500000
 20
0.000000
 11
7.500000
 21
0.000000
  0
ENDBLK
  0
ENDSEC
  0
SECTION
  2
ENTITIES
  0
LINE
  8
0
  6
CONTINUOUS
 62
1
 10
862.500000
 20
664.099012
 11
862.500000
 21
165.000000
  0
LINE
  8
MODEL-0
  6
CONTINUOUS
 62
1
 10
872.298734
 20
831.999204
 11
756.499984
 21
831.999204
  0
LINE
  8
MODEL-0
  6
CONTINUOUS
 62
1
 10
781.599990
 20
869.999204
 11
883.323183
 21
869.999204
  0
LINE
  8
MODEL-0
  6
CONTINUOUS
 62
1
 10
755.599990
 20
839.999166
 11
756.499984
 21
839.999166
  0
LINE
  8
MODEL-0
  6
CONTINUOUS
 62
1
 10
756.499984
 20
849.099165
 11
756.499984
 21
831.999204
  0
LINE
  8
MODEL-0
  6
CONTINUOUS
 62
1
 10
780.599990
 20
849.999166
 11
756.599990
 21
849.999166
  0
LINE
  8
MODEL-0
  6
CONTINUOUS
 62
1
 10
755.599990
 20
848.999166
 11
755.599990
 21
839.999166
  0
ARC
  8
MODEL-0
  6
CONTINUOUS
 62
1
 10
756.599990
 20
848.999166
 40
1.000000
 50
90.000000
 51
180.000000
  0
LINE
  8
MODEL-0
  6
CONTINUOUS
 62
1
 10
780.599990
 20
868.999204
 11
780.599990
 21
849.999166
  0
ARC
  8
MODEL-0
  6
CONTINUOUS
 62
1
 10
781.599990
 20
868.999204
 40
1.000000
 50
90.000000
 51
180.000000
  0
LINE
  8
MODEL-0
  6
CONTINUOUS
 62
1
 10
901.797585
 20
843.018915
 11
885.020240
 21
869.296261
  0
ARC
  8
MODEL-0
  6
CONTINUOUS
 62
1
 10
900.100528
 20
841.321859
 40
2.400000
 50
300.000000
 51
45.000000
  0
LINE
  8
MODEL-0
  6
CONTINUOUS
 62
1
 10
901.300528
 20
839.243398
 11
872.298734
 21
831.999204
  0
ARC
  8
MODEL-0
  6
CONTINUOUS
 62
1
 10
883.323183
 20
867.599204
 40
2.400000
 50
45.000000
 51
90.000000
  0
LINE
  8
MODEL-0
  6
CONTINUOUS
 62
1
 10
187.500048
 20
870.000000
 11
210.500000
 21
870.000000
  0
LINE
  8
MODEL-0
  6
CONTINUOUS
 62
1
 10
187.500048
 20
907.962782
 11
187.500048
 21
870.000000
  0
LINE
  8
MODEL-0
  6
CONTINUOUS
 62
1
 10
210.500000
 20
850.000000
 11
237.999984
 21
850.000000
  0
LINE
  8
MODEL-0
  6
CONTINUOUS
 62
1
 10
210.500000
 20
870.000000
 11
210.500000
 21
850.000000
  0
LINE
  8
MODEL-0
  6
CONTINUOUS
 62
1
 10
132.500000
 20
832.000000
 11
234.599975
 21
832.000000
  0
LINE
  8
MODEL-0
  6
CONTINUOUS
 62
1
 10
234.599975
 20
849.099976
 11
234.599975
 21
840.000000
  0
LINE
  8
MODEL-0
  6
CONTINUOUS
 62
1
 10
235.500000
 20
850.000000
 11
235.500000
 21
840.000000
  0
LINE
  8
MODEL-0
  6
CONTINUOUS
 62
1
 10
234.599975
 20
840.000000
 11
235.500000
 21
840.000000
  0
LINE
  8
MODEL-0
  6
CONTINUOUS
 62
1
 10
187.500048
 20
907.962782
 11
132.500000
 21
923.000000
  0
LINE
  8
MODEL-0
  6
CONTINUOUS
 62
1
 10
234.599975
 20
840.000000
 11
234.599975
 21
832.000000
  0
LINE
  8
MODEL-0
  6
CONTINUOUS
 62
1
 10
216.499984
 20
849.999326
 11
232.786781
 21
849.999326
  0
LINE
  8
MODEL-0
  6
CONTINUOUS
 62
1
 10
216.499984
 20
849.999326
 11
216.499984
 21
850.999326
  0
LINE
  8
MODEL-0
  6
CONTINUOUS
 62
1
 10
774.499984
 20
849.999326
 11
774.499984
 21
850.999326
  0
LINE
  8
MODEL-0
  6
CONTINUOUS
 62
1
 10
752.999984
 20
849.999326
 11
774.499984
 21
849.999326
  0
LINE
  8
MODEL-0
  6
CONTINUOUS
 62
1
 10
774.499984
 20
850.999326
 11
216.499984
 21
850.999326
  0
LINE
  8
MODEL-0
  6
CONTINUOUS
 62
1
 10
237.999984
 20
836.999326
 11
237.999984
 21
850.999326
  0
LINE
  8
MODEL-0
  6
CONTINUOUS
 62
1
 10
752.999984
 20
836.999326
 11
752.999984
 21
850.999326
  0
LINE
  8
MODEL-0
  6
CONTINUOUS
 62
1
 10
242.999984
 20
831.999326
 11
747.999984
 21
831.999326
  0
LINE
  8
MODEL-0
  6
CHAIN_2_168430214
 62
4
 10
236.768615
 20
850.999326
 11
238.999984
 21
850.999326
  0
LINE
  8
MODEL-0
  6
CHAIN_2_168430214
 62
4
 10
754.231354
 20
850.999326
 11
751.999984
 21
850.999326
  0
LINE
  8
MODEL-0
  6
CONTINUOUS
 62
1
 10
776.868779
 20
858.640584
 11
774.499984
 21
850.999326
  0
LINE
  8
MODEL-0
  6
CONTINUOUS
 62
1
 10
775.455142
 20
850.703227
 11
777.823936
 21
858.344484
  0
LINE
  8
MODEL-0
  6
CONTINUOUS
 62
1
 10
774.499984
 20
850.999326
 11
775.455142
 21
850.703227
  0
LINE
  8
MODEL-0
  6
CONTINUOUS
 62
1
 10
777.527837
 20
857.389327
 11
776.572679
 21
857.685426
  0
LINE
  8
MODEL-0
  6
CONTINUOUS
 62
1
 10
777.823936
 20
858.344484
 11
776.868779
 21
858.640584
  0
LINE
  8
MODEL-0
  6
CONTINUOUS
 62
1
 10
215.549980
 20
860.999326
 11
216.185294
 21
868.260792
  0
LINE
  8
MODEL-0
  6
CONTINUOUS
 62
1
 10
240.549980
 20
860.999326
 11
236.549980
 21
860.999326
  0
LINE
  8
MODEL-0
  6
CONTINUOUS
 62
1
 10
219.549980
 20
860.999326
 11
215.549980
 21
860.999326
  0
ARC
  8
MODEL-0
  6
CONTINUOUS
 62
1
 10
219.173881
 20
867.999326
 40
3.000000
 50
90.000000
 51
175.000038
  0
LINE
  8
MODEL-0
  6
CONTINUOUS
 62
1
 10
350.951602
 20
872.762697
 11
352.052160
 21
881.999326
  0
LINE
  8
MODEL-0
  6
CONTINUOUS
 62
1
 10
360.148451
 20
872.762713
 11
359.047970
 21
881.999326
  0
ARC
  8
MODEL-0
  6
CONTINUOUS
 62
1
 10
355.549980
 20
889.999331
 40
2.000000
 50
10.375524
 51
169.625603
  0
LINE
  8
MODEL-0
  6
CONTINUOUS
 62
1
 10
359.047970
 20
881.999326
 11
357.517277
 21
890.359529
  0
LINE
  8
MODEL-0
  6
CONTINUOUS
 62
1
 10
352.052160
 20
881.999326
 11
353.582676
 21
890.359490
  0
ARC
  8
MODEL-0
  6
CONTINUOUS
 62
3
 10
348.965650
 20
872.999326
 40
2.000000
 50
270.000000
 51
353.205160
  0
ARC
  8
MODEL-0
  6
CONTINUOUS
 62
1
 10
362.134405
 20
872.999326
 40
2.000000
 50
186.794382
 51
270.000000
  0
LINE
  8
MODEL-0
  6
CONTINUOUS
 62
1
 10
315.030099
 20
881.999329
 11
314.739708
 21
889.260801
  0
ARC
  8
MODEL-0
  6
CONTINUOUS
 62
1
 10
311.751121
 20
888.999326
 40
2.999996
 50
5.000059
 51
90.000038
  0
LINE
  8
MODEL-0
  6
CONTINUOUS
 62
1
 10
219.886581
 20
860.999326
 11
775.549980
 21
860.999326
  0
LINE
  8
MODEL-0
  6
CONTINUOUS
 62
1
 10
227.646737
 20
850.999326
 11
229.138601
 21
860.999326
  0
LINE
  8
MODEL-0
  6
CONTINUOUS
 62
1
 10
221.431874
 20
850.999326
 11
220.020572
 21
860.132230
  0
LINE
  8
MODEL-0
  6
DASH_2_167774853
 62
7
 10
226.549980
 20
850.999326
 11
223.549980
 21
850.999326
  0
ARC
  8
MODEL-0
  6
CONTINUOUS
 62
1
 10
219.029453
 20
859.999326
 40
1.000003
 50
7.638336
 51
90.000191
  0
LINE
  8
MODEL-0
  6
CONTINUOUS
 62
1
 10
396.069860
 20
881.999329
 11
396.360252
 21
889.260801
  0
ARC
  8
MODEL-0
  6
CONTINUOUS
 62
1
 10
399.348838
 20
888.999326
 40
2.999996
 50
89.999962
 51
174.999941
  0
LINE
  8
MODEL-0
  6
CONTINUOUS
 62
1
 10
311.751121
 20
891.999326
 11
231.598859
 21
891.999326
  0
LINE
  8
MODEL-0
  6
CONTINUOUS
 62
1
 10
315.030090
 20
881.999326
 11
276.016699
 21
870.999326
  0
LINE
  8
MODEL-0
  6
CONTINUOUS
 62
1
 10
362.134405
 20
870.999326
 11
219.173881
 21
870.999326
  0
LINE
  8
MODEL-0
  6
CONTINUOUS
 62
1
 10
362.134310
 20
870.999326
 11
435.083261
 21
870.999326
  0
LINE
  8
MODEL-0
  6
DASH_2_167774853
 62
7
 10
435.083261
 20
870.999326
 11
484.675041
 21
870.999326
  0
LINE
  8
MODEL-0
  6
CONTINUOUS
 62
1
 10
216.736300
 20
869.748097
 11
229.946862
 21
891.126671
  0
ARC
  8
MODEL-0
  6
CONTINUOUS
 62
1
 10
231.598859
 20
889.999326
 40
2.000000
 50
90.000000
 51
145.689856
  0
LINE
  8
MODEL-0
  6
CONTINUOUS
 62
1
 10
775.549980
 20
860.999326
 11
774.914666
 21
868.260792
  0
ARC
  8
MODEL-0
  6
CONTINUOUS
 62
1
 10
771.926078
 20
867.999326
 40
3.000000
 50
4.999962
 51
90.000000
  0
LINE
  8
MODEL-0
  6
CONTINUOUS
 62
1
 10
640.148357
 20
872.762697
 11
639.047800
 21
881.999326
  0
LINE
  8
MODEL-0
  6
CONTINUOUS
 62
1
 10
630.951509
 20
872.762713
 11
632.051990
 21
881.999326
  0
ARC
  8
MODEL-0
  6
CONTINUOUS
 62
1
 10
635.549980
 20
889.999331
 40
2.000000
 50
10.374397
 51
169.624476
  0
LINE
  8
MODEL-0
  6
CONTINUOUS
 62
1
 10
632.051990
 20
881.999326
 11
633.582683
 21
890.359529
  0
LINE
  8
MODEL-0
  6
CONTINUOUS
 62
1
 10
639.047800
 20
881.999326
 11
637.517284
 21
890.359490
  0
ARC
  8
MODEL-0
  6
CONTINUOUS
 62
3
 10
642.134310
 20
872.999326
 40
2.000000
 50
186.794840
 51
270.000000
  0
ARC
  8
MODEL-0
  6
CONTINUOUS
 62
1
 10
628.965555
 20
872.999326
 40
2.000000
 50
270.000000
 51
353.205618
  0
LINE
  8
MODEL-0
  6
CONTINUOUS
 62
1
 10
676.069860
 20
881.999329
 11
676.360252
 21
889.260801
  0
ARC
  8
MODEL-0
  6
CONTINUOUS
 62
1
 10
679.348838
 20
888.999326
 40
2.999996
 50
89.999962
 51
174.999941
  0
LINE
  8
MODEL-0
  6
CONTINUOUS
 62
1
 10
763.453223
 20
850.999326
 11
761.961359
 21
860.999326
  0
LINE
  8
MODEL-0
  6
CONTINUOUS
 62
1
 10
769.668086
 20
850.999326
 11
771.079387
 21
860.132230
  0
LINE
  8
MODEL-0
  6
DASH_2_167774853
 62
7
 10
764.549980
 20
850.999326
 11
767.549980
 21
850.999326
  0
ARC
  8
MODEL-0
  6
CONTINUOUS
 62
1
 10
772.070507
 20
859.999326
 40
1.000003
 50
89.999809
 51
172.361664
  0
LINE
  8
MODEL-0
  6
CONTINUOUS
 62
1
 10
595.030099
 20
881.999329
 11
594.739708
 21
889.260801
  0
ARC
  8
MODEL-0
  6
CONTINUOUS
 62
1
 10
591.751121
 20
888.999326
 40
2.999996
 50
5.000059
 51
90.000038
  0
LINE
  8
MODEL-0
  6
CONTINUOUS
 62
1
 10
679.348838
 20
891.999326
 11
759.501100
 21
891.999326
  0
LINE
  8
MODEL-0
  6
CONTINUOUS
 62
1
 10
676.069870
 20
881.999326
 11
715.083261
 21
870.999326
  0
LINE
  8
MODEL-0
  6
CONTINUOUS
 62
1
 10
642.134310
 20
870.999326
 11
771.926078
 21
870.999326
  0
LINE
  8
MODEL-0
  6
CONTINUOUS
 62
1
 10
642.134310
 20
870.999326
 11
435.083261
 21
870.999326
  0
LINE
  8
MODEL-0
  6
CONTINUOUS
 62
1
 10
774.363660
 20
869.748097
 11
761.153097
 21
891.126671
  0
ARC
  8
MODEL-0
  6
CONTINUOUS
 62
1
 10
759.501100
 20
889.999326
 40
2.000000
 50
34.310144
 51
90.000000
  0
LINE
  8
MODEL-0
  6
CONTINUOUS
 62
1
 10
399.348838
 20
891.999326
 11
511.598859
 21
891.999326
  0
LINE
  8
MODEL-0
  6
CONTINUOUS
 62
1
 10
591.751121
 20
891.999326
 11
511.598859
 21
891.999326
  0
LINE
  8
MODEL-0
  6
CONTINUOUS
 62
1
 10
396.069870
 20
881.999326
 11
435.083261
 21
870.999326
  0
LINE
  8
MODEL-0
  6
CONTINUOUS
 62
1
 10
595.030090
 20
881.999326
 11
556.016699
 21
870.999326
  0
LINE
  8
MODEL-0
  6
CONTINUOUS
 62
1
 10
300.951602
 20
872.762697
 11
301.601006
 21
878.212936
  0
LINE
  8
MODEL-0
  6
CONTINUOUS
 62
1
 10
310.148451
 20
872.762713
 11
309.242396
 21
880.367460
  0
ARC
  8
MODEL-0
  6
CONTINUOUS
 62
3
 10
298.965650
 20
872.999326
 40
2.000000
 50
270.000000
 51
353.205160
  0
ARC
  8
MODEL-0
  6
CONTINUOUS
 62
1
 10
312.134405
 20
872.999326
 40
2.000000
 50
186.794382
 51
270.000000
  0
LINE
  8
MODEL-0
  6
CONTINUOUS
 62
1
 10
410.148357
 20
872.762697
 11
409.498953
 21
878.212936
  0
LINE
  8
MODEL-0
  6
CONTINUOUS
 62
1
 10
400.951509
 20
872.762713
 11
401.857564
 21
880.367460
  0
ARC
  8
MODEL-0
  6
CONTINUOUS
 62
3
 10
412.134310
 20
872.999326
 40
2.000000
 50
186.794840
 51
270.000000
  0
ARC
  8
MODEL-0
  6
CONTINUOUS
 62
1
 10
398.965555
 20
872.999326
 40
2.000000
 50
270.000000
 51
353.205618
  0
LINE
  8
MODEL-0
  6
CONTINUOUS
 62
1
 10
690.148388
 20
872.762697
 11
689.498984
 21
878.212936
  0
LINE
  8
MODEL-0
  6
CONTINUOUS
 62
1
 10
680.951540
 20
872.762713
 11
681.857594
 21
880.367460
  0
ARC
  8
MODEL-0
  6
CONTINUOUS
 62
3
 10
692.134340
 20
872.999326
 40
2.000000
 50
186.794840
 51
270.000000
  0
ARC
  8
MODEL-0
  6
CONTINUOUS
 62
1
 10
678.965585
 20
872.999326
 40
2.000000
 50
270.000000
 51
353.205618
  0
LINE
  8
MODEL-0
  6
CONTINUOUS
 62
1
 10
580.951633
 20
872.762697
 11
581.601037
 21
878.212936
  0
LINE
  8
MODEL-0
  6
CONTINUOUS
 62
1
 10
590.148481
 20
872.762713
 11
589.242426
 21
880.367460
  0
ARC
  8
MODEL-0
  6
CONTINUOUS
 62
3
 10
578.965680
 20
872.999326
 40
2.000000
 50
270.000000
 51
353.205160
  0
ARC
  8
MODEL-0
  6
CONTINUOUS
 62
1
 10
592.134435
 20
872.999326
 40
2.000000
 50
186.794382
 51
270.000000
  0
ARC
  8
MODEL-0
  6
CONTINUOUS
 62
1
 10
242.999984
 20
836.999326
 40
5.000000
 50
180.000000
 51
270.000000
  0
ARC
  8
MODEL-0
  6
CONTINUOUS
 62
1
 10
747.999984
 20
836.999326
 40
5.000000
 50
270.000000
 51
0.000000
  0
LINE
  8
MODEL-0
  6
CONTINUOUS
 62
1
 10
882.470443
 20
809.300194
 11
900.029501
 21
755.258969
  0
LINE
  8
MODEL-0
  6
CONTINUOUS
 62
1
 10
917.291240
 20
766.854157
 11
903.249988
 21
810.068688
  0
LINE
  8
MODEL-0
  6
CONTINUOUS
 62
1
 10
882.470443
 20
809.300194
 11
902.229806
 21
810.757279
  0
LINE
  8
MODEL-0
  6
CONTINUOUS
 62
1
 10
900.029501
 20
755.258969
 11
916.870640
 21
765.697427
  0
ARC
  8
MODEL-0
  6
CONTINUOUS
 62
1
 10
902.298932
 20
809.759671
 40
1.000000
 50
18.000000
 51
93.963757
  0
ARC
  8
MODEL-0
  6
CONTINUOUS
 62
1
 10
916.340184
 20
766.545140
 40
1.000000
 50
302.036243
 51
18.000000
  0
LINE
  8
MODEL-0
  6
CONTINUOUS
 62
1
 10
890.545903
 20
752.085802
 11
900.029501
 21
755.258969
  0
LINE
  8
MODEL-0
  6
CONTINUOUS
 62
1
 10
872.931934
 20
806.296023
 11
882.469467
 21
809.303196
  0
LINE
  8
MODEL-0
  6
CONTINUOUS
 62
1
 10
884.211055
 20
771.582460
 11
882.308942
 21
770.964426
  0
LINE
  8
MODEL-0
  6
CONTINUOUS
 62
1
 10
882.308942
 20
770.964426
 11
878.164592
 21
783.719422
  0
LINE
  8
MODEL-0
  6
CONTINUOUS
 62
1
 10
880.066705
 20
784.337456
 11
878.164592
 21
783.719422
  0
LINE
  8
MODEL-0
  6
CONTINUOUS
 62
1
 10
872.931934
 20
806.296023
 11
890.545903
 21
752.085802
  0
LINE
  8
MODEL-0
  6
CONTINUOUS
 62
1
 10
873.715070
 20
772.377969
 11
881.078213
 21
774.752218
  0
LINE
  8
MODEL-0
  6
CONTINUOUS
 62
1
 10
871.053026
 20
779.925206
 11
878.606071
 21
782.360690
  0
ARC
  8
MODEL-0
  6
CONTINUOUS
 62
1
 10
979.721756
 20
612.171068
 40
7.000000
 50
270.000000
 51
348.494427
  0
ARC
  8
MODEL-0
  6
CONTINUOUS
 62
1
 10
979.721756
 20
627.828933
 40
7.000000
 50
11.505573
 51
90.000000
  0
ARC
  8
MODEL-0
  6
CONTINUOUS
 62
1
 10
941.260473
 20
620.000000
 40
46.250000
 50
348.494427
 51
11.505573
  0
LINE
  8
MODEL-0
  6
CONTINUOUS
 62
1
 10
979.721756
 20
634.828933
 11
915.610473
 21
634.828933
  0
LINE
  8
MODEL-0
  6
CONTINUOUS
 62
1
 10
979.721756
 20
605.171068
 11
915.610473
 21
605.171068
  0
LINE
  8
MODEL-0
  6
CONTINUOUS
 62
1
 10
132.500000
 20
923.000000
 11
132.500000
 21
0.000000
  0
LINE
  8
MODEL-0
  6
CONTINUOUS
 62
1
 10
132.500000
 20
0.000000
 11
847.500000
 21
0.000000
  0
LINE
  8
MODEL-0
  6
CONTINUOUS
 62
1
 10
847.500000
 20
0.000000
 11
847.500000
 21
832.000000
  0
LINE
  8
MODEL-0
  6
CONTINUOUS
 62
1
 10
132.500000
 20
15.000000
 11
847.500000
 21
15.000000
  0
LINE
  8
MODEL-0
  6
CONTINUOUS
 62
1
 10
847.500000
 20
60.000000
 11
887.500000
 21
75.000000
  0
LINE
  8
MODEL-0
  6
CONTINUOUS
 62
1
 10
887.500000
 20
75.000000
 11
887.500000
 21
165.000000
  0
LINE
  8
MODEL-0
  6
CONTINUOUS
 62
1
 10
847.500000
 20
165.000000
 11
887.500000
 21
165.000000
  0
LINE
  8
MODEL-0
  6
CONTINUOUS
 62
1
 10
862.500000
 20
175.000000
 11
915.610473
 21
175.000000
  0
LINE
  8
MODEL-0
  6
CONTINUOUS
 62
1
 10
915.610473
 20
175.000000
 11
915.610473
 21
645.000000
  0
LINE
  8
MODEL-0
  6
CONTINUOUS
 62
1
 10
915.610473
 20
645.000000
 11
862.500000
 21
645.000000
  0
LINE
  8
MODEL-0
  6
CONTINUOUS
 62
1
 10
132.500000
 20
525.000000
 11
67.500000
 21
525.000000
  0
LINE
  8
MODEL-0
  6
CONTINUOUS
 62
1
 10
67.500000
 20
525.000000
 11
67.500000
 21
325.000000
  0
LINE
  8
MODEL-0
  6
CONTINUOUS
 62
1
 10
67.500000
 20
325.000000
 11
132.500000
 21
325.000000
  0
LINE
  8
MODEL-0
  6
CONTINUOUS
 62
1
 10
847.500000
 20
705.000000
 11
132.500000
 21
705.000000
  0
LINE
  8
MODEL-0
  6
CONTINUOUS
 62
1
 10
847.500000
 20
664.099012
 11
919.610473
 21
664.099012
  0
LINE
  8
MODEL-0
  6
CONTINUOUS
 62
1
 10
921.410473
 20
665.899012
 11
921.410473
 21
694.843942
  0
LINE
  8
MODEL-0
  6
CONTINUOUS
 62
1
 10
921.410473
 20
694.843942
 11
892.575520
 21
712.618912
  0
ARC
  8
MODEL-0
  6
CONTINUOUS
 62
1
 10
919.610473
 20
665.899012
 40
1.800000
 50
270.000000
 51
0.000000
  0
LINE
  8
MODEL-0
  6
CONTINUOUS
 62
1
 10
892.575520
 20
712.618912
 11
854.099011
 21
831.999204
  0
LINE
  8
MODEL-0
  6
CHAIN_2_168430214
 62
4
 10
179.902379
 20
791.000000
 11
77.381288
 21
791.000000
  0
LINE
  8
MODEL-0
  6
CONTINUOUS
 62
1
 10
102.500000
 20
776.000000
 11
102.500000
 21
806.000000
  0
LINE
  8
MODEL-0
  6
CONTINUOUS
 62
1
 10
102.500000
 20
806.000000
 11
132.500000
 21
806.000000
  0
LINE
  8
MODEL-0
  6
CONTINUOUS
 62
1
 10
102.500000
 20
776.000000
 11
132.500000
 21
776.000000
  0
LINE
  8
MODEL-0
  6
CHAIN_2_168430214
 62
4
 10
179.902379
 20
385.000000
 11
79.881288
 21
385.000000
  0
LINE
  8
MODEL-0
  6
CHAIN_2_168430214
 62
4
 10
179.902379
 20
321.440000
 11
79.881288
 21
321.440000
  0
ARC
  8
MODEL-0
  6
CONTINUOUS
 62
1
 10
35.000000
 20
596.000000
 40
12.000000
 50
0.000000
 51
180.000000
  0
ARC
  8
MODEL-0
  6
CONTINUOUS
 62
1
 10
35.000000
 20
596.000000
 40
12.000000
 50
180.000000
 51
0.000000
  0
LINE
  8
MODEL-0
  6
CONTINUOUS
 62
1
 10
102.500000
 20
781.000000
 11
84.500000
 21
781.000000
  0
ARC
  8
MODEL-0
  6
CONTINUOUS
 62
1
 10
65.000000
 20
761.000000
 40
20.000000
 50
90.000000
 51
179.999000
  0
LINE
  8
MODEL-0
  6
CONTINUOUS
 62
1
 10
45.000000
 20
761.000000
 11
45.000000
 21
731.000000
  0
LINE
  8
MODEL-0
  6
CONTINUOUS
 62
1
 10
102.500000
 20
801.000000
 11
84.500000
 21
801.000000
  0
ARC
  8
MODEL-0
  6
CONTINUOUS
 62
1
 10
65.000000
 20
761.000000
 40
40.000000
 50
90.000000
 51
180.000000
  0
LINE
  8
MODEL-0
  6
CONTINUOUS
 62
1
 10
25.000000
 20
761.000000
 11
25.000000
 21
731.000000
  0
LINE
  8
MODEL-0
  6
CONTINUOUS
 62
1
 10
25.000000
 20
656.000000
 11
25.000000
 21
602.460000
  0
LINE
  8
MODEL-0
  6
CONTINUOUS
 62
1
 10
45.000000
 20
602.630000
 11
45.000000
 21
656.000000
  0
LINE
  8
MODEL-0
  6
CONTINUOUS
 62
1
 10
24.810000
 20
589.650000
 11
25.000000
 21
351.440000
  0
ARC
  8
MODEL-0
  6
CONTINUOUS
 62
1
 10
65.000000
 20
351.440000
 40
40.000000
 50
180.000000
 51
262.375000
  0
LINE
  8
MODEL-0
  6
CONTINUOUS
 62
1
 10
59.690000
 20
311.790000
 11
59.690000
 21
311.440000
  0
LINE
  8
MODEL-0
  6
CONTINUOUS
 62
1
 10
59.690000
 20
311.440000
 11
59.690000
 21
331.440000
  0
ARC
  8
MODEL-0
  6
CONTINUOUS
 62
1
 10
62.350000
 20
348.790000
 40
17.550000
 50
171.301000
 51
261.301000
  0
LINE
  8
MODEL-0
  6
CONTINUOUS
 62
1
 10
45.000000
 20
351.440000
 11
45.000000
 21
589.370000
  0
LINE
  8
MODEL-0
  6
CONTINUOUS
 62
1
 10
132.500000
 20
526.440000
 11
67.500000
 21
526.440000
  0
LINE
  8
MODEL-0
  6
CONTINUOUS
 62
1
 10
59.692445
 20
311.793691
 11
65.500000
 21
311.793691
  0
LINE
  8
MODEL-0
  6
CONTINUOUS
 62
1
 10
59.695675
 20
331.441886
 11
65.500000
 21
331.441886
  0
LINE
  8
MODEL-0
  6
CONTINUOUS
 62
1
 10
0.000000
 20
656.000000
 11
0.000000
 21
731.000000
  0
LINE
  8
MODEL-0
  6
CONTINUOUS
 62
1
 10
0.000000
 20
731.000000
 11
75.000000
 21
731.000000
  0
LINE
  8
MODEL-0
  6
CONTINUOUS
 62
1
 10
75.000000
 20
656.000000
 11
0.000000
 21
656.000000
  0
LINE
  8
MODEL-0
  6
CONTINUOUS
 62
1
 10
75.000000
 20
731.000000
 11
75.000000
 21
656.000000
  0
CIRCLE
  8
MODEL-0
  6
CONTINUOUS
 62
1
 10
37.500000
 20
693.500000
 40
12.500000
  0
LINE
  8
MODEL-0
  6
CONTINUOUS
 62
1
 10
84.500000
 20
816.000000
 11
65.500000
 21
816.000000
  0
LINE
  8
MODEL-0
  6
CONTINUOUS
 62
1
 10
65.500000
 20
816.000000
 11
65.500000
 21
766.000000
  0
LINE
  8
MODEL-0
  6
CONTINUOUS
 62
1
 10
65.500000
 20
766.000000
 11
84.500000
 21
766.000000
  0
LINE
  8
MODEL-0
  6
CONTINUOUS
 62
1
 10
84.500000
 20
766.000000
 11
84.500000
 21
816.000000
  0
LINE
  8
MODEL-0
  6
CONTINUOUS
 62
1
 10
67.500000
 20
343.940000
 11
65.500000
 21
343.940000
  0
LINE
  8
MODEL-0
  6
CONTINUOUS
 62
1
 10
65.500000
 20
343.940000
 11
65.500000
 21
298.940000
  0
LINE
  8
MODEL-0
  6
CONTINUOUS
 62
1
 10
65.500000
 20
298.940000
 11
84.500000
 21
298.940000
  0
LINE
  8
MODEL-0
  6
CONTINUOUS
 62
1
 10
84.500000
 20
298.940000
 11
84.500000
 21
325.000000
  0
LINE
  8
MODEL-0
  6
CONTINUOUS
 62
1
 10
84.500000
 20
311.793691
 11
132.500000
 21
311.793691
  0
INSERT
  2
CTR
  8
MODEL-0
 10
35.000000
 20
596.000000
 41
1.000000
 42
1.000000
 50
0.000000
  0
ENDSEC
  0
EOF
