  0
SECTION
  2
HEADER
  9
$LIMMIN
 10
0.000000
 20
0.000000
  9
$LIMMAX
 10
3500.000000
 20
2500.000000
  9
$EXTMIN
 10
0.000000
 20
0.000000
  9
$EXTMAX
 10
3500.000000
 20
2500.000000
  9
$ANGBASE
 50
0.0
  9
$ANGDIR
 70
0
  9
$DIMRND
 40
0.100000
  9
$DIMSE1
 70
0
  9
$DIMSE2
 70
0
  9
$DIMTXT
 40
3.500000
  9
$LTSCALE
 40
1.000000
  9
$LUPREC
 70
5
  9
$AUPREC
 70
5
  9
$PDMODE
 70
2
  9
$PDSIZE
 40
17.500000
  0
ENDSEC
  0
SECTION
  2
TABLES
  0
TABLE
  2
VPORT
  70
1
  0
VPORT
  2
*ACTIVE
 70
0
  10
0.0
 20
0.0
 11
1.0
 21
1.0
 12
594.0
 22
420.0
 13
0.0
 23
0.0
 14
10.0
 24
10.0
 15
10.0
 25
10.0
 16
0.0
 26
0.0
 36
1.0
 17
594.0
 27
420.0
 37
100.0
 40
1000.0
 41
1.0
 42
50.0
 43
0.0
 44
0.0
 50
0.0
 51
0.0
 71
0
 72
2000
 73
1
 74
3
 75
0
 76
0
 77
0
 78
1
  0
ENDTAB
  0
TABLE
  2
LTYPE
 70
4
  0
LTYPE
  2
CONTINUOUS
 70
0
  3
Solid line
 72
65
 73
0
 40
0.0
  0
LTYPE
  2
DASHED
 70
0
  3
Dashed line
 72
65
 73
2
 40
6.000000
 49
3.000000
 49
-3.000000
  0
LTYPE
  2
CENTER
 70
0
  3
Chain line
 72
65
 73
4
 40
24.000000
 49
15.000000
 49
-3.000000
 49
3.000000
 49
-3.000000
  0
LTYPE
  2
RANDOM
 70
0
  3
Random line
 72
65
 73
4
 40
22.500000
 49
6.000000
 49
-3.000000
 49
4.500000
 49
-9.000000
  0
ENDTAB
  0
TABLE
  2
STYLE
 70
9
  0
STYLE
  2
STANDARD
 40
0
 41
1.0
 50
0.0
 71
0
 42
0
  3
simplex
  4

 70
0
  0
ENDTAB
  0
TABLE
  2
LAYER
 70
2
  0
LAYER
  2
0
 70
0
 62
7
  6
CONTINUOUS
  0
LAYER
  2
0
 62
1
  6
CONTINUOUS
 70
0
  0
ENDTAB
  0
ENDSEC
  0
SECTION
  2
BLOCKS
  0
ENDSEC
  0
SECTION
  2
ENTITIES
  0
LINE
  8
0
  6
CONTINUOUS
 62
1
 10
1649.591419
 20
625.616899
 11
1649.591419
 21
1489.902354
  0
LINE
  8
0
  6
CONTINUOUS
 62
1
 10
1049.591599
 20
1489.902354
 11
1049.591599
 21
625.616899
  0
LINE
  8
0
  6
CONTINUOUS
 62
1
 10
1049.591599
 20
625.616899
 11
1649.591419
 21
625.616899
  0
LINE
  8
0
  6
CONTINUOUS
 62
1
 10
1634.591423
 20
625.616899
 11
1634.591423
 21
1345.616683
  0
LINE
  8
0
  6
CONTINUOUS
 62
1
 10
1064.591594
 20
1345.616683
 11
1064.591594
 21
625.616899
  0
LINE
  8
0
  6
CONTINUOUS
 62
1
 10
1074.591591
 20
625.616899
 11
1074.591591
 21
589.616910
  0
LINE
  8
0
  6
CONTINUOUS
 62
1
 10
1074.591591
 20
589.616910
 11
1354.591507
 21
589.616910
  0
LINE
  8
0
  6
CONTINUOUS
 62
1
 10
1354.591507
 20
589.616910
 11
1354.591507
 21
625.616899
  0
LINE
  8
0
  6
CONTINUOUS
 62
1
 10
1094.591585
 20
625.616899
 11
1094.591585
 21
605.616905
  0
LINE
  8
0
  6
CONTINUOUS
 62
1
 10
1094.591585
 20
605.616905
 11
1334.591513
 21
605.616905
  0
LINE
  8
0
  6
CONTINUOUS
 62
1
 10
1334.591513
 20
605.616905
 11
1334.591513
 21
625.616899
  0
LINE
  8
0
  6
CONTINUOUS
 62
1
 10
1064.591594
 20
705.616875
 11
1634.591423
 21
705.616875
  0
LINE
  8
0
  6
CONTINUOUS
 62
1
 10
1649.591419
 20
1345.616683
 11
1049.591599
 21
1345.616683
  0
LINE
  8
0
  6
CONTINUOUS
 62
1
 10
1089.591587
 20
705.616875
 11
1089.591587
 21
1292.616699
  0
LINE
  8
0
  6
CONTINUOUS
 62
1
 10
1609.591431
 20
1292.616699
 11
1609.591431
 21
705.616875
  0
LINE
  8
0
  6
CONTINUOUS
 62
1
 10
1609.591431
 20
1292.616699
 11
1089.591587
 21
1292.616699
  0
LINE
  8
0
  6
CONTINUOUS
 62
1
 10
1089.591587
 20
829.069168
 11
1609.591431
 21
829.069168
  0
LINE
  8
0
  6
CONTINUOUS
 62
1
 10
1049.591599
 20
1489.902354
 11
1649.591419
 21
1489.902354
  0
LINE
  8
0
  6
CONTINUOUS
 62
1
 10
1102.355216
 20
832.616699
 11
1322.355216
 21
832.616699
  0
LINE
  8
0
  6
CONTINUOUS
 62
1
 10
1322.355216
 20
832.616699
 11
1322.355216
 21
1292.616699
  0
LINE
  8
0
  6
CONTINUOUS
 62
1
 10
1322.355216
 20
1292.616699
 11
1102.355216
 21
1292.616699
  0
LINE
  8
0
  6
CONTINUOUS
 62
1
 10
1102.355216
 20
1292.616699
 11
1102.355216
 21
832.616699
  0
LINE
  8
0
  6
CONTINUOUS
 62
1
 10
1198.355216
 20
832.616699
 11
1198.355216
 21
707.396699
  0
LINE
  8
0
  6
CONTINUOUS
 62
1
 10
1198.355216
 20
707.396699
 11
1226.355216
 21
707.396699
  0
LINE
  8
0
  6
CONTINUOUS
 62
1
 10
1226.355216
 20
707.396699
 11
1226.355216
 21
832.616699
  0
LINE
  8
0
  6
CONTINUOUS
 62
1
 10
1226.355216
 20
832.616699
 11
1198.355216
 21
832.616699
  0
LINE
  8
0
  6
CONTINUOUS
 62
1
 10
1322.355216
 20
837.616699
 11
1102.355216
 21
837.616699
  0
LINE
  8
0
  6
CONTINUOUS
 62
1
 10
1102.355216
 20
855.616699
 11
1322.355216
 21
855.616699
  0
LINE
  8
0
  6
CONTINUOUS
 62
1
 10
1322.355216
 20
873.616699
 11
1102.355216
 21
873.616699
  0
LINE
  8
0
  6
CONTINUOUS
 62
1
 10
1102.355216
 20
891.616699
 11
1322.355216
 21
891.616699
  0
LINE
  8
0
  6
CONTINUOUS
 62
1
 10
1322.355216
 20
909.616699
 11
1299.455216
 21
909.616699
  0
LINE
  8
0
  6
CONTINUOUS
 62
1
 10
1102.355216
 20
927.616699
 11
1189.335216
 21
923.326699
  0
LINE
  8
0
  6
CONTINUOUS
 62
1
 10
1322.355216
 20
945.616699
 11
1304.915216
 21
945.616699
  0
LINE
  8
0
  6
CONTINUOUS
 62
1
 10
1102.355216
 20
963.616699
 11
1165.155216
 21
963.616699
  0
LINE
  8
0
  6
CONTINUOUS
 62
1
 10
1322.355216
 20
981.616699
 11
1310.375216
 21
981.616699
  0
LINE
  8
0
  6
CONTINUOUS
 62
1
 10
1102.355216
 20
999.616699
 11
1143.555216
 21
999.616699
  0
LINE
  8
0
  6
CONTINUOUS
 62
1
 10
1322.355216
 20
1017.616699
 11
1315.845216
 21
1017.616699
  0
LINE
  8
0
  6
CONTINUOUS
 62
1
 10
1102.355216
 20
1035.616699
 11
1126.665216
 21
1035.616699
  0
LINE
  8
0
  6
CONTINUOUS
 62
1
 10
1102.355216
 20
1071.616699
 11
1122.165216
 21
1071.616699
  0
LINE
  8
0
  6
CONTINUOUS
 62
1
 10
1102.355216
 20
1107.616699
 11
1117.665216
 21
1107.616699
  0
LINE
  8
0
  6
CONTINUOUS
 62
1
 10
1102.355216
 20
1143.616699
 11
1113.165216
 21
1143.616699
  0
LINE
  8
0
  6
CONTINUOUS
 62
1
 10
1102.355216
 20
1179.616699
 11
1108.665216
 21
1179.616699
  0
LINE
  8
0
  6
CONTINUOUS
 62
1
 10
1302.355216
 20
832.616699
 11
1302.355216
 21
928.746699
  0
LINE
  8
0
  6
CONTINUOUS
 62
1
 10
1254.355216
 20
832.616699
 11
1254.355216
 21
906.516699
  0
LINE
  8
0
  6
CONTINUOUS
 62
1
 10
1206.355216
 20
832.616699
 11
1206.355216
 21
918.926699
  0
LINE
  8
0
  6
CONTINUOUS
 62
1
 10
1158.355216
 20
832.616699
 11
1158.355216
 21
974.956699
  0
LINE
  8
0
  6
CONTINUOUS
 62
1
 10
1110.355216
 20
832.616699
 11
1110.355216
 21
1166.096699
  0
LINE
  8
0
  6
CONTINUOUS
 62
1
 10
1242.345216
 20
909.616699
 11
1102.355216
 21
909.616699
  0
LINE
  8
0
  6
CONTINUOUS
 62
1
 10
1302.085216
 20
926.966699
 11
1322.355216
 21
927.616699
  0
LINE
  8
0
  6
CONTINUOUS
 62
1
 10
1175.955216
 20
945.616699
 11
1102.355216
 21
945.616699
  0
LINE
  8
0
  6
CONTINUOUS
 62
1
 10
1307.645216
 20
963.616699
 11
1322.355216
 21
963.616699
  0
LINE
  8
0
  6
CONTINUOUS
 62
1
 10
1154.355216
 20
981.616699
 11
1102.355216
 21
981.616699
  0
LINE
  8
0
  6
CONTINUOUS
 62
1
 10
1132.755216
 20
1017.616699
 11
1102.355216
 21
1017.616699
  0
LINE
  8
0
  6
CONTINUOUS
 62
1
 10
1124.415216
 20
1053.616699
 11
1102.355216
 21
1053.616699
  0
LINE
  8
0
  6
CONTINUOUS
 62
1
 10
1119.915216
 20
1089.616699
 11
1102.355216
 21
1089.616699
  0
LINE
  8
0
  6
CONTINUOUS
 62
1
 10
1115.415216
 20
1125.616699
 11
1102.355216
 21
1125.616699
  0
LINE
  8
0
  6
CONTINUOUS
 62
1
 10
1278.355216
 20
900.306699
 11
1278.355216
 21
832.616699
  0
LINE
  8
0
  6
CONTINUOUS
 62
1
 10
1230.355216
 20
912.716699
 11
1230.355216
 21
832.616699
  0
LINE
  8
0
  6
CONTINUOUS
 62
1
 10
1182.355216
 20
934.956699
 11
1182.355216
 21
832.616699
  0
LINE
  8
0
  6
CONTINUOUS
 62
1
 10
1134.355216
 20
1014.956699
 11
1134.355216
 21
832.616699
  0
LINE
  8
0
  6
CONTINUOUS
 62
1
 10
1380.348070
 20
832.616699
 11
1600.348070
 21
832.616699
  0
LINE
  8
0
  6
CONTINUOUS
 62
1
 10
1600.348070
 20
832.616699
 11
1600.348070
 21
1292.616699
  0
LINE
  8
0
  6
CONTINUOUS
 62
1
 10
1600.348070
 20
1292.616699
 11
1380.348070
 21
1292.616699
  0
LINE
  8
0
  6
CONTINUOUS
 62
1
 10
1380.348070
 20
1292.616699
 11
1380.348070
 21
832.616699
  0
LINE
  8
0
  6
CONTINUOUS
 62
1
 10
1476.348070
 20
832.616699
 11
1476.348070
 21
707.396699
  0
LINE
  8
0
  6
CONTINUOUS
 62
1
 10
1476.348070
 20
707.396699
 11
1504.348070
 21
707.396699
  0
LINE
  8
0
  6
CONTINUOUS
 62
1
 10
1504.348070
 20
707.396699
 11
1504.348070
 21
832.616699
  0
LINE
  8
0
  6
CONTINUOUS
 62
1
 10
1504.348070
 20
832.616699
 11
1476.348070
 21
832.616699
  0
LINE
  8
0
  6
CONTINUOUS
 62
1
 10
1600.348070
 20
837.616699
 11
1380.348070
 21
837.616699
  0
LINE
  8
0
  6
CONTINUOUS
 62
1
 10
1380.348070
 20
855.616699
 11
1600.348070
 21
855.616699
  0
LINE
  8
0
  6
CONTINUOUS
 62
1
 10
1600.348070
 20
873.616699
 11
1380.348070
 21
873.616699
  0
LINE
  8
0
  6
CONTINUOUS
 62
1
 10
1380.348070
 20
891.616699
 11
1600.348070
 21
891.616699
  0
LINE
  8
0
  6
CONTINUOUS
 62
1
 10
1600.348070
 20
909.616699
 11
1577.448070
 21
909.616699
  0
LINE
  8
0
  6
CONTINUOUS
 62
1
 10
1380.348070
 20
927.616699
 11
1467.328070
 21
923.326699
  0
LINE
  8
0
  6
CONTINUOUS
 62
1
 10
1600.348070
 20
945.616699
 11
1582.908070
 21
945.616699
  0
LINE
  8
0
  6
CONTINUOUS
 62
1
 10
1380.348070
 20
963.616699
 11
1443.148070
 21
963.616699
  0
LINE
  8
0
  6
CONTINUOUS
 62
1
 10
1600.348070
 20
981.616699
 11
1588.368070
 21
981.616699
  0
LINE
  8
0
  6
CONTINUOUS
 62
1
 10
1380.348070
 20
999.616699
 11
1421.548070
 21
999.616699
  0
LINE
  8
0
  6
CONTINUOUS
 62
1
 10
1600.348070
 20
1017.616699
 11
1593.838070
 21
1017.616699
  0
LINE
  8
0
  6
CONTINUOUS
 62
1
 10
1380.348070
 20
1035.616699
 11
1404.658070
 21
1035.616699
  0
LINE
  8
0
  6
CONTINUOUS
 62
1
 10
1380.348070
 20
1071.616699
 11
1400.158070
 21
1071.616699
  0
LINE
  8
0
  6
CONTINUOUS
 62
1
 10
1380.348070
 20
1107.616699
 11
1395.658070
 21
1107.616699
  0
LINE
  8
0
  6
CONTINUOUS
 62
1
 10
1380.348070
 20
1143.616699
 11
1391.158070
 21
1143.616699
  0
LINE
  8
0
  6
CONTINUOUS
 62
1
 10
1380.348070
 20
1179.616699
 11
1386.658070
 21
1179.616699
  0
LINE
  8
0
  6
CONTINUOUS
 62
1
 10
1580.348070
 20
832.616699
 11
1580.348070
 21
928.746699
  0
LINE
  8
0
  6
CONTINUOUS
 62
1
 10
1532.348070
 20
832.616699
 11
1532.348070
 21
906.516699
  0
LINE
  8
0
  6
CONTINUOUS
 62
1
 10
1484.348070
 20
832.616699
 11
1484.348070
 21
918.926699
  0
LINE
  8
0
  6
CONTINUOUS
 62
1
 10
1436.348070
 20
832.616699
 11
1436.348070
 21
974.956699
  0
LINE
  8
0
  6
CONTINUOUS
 62
1
 10
1388.348070
 20
832.616699
 11
1388.348070
 21
1166.096699
  0
LINE
  8
0
  6
CONTINUOUS
 62
1
 10
1520.338070
 20
909.616699
 11
1380.348070
 21
909.616699
  0
LINE
  8
0
  6
CONTINUOUS
 62
1
 10
1580.078070
 20
926.966699
 11
1600.348070
 21
927.616699
  0
LINE
  8
0
  6
CONTINUOUS
 62
1
 10
1453.948070
 20
945.616699
 11
1380.348070
 21
945.616699
  0
LINE
  8
0
  6
CONTINUOUS
 62
1
 10
1585.638070
 20
963.616699
 11
1600.348070
 21
963.616699
  0
LINE
  8
0
  6
CONTINUOUS
 62
1
 10
1432.348070
 20
981.616699
 11
1380.348070
 21
981.616699
  0
LINE
  8
0
  6
CONTINUOUS
 62
1
 10
1410.748070
 20
1017.616699
 11
1380.348070
 21
1017.616699
  0
LINE
  8
0
  6
CONTINUOUS
 62
1
 10
1402.408070
 20
1053.616699
 11
1380.348070
 21
1053.616699
  0
LINE
  8
0
  6
CONTINUOUS
 62
1
 10
1397.908070
 20
1089.616699
 11
1380.348070
 21
1089.616699
  0
LINE
  8
0
  6
CONTINUOUS
 62
1
 10
1393.408070
 20
1125.616699
 11
1380.348070
 21
1125.616699
  0
LINE
  8
0
  6
CONTINUOUS
 62
1
 10
1556.348070
 20
900.306699
 11
1556.348070
 21
832.616699
  0
LINE
  8
0
  6
CONTINUOUS
 62
1
 10
1508.348070
 20
912.716699
 11
1508.348070
 21
832.616699
  0
LINE
  8
0
  6
CONTINUOUS
 62
1
 10
1460.348070
 20
934.956699
 11
1460.348070
 21
832.616699
  0
LINE
  8
0
  6
CONTINUOUS
 62
1
 10
1412.348070
 20
1014.956699
 11
1412.348070
 21
832.616699
  0
ENDSEC
  0
EOF
