  0
SECTION
  2
HEADER
  9
$LIMMIN
 10
0.000000
 20
0.000000
  9
$LIMMAX
 10
3500.000000
 20
2500.000000
  9
$EXTMIN
 10
0.000000
 20
0.000000
  9
$EXTMAX
 10
3500.000000
 20
2500.000000
  9
$ANGBASE
 50
0.0
  9
$ANGDIR
 70
0
  9
$DIMRND
 40
0.100000
  9
$DIMSE1
 70
0
  9
$DIMSE2
 70
0
  9
$DIMTXT
 40
3.500000
  9
$LTSCALE
 40
1.000000
  9
$LUPREC
 70
5
  9
$AUPREC
 70
5
  9
$PDMODE
 70
2
  9
$PDSIZE
 40
17.500000
  0
ENDSEC
  0
SECTION
  2
TABLES
  0
TABLE
  2
VPORT
  70
1
  0
VPORT
  2
*ACTIVE
 70
0
  10
0.0
 20
0.0
 11
1.0
 21
1.0
 12
594.0
 22
420.0
 13
0.0
 23
0.0
 14
10.0
 24
10.0
 15
10.0
 25
10.0
 16
0.0
 26
0.0
 36
1.0
 17
594.0
 27
420.0
 37
100.0
 40
1000.0
 41
1.0
 42
50.0
 43
0.0
 44
0.0
 50
0.0
 51
0.0
 71
0
 72
2000
 73
1
 74
3
 75
0
 76
0
 77
0
 78
1
  0
ENDTAB
  0
TABLE
  2
LTYPE
 70
4
  0
LTYPE
  2
CONTINUOUS
 70
0
  3
Solid line
 72
65
 73
0
 40
0.0
  0
LTYPE
  2
DASHED
 70
0
  3
Dashed line
 72
65
 73
2
 40
6.000000
 49
3.000000
 49
-3.000000
  0
LTYPE
  2
CENTER
 70
0
  3
Chain line
 72
65
 73
4
 40
24.000000
 49
15.000000
 49
-3.000000
 49
3.000000
 49
-3.000000
  0
LTYPE
  2
RANDOM
 70
0
  3
Random line
 72
65
 73
4
 40
22.500000
 49
6.000000
 49
-3.000000
 49
4.500000
 49
-9.000000
  0
ENDTAB
  0
TABLE
  2
STYLE
 70
9
  0
STYLE
  2
STANDARD
 40
0
 41
1.0
 50
0.0
 71
0
 42
0
  3
simplex
  4

 70
0
  0
ENDTAB
  0
TABLE
  2
LAYER
 70
2
  0
LAYER
  2
0
 70
0
 62
7
  6
CONTINUOUS
  0
LAYER
  2
0
 62
1
  6
CONTINUOUS
 70
0
  0
ENDTAB
  0
ENDSEC
  0
SECTION
  2
BLOCKS
  0
ENDSEC
  0
SECTION
  2
ENTITIES
  0
LINE
  8
0
  6
CONTINUOUS
 62
5
 10
1693.310522
 20
1049.800467
 11
1693.310522
 21
1057.800467
  0
LINE
  8
0
  6
CONTINUOUS
 62
1
 10
822.370039
 20
1464.800467
 11
822.370039
 21
911.800467
  0
LINE
  8
0
  6
CONTINUOUS
 62
1
 10
822.370039
 20
911.800467
 11
1722.370039
 21
911.800467
  0
LINE
  8
0
  6
CONTINUOUS
 62
1
 10
1722.370039
 20
911.800467
 11
1722.370039
 21
1464.800467
  0
LINE
  8
0
  6
CONTINUOUS
 62
1
 10
1722.370039
 20
1464.800467
 11
822.370039
 21
1464.800467
  0
LINE
  8
0
  6
CONTINUOUS
 62
1
 10
1702.370039
 20
999.800467
 11
1702.370039
 21
1464.800467
  0
LINE
  8
0
  6
CONTINUOUS
 62
1
 10
842.370039
 20
1464.800467
 11
842.370039
 21
999.800467
  0
LINE
  8
0
  6
CONTINUOUS
 62
1
 10
822.370039
 20
999.800467
 11
1722.370039
 21
999.800467
  0
LINE
  8
0
  6
CONTINUOUS
 62
1
 10
1702.370039
 20
1414.800467
 11
842.370039
 21
1414.800467
  0
LINE
  8
0
  6
CONTINUOUS
 62
1
 10
1702.370039
 20
1314.800467
 11
842.370039
 21
1314.800467
  0
LINE
  8
0
  6
CONTINUOUS
 62
1
 10
1702.370039
 20
1302.800467
 11
842.370039
 21
1302.800467
  0
LINE
  8
0
  6
CONTINUOUS
 62
1
 10
1642.370039
 20
1334.800467
 11
1642.370039
 21
1394.800467
  0
LINE
  8
0
  6
CONTINUOUS
 62
1
 10
1612.370039
 20
1394.800467
 11
1612.370039
 21
1334.800467
  0
LINE
  8
0
  6
CONTINUOUS
 62
1
 10
1582.370039
 20
1334.800467
 11
1582.370039
 21
1394.800467
  0
LINE
  8
0
  6
CONTINUOUS
 62
1
 10
1552.370039
 20
1394.800467
 11
1552.370039
 21
1334.800467
  0
LINE
  8
0
  6
CONTINUOUS
 62
1
 10
1522.370039
 20
1334.800467
 11
1522.370039
 21
1394.800467
  0
LINE
  8
0
  6
CONTINUOUS
 62
1
 10
1492.370039
 20
1394.800467
 11
1492.370039
 21
1334.800467
  0
LINE
  8
0
  6
CONTINUOUS
 62
1
 10
1462.370039
 20
1334.800467
 11
1462.370039
 21
1394.800467
  0
LINE
  8
0
  6
CONTINUOUS
 62
1
 10
1432.370039
 20
1394.800467
 11
1432.370039
 21
1334.800467
  0
LINE
  8
0
  6
CONTINUOUS
 62
1
 10
1402.370039
 20
1334.800467
 11
1402.370039
 21
1394.800467
  0
LINE
  8
0
  6
CONTINUOUS
 62
1
 10
1372.370039
 20
1394.800467
 11
1372.370039
 21
1334.800467
  0
LINE
  8
0
  6
CONTINUOUS
 62
1
 10
1342.370039
 20
1334.800467
 11
1342.370039
 21
1394.800467
  0
LINE
  8
0
  6
CONTINUOUS
 62
1
 10
1112.370039
 20
1394.800467
 11
1112.370039
 21
1334.800467
  0
LINE
  8
0
  6
CONTINUOUS
 62
1
 10
1082.370039
 20
1334.800467
 11
1082.370039
 21
1394.800467
  0
LINE
  8
0
  6
CONTINUOUS
 62
1
 10
1052.370039
 20
1394.800467
 11
1052.370039
 21
1334.800467
  0
LINE
  8
0
  6
CONTINUOUS
 62
1
 10
1022.370039
 20
1334.800467
 11
1022.370039
 21
1394.800467
  0
LINE
  8
0
  6
CONTINUOUS
 62
1
 10
992.370039
 20
1394.800467
 11
992.370039
 21
1334.800467
  0
LINE
  8
0
  6
CONTINUOUS
 62
1
 10
962.370039
 20
1334.800467
 11
962.370039
 21
1394.800467
  0
LINE
  8
0
  6
CONTINUOUS
 62
1
 10
932.370039
 20
1394.800467
 11
932.370039
 21
1334.800467
  0
LINE
  8
0
  6
CONTINUOUS
 62
1
 10
902.370039
 20
1334.800467
 11
902.370039
 21
1394.800467
  0
LINE
  8
0
  6
CONTINUOUS
 62
1
 10
1644.370039
 20
1519.800467
 11
1644.370039
 21
1464.800467
  0
LINE
  8
0
  6
CONTINUOUS
 62
1
 10
1644.370039
 20
1464.800467
 11
1660.370039
 21
1464.800467
  0
LINE
  8
0
  6
CONTINUOUS
 62
1
 10
1660.370039
 20
1464.800467
 11
1660.370039
 21
1519.800467
  0
LINE
  8
0
  6
CONTINUOUS
 62
1
 10
1660.370039
 20
1519.800467
 11
1644.370039
 21
1519.800467
  0
LINE
  8
0
  6
CONTINUOUS
 62
1
 10
1642.370039
 20
911.800467
 11
1642.370039
 21
871.800467
  0
LINE
  8
0
  6
CONTINUOUS
 62
1
 10
1642.370039
 20
871.800467
 11
1682.370039
 21
871.800467
  0
LINE
  8
0
  6
CONTINUOUS
 62
1
 10
1682.370039
 20
871.800467
 11
1682.370039
 21
911.800467
  0
LINE
  8
0
  6
CONTINUOUS
 62
1
 10
867.370039
 20
911.800467
 11
867.370039
 21
884.800467
  0
LINE
  8
0
  6
CONTINUOUS
 62
1
 10
867.370039
 20
884.800467
 11
1549.370039
 21
884.800467
  0
LINE
  8
0
  6
CONTINUOUS
 62
1
 10
1549.370039
 20
884.800467
 11
1549.370039
 21
911.800467
  0
LINE
  8
0
  6
CONTINUOUS
 62
1
 10
894.370039
 20
884.800467
 11
894.370039
 21
811.800467
  0
LINE
  8
0
  6
CONTINUOUS
 62
1
 10
880.370039
 20
884.800467
 11
880.370039
 21
811.800467
  0
LINE
  8
0
  6
CONTINUOUS
 62
1
 10
1536.370039
 20
884.800467
 11
1536.370039
 21
811.800467
  0
LINE
  8
0
  6
CONTINUOUS
 62
1
 10
1522.370039
 20
884.800467
 11
1522.370039
 21
811.800467
  0
LINE
  8
0
  6
CONTINUOUS
 62
1
 10
872.370039
 20
798.970467
 11
872.370039
 21
716.800467
  0
LINE
  8
0
  6
CONTINUOUS
 62
1
 10
872.370039
 20
716.800467
 11
902.370039
 21
716.800467
  0
LINE
  8
0
  6
CONTINUOUS
 62
1
 10
902.370039
 20
716.800467
 11
902.370039
 21
798.970467
  0
LINE
  8
0
  6
CONTINUOUS
 62
1
 10
917.830039
 20
911.800467
 11
917.830039
 21
864.800467
  0
LINE
  8
0
  6
CONTINUOUS
 62
1
 10
917.830039
 20
864.800467
 11
1498.910039
 21
864.800467
  0
LINE
  8
0
  6
CONTINUOUS
 62
1
 10
1498.910039
 20
864.800467
 11
1498.910039
 21
911.800467
  0
ARC
  8
0
  6
CONTINUOUS
 62
1
 10
887.370039
 20
779.260467
 40
47.790000
 50
98.425000
 51
137.086000
  0
ARC
  8
0
  6
CONTINUOUS
 62
1
 10
887.370039
 20
844.340467
 40
47.790000
 50
222.914000
 51
317.086000
  0
ARC
  8
0
  6
CONTINUOUS
 62
1
 10
887.370039
 20
779.260467
 40
47.790000
 50
42.914000
 51
81.580000
  0
LINE
  8
0
  6
CONTINUOUS
 62
1
 10
1544.370039
 20
798.970467
 11
1544.370039
 21
716.800467
  0
LINE
  8
0
  6
CONTINUOUS
 62
1
 10
1544.370039
 20
716.800467
 11
1514.370039
 21
716.800467
  0
LINE
  8
0
  6
CONTINUOUS
 62
1
 10
1514.370039
 20
716.800467
 11
1514.370039
 21
798.960467
  0
ARC
  8
0
  6
CONTINUOUS
 62
1
 10
1529.370039
 20
779.260467
 40
47.790000
 50
42.914000
 51
81.575000
  0
ARC
  8
0
  6
CONTINUOUS
 62
1
 10
1529.370039
 20
844.340467
 40
47.790000
 50
222.914000
 51
317.086000
  0
ARC
  8
0
  6
CONTINUOUS
 62
1
 10
1529.370039
 20
779.260467
 40
47.790000
 50
98.420000
 51
137.085000
  0
LINE
  8
0
  6
CONTINUOUS
 62
1
 10
1142.370039
 20
1334.800467
 11
1142.370039
 21
1394.800467
  0
LINE
  8
0
  6
CONTINUOUS
 62
1
 10
1172.370039
 20
1394.800467
 11
1172.370039
 21
1334.800467
  0
LINE
  8
0
  6
CONTINUOUS
 62
1
 10
1202.370039
 20
1334.800467
 11
1202.370039
 21
1394.800467
  0
LINE
  8
0
  6
CONTINUOUS
 62
1
 10
1232.370039
 20
1394.800467
 11
1232.370039
 21
1334.800467
  0
LINE
  8
0
  6
CONTINUOUS
 62
1
 10
1262.370039
 20
1334.800467
 11
1262.370039
 21
1394.800467
  0
LINE
  8
0
  6
CONTINUOUS
 62
1
 10
1292.370039
 20
1394.800467
 11
1292.370039
 21
1334.800467
  0
LINE
  8
0
  6
CONTINUOUS
 62
1
 10
1322.370039
 20
1334.800467
 11
1322.370039
 21
1394.800467
  0
ENDSEC
  0
EOF
