  0
SECTION
  2
HEADER
  9
$LIMMIN
 10
0.000000
 20
0.000000
  9
$LIMMAX
 10
3500.000000
 20
2500.000000
  9
$EXTMIN
 10
0.000000
 20
0.000000
  9
$EXTMAX
 10
3500.000000
 20
2500.000000
  9
$ANGBASE
 50
0.0
  9
$ANGDIR
 70
0
  9
$DIMRND
 40
0.100000
  9
$DIMSE1
 70
0
  9
$DIMSE2
 70
0
  9
$DIMTXT
 40
3.500000
  9
$LTSCALE
 40
1.000000
  9
$LUPREC
 70
5
  9
$AUPREC
 70
5
  9
$PDMODE
 70
2
  9
$PDSIZE
 40
17.500000
  0
ENDSEC
  0
SECTION
  2
TABLES
  0
TABLE
  2
VPORT
  70
1
  0
VPORT
  2
*ACTIVE
 70
0
  10
0.0
 20
0.0
 11
1.0
 21
1.0
 12
594.0
 22
420.0
 13
0.0
 23
0.0
 14
10.0
 24
10.0
 15
10.0
 25
10.0
 16
0.0
 26
0.0
 36
1.0
 17
594.0
 27
420.0
 37
100.0
 40
1000.0
 41
1.0
 42
50.0
 43
0.0
 44
0.0
 50
0.0
 51
0.0
 71
0
 72
2000
 73
1
 74
3
 75
0
 76
0
 77
0
 78
1
  0
ENDTAB
  0
TABLE
  2
LTYPE
 70
4
  0
LTYPE
  2
CONTINUOUS
 70
0
  3
Solid line
 72
65
 73
0
 40
0.0
  0
LTYPE
  2
DASHED
 70
0
  3
Dashed line
 72
65
 73
2
 40
6.000000
 49
3.000000
 49
-3.000000
  0
LTYPE
  2
CENTER
 70
0
  3
Chain line
 72
65
 73
4
 40
24.000000
 49
15.000000
 49
-3.000000
 49
3.000000
 49
-3.000000
  0
LTYPE
  2
RANDOM
 70
0
  3
Random line
 72
65
 73
4
 40
22.500000
 49
6.000000
 49
-3.000000
 49
4.500000
 49
-9.000000
  0
ENDTAB
  0
TABLE
  2
STYLE
 70
9
  0
STYLE
  2
STANDARD
 40
0
 41
1.0
 50
0.0
 71
0
 42
0
  3
simplex
  4

 70
0
  0
ENDTAB
  0
TABLE
  2
LAYER
 70
2
  0
LAYER
  2
0
 70
0
 62
7
  6
CONTINUOUS
  0
LAYER
  2
0
 62
1
  6
CONTINUOUS
 70
0
  0
ENDTAB
  0
ENDSEC
  0
SECTION
  2
BLOCKS
  0
ENDSEC
  0
SECTION
  2
ENTITIES
  0
LINE
  8
0
  6
CONTINUOUS
 62
1
 10
1415.205605
 20
1045.767075
 11
1595.765605
 21
1045.767075
  0
LINE
  8
0
  6
CONTINUOUS
 62
1
 10
1595.765605
 20
1045.767075
 11
1595.765605
 21
1520.767075
  0
LINE
  8
0
  6
CONTINUOUS
 62
1
 10
1595.765605
 20
1520.767075
 11
695.765605
 21
1520.767075
  0
LINE
  8
0
  6
CONTINUOUS
 62
1
 10
695.765605
 20
1520.767075
 11
695.765605
 21
1045.767075
  0
LINE
  8
0
  6
CONTINUOUS
 62
1
 10
695.765605
 20
1045.767075
 11
747.515605
 21
1045.767075
  0
LINE
  8
0
  6
CONTINUOUS
 62
1
 10
1575.765605
 20
1520.767075
 11
1575.765605
 21
1550.767075
  0
LINE
  8
0
  6
CONTINUOUS
 62
1
 10
1575.765605
 20
1550.767075
 11
715.765605
 21
1550.767075
  0
LINE
  8
0
  6
CONTINUOUS
 62
1
 10
715.765605
 20
1550.767075
 11
715.765605
 21
1520.767075
  0
LINE
  8
0
  6
CONTINUOUS
 62
1
 10
695.765605
 20
1330.767075
 11
1595.765605
 21
1330.767075
  0
LINE
  8
0
  6
CONTINUOUS
 62
1
 10
1589.765605
 20
1330.767075
 11
1589.765605
 21
1520.767075
  0
LINE
  8
0
  6
CONTINUOUS
 62
1
 10
701.765605
 20
1520.767075
 11
701.765605
 21
1330.767075
  0
ARC
  8
0
  6
CONTINUOUS
 62
1
 10
1409.935605
 20
1110.847075
 40
7.830000
 50
0.001000
 51
56.310000
  0
ARC
  8
0
  6
CONTINUOUS
 62
1
 10
1402.765605
 20
1100.087075
 40
20.760000
 50
56.310000
 51
90.000000
  0
ARC
  8
0
  6
CONTINUOUS
 62
1
 10
1402.765605
 20
1100.087075
 40
20.760000
 50
89.999000
 51
123.689000
  0
ARC
  8
0
  6
CONTINUOUS
 62
1
 10
1395.595605
 20
1110.847075
 40
7.830000
 50
123.691000
 51
180.002000
  0
ARC
  8
0
  6
CONTINUOUS
 62
1
 10
1395.595605
 20
1110.847075
 40
7.830000
 50
179.998000
 51
236.308000
  0
ARC
  8
0
  6
CONTINUOUS
 62
1
 10
1402.765605
 20
1121.607075
 40
20.760000
 50
236.311000
 51
270.001000
  0
ARC
  8
0
  6
CONTINUOUS
 62
1
 10
1402.765605
 20
1121.607075
 40
20.760000
 50
270.000000
 51
303.690000
  0
ARC
  8
0
  6
CONTINUOUS
 62
1
 10
1409.935605
 20
1110.847075
 40
7.830000
 50
303.690000
 51
0.000000
  0
LINE
  8
0
  6
CONTINUOUS
 62
1
 10
1417.765605
 20
1110.847075
 11
1417.765605
 21
1155.967075
  0
LINE
  8
0
  6
CONTINUOUS
 62
1
 10
1417.765605
 20
1155.967075
 11
1417.765605
 21
1177.097075
  0
ARC
  8
0
  6
CONTINUOUS
 62
1
 10
1409.935605
 20
1177.097075
 40
7.830000
 50
0.000000
 51
56.309000
  0
ARC
  8
0
  6
CONTINUOUS
 62
1
 10
1402.765605
 20
1166.337075
 40
20.760000
 50
56.310000
 51
90.000000
  0
ARC
  8
0
  6
CONTINUOUS
 62
1
 10
1402.765605
 20
1166.337075
 40
20.760000
 50
89.999000
 51
123.689000
  0
ARC
  8
0
  6
CONTINUOUS
 62
1
 10
1395.595605
 20
1177.097075
 40
7.830000
 50
123.692000
 51
180.002000
  0
LINE
  8
0
  6
CONTINUOUS
 62
1
 10
1387.765605
 20
1177.097075
 11
1387.765605
 21
1110.847075
  0
ARC
  8
0
  6
CONTINUOUS
 62
1
 10
1409.365605
 20
1185.737075
 40
30.940000
 50
285.746000
 51
301.785000
  0
ARC
  8
0
  6
CONTINUOUS
 62
1
 10
1411.365605
 20
1184.207075
 40
28.600000
 50
300.000000
 51
325.585000
  0
ARC
  8
0
  6
CONTINUOUS
 62
1
 10
1421.745605
 20
1177.097075
 40
16.020000
 50
325.583000
 51
359.998000
  0
ARC
  8
0
  6
CONTINUOUS
 62
1
 10
1421.745605
 20
1177.097075
 40
16.020000
 50
0.001000
 51
34.416000
  0
ARC
  8
0
  6
CONTINUOUS
 62
1
 10
1411.375605
 20
1169.987075
 40
28.600000
 50
34.419000
 51
60.003000
  0
ARC
  8
0
  6
CONTINUOUS
 62
1
 10
1405.805605
 20
1160.357075
 40
39.720000
 50
59.998000
 51
76.038000
  0
ARC
  8
0
  6
CONTINUOUS
 62
1
 10
1402.765605
 20
1148.107075
 40
52.340000
 50
76.039000
 51
90.000000
  0
ARC
  8
0
  6
CONTINUOUS
 62
1
 10
1402.765605
 20
1148.107075
 40
52.340000
 50
89.999000
 51
103.960000
  0
ARC
  8
0
  6
CONTINUOUS
 62
1
 10
1399.715605
 20
1160.357075
 40
39.710000
 50
103.962000
 51
120.002000
  0
ARC
  8
0
  6
CONTINUOUS
 62
1
 10
1394.155605
 20
1169.987075
 40
28.590000
 50
120.000000
 51
145.584000
  0
ARC
  8
0
  6
CONTINUOUS
 62
1
 10
1383.785605
 20
1177.097075
 40
16.020000
 50
145.584000
 51
179.999000
  0
ARC
  8
0
  6
CONTINUOUS
 62
1
 10
1383.785605
 20
1177.097075
 40
16.020000
 50
180.002000
 51
214.418000
  0
ARC
  8
0
  6
CONTINUOUS
 62
1
 10
1394.155605
 20
1184.207075
 40
28.600000
 50
214.412000
 51
239.997000
  0
ARC
  8
0
  6
CONTINUOUS
 62
1
 10
1396.225605
 20
1185.747075
 40
30.980000
 50
238.108000
 51
254.147000
  0
ARC
  8
0
  6
CONTINUOUS
 62
1
 10
753.595605
 20
1110.847075
 40
7.830000
 50
123.690000
 51
180.000000
  0
ARC
  8
0
  6
CONTINUOUS
 62
1
 10
760.765605
 20
1100.087075
 40
20.760000
 50
90.000000
 51
123.690000
  0
ARC
  8
0
  6
CONTINUOUS
 62
1
 10
760.765605
 20
1100.087075
 40
20.760000
 50
56.310000
 51
90.000000
  0
ARC
  8
0
  6
CONTINUOUS
 62
1
 10
767.935605
 20
1110.847075
 40
7.830000
 50
0.001000
 51
56.310000
  0
ARC
  8
0
  6
CONTINUOUS
 62
1
 10
767.935605
 20
1110.847075
 40
7.830000
 50
303.690000
 51
0.000000
  0
ARC
  8
0
  6
CONTINUOUS
 62
1
 10
760.765605
 20
1121.597075
 40
20.760000
 50
270.000000
 51
303.690000
  0
ARC
  8
0
  6
CONTINUOUS
 62
1
 10
760.765605
 20
1121.597075
 40
20.760000
 50
236.310000
 51
270.000000
  0
ARC
  8
0
  6
CONTINUOUS
 62
1
 10
753.595605
 20
1110.847075
 40
7.830000
 50
180.000000
 51
236.310000
  0
LINE
  8
0
  6
CONTINUOUS
 62
1
 10
745.765605
 20
1110.847075
 11
745.765605
 21
1155.957075
  0
LINE
  8
0
  6
CONTINUOUS
 62
1
 10
745.765605
 20
1155.957075
 11
745.765605
 21
1177.097075
  0
ARC
  8
0
  6
CONTINUOUS
 62
1
 10
753.595605
 20
1177.097075
 40
7.830000
 50
123.690000
 51
180.000000
  0
ARC
  8
0
  6
CONTINUOUS
 62
1
 10
760.765605
 20
1166.337075
 40
20.760000
 50
89.999000
 51
123.690000
  0
ARC
  8
0
  6
CONTINUOUS
 62
1
 10
760.765605
 20
1166.337075
 40
20.760000
 50
56.310000
 51
90.000000
  0
ARC
  8
0
  6
CONTINUOUS
 62
1
 10
767.935605
 20
1177.097075
 40
7.830000
 50
0.000000
 51
56.310000
  0
LINE
  8
0
  6
CONTINUOUS
 62
1
 10
775.765605
 20
1177.097075
 11
775.765605
 21
1110.847075
  0
ARC
  8
0
  6
CONTINUOUS
 62
1
 10
754.155605
 20
1185.737075
 40
30.940000
 50
238.216000
 51
254.256000
  0
ARC
  8
0
  6
CONTINUOUS
 62
1
 10
752.155605
 20
1184.207075
 40
28.590000
 50
214.418000
 51
240.002000
  0
ARC
  8
0
  6
CONTINUOUS
 62
1
 10
741.785605
 20
1177.097075
 40
16.020000
 50
179.999000
 51
214.415000
  0
ARC
  8
0
  6
CONTINUOUS
 62
1
 10
741.785605
 20
1177.097075
 40
16.020000
 50
145.583000
 51
179.999000
  0
ARC
  8
0
  6
CONTINUOUS
 62
1
 10
752.165605
 20
1169.987075
 40
28.600000
 50
120.001000
 51
145.585000
  0
ARC
  8
0
  6
CONTINUOUS
 62
1
 10
757.725605
 20
1160.357075
 40
39.710000
 50
103.962000
 51
120.002000
  0
ARC
  8
0
  6
CONTINUOUS
 62
1
 10
760.765605
 20
1148.107075
 40
52.340000
 50
90.000000
 51
103.960000
  0
ARC
  8
0
  6
CONTINUOUS
 62
1
 10
760.765605
 20
1148.107075
 40
52.340000
 50
76.040000
 51
90.000000
  0
ARC
  8
0
  6
CONTINUOUS
 62
1
 10
763.815605
 20
1160.357075
 40
39.710000
 50
59.998000
 51
76.038000
  0
ARC
  8
0
  6
CONTINUOUS
 62
1
 10
769.375605
 20
1169.987075
 40
28.600000
 50
34.414000
 51
59.999000
  0
ARC
  8
0
  6
CONTINUOUS
 62
1
 10
779.745605
 20
1177.097075
 40
16.020000
 50
0.000000
 51
34.415000
  0
ARC
  8
0
  6
CONTINUOUS
 62
1
 10
779.745605
 20
1177.097075
 40
16.020000
 50
325.587000
 51
0.002000
  0
ARC
  8
0
  6
CONTINUOUS
 62
1
 10
769.375605
 20
1184.207075
 40
28.590000
 50
299.998000
 51
325.582000
  0
ARC
  8
0
  6
CONTINUOUS
 62
1
 10
767.295605
 20
1185.747075
 40
30.980000
 50
285.854000
 51
301.894000
  0
LINE
  8
0
  6
CONTINUOUS
 62
1
 10
740.765605
 20
1152.027075
 11
740.765605
 21
1045.767075
  0
LINE
  8
0
  6
CONTINUOUS
 62
1
 10
740.765605
 20
1330.767075
 11
740.765605
 21
1198.647075
  0
LINE
  8
0
  6
CONTINUOUS
 62
1
 10
1422.765605
 20
1330.767075
 11
1422.765605
 21
1198.647075
  0
LINE
  8
0
  6
CONTINUOUS
 62
1
 10
1422.765605
 20
1152.027075
 11
1422.765605
 21
1045.767075
  0
LINE
  8
0
  6
CONTINUOUS
 62
1
 10
760.765605
 20
1221.957075
 11
1402.765605
 21
1221.957075
  0
LINE
  8
0
  6
CONTINUOUS
 62
1
 10
1402.765605
 20
1221.957075
 11
1402.765605
 21
1270.037075
  0
LINE
  8
0
  6
CONTINUOUS
 62
1
 10
1402.765605
 20
1270.037075
 11
760.765605
 21
1270.037075
  0
LINE
  8
0
  6
CONTINUOUS
 62
1
 10
760.765605
 20
1270.037075
 11
760.765605
 21
1221.957075
  0
LINE
  8
0
  6
CONTINUOUS
 62
1
 10
792.475605
 20
1186.837075
 11
1371.065605
 21
1186.847075
  0
LINE
  8
0
  6
CONTINUOUS
 62
1
 10
1387.645605
 20
1198.217075
 11
778.105605
 21
1198.217075
  0
LINE
  8
0
  6
CONTINUOUS
 62
1
 10
788.305605
 20
1163.677075
 11
1374.405605
 21
1163.677075
  0
LINE
  8
0
  6
CONTINUOUS
 62
1
 10
747.515605
 20
1019.437075
 11
1415.205605
 21
1019.437075
  0
LINE
  8
0
  6
CONTINUOUS
 62
1
 10
1415.205605
 20
1019.437075
 11
1415.205605
 21
1074.807075
  0
LINE
  8
0
  6
CONTINUOUS
 62
1
 10
1415.205605
 20
1074.807075
 11
747.515605
 21
1074.807075
  0
LINE
  8
0
  6
CONTINUOUS
 62
1
 10
747.515605
 20
1074.807075
 11
747.515605
 21
1019.437075
  0
LINE
  8
0
  6
CONTINUOUS
 62
1
 10
1415.205605
 20
1066.067075
 11
747.515605
 21
1066.067075
  0
LINE
  8
0
  6
CONTINUOUS
 62
1
 10
747.515605
 20
1051.497075
 11
1415.205605
 21
1051.497075
  0
ARC
  8
0
  6
CONTINUOUS
 62
1
 10
1535.765605
 20
1250.767075
 40
20.000000
 50
180.000000
 51
0.000000
  0
ARC
  8
0
  6
CONTINUOUS
 62
1
 10
1535.765605
 20
1250.767075
 40
20.000000
 50
0.000000
 51
180.000000
  0
LINE
  8
0
  6
CONTINUOUS
 62
1
 10
764.345605
 20
973.137075
 11
764.345605
 21
943.147075
  0
LINE
  8
0
  6
CONTINUOUS
 62
1
 10
764.345605
 20
943.147075
 11
795.085605
 21
943.147075
  0
LINE
  8
0
  6
CONTINUOUS
 62
1
 10
795.085605
 20
943.147075
 11
795.085605
 21
1013.617075
  0
LINE
  8
0
  6
CONTINUOUS
 62
1
 10
795.085605
 20
1013.617075
 11
764.345605
 21
1013.617075
  0
LINE
  8
0
  6
CONTINUOUS
 62
1
 10
764.345605
 20
1013.617075
 11
764.345605
 21
989.627075
  0
LINE
  8
0
  6
CONTINUOUS
 62
1
 10
643.645605
 20
989.627075
 11
643.645605
 21
973.137075
  0
LINE
  8
0
  6
CONTINUOUS
 62
1
 10
643.645605
 20
973.137075
 11
786.835605
 21
973.137075
  0
LINE
  8
0
  6
CONTINUOUS
 62
1
 10
786.835605
 20
973.137075
 11
786.835605
 21
989.627075
  0
LINE
  8
0
  6
CONTINUOUS
 62
1
 10
786.835605
 20
989.627075
 11
643.645605
 21
989.627075
  0
ARC
  8
0
  6
CONTINUOUS
 62
1
 10
1535.765605
 20
1157.767075
 40
20.000000
 50
180.000000
 51
0.000000
  0
ARC
  8
0
  6
CONTINUOUS
 62
1
 10
1535.765605
 20
1157.767075
 40
20.000000
 50
0.000000
 51
180.000000
  0
ENDSEC
  0
EOF
