  0
SECTION
  2
HEADER
  9
$LIMMIN
 10
0.000000
 20
0.000000
  9
$LIMMAX
 10
3500.000000
 20
2500.000000
  9
$EXTMIN
 10
0.000000
 20
0.000000
  9
$EXTMAX
 10
3500.000000
 20
2500.000000
  9
$ANGBASE
 50
0.0
  9
$ANGDIR
 70
0
  9
$DIMRND
 40
0.100000
  9
$DIMSE1
 70
0
  9
$DIMSE2
 70
0
  9
$DIMTXT
 40
3.500000
  9
$LTSCALE
 40
1.000000
  9
$LUPREC
 70
5
  9
$AUPREC
 70
5
  9
$PDMODE
 70
2
  9
$PDSIZE
 40
17.500000
  0
ENDSEC
  0
SECTION
  2
TABLES
  0
TABLE
  2
VPORT
  70
1
  0
VPORT
  2
*ACTIVE
 70
0
  10
0.0
 20
0.0
 11
1.0
 21
1.0
 12
594.0
 22
420.0
 13
0.0
 23
0.0
 14
10.0
 24
10.0
 15
10.0
 25
10.0
 16
0.0
 26
0.0
 36
1.0
 17
594.0
 27
420.0
 37
100.0
 40
1000.0
 41
1.0
 42
50.0
 43
0.0
 44
0.0
 50
0.0
 51
0.0
 71
0
 72
2000
 73
1
 74
3
 75
0
 76
0
 77
0
 78
1
  0
ENDTAB
  0
TABLE
  2
LTYPE
 70
4
  0
LTYPE
  2
CONTINUOUS
 70
0
  3
Solid line
 72
65
 73
0
 40
0.0
  0
LTYPE
  2
DASHED
 70
0
  3
Dashed line
 72
65
 73
2
 40
6.000000
 49
3.000000
 49
-3.000000
  0
LTYPE
  2
CENTER
 70
0
  3
Chain line
 72
65
 73
4
 40
24.000000
 49
15.000000
 49
-3.000000
 49
3.000000
 49
-3.000000
  0
LTYPE
  2
RANDOM
 70
0
  3
Random line
 72
65
 73
4
 40
22.500000
 49
6.000000
 49
-3.000000
 49
4.500000
 49
-9.000000
  0
ENDTAB
  0
TABLE
  2
STYLE
 70
9
  0
STYLE
  2
STANDARD
 40
0
 41
1.0
 50
0.0
 71
0
 42
0
  3
simplex
  4

 70
0
  0
ENDTAB
  0
TABLE
  2
LAYER
 70
2
  0
LAYER
  2
0
 70
0
 62
7
  6
CONTINUOUS
  0
LAYER
  2
0
 62
1
  6
CONTINUOUS
 70
0
  0
ENDTAB
  0
ENDSEC
  0
SECTION
  2
BLOCKS
  0
ENDSEC
  0
SECTION
  2
ENTITIES
  0
LINE
  8
0
  6
CONTINUOUS
 62
1
 10
909.192686
 20
797.030338
 11
1809.192686
 21
797.030338
  0
LINE
  8
0
  6
CONTINUOUS
 62
1
 10
1809.192686
 20
797.030338
 11
1809.192686
 21
1552.030338
  0
LINE
  8
0
  6
CONTINUOUS
 62
1
 10
1809.192686
 20
1552.030338
 11
909.192686
 21
1552.030338
  0
LINE
  8
0
  6
CONTINUOUS
 62
1
 10
909.192686
 20
1552.030338
 11
909.192686
 21
797.030338
  0
LINE
  8
0
  6
CONTINUOUS
 62
1
 10
1809.192686
 20
1502.030338
 11
909.192686
 21
1502.030338
  0
ARC
  8
0
  6
CONTINUOUS
 62
1
 10
1700.192686
 20
1453.530338
 40
25.000000
 50
180.000000
 51
0.000000
  0
ARC
  8
0
  6
CONTINUOUS
 62
1
 10
1700.192686
 20
1453.530338
 40
25.000000
 50
0.000000
 51
180.000000
  0
ARC
  8
0
  6
CONTINUOUS
 62
1
 10
1018.192686
 20
1453.530338
 40
25.000000
 50
180.000000
 51
0.000000
  0
ARC
  8
0
  6
CONTINUOUS
 62
1
 10
1018.192686
 20
1453.530338
 40
25.000000
 50
0.000000
 51
180.000000
  0
LINE
  8
0
  6
CONTINUOUS
 62
1
 10
1724.687584
 20
1458.530338
 11
1675.697789
 21
1458.530338
  0
LINE
  8
0
  6
CONTINUOUS
 62
1
 10
1724.687584
 20
1448.530338
 11
1675.697789
 21
1448.530338
  0
LINE
  8
0
  6
CONTINUOUS
 62
1
 10
1042.687584
 20
1458.530338
 11
993.697789
 21
1458.530338
  0
LINE
  8
0
  6
CONTINUOUS
 62
1
 10
1042.687584
 20
1448.530338
 11
993.697789
 21
1448.530338
  0
LINE
  8
0
  6
CONTINUOUS
 62
1
 10
1015.192686
 20
653.030338
 11
1004.192686
 21
657.030323
  0
LINE
  8
0
  6
CONTINUOUS
 62
1
 10
963.192686
 20
653.030338
 11
974.192686
 21
657.030323
  0
LINE
  8
0
  6
CONTINUOUS
 62
1
 10
963.192686
 20
653.030338
 11
963.192686
 21
652.030338
  0
LINE
  8
0
  6
CONTINUOUS
 62
1
 10
1015.192686
 20
653.030338
 11
963.192686
 21
653.030338
  0
LINE
  8
0
  6
CONTINUOUS
 62
1
 10
1004.192686
 20
657.030323
 11
974.223631
 21
657.030323
  0
LINE
  8
0
  6
CONTINUOUS
 62
1
 10
1015.192686
 20
652.030338
 11
963.192686
 21
652.030338
  0
LINE
  8
0
  6
CONTINUOUS
 62
1
 10
1015.192686
 20
653.030338
 11
1015.192686
 21
652.030338
  0
LINE
  8
0
  6
CONTINUOUS
 62
1
 10
1033.692686
 20
797.030338
 11
944.692686
 21
797.030338
  0
LINE
  8
0
  6
CONTINUOUS
 62
1
 10
1033.692686
 20
787.030338
 11
944.692686
 21
787.030338
  0
LINE
  8
0
  6
CONTINUOUS
 62
1
 10
944.692686
 20
797.030338
 11
944.692686
 21
787.030338
  0
LINE
  8
0
  6
CONTINUOUS
 62
1
 10
966.754538
 20
781.092838
 11
967.724592
 21
687.967831
  0
ARC
  8
0
  6
CONTINUOUS
 62
1
 10
960.754866
 20
781.030338
 40
6.000000
 50
0.596809
 51
90.000000
  0
ARC
  8
0
  6
CONTINUOUS
 62
1
 10
1017.630522
 20
781.030338
 40
6.000000
 50
90.000000
 51
179.403198
  0
LINE
  8
0
  6
CONTINUOUS
 62
1
 10
1033.692686
 20
797.030338
 11
1033.692686
 21
787.030338
  0
ARC
  8
0
  6
CONTINUOUS
 62
1
 10
1004.661116
 20
688.030331
 40
5.999996
 50
269.999969
 51
359.403160
  0
ARC
  8
0
  6
CONTINUOUS
 62
1
 10
973.724272
 20
688.030331
 40
6.000000
 50
180.596802
 51
270.000000
  0
LINE
  8
0
  6
CONTINUOUS
 62
1
 10
1011.630842
 20
781.092838
 11
1010.660795
 21
687.967831
  0
LINE
  8
0
  6
CONTINUOUS
 62
1
 10
1004.661116
 20
682.030331
 11
973.724272
 21
682.030331
  0
LINE
  8
0
  6
CONTINUOUS
 62
1
 10
1755.192686
 20
653.030338
 11
1744.192686
 21
657.030323
  0
LINE
  8
0
  6
CONTINUOUS
 62
1
 10
1703.192686
 20
653.030338
 11
1714.192686
 21
657.030323
  0
LINE
  8
0
  6
CONTINUOUS
 62
1
 10
1703.192686
 20
653.030338
 11
1703.192686
 21
652.030338
  0
LINE
  8
0
  6
CONTINUOUS
 62
1
 10
1755.192686
 20
653.030338
 11
1703.192686
 21
653.030338
  0
LINE
  8
0
  6
CONTINUOUS
 62
1
 10
1744.192686
 20
657.030323
 11
1714.223631
 21
657.030323
  0
LINE
  8
0
  6
CONTINUOUS
 62
1
 10
1755.192686
 20
652.030338
 11
1703.192686
 21
652.030338
  0
LINE
  8
0
  6
CONTINUOUS
 62
1
 10
1755.192686
 20
653.030338
 11
1755.192686
 21
652.030338
  0
LINE
  8
0
  6
CONTINUOUS
 62
1
 10
1773.692686
 20
797.030338
 11
1684.692686
 21
797.030338
  0
LINE
  8
0
  6
CONTINUOUS
 62
1
 10
1773.692686
 20
787.030338
 11
1684.692686
 21
787.030338
  0
LINE
  8
0
  6
CONTINUOUS
 62
1
 10
1684.692686
 20
797.030338
 11
1684.692686
 21
787.030338
  0
LINE
  8
0
  6
CONTINUOUS
 62
1
 10
1706.754538
 20
781.092838
 11
1707.724592
 21
687.967831
  0
ARC
  8
0
  6
CONTINUOUS
 62
1
 10
1700.754866
 20
781.030338
 40
6.000000
 50
0.596809
 51
90.000000
  0
ARC
  8
0
  6
CONTINUOUS
 62
1
 10
1757.630522
 20
781.030338
 40
6.000000
 50
90.000000
 51
179.403198
  0
LINE
  8
0
  6
CONTINUOUS
 62
1
 10
1773.692686
 20
797.030338
 11
1773.692686
 21
787.030338
  0
ARC
  8
0
  6
CONTINUOUS
 62
1
 10
1744.661116
 20
688.030331
 40
5.999996
 50
269.999969
 51
359.403160
  0
ARC
  8
0
  6
CONTINUOUS
 62
1
 10
1713.724272
 20
688.030331
 40
6.000000
 50
180.596802
 51
270.000000
  0
LINE
  8
0
  6
CONTINUOUS
 62
1
 10
1751.630842
 20
781.092838
 11
1750.660795
 21
687.967831
  0
LINE
  8
0
  6
CONTINUOUS
 62
1
 10
1744.661116
 20
682.030331
 11
1713.724272
 21
682.030331
  0
LINE
  8
0
  6
CONTINUOUS
 62
1
 10
973.714704
 20
682.030338
 11
974.192686
 21
657.030323
  0
LINE
  8
0
  6
CONTINUOUS
 62
1
 10
1004.667445
 20
682.030338
 11
1004.192686
 21
657.030323
  0
LINE
  8
0
  6
CONTINUOUS
 62
1
 10
1713.724272
 20
682.030331
 11
1714.192686
 21
657.030323
  0
LINE
  8
0
  6
CONTINUOUS
 62
1
 10
1744.661113
 20
682.030335
 11
1744.192686
 21
657.030323
  0
ARC
  8
0
  6
CONTINUOUS
 62
1
 10
1610.192686
 20
1453.530338
 40
25.000000
 50
180.000000
 51
0.000000
  0
ARC
  8
0
  6
CONTINUOUS
 62
1
 10
1610.192686
 20
1453.530338
 40
25.000000
 50
0.000000
 51
180.000000
  0
LINE
  8
0
  6
CONTINUOUS
 62
1
 10
1634.687584
 20
1458.530338
 11
1585.697789
 21
1458.530338
  0
LINE
  8
0
  6
CONTINUOUS
 62
1
 10
1634.687584
 20
1448.530338
 11
1585.697789
 21
1448.530338
  0
ARC
  8
0
  6
CONTINUOUS
 62
1
 10
1314.192686
 20
1453.530338
 40
25.000000
 50
180.000000
 51
0.000000
  0
ARC
  8
0
  6
CONTINUOUS
 62
1
 10
1314.192686
 20
1453.530338
 40
25.000000
 50
0.000000
 51
180.000000
  0
LINE
  8
0
  6
CONTINUOUS
 62
1
 10
1338.687584
 20
1458.530338
 11
1289.697789
 21
1458.530338
  0
LINE
  8
0
  6
CONTINUOUS
 62
1
 10
1338.687584
 20
1448.530338
 11
1289.697789
 21
1448.530338
  0
ARC
  8
0
  6
CONTINUOUS
 62
1
 10
1404.192686
 20
1453.530338
 40
25.000000
 50
180.000000
 51
0.000000
  0
ARC
  8
0
  6
CONTINUOUS
 62
1
 10
1404.192686
 20
1453.530338
 40
25.000000
 50
0.000000
 51
180.000000
  0
LINE
  8
0
  6
CONTINUOUS
 62
1
 10
1428.687584
 20
1458.530338
 11
1379.697789
 21
1458.530338
  0
LINE
  8
0
  6
CONTINUOUS
 62
1
 10
1428.687584
 20
1448.530338
 11
1379.697789
 21
1448.530338
  0
ARC
  8
0
  6
CONTINUOUS
 62
1
 10
1108.192686
 20
1453.530338
 40
25.000000
 50
180.000000
 51
0.000000
  0
ARC
  8
0
  6
CONTINUOUS
 62
1
 10
1108.192686
 20
1453.530338
 40
25.000000
 50
0.000000
 51
180.000000
  0
LINE
  8
0
  6
CONTINUOUS
 62
1
 10
1132.687584
 20
1458.530338
 11
1083.697789
 21
1458.530338
  0
LINE
  8
0
  6
CONTINUOUS
 62
1
 10
1132.687584
 20
1448.530338
 11
1083.697789
 21
1448.530338
  0
LINE
  8
0
  6
CONTINUOUS
 62
1
 10
919.653617
 20
1552.474514
 11
917.676991
 21
1565.529484
  0
LINE
  8
0
  6
CONTINUOUS
 62
1
 10
963.089781
 20
1552.438005
 11
966.391409
 21
1565.529484
  0
LINE
  8
0
  6
CONTINUOUS
 62
1
 10
1038.078209
 20
1552.268017
 11
1035.093931
 21
1565.529484
  0
LINE
  8
0
  6
CONTINUOUS
 62
1
 10
1020.307163
 20
1552.268017
 11
1023.291442
 21
1565.529484
  0
LINE
  8
0
  6
CONTINUOUS
 62
1
 10
1098.078209
 20
1552.268017
 11
1095.093931
 21
1565.529484
  0
LINE
  8
0
  6
CONTINUOUS
 62
1
 10
1080.307163
 20
1552.268017
 11
1083.291442
 21
1565.529484
  0
LINE
  8
0
  6
CONTINUOUS
 62
1
 10
1158.078209
 20
1552.268017
 11
1155.093931
 21
1565.529484
  0
LINE
  8
0
  6
CONTINUOUS
 62
1
 10
1140.307163
 20
1552.268017
 11
1143.291442
 21
1565.529484
  0
LINE
  8
0
  6
CONTINUOUS
 62
1
 10
1215.093931
 20
1588.378474
 11
1203.291442
 21
1588.378474
  0
LINE
  8
0
  6
CONTINUOUS
 62
1
 10
1218.078209
 20
1552.268017
 11
1215.093931
 21
1588.378474
  0
LINE
  8
0
  6
CONTINUOUS
 62
1
 10
1200.307163
 20
1552.268017
 11
1203.291442
 21
1588.378474
  0
LINE
  8
0
  6
CONTINUOUS
 62
1
 10
1275.093931
 20
1588.378474
 11
1263.291442
 21
1588.378474
  0
LINE
  8
0
  6
CONTINUOUS
 62
1
 10
1278.078209
 20
1552.268017
 11
1275.093931
 21
1588.378474
  0
LINE
  8
0
  6
CONTINUOUS
 62
1
 10
1260.307163
 20
1552.268017
 11
1263.291442
 21
1588.378474
  0
LINE
  8
0
  6
CONTINUOUS
 62
1
 10
1335.093931
 20
1588.378474
 11
1323.291442
 21
1588.378474
  0
LINE
  8
0
  6
CONTINUOUS
 62
1
 10
1338.078209
 20
1552.268017
 11
1335.093931
 21
1588.378474
  0
LINE
  8
0
  6
CONTINUOUS
 62
1
 10
1320.307163
 20
1552.268017
 11
1323.291442
 21
1588.378474
  0
LINE
  8
0
  6
CONTINUOUS
 62
1
 10
1395.093931
 20
1588.378474
 11
1383.291442
 21
1588.378474
  0
LINE
  8
0
  6
CONTINUOUS
 62
1
 10
1398.078209
 20
1552.268017
 11
1395.093931
 21
1588.378474
  0
LINE
  8
0
  6
CONTINUOUS
 62
1
 10
1380.307163
 20
1552.268017
 11
1383.291442
 21
1588.378474
  0
LINE
  8
0
  6
CONTINUOUS
 62
1
 10
1455.093931
 20
1588.378474
 11
1443.291442
 21
1588.378474
  0
LINE
  8
0
  6
CONTINUOUS
 62
1
 10
1458.078209
 20
1552.268017
 11
1455.093931
 21
1588.378474
  0
LINE
  8
0
  6
CONTINUOUS
 62
1
 10
1440.307163
 20
1552.268017
 11
1443.291442
 21
1588.378474
  0
LINE
  8
0
  6
CONTINUOUS
 62
1
 10
1515.093931
 20
1588.378474
 11
1503.291442
 21
1588.378474
  0
LINE
  8
0
  6
CONTINUOUS
 62
1
 10
1518.078209
 20
1552.268017
 11
1515.093931
 21
1588.378474
  0
LINE
  8
0
  6
CONTINUOUS
 62
1
 10
1500.307163
 20
1552.268017
 11
1503.291442
 21
1588.378474
  0
LINE
  8
0
  6
CONTINUOUS
 62
1
 10
1560.307163
 20
1552.268017
 11
1563.291442
 21
1565.529484
  0
LINE
  8
0
  6
CONTINUOUS
 62
1
 10
1638.078209
 20
1552.268017
 11
1635.093931
 21
1565.529484
  0
LINE
  8
0
  6
CONTINUOUS
 62
1
 10
1620.307163
 20
1552.268017
 11
1623.291442
 21
1565.529484
  0
LINE
  8
0
  6
CONTINUOUS
 62
1
 10
1698.078209
 20
1552.268017
 11
1695.093931
 21
1565.529484
  0
LINE
  8
0
  6
CONTINUOUS
 62
1
 10
1680.307163
 20
1552.268017
 11
1683.291442
 21
1565.529484
  0
LINE
  8
0
  6
CONTINUOUS
 62
1
 10
1755.121207
 20
1552.438005
 11
1751.819579
 21
1565.529484
  0
LINE
  8
0
  6
CONTINUOUS
 62
1
 10
1740.307163
 20
1552.268017
 11
1743.291442
 21
1565.529484
  0
LINE
  8
0
  6
CONTINUOUS
 62
1
 10
1799.264165
 20
1552.438005
 11
1802.565794
 21
1565.529484
  0
LINE
  8
0
  6
CONTINUOUS
 62
1
 10
1563.291442
 20
1565.529484
 11
1575.093931
 21
1565.529484
  0
LINE
  8
0
  6
CONTINUOUS
 62
1
 10
1623.291442
 20
1565.529484
 11
1635.093931
 21
1565.529484
  0
LINE
  8
0
  6
CONTINUOUS
 62
1
 10
1683.291442
 20
1565.529484
 11
1695.093931
 21
1565.529484
  0
LINE
  8
0
  6
CONTINUOUS
 62
1
 10
1743.291442
 20
1565.529484
 11
1751.819579
 21
1565.529484
  0
LINE
  8
0
  6
CONTINUOUS
 62
1
 10
1802.565794
 20
1565.529484
 11
1806.692686
 21
1565.529484
  0
LINE
  8
0
  6
CONTINUOUS
 62
1
 10
911.692686
 20
1565.529484
 11
917.676991
 21
1565.529484
  0
LINE
  8
0
  6
CONTINUOUS
 62
1
 10
966.391409
 20
1565.529484
 11
975.093931
 21
1565.529484
  0
LINE
  8
0
  6
CONTINUOUS
 62
1
 10
1023.291442
 20
1565.529484
 11
1035.093931
 21
1565.529484
  0
LINE
  8
0
  6
CONTINUOUS
 62
1
 10
1083.291442
 20
1565.529484
 11
1095.093931
 21
1565.529484
  0
LINE
  8
0
  6
CONTINUOUS
 62
1
 10
1143.291442
 20
1565.529484
 11
1155.093931
 21
1565.529484
  0
LINE
  8
0
  6
CONTINUOUS
 62
1
 10
978.078209
 20
1552.268017
 11
975.093931
 21
1565.529484
  0
LINE
  8
0
  6
CONTINUOUS
 62
1
 10
1575.093931
 20
1565.529484
 11
1578.078209
 21
1552.268017
  0
LINE
  8
0
  6
CONTINUOUS
 62
1
 10
1806.692686
 20
1552.030338
 11
1806.692686
 21
1565.529484
  0
LINE
  8
0
  6
CONTINUOUS
 62
1
 10
911.692686
 20
1552.030338
 11
911.692686
 21
1565.529484
  0
LINE
  8
0
  6
CONTINUOUS
 62
1
 10
919.653617
 20
1552.474514
 11
917.676991
 21
1565.529484
  0
LINE
  8
0
  6
CONTINUOUS
 62
1
 10
963.089781
 20
1552.438005
 11
966.391409
 21
1565.529484
  0
LINE
  8
0
  6
CONTINUOUS
 62
1
 10
1038.078209
 20
1552.268017
 11
1035.093931
 21
1565.529484
  0
LINE
  8
0
  6
CONTINUOUS
 62
1
 10
1020.307163
 20
1552.268017
 11
1023.291442
 21
1565.529484
  0
LINE
  8
0
  6
CONTINUOUS
 62
1
 10
1098.078209
 20
1552.268017
 11
1095.093931
 21
1565.529484
  0
LINE
  8
0
  6
CONTINUOUS
 62
1
 10
1080.307163
 20
1552.268017
 11
1083.291442
 21
1565.529484
  0
LINE
  8
0
  6
CONTINUOUS
 62
1
 10
1158.078209
 20
1552.268017
 11
1155.093931
 21
1565.529484
  0
LINE
  8
0
  6
CONTINUOUS
 62
1
 10
1140.307163
 20
1552.268017
 11
1143.291442
 21
1565.529484
  0
LINE
  8
0
  6
CONTINUOUS
 62
1
 10
1215.093931
 20
1588.378474
 11
1203.291442
 21
1588.378474
  0
LINE
  8
0
  6
CONTINUOUS
 62
1
 10
1218.078209
 20
1552.268017
 11
1215.093931
 21
1588.378474
  0
LINE
  8
0
  6
CONTINUOUS
 62
1
 10
1200.307163
 20
1552.268017
 11
1203.291442
 21
1588.378474
  0
LINE
  8
0
  6
CONTINUOUS
 62
1
 10
1275.093931
 20
1588.378474
 11
1263.291442
 21
1588.378474
  0
LINE
  8
0
  6
CONTINUOUS
 62
1
 10
1278.078209
 20
1552.268017
 11
1275.093931
 21
1588.378474
  0
LINE
  8
0
  6
CONTINUOUS
 62
1
 10
1260.307163
 20
1552.268017
 11
1263.291442
 21
1588.378474
  0
LINE
  8
0
  6
CONTINUOUS
 62
1
 10
1335.093931
 20
1588.378474
 11
1323.291442
 21
1588.378474
  0
LINE
  8
0
  6
CONTINUOUS
 62
1
 10
1338.078209
 20
1552.268017
 11
1335.093931
 21
1588.378474
  0
LINE
  8
0
  6
CONTINUOUS
 62
1
 10
1320.307163
 20
1552.268017
 11
1323.291442
 21
1588.378474
  0
LINE
  8
0
  6
CONTINUOUS
 62
1
 10
1395.093931
 20
1588.378474
 11
1383.291442
 21
1588.378474
  0
LINE
  8
0
  6
CONTINUOUS
 62
1
 10
1398.078209
 20
1552.268017
 11
1395.093931
 21
1588.378474
  0
LINE
  8
0
  6
CONTINUOUS
 62
1
 10
1380.307163
 20
1552.268017
 11
1383.291442
 21
1588.378474
  0
LINE
  8
0
  6
CONTINUOUS
 62
1
 10
1455.093931
 20
1588.378474
 11
1443.291442
 21
1588.378474
  0
LINE
  8
0
  6
CONTINUOUS
 62
1
 10
1458.078209
 20
1552.268017
 11
1455.093931
 21
1588.378474
  0
LINE
  8
0
  6
CONTINUOUS
 62
1
 10
1440.307163
 20
1552.268017
 11
1443.291442
 21
1588.378474
  0
LINE
  8
0
  6
CONTINUOUS
 62
1
 10
1515.093931
 20
1588.378474
 11
1503.291442
 21
1588.378474
  0
LINE
  8
0
  6
CONTINUOUS
 62
1
 10
1518.078209
 20
1552.268017
 11
1515.093931
 21
1588.378474
  0
LINE
  8
0
  6
CONTINUOUS
 62
1
 10
1500.307163
 20
1552.268017
 11
1503.291442
 21
1588.378474
  0
LINE
  8
0
  6
CONTINUOUS
 62
1
 10
1560.307163
 20
1552.268017
 11
1563.291442
 21
1565.529484
  0
LINE
  8
0
  6
CONTINUOUS
 62
1
 10
1638.078209
 20
1552.268017
 11
1635.093931
 21
1565.529484
  0
LINE
  8
0
  6
CONTINUOUS
 62
1
 10
1620.307163
 20
1552.268017
 11
1623.291442
 21
1565.529484
  0
LINE
  8
0
  6
CONTINUOUS
 62
1
 10
1698.078209
 20
1552.268017
 11
1695.093931
 21
1565.529484
  0
LINE
  8
0
  6
CONTINUOUS
 62
1
 10
1680.307163
 20
1552.268017
 11
1683.291442
 21
1565.529484
  0
LINE
  8
0
  6
CONTINUOUS
 62
1
 10
1755.121207
 20
1552.438005
 11
1751.819579
 21
1565.529484
  0
LINE
  8
0
  6
CONTINUOUS
 62
1
 10
1740.307163
 20
1552.268017
 11
1743.291442
 21
1565.529484
  0
LINE
  8
0
  6
CONTINUOUS
 62
1
 10
1799.264165
 20
1552.438007
 11
1802.565794
 21
1565.529484
  0
LINE
  8
0
  6
CONTINUOUS
 62
1
 10
1563.291442
 20
1565.529484
 11
1575.093931
 21
1565.529484
  0
LINE
  8
0
  6
CONTINUOUS
 62
1
 10
1623.291442
 20
1565.529484
 11
1635.093931
 21
1565.529484
  0
LINE
  8
0
  6
CONTINUOUS
 62
1
 10
1683.291442
 20
1565.529484
 11
1695.093931
 21
1565.529484
  0
LINE
  8
0
  6
CONTINUOUS
 62
1
 10
1743.291442
 20
1565.529484
 11
1751.819579
 21
1565.529484
  0
LINE
  8
0
  6
CONTINUOUS
 62
1
 10
1802.565794
 20
1565.529484
 11
1806.692686
 21
1565.529484
  0
LINE
  8
0
  6
CONTINUOUS
 62
1
 10
911.692686
 20
1565.529484
 11
917.676991
 21
1565.529484
  0
LINE
  8
0
  6
CONTINUOUS
 62
1
 10
966.391409
 20
1565.529484
 11
975.093931
 21
1565.529484
  0
LINE
  8
0
  6
CONTINUOUS
 62
1
 10
1023.291442
 20
1565.529484
 11
1035.093931
 21
1565.529484
  0
LINE
  8
0
  6
CONTINUOUS
 62
1
 10
1083.291442
 20
1565.529484
 11
1095.093931
 21
1565.529484
  0
LINE
  8
0
  6
CONTINUOUS
 62
1
 10
1143.291442
 20
1565.529484
 11
1155.093931
 21
1565.529484
  0
LINE
  8
0
  6
CONTINUOUS
 62
1
 10
978.078209
 20
1552.268017
 11
975.093931
 21
1565.529484
  0
LINE
  8
0
  6
CONTINUOUS
 62
1
 10
1575.093931
 20
1565.529484
 11
1578.078209
 21
1552.268017
  0
LINE
  8
0
  6
CONTINUOUS
 62
1
 10
909.192686
 20
795.031315
 11
1809.192686
 21
795.031315
  0
LINE
  8
0
  6
CONTINUOUS
 62
1
 10
909.192686
 20
810.031315
 11
1809.192686
 21
810.031315
  0
LINE
  8
0
  6
CONTINUOUS
 62
1
 10
1689.192686
 20
1362.522770
 11
1689.192686
 21
810.031315
  0
LINE
  8
0
  6
CONTINUOUS
 62
1
 10
1689.192686
 20
927.920719
 11
909.192686
 21
927.920719
  0
LINE
  8
0
  6
CONTINUOUS
 62
1
 10
909.192686
 20
950.031315
 11
1669.192686
 21
950.031315
  0
LINE
  8
0
  6
CONTINUOUS
 62
1
 10
1669.192686
 20
950.031315
 11
1669.192686
 21
1350.830387
  0
LINE
  8
0
  6
CONTINUOUS
 62
1
 10
1669.192686
 20
1350.830387
 11
909.192686
 21
1350.830387
  0
ARC
  8
0
  6
CONTINUOUS
 62
1
 10
1749.192686
 20
1258.031315
 40
25.000000
 50
180.000000
 51
0.000000
  0
ARC
  8
0
  6
CONTINUOUS
 62
1
 10
1749.192686
 20
1258.031315
 40
25.000000
 50
0.000000
 51
180.000000
  0
LINE
  8
0
  6
CONTINUOUS
 62
1
 10
1773.687584
 20
1263.031315
 11
1724.697789
 21
1263.031315
  0
LINE
  8
0
  6
CONTINUOUS
 62
1
 10
1773.687584
 20
1253.031315
 11
1724.697789
 21
1253.031315
  0
LINE
  8
0
  6
CONTINUOUS
 62
1
 10
1689.192686
 20
914.920719
 11
909.192686
 21
914.920719
  0
LINE
  8
0
  6
CONTINUOUS
 62
1
 10
1689.192686
 20
876.920719
 11
909.192686
 21
876.920719
  0
LINE
  8
0
  6
CONTINUOUS
 62
1
 10
1809.192686
 20
1362.522770
 11
909.192686
 21
1362.522770
  0
LINE
  8
0
  6
CONTINUOUS
 62
1
 10
1809.192686
 20
1387.522770
 11
909.192686
 21
1387.522770
  0
LINE
  8
0
  6
CONTINUOUS
 62
1
 10
1809.192686
 20
1502.030338
 11
909.192686
 21
1502.030338
  0
CIRCLE
  8
0
  6
CONTINUOUS
 62
1
 10
1749.850955
 20
1054.031315
 40
38.000000
  0
CIRCLE
  8
0
  6
CONTINUOUS
 62
1
 10
1749.192686
 20
1258.031315
 40
27.000000
  0
ARC
  8
0
  6
CONTINUOUS
 62
1
 10
1749.850955
 20
1054.031315
 40
25.000000
 50
180.000000
 51
0.000000
  0
ARC
  8
0
  6
CONTINUOUS
 62
1
 10
1749.850955
 20
1054.031315
 40
25.000000
 50
0.000000
 51
180.000000
  0
LINE
  8
0
  6
CONTINUOUS
 62
1
 10
1774.345853
 20
1059.031315
 11
1725.356058
 21
1059.031315
  0
LINE
  8
0
  6
CONTINUOUS
 62
1
 10
1774.345853
 20
1049.031315
 11
1725.356058
 21
1049.031315
  0
CIRCLE
  8
0
  6
CONTINUOUS
 62
1
 10
1749.850955
 20
1054.031315
 40
27.000000
  0
LINE
  8
0
  6
CONTINUOUS
 62
1
 10
964.192686
 20
1320.830387
 11
964.192686
 21
1280.830387
  0
LINE
  8
0
  6
CONTINUOUS
 62
1
 10
939.192686
 20
1316.673299
 11
939.192686
 21
1284.987475
  0
LINE
  8
0
  6
CONTINUOUS
 62
1
 10
964.192686
 20
1280.830387
 11
942.035678
 21
1281.991587
  0
LINE
  8
0
  6
CONTINUOUS
 62
1
 10
964.192686
 20
1320.830387
 11
942.035678
 21
1319.669188
  0
ARC
  8
0
  6
CONTINUOUS
 62
1
 10
942.192686
 20
1316.673299
 40
3.000000
 50
93.000000
 51
180.000000
  0
ARC
  8
0
  6
CONTINUOUS
 62
1
 10
942.192686
 20
1284.987475
 40
3.000000
 50
180.000000
 51
267.000000
  0
LINE
  8
0
  6
CONTINUOUS
 62
1
 10
1614.192686
 20
1320.830387
 11
1614.192686
 21
1280.830387
  0
LINE
  8
0
  6
CONTINUOUS
 62
1
 10
1639.192686
 20
1316.673299
 11
1639.192686
 21
1284.987475
  0
LINE
  8
0
  6
CONTINUOUS
 62
1
 10
1614.192686
 20
1280.830387
 11
1636.349694
 21
1281.991587
  0
LINE
  8
0
  6
CONTINUOUS
 62
1
 10
1614.192686
 20
1320.830387
 11
1636.349694
 21
1319.669188
  0
ARC
  8
0
  6
CONTINUOUS
 62
1
 10
1636.192686
 20
1316.673299
 40
3.000000
 50
0.000000
 51
87.000000
  0
ARC
  8
0
  6
CONTINUOUS
 62
1
 10
1636.192686
 20
1284.987475
 40
3.000000
 50
273.000000
 51
0.000000
  0
LINE
  8
0
  6
CONTINUOUS
 62
1
 10
964.192686
 20
1280.830387
 11
1614.192686
 21
1280.830387
  0
LINE
  8
0
  6
CONTINUOUS
 62
1
 10
964.192686
 20
1320.830387
 11
1614.192686
 21
1320.830387
  0
ENDSEC
  0
EOF
