  0
SECTION
  2
HEADER
  9
$LIMMIN
 10
0.000000
 20
0.000000
  9
$LIMMAX
 10
4000.000000
 20
2500.000000
  9
$EXTMIN
 10
0.000000
 20
0.000000
  9
$EXTMAX
 10
4000.000000
 20
2500.000000
  9
$ANGBASE
 50
0.0
  9
$ANGDIR
 70
0
  9
$DIMRND
 40
0.100000
  9
$DIMSE1
 70
0
  9
$DIMSE2
 70
0
  9
$DIMTXT
 40
3.500000
  9
$LTSCALE
 40
1.000000
  9
$LUPREC
 70
5
  9
$AUPREC
 70
5
  9
$PDMODE
 70
2
  9
$PDSIZE
 40
20.000000
  0
ENDSEC
  0
SECTION
  2
TABLES
  0
TABLE
  2
VPORT
  70
1
  0
VPORT
  2
*ACTIVE
 70
0
  10
0.0
 20
0.0
 11
1.0
 21
1.0
 12
594.0
 22
420.0
 13
0.0
 23
0.0
 14
10.0
 24
10.0
 15
10.0
 25
10.0
 16
0.0
 26
0.0
 36
1.0
 17
594.0
 27
420.0
 37
100.0
 40
1000.0
 41
1.0
 42
50.0
 43
0.0
 44
0.0
 50
0.0
 51
0.0
 71
0
 72
2000
 73
1
 74
3
 75
0
 76
0
 77
0
 78
1
  0
ENDTAB
  0
TABLE
  2
LTYPE
 70
4
  0
LTYPE
  2
CONTINUOUS
 70
0
  3
Solid line
 72
65
 73
0
 40
0.0
  0
LTYPE
  2
DASHED
 70
0
  3
Dashed line
 72
65
 73
2
 40
6.000000
 49
3.000000
 49
-3.000000
  0
LTYPE
  2
CENTER
 70
0
  3
Chain line
 72
65
 73
4
 40
24.000000
 49
15.000000
 49
-3.000000
 49
3.000000
 49
-3.000000
  0
LTYPE
  2
RANDOM
 70
0
  3
Random line
 72
65
 73
4
 40
22.500000
 49
6.000000
 49
-3.000000
 49
4.500000
 49
-9.000000
  0
ENDTAB
  0
TABLE
  2
STYLE
 70
9
  0
STYLE
  2
STANDARD
 40
0
 41
1.0
 50
0.0
 71
0
 42
0
  3
simplex
  4

 70
0
  0
ENDTAB
  0
TABLE
  2
LAYER
 70
2
  0
LAYER
  2
0
 70
0
 62
7
  6
CONTINUOUS
  0
LAYER
  2
0
 62
1
  6
CONTINUOUS
 70
0
  0
ENDTAB
  0
ENDSEC
  0
SECTION
  2
BLOCKS
  0
ENDSEC
  0
SECTION
  2
ENTITIES
  0
LINE
  8
0
  6
CONTINUOUS
 62
1
 10
917.025649
 20
839.377609
 11
1817.025649
 21
839.377609
  0
LINE
  8
0
  6
CONTINUOUS
 62
1
 10
1817.025649
 20
839.377609
 11
1817.025649
 21
1594.377609
  0
LINE
  8
0
  6
CONTINUOUS
 62
1
 10
1817.025649
 20
1594.377609
 11
917.025649
 21
1594.377609
  0
LINE
  8
0
  6
CONTINUOUS
 62
1
 10
917.025649
 20
1594.377609
 11
917.025649
 21
839.377609
  0
LINE
  8
0
  6
CONTINUOUS
 62
1
 10
917.025649
 20
854.377609
 11
1817.025649
 21
854.377609
  0
LINE
  8
0
  6
CONTINUOUS
 62
1
 10
1817.025649
 20
1544.377609
 11
917.025649
 21
1544.377609
  0
LINE
  8
0
  6
CONTINUOUS
 62
1
 10
1023.025649
 20
695.377609
 11
1012.025649
 21
699.377594
  0
LINE
  8
0
  6
CONTINUOUS
 62
1
 10
971.025649
 20
695.377609
 11
982.025649
 21
699.377594
  0
LINE
  8
0
  6
CONTINUOUS
 62
1
 10
971.025649
 20
695.377609
 11
971.025649
 21
694.377609
  0
LINE
  8
0
  6
CONTINUOUS
 62
1
 10
1023.025649
 20
695.377609
 11
971.025649
 21
695.377609
  0
LINE
  8
0
  6
CONTINUOUS
 62
1
 10
1012.025649
 20
699.377594
 11
982.056593
 21
699.377594
  0
LINE
  8
0
  6
CONTINUOUS
 62
1
 10
1023.025649
 20
694.377609
 11
971.025649
 21
694.377609
  0
LINE
  8
0
  6
CONTINUOUS
 62
1
 10
1023.025649
 20
695.377609
 11
1023.025649
 21
694.377609
  0
LINE
  8
0
  6
CONTINUOUS
 62
1
 10
1041.525649
 20
839.377609
 11
952.525649
 21
839.377609
  0
LINE
  8
0
  6
CONTINUOUS
 62
1
 10
1041.525649
 20
829.377609
 11
952.525649
 21
829.377609
  0
LINE
  8
0
  6
CONTINUOUS
 62
1
 10
952.525649
 20
839.377609
 11
952.525649
 21
829.377609
  0
LINE
  8
0
  6
CONTINUOUS
 62
1
 10
974.587500
 20
823.440109
 11
975.557555
 21
730.315102
  0
ARC
  8
0
  6
CONTINUOUS
 62
1
 10
968.587828
 20
823.377609
 40
6.000000
 50
0.596809
 51
90.000000
  0
ARC
  8
0
  6
CONTINUOUS
 62
1
 10
1025.463484
 20
823.377609
 40
6.000000
 50
90.000000
 51
179.403198
  0
LINE
  8
0
  6
CONTINUOUS
 62
1
 10
1041.525649
 20
839.377609
 11
1041.525649
 21
829.377609
  0
ARC
  8
0
  6
CONTINUOUS
 62
1
 10
1012.494078
 20
730.377602
 40
5.999996
 50
269.999969
 51
359.403160
  0
ARC
  8
0
  6
CONTINUOUS
 62
1
 10
981.557234
 20
730.377602
 40
6.000000
 50
180.596802
 51
270.000000
  0
LINE
  8
0
  6
CONTINUOUS
 62
1
 10
1019.463805
 20
823.440109
 11
1018.493758
 21
730.315102
  0
LINE
  8
0
  6
CONTINUOUS
 62
1
 10
1012.494078
 20
724.377602
 11
981.557234
 21
724.377602
  0
LINE
  8
0
  6
CONTINUOUS
 62
1
 10
1763.025649
 20
695.377609
 11
1752.025649
 21
699.377594
  0
LINE
  8
0
  6
CONTINUOUS
 62
1
 10
1711.025649
 20
695.377609
 11
1722.025649
 21
699.377594
  0
LINE
  8
0
  6
CONTINUOUS
 62
1
 10
1711.025649
 20
695.377609
 11
1711.025649
 21
694.377609
  0
LINE
  8
0
  6
CONTINUOUS
 62
1
 10
1763.025649
 20
695.377609
 11
1711.025649
 21
695.377609
  0
LINE
  8
0
  6
CONTINUOUS
 62
1
 10
1752.025649
 20
699.377594
 11
1722.056593
 21
699.377594
  0
LINE
  8
0
  6
CONTINUOUS
 62
1
 10
1763.025649
 20
694.377609
 11
1711.025649
 21
694.377609
  0
LINE
  8
0
  6
CONTINUOUS
 62
1
 10
1763.025649
 20
695.377609
 11
1763.025649
 21
694.377609
  0
LINE
  8
0
  6
CONTINUOUS
 62
1
 10
1781.525649
 20
839.377609
 11
1692.525649
 21
839.377609
  0
LINE
  8
0
  6
CONTINUOUS
 62
1
 10
1781.525649
 20
829.377609
 11
1692.525649
 21
829.377609
  0
LINE
  8
0
  6
CONTINUOUS
 62
1
 10
1692.525649
 20
839.377609
 11
1692.525649
 21
829.377609
  0
LINE
  8
0
  6
CONTINUOUS
 62
1
 10
1714.587500
 20
823.440109
 11
1715.557555
 21
730.315102
  0
ARC
  8
0
  6
CONTINUOUS
 62
1
 10
1708.587828
 20
823.377609
 40
6.000000
 50
0.596809
 51
90.000000
  0
ARC
  8
0
  6
CONTINUOUS
 62
1
 10
1765.463484
 20
823.377609
 40
6.000000
 50
90.000000
 51
179.403198
  0
LINE
  8
0
  6
CONTINUOUS
 62
1
 10
1781.525649
 20
839.377609
 11
1781.525649
 21
829.377609
  0
ARC
  8
0
  6
CONTINUOUS
 62
1
 10
1752.494078
 20
730.377602
 40
5.999996
 50
269.999969
 51
359.403160
  0
ARC
  8
0
  6
CONTINUOUS
 62
1
 10
1721.557234
 20
730.377602
 40
6.000000
 50
180.596802
 51
270.000000
  0
LINE
  8
0
  6
CONTINUOUS
 62
1
 10
1759.463805
 20
823.440109
 11
1758.493758
 21
730.315102
  0
LINE
  8
0
  6
CONTINUOUS
 62
1
 10
1752.494078
 20
724.377602
 11
1721.557234
 21
724.377602
  0
LINE
  8
0
  6
CONTINUOUS
 62
1
 10
981.547666
 20
724.377609
 11
982.025649
 21
699.377594
  0
LINE
  8
0
  6
CONTINUOUS
 62
1
 10
1012.500407
 20
724.377609
 11
1012.025649
 21
699.377594
  0
LINE
  8
0
  6
CONTINUOUS
 62
1
 10
1721.557234
 20
724.377602
 11
1722.025649
 21
699.377594
  0
LINE
  8
0
  6
CONTINUOUS
 62
1
 10
1752.494075
 20
724.377606
 11
1752.025649
 21
699.377594
  0
LINE
  8
0
  6
CONTINUOUS
 62
1
 10
1097.249153
 20
1594.377617
 11
1101.525639
 21
1598.377605
  0
LINE
  8
0
  6
CONTINUOUS
 62
1
 10
922.025649
 20
1594.377609
 11
952.025645
 21
1608.377604
  0
LINE
  8
0
  6
CONTINUOUS
 62
1
 10
952.025645
 20
1608.377604
 11
1335.025659
 21
1608.377604
  0
LINE
  8
0
  6
CONTINUOUS
 62
1
 10
1101.525639
 20
1598.377605
 11
1101.525639
 21
1608.377604
  0
LINE
  8
0
  6
CONTINUOUS
 62
1
 10
995.525646
 20
1608.377604
 11
1023.460519
 21
1594.377617
  0
LINE
  8
0
  6
CONTINUOUS
 62
1
 10
994.516171
 20
1594.377609
 11
994.516171
 21
1608.377604
  0
LINE
  8
0
  6
CONTINUOUS
 62
1
 10
1076.704951
 20
1594.377609
 11
1076.704951
 21
1608.377604
  0
LINE
  8
0
  6
CONTINUOUS
 62
1
 10
1027.561161
 20
1594.377609
 11
1027.561161
 21
1608.377604
  0
LINE
  8
0
  6
CONTINUOUS
 62
1
 10
1133.828677
 20
1605.158005
 11
1134.843314
 21
1594.377609
  0
LINE
  8
0
  6
CONTINUOUS
 62
1
 10
1152.207964
 20
1594.377609
 11
1153.222602
 21
1605.158005
  0
LINE
  8
0
  6
CONTINUOUS
 62
1
 10
1185.525656
 20
1598.377605
 11
1189.802142
 21
1594.377609
  0
LINE
  8
0
  6
CONTINUOUS
 62
1
 10
922.025649
 20
1594.377609
 11
1365.025655
 21
1594.377609
  0
LINE
  8
0
  6
CONTINUOUS
 62
1
 10
1134.178290
 20
1601.443507
 11
1134.818735
 21
1608.377604
  0
LINE
  8
0
  6
CONTINUOUS
 62
1
 10
1152.232543
 20
1608.377604
 11
1152.873006
 21
1601.443507
  0
LINE
  8
0
  6
CONTINUOUS
 62
1
 10
1210.346327
 20
1594.377609
 11
1210.346327
 21
1608.377604
  0
LINE
  8
0
  6
CONTINUOUS
 62
1
 10
1259.490100
 20
1594.377609
 11
1259.490100
 21
1608.377604
  0
LINE
  8
0
  6
CONTINUOUS
 62
1
 10
1185.525656
 20
1598.377605
 11
1185.525656
 21
1608.377604
  0
LINE
  8
0
  6
CONTINUOUS
 62
1
 10
1153.222602
 20
1605.158005
 11
1153.222602
 21
1608.377604
  0
LINE
  8
0
  6
CONTINUOUS
 62
1
 10
1133.828677
 20
1605.158005
 11
1133.828677
 21
1608.377604
  0
LINE
  8
0
  6
CONTINUOUS
 62
1
 10
1335.025659
 20
1608.377604
 11
1365.025655
 21
1594.377609
  0
LINE
  8
0
  6
CONTINUOUS
 62
1
 10
1292.535116
 20
1594.377609
 11
1292.535116
 21
1608.377604
  0
LINE
  8
0
  6
CONTINUOUS
 62
1
 10
1263.590742
 20
1594.377617
 11
1291.525649
 21
1608.377604
  0
LINE
  8
0
  6
CONTINUOUS
 62
1
 10
1636.802144
 20
1594.377617
 11
1632.525658
 21
1598.377605
  0
LINE
  8
0
  6
CONTINUOUS
 62
1
 10
1812.025649
 20
1594.377609
 11
1782.025652
 21
1608.377604
  0
LINE
  8
0
  6
CONTINUOUS
 62
1
 10
1782.025652
 20
1608.377604
 11
1399.025638
 21
1608.377604
  0
LINE
  8
0
  6
CONTINUOUS
 62
1
 10
1632.525658
 20
1598.377605
 11
1632.525658
 21
1608.377604
  0
LINE
  8
0
  6
CONTINUOUS
 62
1
 10
1738.525651
 20
1608.377604
 11
1710.590778
 21
1594.377617
  0
LINE
  8
0
  6
CONTINUOUS
 62
1
 10
1739.535126
 20
1594.377609
 11
1739.535126
 21
1608.377604
  0
LINE
  8
0
  6
CONTINUOUS
 62
1
 10
1657.346346
 20
1594.377609
 11
1657.346346
 21
1608.377604
  0
LINE
  8
0
  6
CONTINUOUS
 62
1
 10
1706.490136
 20
1594.377609
 11
1706.490136
 21
1608.377604
  0
LINE
  8
0
  6
CONTINUOUS
 62
1
 10
1600.222620
 20
1605.158005
 11
1599.207983
 21
1594.377609
  0
LINE
  8
0
  6
CONTINUOUS
 62
1
 10
1581.843333
 20
1594.377609
 11
1580.828695
 21
1605.158005
  0
LINE
  8
0
  6
CONTINUOUS
 62
1
 10
1548.525641
 20
1598.377605
 11
1544.249155
 21
1594.377609
  0
LINE
  8
0
  6
CONTINUOUS
 62
1
 10
1812.025649
 20
1594.377609
 11
1369.025642
 21
1594.377609
  0
LINE
  8
0
  6
CONTINUOUS
 62
1
 10
1599.873007
 20
1601.443507
 11
1599.232562
 21
1608.377604
  0
LINE
  8
0
  6
CONTINUOUS
 62
1
 10
1581.818754
 20
1608.377604
 11
1581.178291
 21
1601.443507
  0
LINE
  8
0
  6
CONTINUOUS
 62
1
 10
1523.704970
 20
1594.377609
 11
1523.704970
 21
1608.377604
  0
LINE
  8
0
  6
CONTINUOUS
 62
1
 10
1474.561197
 20
1594.377609
 11
1474.561197
 21
1608.377604
  0
LINE
  8
0
  6
CONTINUOUS
 62
1
 10
1548.525641
 20
1598.377605
 11
1548.525641
 21
1608.377604
  0
LINE
  8
0
  6
CONTINUOUS
 62
1
 10
1580.828695
 20
1605.158005
 11
1580.828695
 21
1608.377604
  0
LINE
  8
0
  6
CONTINUOUS
 62
1
 10
1600.222620
 20
1605.158005
 11
1600.222620
 21
1608.377604
  0
LINE
  8
0
  6
CONTINUOUS
 62
1
 10
1399.025638
 20
1608.377604
 11
1369.025642
 21
1594.377609
  0
LINE
  8
0
  6
CONTINUOUS
 62
1
 10
1441.516181
 20
1594.377609
 11
1441.516181
 21
1608.377604
  0
LINE
  8
0
  6
CONTINUOUS
 62
1
 10
1470.460555
 20
1594.377617
 11
1442.525648
 21
1608.377604
  0
LINE
  8
0
  6
CONTINUOUS
 62
1
 10
927.189003
 20
1596.787174
 11
925.509953
 21
1607.876755
  0
LINE
  8
0
  6
CONTINUOUS
 62
1
 10
1028.140126
 20
1594.615288
 11
1031.124404
 21
1607.876755
  0
LINE
  8
0
  6
CONTINUOUS
 62
1
 10
1222.926893
 20
1630.725745
 11
1211.124404
 21
1630.725745
  0
LINE
  8
0
  6
CONTINUOUS
 62
1
 10
1225.911171
 20
1594.615288
 11
1222.926893
 21
1630.725745
  0
LINE
  8
0
  6
CONTINUOUS
 62
1
 10
1209.277485
 20
1608.377604
 11
1211.124404
 21
1630.725745
  0
LINE
  8
0
  6
CONTINUOUS
 62
1
 10
1282.926893
 20
1630.725745
 11
1271.124404
 21
1630.725745
  0
LINE
  8
0
  6
CONTINUOUS
 62
1
 10
1284.773812
 20
1608.377604
 11
1282.926893
 21
1630.725745
  0
LINE
  8
0
  6
CONTINUOUS
 62
1
 10
1269.277485
 20
1608.377604
 11
1271.124404
 21
1630.725745
  0
LINE
  8
0
  6
CONTINUOUS
 62
1
 10
1342.926893
 20
1630.725745
 11
1331.124404
 21
1630.725745
  0
LINE
  8
0
  6
CONTINUOUS
 62
1
 10
1345.164847
 20
1603.645984
 11
1342.926893
 21
1630.725745
  0
LINE
  8
0
  6
CONTINUOUS
 62
1
 10
1329.277485
 20
1608.377604
 11
1331.124404
 21
1630.725745
  0
LINE
  8
0
  6
CONTINUOUS
 62
1
 10
1402.926893
 20
1630.725745
 11
1391.124404
 21
1630.725745
  0
LINE
  8
0
  6
CONTINUOUS
 62
1
 10
1405.911171
 20
1594.615288
 11
1402.926893
 21
1630.725745
  0
LINE
  8
0
  6
CONTINUOUS
 62
1
 10
1388.886450
 20
1603.645984
 11
1391.124404
 21
1630.725745
  0
LINE
  8
0
  6
CONTINUOUS
 62
1
 10
1462.926893
 20
1630.725745
 11
1451.124404
 21
1630.725745
  0
LINE
  8
0
  6
CONTINUOUS
 62
1
 10
1464.773812
 20
1608.377604
 11
1462.926893
 21
1630.725745
  0
LINE
  8
0
  6
CONTINUOUS
 62
1
 10
1449.277485
 20
1608.377604
 11
1451.124404
 21
1630.725745
  0
LINE
  8
0
  6
CONTINUOUS
 62
1
 10
1522.926893
 20
1630.725745
 11
1511.124404
 21
1630.725745
  0
LINE
  8
0
  6
CONTINUOUS
 62
1
 10
1524.773812
 20
1608.377604
 11
1522.926893
 21
1630.725745
  0
LINE
  8
0
  6
CONTINUOUS
 62
1
 10
1509.277485
 20
1608.377604
 11
1511.124404
 21
1630.725745
  0
LINE
  8
0
  6
CONTINUOUS
 62
1
 10
1807.524109
 20
1596.478327
 11
1810.398756
 21
1607.876755
  0
LINE
  8
0
  6
CONTINUOUS
 62
1
 10
1810.398756
 20
1607.876755
 11
1814.525649
 21
1607.876755
  0
LINE
  8
0
  6
CONTINUOUS
 62
1
 10
919.525649
 20
1607.876755
 11
925.509953
 21
1607.876755
  0
LINE
  8
0
  6
CONTINUOUS
 62
1
 10
1582.926893
 20
1607.876755
 11
1585.911171
 21
1594.615288
  0
LINE
  8
0
  6
CONTINUOUS
 62
1
 10
1814.525649
 20
1607.876755
 11
1814.525649
 21
1594.377609
  0
LINE
  8
0
  6
CONTINUOUS
 62
1
 10
919.525649
 20
1607.876755
 11
919.525649
 21
1594.377609
  0
LINE
  8
0
  6
CONTINUOUS
 62
1
 10
1017.025649
 20
854.377609
 11
1017.025649
 21
1404.870041
  0
LINE
  8
0
  6
CONTINUOUS
 62
1
 10
1717.025649
 20
1404.870041
 11
1717.025649
 21
854.377609
  0
LINE
  8
0
  6
CONTINUOUS
 62
1
 10
1717.025649
 20
889.377609
 11
1017.025649
 21
889.377609
  0
LINE
  8
0
  6
CONTINUOUS
 62
1
 10
1717.025649
 20
1166.877609
 11
1017.025649
 21
1166.877609
  0
LINE
  8
0
  6
CONTINUOUS
 62
1
 10
1717.025649
 20
1131.877609
 11
1017.025649
 21
1131.877609
  0
LINE
  8
0
  6
CONTINUOUS
 62
1
 10
1817.025649
 20
1544.377609
 11
917.025649
 21
1544.377609
  0
LINE
  8
0
  6
CONTINUOUS
 62
1
 10
1817.025649
 20
1544.377609
 11
917.025649
 21
1544.377609
  0
ARC
  8
0
  6
CONTINUOUS
 62
1
 10
1647.025649
 20
1495.877609
 40
25.000000
 50
180.000000
 51
0.000000
  0
ARC
  8
0
  6
CONTINUOUS
 62
1
 10
1647.025649
 20
1495.877609
 40
25.000000
 50
0.000000
 51
180.000000
  0
LINE
  8
0
  6
CONTINUOUS
 62
1
 10
1671.520546
 20
1500.877609
 11
1622.530751
 21
1500.877609
  0
LINE
  8
0
  6
CONTINUOUS
 62
1
 10
1671.520546
 20
1490.877609
 11
1622.530751
 21
1490.877609
  0
LINE
  8
0
  6
CONTINUOUS
 62
1
 10
1817.025649
 20
1404.870041
 11
917.025649
 21
1404.870041
  0
LINE
  8
0
  6
CONTINUOUS
 62
1
 10
1817.025649
 20
1429.870041
 11
917.025649
 21
1429.870041
  0
LINE
  8
0
  6
CONTINUOUS
 62
1
 10
1817.025649
 20
1544.377609
 11
917.025649
 21
1544.377609
  0
CIRCLE
  8
0
  6
CONTINUOUS
 62
1
 10
1647.025649
 20
1495.877609
 40
27.000000
  0
ARC
  8
0
  6
CONTINUOUS
 62
1
 10
1187.025649
 20
1495.877609
 40
25.000000
 50
180.000000
 51
0.000000
  0
ARC
  8
0
  6
CONTINUOUS
 62
1
 10
1187.025649
 20
1495.877609
 40
25.000000
 50
0.000000
 51
180.000000
  0
LINE
  8
0
  6
CONTINUOUS
 62
1
 10
1211.520546
 20
1500.877609
 11
1162.530751
 21
1500.877609
  0
LINE
  8
0
  6
CONTINUOUS
 62
1
 10
1211.520546
 20
1490.877609
 11
1162.530751
 21
1490.877609
  0
CIRCLE
  8
0
  6
CONTINUOUS
 62
1
 10
1187.025649
 20
1495.877609
 40
27.000000
  0
ARC
  8
0
  6
CONTINUOUS
 62
1
 10
1547.025649
 20
1495.877609
 40
25.000000
 50
180.000000
 51
0.000000
  0
ARC
  8
0
  6
CONTINUOUS
 62
1
 10
1547.025649
 20
1495.877609
 40
25.000000
 50
0.000000
 51
180.000000
  0
LINE
  8
0
  6
CONTINUOUS
 62
1
 10
1571.520546
 20
1500.877609
 11
1522.530751
 21
1500.877609
  0
LINE
  8
0
  6
CONTINUOUS
 62
1
 10
1571.520546
 20
1490.877609
 11
1522.530751
 21
1490.877609
  0
CIRCLE
  8
0
  6
CONTINUOUS
 62
1
 10
1547.025649
 20
1495.877609
 40
27.000000
  0
ARC
  8
0
  6
CONTINUOUS
 62
1
 10
1087.025649
 20
1495.877609
 40
25.000000
 50
180.000000
 51
0.000000
  0
ARC
  8
0
  6
CONTINUOUS
 62
1
 10
1087.025649
 20
1495.877609
 40
25.000000
 50
0.000000
 51
180.000000
  0
LINE
  8
0
  6
CONTINUOUS
 62
1
 10
1111.520546
 20
1500.877609
 11
1062.530751
 21
1500.877609
  0
LINE
  8
0
  6
CONTINUOUS
 62
1
 10
1111.520546
 20
1490.877609
 11
1062.530751
 21
1490.877609
  0
CIRCLE
  8
0
  6
CONTINUOUS
 62
1
 10
1087.025649
 20
1495.877609
 40
27.000000
  0
LINE
  8
0
  6
CONTINUOUS
 62
1
 10
1717.025649
 20
1404.870041
 11
1017.025649
 21
1404.870041
  0
LINE
  8
0
  6
CONTINUOUS
 62
1
 10
1717.025649
 20
1369.870041
 11
1017.025649
 21
1369.870041
  0
ENDSEC
  0
EOF
