  0
SECTION
  2
HEADER
  9
$LIMMIN
 10
0.000000
 20
0.000000
  9
$LIMMAX
 10
4000.000000
 20
2500.000000
  9
$EXTMIN
 10
0.000000
 20
0.000000
  9
$EXTMAX
 10
4000.000000
 20
2500.000000
  9
$ANGBASE
 50
0.0
  9
$ANGDIR
 70
0
  9
$DIMRND
 40
0.100000
  9
$DIMSE1
 70
0
  9
$DIMSE2
 70
0
  9
$DIMTXT
 40
3.500000
  9
$LTSCALE
 40
1.000000
  9
$LUPREC
 70
5
  9
$AUPREC
 70
5
  9
$PDMODE
 70
2
  9
$PDSIZE
 40
20.000000
  0
ENDSEC
  0
SECTION
  2
TABLES
  0
TABLE
  2
VPORT
  70
1
  0
VPORT
  2
*ACTIVE
 70
0
  10
0.0
 20
0.0
 11
1.0
 21
1.0
 12
594.0
 22
420.0
 13
0.0
 23
0.0
 14
10.0
 24
10.0
 15
10.0
 25
10.0
 16
0.0
 26
0.0
 36
1.0
 17
594.0
 27
420.0
 37
100.0
 40
1000.0
 41
1.0
 42
50.0
 43
0.0
 44
0.0
 50
0.0
 51
0.0
 71
0
 72
2000
 73
1
 74
3
 75
0
 76
0
 77
0
 78
1
  0
ENDTAB
  0
TABLE
  2
LTYPE
 70
4
  0
LTYPE
  2
CONTINUOUS
 70
0
  3
Solid line
 72
65
 73
0
 40
0.0
  0
LTYPE
  2
DASHED
 70
0
  3
Dashed line
 72
65
 73
2
 40
6.000000
 49
3.000000
 49
-3.000000
  0
LTYPE
  2
CENTER
 70
0
  3
Chain line
 72
65
 73
4
 40
24.000000
 49
15.000000
 49
-3.000000
 49
3.000000
 49
-3.000000
  0
LTYPE
  2
RANDOM
 70
0
  3
Random line
 72
65
 73
4
 40
22.500000
 49
6.000000
 49
-3.000000
 49
4.500000
 49
-9.000000
  0
ENDTAB
  0
TABLE
  2
STYLE
 70
9
  0
STYLE
  2
STANDARD
 40
0
 41
1.0
 50
0.0
 71
0
 42
0
  3
simplex
  4

 70
0
  0
ENDTAB
  0
TABLE
  2
LAYER
 70
2
  0
LAYER
  2
0
 70
0
 62
7
  6
CONTINUOUS
  0
LAYER
  2
0
 62
1
  6
CONTINUOUS
 70
0
  0
ENDTAB
  0
ENDSEC
  0
SECTION
  2
BLOCKS
  0
ENDSEC
  0
SECTION
  2
ENTITIES
  0
LINE
  8
0
  6
CONTINUOUS
 62
1
 10
493.383029
 20
752.406428
 11
1393.383029
 21
752.406428
  0
LINE
  8
0
  6
CONTINUOUS
 62
1
 10
1393.383029
 20
752.406428
 11
1393.383029
 21
1507.406428
  0
LINE
  8
0
  6
CONTINUOUS
 62
1
 10
1393.383029
 20
1507.406428
 11
493.383029
 21
1507.406428
  0
LINE
  8
0
  6
CONTINUOUS
 62
1
 10
493.383029
 20
1507.406428
 11
493.383029
 21
752.406428
  0
LINE
  8
0
  6
CONTINUOUS
 62
1
 10
493.383029
 20
767.406428
 11
1393.383029
 21
767.406428
  0
LINE
  8
0
  6
CONTINUOUS
 62
1
 10
1393.383029
 20
1457.406428
 11
493.383029
 21
1457.406428
  0
LINE
  8
0
  6
CONTINUOUS
 62
1
 10
599.383029
 20
608.406428
 11
588.383029
 21
612.406413
  0
LINE
  8
0
  6
CONTINUOUS
 62
1
 10
547.383029
 20
608.406428
 11
558.383029
 21
612.406413
  0
LINE
  8
0
  6
CONTINUOUS
 62
1
 10
547.383029
 20
608.406428
 11
547.383029
 21
607.406428
  0
LINE
  8
0
  6
CONTINUOUS
 62
1
 10
599.383029
 20
608.406428
 11
547.383029
 21
608.406428
  0
LINE
  8
0
  6
CONTINUOUS
 62
1
 10
588.383029
 20
612.406413
 11
558.413974
 21
612.406413
  0
LINE
  8
0
  6
CONTINUOUS
 62
1
 10
599.383029
 20
607.406428
 11
547.383029
 21
607.406428
  0
LINE
  8
0
  6
CONTINUOUS
 62
1
 10
599.383029
 20
608.406428
 11
599.383029
 21
607.406428
  0
LINE
  8
0
  6
CONTINUOUS
 62
1
 10
617.883029
 20
752.406428
 11
528.883029
 21
752.406428
  0
LINE
  8
0
  6
CONTINUOUS
 62
1
 10
617.883029
 20
742.406428
 11
528.883029
 21
742.406428
  0
LINE
  8
0
  6
CONTINUOUS
 62
1
 10
528.883029
 20
752.406428
 11
528.883029
 21
742.406428
  0
LINE
  8
0
  6
CONTINUOUS
 62
1
 10
550.944881
 20
736.468928
 11
551.914935
 21
643.343921
  0
ARC
  8
0
  6
CONTINUOUS
 62
1
 10
544.945209
 20
736.406428
 40
6.000000
 50
0.596809
 51
90.000000
  0
ARC
  8
0
  6
CONTINUOUS
 62
1
 10
601.820865
 20
736.406428
 40
6.000000
 50
90.000000
 51
179.403198
  0
LINE
  8
0
  6
CONTINUOUS
 62
1
 10
617.883029
 20
752.406428
 11
617.883029
 21
742.406428
  0
ARC
  8
0
  6
CONTINUOUS
 62
1
 10
588.851459
 20
643.406421
 40
5.999996
 50
269.999969
 51
359.403160
  0
ARC
  8
0
  6
CONTINUOUS
 62
1
 10
557.914615
 20
643.406421
 40
6.000000
 50
180.596802
 51
270.000000
  0
LINE
  8
0
  6
CONTINUOUS
 62
1
 10
595.821185
 20
736.468928
 11
594.851138
 21
643.343921
  0
LINE
  8
0
  6
CONTINUOUS
 62
1
 10
588.851459
 20
637.406421
 11
557.914615
 21
637.406421
  0
LINE
  8
0
  6
CONTINUOUS
 62
1
 10
1339.383029
 20
608.406428
 11
1328.383029
 21
612.406413
  0
LINE
  8
0
  6
CONTINUOUS
 62
1
 10
1287.383029
 20
608.406428
 11
1298.383029
 21
612.406413
  0
LINE
  8
0
  6
CONTINUOUS
 62
1
 10
1287.383029
 20
608.406428
 11
1287.383029
 21
607.406428
  0
LINE
  8
0
  6
CONTINUOUS
 62
1
 10
1339.383029
 20
608.406428
 11
1287.383029
 21
608.406428
  0
LINE
  8
0
  6
CONTINUOUS
 62
1
 10
1328.383029
 20
612.406413
 11
1298.413974
 21
612.406413
  0
LINE
  8
0
  6
CONTINUOUS
 62
1
 10
1339.383029
 20
607.406428
 11
1287.383029
 21
607.406428
  0
LINE
  8
0
  6
CONTINUOUS
 62
1
 10
1339.383029
 20
608.406428
 11
1339.383029
 21
607.406428
  0
LINE
  8
0
  6
CONTINUOUS
 62
1
 10
1357.883029
 20
752.406428
 11
1268.883029
 21
752.406428
  0
LINE
  8
0
  6
CONTINUOUS
 62
1
 10
1357.883029
 20
742.406428
 11
1268.883029
 21
742.406428
  0
LINE
  8
0
  6
CONTINUOUS
 62
1
 10
1268.883029
 20
752.406428
 11
1268.883029
 21
742.406428
  0
LINE
  8
0
  6
CONTINUOUS
 62
1
 10
1290.944881
 20
736.468928
 11
1291.914935
 21
643.343921
  0
ARC
  8
0
  6
CONTINUOUS
 62
1
 10
1284.945209
 20
736.406428
 40
6.000000
 50
0.596809
 51
90.000000
  0
ARC
  8
0
  6
CONTINUOUS
 62
1
 10
1341.820865
 20
736.406428
 40
6.000000
 50
90.000000
 51
179.403198
  0
LINE
  8
0
  6
CONTINUOUS
 62
1
 10
1357.883029
 20
752.406428
 11
1357.883029
 21
742.406428
  0
ARC
  8
0
  6
CONTINUOUS
 62
1
 10
1328.851459
 20
643.406421
 40
5.999996
 50
269.999969
 51
359.403160
  0
ARC
  8
0
  6
CONTINUOUS
 62
1
 10
1297.914615
 20
643.406421
 40
6.000000
 50
180.596802
 51
270.000000
  0
LINE
  8
0
  6
CONTINUOUS
 62
1
 10
1335.821185
 20
736.468928
 11
1334.851138
 21
643.343921
  0
LINE
  8
0
  6
CONTINUOUS
 62
1
 10
1328.851459
 20
637.406421
 11
1297.914615
 21
637.406421
  0
LINE
  8
0
  6
CONTINUOUS
 62
1
 10
557.905047
 20
637.406428
 11
558.383029
 21
612.406413
  0
LINE
  8
0
  6
CONTINUOUS
 62
1
 10
588.857787
 20
637.406428
 11
588.383029
 21
612.406413
  0
LINE
  8
0
  6
CONTINUOUS
 62
1
 10
1297.914615
 20
637.406421
 11
1298.383029
 21
612.406413
  0
LINE
  8
0
  6
CONTINUOUS
 62
1
 10
1328.851455
 20
637.406425
 11
1328.383029
 21
612.406413
  0
LINE
  8
0
  6
CONTINUOUS
 62
1
 10
673.606534
 20
1507.406436
 11
677.883020
 21
1511.406424
  0
LINE
  8
0
  6
CONTINUOUS
 62
1
 10
498.383029
 20
1507.406428
 11
528.383025
 21
1521.406423
  0
LINE
  8
0
  6
CONTINUOUS
 62
1
 10
528.383025
 20
1521.406423
 11
911.383040
 21
1521.406423
  0
LINE
  8
0
  6
CONTINUOUS
 62
1
 10
677.883020
 20
1511.406424
 11
677.883020
 21
1521.406423
  0
LINE
  8
0
  6
CONTINUOUS
 62
1
 10
571.883027
 20
1521.406423
 11
599.817900
 21
1507.406436
  0
LINE
  8
0
  6
CONTINUOUS
 62
1
 10
570.873552
 20
1507.406428
 11
570.873552
 21
1521.406423
  0
LINE
  8
0
  6
CONTINUOUS
 62
1
 10
653.062332
 20
1507.406428
 11
653.062332
 21
1521.406423
  0
LINE
  8
0
  6
CONTINUOUS
 62
1
 10
603.918541
 20
1507.406428
 11
603.918541
 21
1521.406423
  0
LINE
  8
0
  6
CONTINUOUS
 62
1
 10
710.186057
 20
1518.186824
 11
711.200695
 21
1507.406428
  0
LINE
  8
0
  6
CONTINUOUS
 62
1
 10
728.565345
 20
1507.406428
 11
729.579982
 21
1518.186824
  0
LINE
  8
0
  6
CONTINUOUS
 62
1
 10
761.883037
 20
1511.406424
 11
766.159523
 21
1507.406428
  0
LINE
  8
0
  6
CONTINUOUS
 62
1
 10
498.383029
 20
1507.406428
 11
941.383036
 21
1507.406428
  0
LINE
  8
0
  6
CONTINUOUS
 62
1
 10
710.535670
 20
1514.472326
 11
711.176116
 21
1521.406423
  0
LINE
  8
0
  6
CONTINUOUS
 62
1
 10
728.589924
 20
1521.406423
 11
729.230386
 21
1514.472326
  0
LINE
  8
0
  6
CONTINUOUS
 62
1
 10
786.703707
 20
1507.406428
 11
786.703707
 21
1521.406423
  0
LINE
  8
0
  6
CONTINUOUS
 62
1
 10
835.847481
 20
1507.406428
 11
835.847481
 21
1521.406423
  0
LINE
  8
0
  6
CONTINUOUS
 62
1
 10
761.883037
 20
1511.406424
 11
761.883037
 21
1521.406423
  0
LINE
  8
0
  6
CONTINUOUS
 62
1
 10
729.579982
 20
1518.186824
 11
729.579982
 21
1521.406423
  0
LINE
  8
0
  6
CONTINUOUS
 62
1
 10
710.186057
 20
1518.186824
 11
710.186057
 21
1521.406423
  0
LINE
  8
0
  6
CONTINUOUS
 62
1
 10
911.383040
 20
1521.406423
 11
941.383036
 21
1507.406428
  0
LINE
  8
0
  6
CONTINUOUS
 62
1
 10
868.892496
 20
1507.406428
 11
868.892496
 21
1521.406423
  0
LINE
  8
0
  6
CONTINUOUS
 62
1
 10
839.948123
 20
1507.406436
 11
867.883030
 21
1521.406423
  0
LINE
  8
0
  6
CONTINUOUS
 62
1
 10
1213.159524
 20
1507.406436
 11
1208.883038
 21
1511.406424
  0
LINE
  8
0
  6
CONTINUOUS
 62
1
 10
1388.383029
 20
1507.406428
 11
1358.383033
 21
1521.406423
  0
LINE
  8
0
  6
CONTINUOUS
 62
1
 10
1358.383033
 20
1521.406423
 11
975.383018
 21
1521.406423
  0
LINE
  8
0
  6
CONTINUOUS
 62
1
 10
1208.883038
 20
1511.406424
 11
1208.883038
 21
1521.406423
  0
LINE
  8
0
  6
CONTINUOUS
 62
1
 10
1314.883032
 20
1521.406423
 11
1286.948159
 21
1507.406436
  0
LINE
  8
0
  6
CONTINUOUS
 62
1
 10
1315.892506
 20
1507.406428
 11
1315.892506
 21
1521.406423
  0
LINE
  8
0
  6
CONTINUOUS
 62
1
 10
1233.703726
 20
1507.406428
 11
1233.703726
 21
1521.406423
  0
LINE
  8
0
  6
CONTINUOUS
 62
1
 10
1282.847517
 20
1507.406428
 11
1282.847517
 21
1521.406423
  0
LINE
  8
0
  6
CONTINUOUS
 62
1
 10
1176.580001
 20
1518.186824
 11
1175.565363
 21
1507.406428
  0
LINE
  8
0
  6
CONTINUOUS
 62
1
 10
1158.200714
 20
1507.406428
 11
1157.186076
 21
1518.186824
  0
LINE
  8
0
  6
CONTINUOUS
 62
1
 10
1124.883022
 20
1511.406424
 11
1120.606536
 21
1507.406428
  0
LINE
  8
0
  6
CONTINUOUS
 62
1
 10
1388.383029
 20
1507.406428
 11
945.383022
 21
1507.406428
  0
LINE
  8
0
  6
CONTINUOUS
 62
1
 10
1176.230388
 20
1514.472326
 11
1175.589942
 21
1521.406423
  0
LINE
  8
0
  6
CONTINUOUS
 62
1
 10
1158.176134
 20
1521.406423
 11
1157.535672
 21
1514.472326
  0
LINE
  8
0
  6
CONTINUOUS
 62
1
 10
1100.062351
 20
1507.406428
 11
1100.062351
 21
1521.406423
  0
LINE
  8
0
  6
CONTINUOUS
 62
1
 10
1050.918577
 20
1507.406428
 11
1050.918577
 21
1521.406423
  0
LINE
  8
0
  6
CONTINUOUS
 62
1
 10
1124.883022
 20
1511.406424
 11
1124.883022
 21
1521.406423
  0
LINE
  8
0
  6
CONTINUOUS
 62
1
 10
1157.186076
 20
1518.186824
 11
1157.186076
 21
1521.406423
  0
LINE
  8
0
  6
CONTINUOUS
 62
1
 10
1176.580001
 20
1518.186824
 11
1176.580001
 21
1521.406423
  0
LINE
  8
0
  6
CONTINUOUS
 62
1
 10
975.383018
 20
1521.406423
 11
945.383022
 21
1507.406428
  0
LINE
  8
0
  6
CONTINUOUS
 62
1
 10
1017.873562
 20
1507.406428
 11
1017.873562
 21
1521.406423
  0
LINE
  8
0
  6
CONTINUOUS
 62
1
 10
1046.817936
 20
1507.406436
 11
1018.883028
 21
1521.406423
  0
LINE
  8
0
  6
CONTINUOUS
 62
1
 10
503.546384
 20
1509.815993
 11
501.867334
 21
1520.905574
  0
LINE
  8
0
  6
CONTINUOUS
 62
1
 10
604.497506
 20
1507.644107
 11
607.481785
 21
1520.905574
  0
LINE
  8
0
  6
CONTINUOUS
 62
1
 10
799.284274
 20
1543.754564
 11
787.481785
 21
1543.754564
  0
LINE
  8
0
  6
CONTINUOUS
 62
1
 10
802.268552
 20
1507.644107
 11
799.284274
 21
1543.754564
  0
LINE
  8
0
  6
CONTINUOUS
 62
1
 10
785.634866
 20
1521.406423
 11
787.481785
 21
1543.754564
  0
LINE
  8
0
  6
CONTINUOUS
 62
1
 10
859.284274
 20
1543.754564
 11
847.481785
 21
1543.754564
  0
LINE
  8
0
  6
CONTINUOUS
 62
1
 10
861.131192
 20
1521.406423
 11
859.284274
 21
1543.754564
  0
LINE
  8
0
  6
CONTINUOUS
 62
1
 10
845.634866
 20
1521.406423
 11
847.481785
 21
1543.754564
  0
LINE
  8
0
  6
CONTINUOUS
 62
1
 10
919.284274
 20
1543.754564
 11
907.481785
 21
1543.754564
  0
LINE
  8
0
  6
CONTINUOUS
 62
1
 10
921.522228
 20
1516.674803
 11
919.284274
 21
1543.754564
  0
LINE
  8
0
  6
CONTINUOUS
 62
1
 10
905.634866
 20
1521.406423
 11
907.481785
 21
1543.754564
  0
LINE
  8
0
  6
CONTINUOUS
 62
1
 10
979.284274
 20
1543.754564
 11
967.481785
 21
1543.754564
  0
LINE
  8
0
  6
CONTINUOUS
 62
1
 10
982.268552
 20
1507.644107
 11
979.284274
 21
1543.754564
  0
LINE
  8
0
  6
CONTINUOUS
 62
1
 10
965.243831
 20
1516.674803
 11
967.481785
 21
1543.754564
  0
LINE
  8
0
  6
CONTINUOUS
 62
1
 10
1039.284274
 20
1543.754564
 11
1027.481785
 21
1543.754564
  0
LINE
  8
0
  6
CONTINUOUS
 62
1
 10
1041.131192
 20
1521.406423
 11
1039.284274
 21
1543.754564
  0
LINE
  8
0
  6
CONTINUOUS
 62
1
 10
1025.634866
 20
1521.406423
 11
1027.481785
 21
1543.754564
  0
LINE
  8
0
  6
CONTINUOUS
 62
1
 10
1099.284274
 20
1543.754564
 11
1087.481785
 21
1543.754564
  0
LINE
  8
0
  6
CONTINUOUS
 62
1
 10
1101.131192
 20
1521.406423
 11
1099.284274
 21
1543.754564
  0
LINE
  8
0
  6
CONTINUOUS
 62
1
 10
1085.634866
 20
1521.406423
 11
1087.481785
 21
1543.754564
  0
LINE
  8
0
  6
CONTINUOUS
 62
1
 10
1383.881490
 20
1509.507146
 11
1386.756136
 21
1520.905574
  0
LINE
  8
0
  6
CONTINUOUS
 62
1
 10
1386.756136
 20
1520.905574
 11
1390.883029
 21
1520.905574
  0
LINE
  8
0
  6
CONTINUOUS
 62
1
 10
495.883029
 20
1520.905574
 11
501.867334
 21
1520.905574
  0
LINE
  8
0
  6
CONTINUOUS
 62
1
 10
1159.284274
 20
1520.905574
 11
1162.268552
 21
1507.644107
  0
LINE
  8
0
  6
CONTINUOUS
 62
1
 10
1390.883029
 20
1520.905574
 11
1390.883029
 21
1507.406428
  0
LINE
  8
0
  6
CONTINUOUS
 62
1
 10
495.883029
 20
1520.905574
 11
495.883029
 21
1507.406428
  0
LINE
  8
0
  6
CONTINUOUS
 62
1
 10
493.383029
 20
767.406428
 11
1393.383029
 21
767.406428
  0
LINE
  8
0
  6
CONTINUOUS
 62
1
 10
1393.383029
 20
1457.406428
 11
493.383029
 21
1457.406428
  0
LINE
  8
0
  6
CONTINUOUS
 62
1
 10
1273.383029
 20
1317.898860
 11
1273.383029
 21
767.406428
  0
LINE
  8
0
  6
CONTINUOUS
 62
1
 10
1273.383029
 20
883.296809
 11
493.383029
 21
883.296809
  0
LINE
  8
0
  6
CONTINUOUS
 62
1
 10
493.383029
 20
905.407405
 11
1253.383029
 21
905.407405
  0
LINE
  8
0
  6
CONTINUOUS
 62
1
 10
1253.383029
 20
905.407405
 11
1253.383029
 21
1306.206477
  0
LINE
  8
0
  6
CONTINUOUS
 62
1
 10
1253.383029
 20
1306.206477
 11
493.383029
 21
1306.206477
  0
ARC
  8
0
  6
CONTINUOUS
 62
1
 10
1223.383029
 20
1408.906428
 40
25.000000
 50
180.000000
 51
0.000000
  0
ARC
  8
0
  6
CONTINUOUS
 62
1
 10
1223.383029
 20
1408.906428
 40
25.000000
 50
0.000000
 51
180.000000
  0
ARC
  8
0
  6
CONTINUOUS
 62
1
 10
1333.383029
 20
1213.407405
 40
25.000000
 50
180.000000
 51
0.000000
  0
ARC
  8
0
  6
CONTINUOUS
 62
1
 10
1333.383029
 20
1213.407405
 40
25.000000
 50
0.000000
 51
180.000000
  0
LINE
  8
0
  6
CONTINUOUS
 62
1
 10
1247.877927
 20
1413.906428
 11
1198.888132
 21
1413.906428
  0
LINE
  8
0
  6
CONTINUOUS
 62
1
 10
1247.877927
 20
1403.906428
 11
1198.888132
 21
1403.906428
  0
LINE
  8
0
  6
CONTINUOUS
 62
1
 10
1357.877927
 20
1218.407405
 11
1308.888132
 21
1218.407405
  0
LINE
  8
0
  6
CONTINUOUS
 62
1
 10
1357.877927
 20
1208.407405
 11
1308.888132
 21
1208.407405
  0
LINE
  8
0
  6
CONTINUOUS
 62
1
 10
1273.383029
 20
870.296809
 11
493.383029
 21
870.296809
  0
LINE
  8
0
  6
CONTINUOUS
 62
1
 10
1273.383029
 20
832.296809
 11
493.383029
 21
832.296809
  0
LINE
  8
0
  6
CONTINUOUS
 62
1
 10
1393.383029
 20
1317.898860
 11
493.383029
 21
1317.898860
  0
LINE
  8
0
  6
CONTINUOUS
 62
1
 10
1393.383029
 20
1342.898860
 11
493.383029
 21
1342.898860
  0
LINE
  8
0
  6
CONTINUOUS
 62
1
 10
1393.383029
 20
1457.406428
 11
493.383029
 21
1457.406428
  0
CIRCLE
  8
0
  6
CONTINUOUS
 62
1
 10
1334.041298
 20
1009.407405
 40
38.000000
  0
CIRCLE
  8
0
  6
CONTINUOUS
 62
1
 10
1333.383029
 20
1213.407405
 40
27.000000
  0
CIRCLE
  8
0
  6
CONTINUOUS
 62
1
 10
1223.383029
 20
1408.906428
 40
27.000000
  0
ARC
  8
0
  6
CONTINUOUS
 62
1
 10
1334.041298
 20
1009.407405
 40
25.000000
 50
180.000000
 51
0.000000
  0
ARC
  8
0
  6
CONTINUOUS
 62
1
 10
1334.041298
 20
1009.407405
 40
25.000000
 50
0.000000
 51
180.000000
  0
LINE
  8
0
  6
CONTINUOUS
 62
1
 10
1358.536196
 20
1014.407405
 11
1309.546401
 21
1014.407405
  0
LINE
  8
0
  6
CONTINUOUS
 62
1
 10
1358.536196
 20
1004.407405
 11
1309.546401
 21
1004.407405
  0
CIRCLE
  8
0
  6
CONTINUOUS
 62
1
 10
1334.041298
 20
1009.407405
 40
27.000000
  0
LINE
  8
0
  6
CONTINUOUS
 62
1
 10
548.383029
 20
1276.206477
 11
548.383029
 21
1236.206477
  0
LINE
  8
0
  6
CONTINUOUS
 62
1
 10
523.383029
 20
1272.049389
 11
523.383029
 21
1240.363565
  0
LINE
  8
0
  6
CONTINUOUS
 62
1
 10
548.383029
 20
1236.206477
 11
526.226021
 21
1237.367677
  0
LINE
  8
0
  6
CONTINUOUS
 62
1
 10
548.383029
 20
1276.206477
 11
526.226021
 21
1275.045278
  0
ARC
  8
0
  6
CONTINUOUS
 62
1
 10
526.383029
 20
1272.049389
 40
3.000000
 50
93.000000
 51
180.000000
  0
ARC
  8
0
  6
CONTINUOUS
 62
1
 10
526.383029
 20
1240.363565
 40
3.000000
 50
180.000000
 51
267.000000
  0
LINE
  8
0
  6
CONTINUOUS
 62
1
 10
1198.383029
 20
1276.206477
 11
1198.383029
 21
1236.206477
  0
LINE
  8
0
  6
CONTINUOUS
 62
1
 10
1223.383029
 20
1272.049389
 11
1223.383029
 21
1240.363565
  0
LINE
  8
0
  6
CONTINUOUS
 62
1
 10
1198.383029
 20
1236.206477
 11
1220.540037
 21
1237.367677
  0
LINE
  8
0
  6
CONTINUOUS
 62
1
 10
1198.383029
 20
1276.206477
 11
1220.540037
 21
1275.045278
  0
ARC
  8
0
  6
CONTINUOUS
 62
1
 10
1220.383029
 20
1272.049389
 40
3.000000
 50
0.000000
 51
87.000000
  0
ARC
  8
0
  6
CONTINUOUS
 62
1
 10
1220.383029
 20
1240.363565
 40
3.000000
 50
273.000000
 51
0.000000
  0
LINE
  8
0
  6
CONTINUOUS
 62
1
 10
548.383029
 20
1236.206477
 11
1198.383029
 21
1236.206477
  0
LINE
  8
0
  6
CONTINUOUS
 62
1
 10
548.383029
 20
1276.206477
 11
1198.383029
 21
1276.206477
  0
ARC
  8
0
  6
CONTINUOUS
 62
1
 10
763.383029
 20
1408.906428
 40
25.000000
 50
180.000000
 51
0.000000
  0
ARC
  8
0
  6
CONTINUOUS
 62
1
 10
763.383029
 20
1408.906428
 40
25.000000
 50
0.000000
 51
180.000000
  0
LINE
  8
0
  6
CONTINUOUS
 62
1
 10
787.877927
 20
1413.906428
 11
738.888132
 21
1413.906428
  0
LINE
  8
0
  6
CONTINUOUS
 62
1
 10
787.877927
 20
1403.906428
 11
738.888132
 21
1403.906428
  0
CIRCLE
  8
0
  6
CONTINUOUS
 62
1
 10
763.383029
 20
1408.906428
 40
27.000000
  0
ARC
  8
0
  6
CONTINUOUS
 62
1
 10
1123.383029
 20
1408.906428
 40
25.000000
 50
180.000000
 51
0.000000
  0
ARC
  8
0
  6
CONTINUOUS
 62
1
 10
1123.383029
 20
1408.906428
 40
25.000000
 50
0.000000
 51
180.000000
  0
LINE
  8
0
  6
CONTINUOUS
 62
1
 10
1147.877927
 20
1413.906428
 11
1098.888132
 21
1413.906428
  0
LINE
  8
0
  6
CONTINUOUS
 62
1
 10
1147.877927
 20
1403.906428
 11
1098.888132
 21
1403.906428
  0
CIRCLE
  8
0
  6
CONTINUOUS
 62
1
 10
1123.383029
 20
1408.906428
 40
27.000000
  0
ARC
  8
0
  6
CONTINUOUS
 62
1
 10
663.383029
 20
1408.906428
 40
25.000000
 50
180.000000
 51
0.000000
  0
ARC
  8
0
  6
CONTINUOUS
 62
1
 10
663.383029
 20
1408.906428
 40
25.000000
 50
0.000000
 51
180.000000
  0
LINE
  8
0
  6
CONTINUOUS
 62
1
 10
687.877927
 20
1413.906428
 11
638.888132
 21
1413.906428
  0
LINE
  8
0
  6
CONTINUOUS
 62
1
 10
687.877927
 20
1403.906428
 11
638.888132
 21
1403.906428
  0
CIRCLE
  8
0
  6
CONTINUOUS
 62
1
 10
663.383029
 20
1408.906428
 40
27.000000
  0
ENDSEC
  0
EOF
