  0
SECTION
  2
HEADER
  9
$ACADVER
  1
AC1015
  9
$ACADMAINTVER
 70
     6
  9
$DWGCODEPAGE
  3
ANSI_1252
  9
$INSBASE
 10
0.0
 20
0.0
 30
0.0
  9
$EXTMIN
 10
0.0
 20
0.0
 30
0.0
  9
$EXTMAX
 10
1100.0
 20
1500.0
 30
0.0
  9
$LIMMIN
 10
0.0
 20
0.0
  9
$LIMMAX
 10
1100.0
 20
1500.0
  9
$ORTHOMODE
 70
     0
  9
$REGENMODE
 70
     1
  9
$FILLMODE
 70
     1
  9
$QTEXTMODE
 70
     0
  9
$MIRRTEXT
 70
     1
  9
$LTSCALE
 40
1.0
  9
$ATTMODE
 70
     1
  9
$TEXTSIZE
 40
3.5
  9
$TRACEWID
 40
1.0
  9
$TEXTSTYLE
  7
Standard
  9
$CLAYER
  8
0
  9
$CELTYPE
  6
ByLayer
  9
$CECOLOR
 62
   256
  9
$CELTSCALE
 40
1.0
  9
$DISPSILH
 70
     0
  9
$DIMSCALE
 40
1.0
  9
$DIMASZ
 40
3.302
  9
$DIMEXO
 40
1.0
  9
$DIMDLI
 40
3.75
  9
$DIMRND
 40
0.0
  9
$DIMDLE
 40
0.0
  9
$DIMEXE
 40
1.0
  9
$DIMTP
 40
0.0
  9
$DIMTM
 40
0.0
  9
$DIMTXT
 40
3.5
  9
$DIMCEN
 40
2.5
  9
$DIMTSZ
 40
0.0
  9
$DIMTOL
 70
     0
  9
$DIMLIM
 70
     0
  9
$DIMTIH
 70
     1
  9
$DIMTOH
 70
     1
  9
$DIMSE1
 70
     0
  9
$DIMSE2
 70
     0
  9
$DIMTAD
 70
     1
  9
$DIMZIN
 70
     0
  9
$DIMBLK
  1

  9
$DIMASO
 70
     1
  9
$DIMSHO
 70
     1
  9
$DIMPOST
  1

  9
$DIMAPOST
  1

  9
$DIMALT
 70
     0
  9
$DIMALTD
 70
     3
  9
$DIMALTF
 40
0.0393700787
  9
$DIMLFAC
 40
1.0
  9
$DIMTOFL
 70
     1
  9
$DIMTVP
 40
0.0
  9
$DIMTIX
 70
     0
  9
$DIMSOXD
 70
     0
  9
$DIMSAH
 70
     0
  9
$DIMBLK1
  1

  9
$DIMBLK2
  1

  9
$DIMSTYLE
  2
ISO-25
  9
$DIMCLRD
 70
     0
  9
$DIMCLRE
 70
     0
  9
$DIMCLRT
 70
     0
  9
$DIMTFAC
 40
1.0
  9
$DIMGAP
 40
1.524
  9
$DIMJUST
 70
     0
  9
$DIMSD1
 70
     0
  9
$DIMSD2
 70
     0
  9
$DIMTOLJ
 70
     0
  9
$DIMTZIN
 70
     0
  9
$DIMALTZ
 70
     0
  9
$DIMALTTZ
 70
     0
  9
$DIMUPT
 70
     0
  9
$DIMDEC
 70
     1
  9
$DIMTDEC
 70
     1
  9
$DIMALTU
 70
     2
  9
$DIMALTTD
 70
     3
  9
$DIMTXSTY
  7
Standard
  9
$DIMAUNIT
 70
     0
  9
$DIMADEC
 70
     1
  9
$DIMALTRND
 40
0.0
  9
$DIMAZIN
 70
     0
  9
$DIMDSEP
 70
    44
  9
$DIMATFIT
 70
     3
  9
$DIMFRAC
 70
     0
  9
$DIMLDRBLK
  1

  9
$DIMLUNIT
 70
     2
  9
$DIMLWD
 70
    -2
  9
$DIMLWE
 70
    -2
  9
$DIMTMOVE
 70
     0
  9
$LUNITS
 70
     2
  9
$LUPREC
 70
     1
  9
$SKETCHINC
 40
1.0
  9
$FILLETRAD
 40
10.0
  9
$AUNITS
 70
     0
  9
$AUPREC
 70
     1
  9
$MENU
  1
.
  9
$ELEVATION
 40
0.0
  9
$PELEVATION
 40
0.0
  9
$THICKNESS
 40
0.0
  9
$LIMCHECK
 70
     0
  9
$CHAMFERA
 40
10.0
  9
$CHAMFERB
 40
10.0
  9
$CHAMFERC
 40
20.0
  9
$CHAMFERD
 40
0.0
  9
$SKPOLY
 70
     0
  9
$TDCREATE
 40
2457423.407828322
  9
$TDUCREATE
 40
2457423.407828322
  9
$TDUPDATE
 40
2457423.407828854
  9
$TDUUPDATE
 40
2457423.407828854
  9
$TDINDWG
 40
0.0000000116
  9
$TDUSRTIMER
 40
0.0000000116
  9
$USRTIMER
 70
     1
  9
$ANGBASE
 50
0.0
  9
$ANGDIR
 70
     0
  9
$PDMODE
 70
     0
  9
$PDSIZE
 40
-1.0
  9
$PLINEWID
 40
0.0
  9
$SPLFRAME
 70
     0
  9
$SPLINETYPE
 70
     6
  9
$SPLINESEGS
 70
     8
  9
$HANDSEED
  5
228
  9
$SURFTAB1
 70
     6
  9
$SURFTAB2
 70
     6
  9
$SURFTYPE
 70
     6
  9
$SURFU
 70
     6
  9
$SURFV
 70
     6
  9
$UCSBASE
  2

  9
$UCSNAME
  2

  9
$UCSORG
 10
0.0
 20
0.0
 30
0.0
  9
$UCSXDIR
 10
1.0
 20
0.0
 30
0.0
  9
$UCSYDIR
 10
0.0
 20
1.0
 30
0.0
  9
$UCSORTHOREF
  2

  9
$UCSORTHOVIEW
 70
     0
  9
$UCSORGTOP
 10
0.0
 20
0.0
 30
0.0
  9
$UCSORGBOTTOM
 10
0.0
 20
0.0
 30
0.0
  9
$UCSORGLEFT
 10
0.0
 20
0.0
 30
0.0
  9
$UCSORGRIGHT
 10
0.0
 20
0.0
 30
0.0
  9
$UCSORGFRONT
 10
0.0
 20
0.0
 30
0.0
  9
$UCSORGBACK
 10
0.0
 20
0.0
 30
0.0
  9
$PUCSBASE
  2

  9
$PUCSNAME
  2

  9
$PUCSORG
 10
0.0
 20
0.0
 30
0.0
  9
$PUCSXDIR
 10
1.0
 20
0.0
 30
0.0
  9
$PUCSYDIR
 10
0.0
 20
1.0
 30
0.0
  9
$PUCSORTHOREF
  2

  9
$PUCSORTHOVIEW
 70
     0
  9
$PUCSORGTOP
 10
0.0
 20
0.0
 30
0.0
  9
$PUCSORGBOTTOM
 10
0.0
 20
0.0
 30
0.0
  9
$PUCSORGLEFT
 10
0.0
 20
0.0
 30
0.0
  9
$PUCSORGRIGHT
 10
0.0
 20
0.0
 30
0.0
  9
$PUCSORGFRONT
 10
0.0
 20
0.0
 30
0.0
  9
$PUCSORGBACK
 10
0.0
 20
0.0
 30
0.0
  9
$USERI1
 70
     0
  9
$USERI2
 70
     0
  9
$USERI3
 70
     0
  9
$USERI4
 70
     0
  9
$USERI5
 70
     0
  9
$USERR1
 40
0.0
  9
$USERR2
 40
0.0
  9
$USERR3
 40
0.0
  9
$USERR4
 40
0.0
  9
$USERR5
 40
0.0
  9
$WORLDVIEW
 70
     1
  9
$SHADEDGE
 70
     3
  9
$SHADEDIF
 70
    70
  9
$TILEMODE
 70
     1
  9
$MAXACTVP
 70
    64
  9
$PINSBASE
 10
0.0
 20
0.0
 30
0.0
  9
$PLIMCHECK
 70
     0
  9
$PEXTMIN
 10
1.0000000000E+20
 20
1.0000000000E+20
 30
1.0000000000E+20
  9
$PEXTMAX
 10
-1.0000000000E+20
 20
-1.0000000000E+20
 30
-1.0000000000E+20
  9
$PLIMMIN
 10
0.0
 20
0.0
  9
$PLIMMAX
 10
420.0
 20
297.0
  9
$UNITMODE
 70
     0
  9
$VISRETAIN
 70
     1
  9
$PLINEGEN
 70
     0
  9
$PSLTSCALE
 70
     1
  9
$TREEDEPTH
 70
  3020
  9
$CMLSTYLE
  2
Standard
  9
$CMLJUST
 70
     0
  9
$CMLSCALE
 40
20.0
  9
$PROXYGRAPHICS
 70
     1
  9
$MEASUREMENT
 70
     1
  9
$CELWEIGHT
370
    -1
  9
$ENDCAPS
280
     0
  9
$JOINSTYLE
280
     0
  9
$LWDISPLAY
290
     1
  9
$INSUNITS
 70
     4
  9
$HYPERLINKBASE
  1

  9
$STYLESHEET
  1

  9
$XEDIT
290
     1
  9
$CEPSNTYPE
380
     0
  9
$PSTYLEMODE
290
     1
  9
$FINGERPRINTGUID
  2
{C94F6715-6777-41E3-A030-9F8C5A971C0F}
  9
$VERSIONGUID
  2
{FAEB1C32-E019-11D5-929B-00C0DF256EC4}
  9
$EXTNAMES
290
     1
  9
$PSVPSCALE
 40
0.0
  9
$OLESTARTUP
290
     0
  0
ENDSEC
  0
SECTION
  2
CLASSES
  0
CLASS
  1
ACDBDICTIONARYWDFLT
  2
AcDbDictionaryWithDefault
  3
ObjectDBX Classes
 90
        0
280
     0
281
     0
  0
CLASS
  1
VISUALSTYLE
  2
AcDbVisualStyle
  3
ObjectDBX Classes
 90
     4095
280
     0
281
     0
  0
CLASS
  1
MATERIAL
  2
AcDbMaterial
  3
ObjectDBX Classes
 90
     1153
280
     0
281
     0
  0
CLASS
  1
ACDBPLACEHOLDER
  2
AcDbPlaceHolder
  3
ObjectDBX Classes
 90
        0
280
     0
281
     0
  0
CLASS
  1
LAYOUT
  2
AcDbLayout
  3
ObjectDBX Classes
 90
        0
280
     0
281
     0
  0
ENDSEC
  0
SECTION
  2
TABLES
  0
TABLE
  2
VPORT
  5
8
330
0
100
AcDbSymbolTable
 70
     1
  0
VPORT
  5
29
330
8
100
AcDbSymbolTableRecord
100
AcDbViewportTableRecord
  2
*Active
 70
     0
 10
0.0
 20
0.0
 11
1.0
 21
1.0
 12
550.0
 22
750.0
 13
0.0
 23
0.0
 14
10.0
 24
10.0
 15
10.0
 25
10.0
 16
0.0
 26
0.0
 36
1.0
 17
0.0
 27
0.0
 37
0.0
 40
1500.0
 41
0.7333333333
 42
50.0
 43
0.0
 44
0.0
 50
0.0
 51
0.0
 71
     0
 72
  2000
 73
     1
 74
     3
 75
     0
 76
     0
 77
     0
 78
     0
281
     0
 65
     1
110
0.0
120
0.0
130
0.0
111
1.0
121
0.0
131
0.0
112
0.0
122
1.0
132
0.0
 79
     0
146
0.0
  0
ENDTAB
  0
TABLE
  2
LTYPE
  5
5
330
0
100
AcDbSymbolTable
 70
     6
  0
LTYPE
  5
14
330
5
100
AcDbSymbolTableRecord
100
AcDbLinetypeTableRecord
  2
ByBlock
 70
     0
  3

 72
    65
 73
     0
 40
0.0
  0
LTYPE
  5
15
330
5
100
AcDbSymbolTableRecord
100
AcDbLinetypeTableRecord
  2
ByLayer
 70
     0
  3

 72
    65
 73
     0
 40
0.0
  0
LTYPE
  5
16
330
5
100
AcDbSymbolTableRecord
100
AcDbLinetypeTableRecord
  2
Continuous
 70
     0
  3
Solid line
 72
    65
 73
     0
 40
0.0
  0
LTYPE
  5
3F
330
5
100
AcDbSymbolTableRecord
100
AcDbLinetypeTableRecord
  2
HIDDEN
 70
     0
  3
Hidden __ __ __ __ __ __ __ __ __ __ __ __ __ __
 72
    65
 73
     2
 40
1.905
 49
1.27
 74
     0
 49
-0.635
 74
     0
  0
LTYPE
  5
40
330
5
100
AcDbSymbolTableRecord
100
AcDbLinetypeTableRecord
  2
PHANTOM
 70
     0
  3
Phantom ______  __  __  ______  __  __  ______
 72
    65
 73
     6
 40
12.7
 49
6.35
 74
     0
 49
-1.27
 74
     0
 49
1.27
 74
     0
 49
-1.27
 74
     0
 49
1.27
 74
     0
 49
-1.27
 74
     0
  0
LTYPE
  5
41
330
5
100
AcDbSymbolTableRecord
100
AcDbLinetypeTableRecord
  2
CENTER
 70
     0
  3
Center ____ _ ____ _ ____ _ ____ _ ____ _ ____
 72
    65
 73
     4
 40
10.16
 49
6.35
 74
     0
 49
-1.27
 74
     0
 49
1.27
 74
     0
 49
-1.27
 74
     0
  0
LTYPE
  5
42
330
5
100
AcDbSymbolTableRecord
100
AcDbLinetypeTableRecord
  2
CENTERX2
 70
     0
  3
Center (2x) ________  __  ________  __  _____
 72
    65
 73
     4
 40
20.32
 49
12.7
 74
     0
 49
-2.54
 74
     0
 49
2.54
 74
     0
 49
-2.54
 74
     0
  0
LTYPE
  5
43
330
5
100
AcDbSymbolTableRecord
100
AcDbLinetypeTableRecord
  2
DOT2
 70
     0
  3
Dot (.5x) ........................................
 72
    65
 73
     2
 40
0.635
 49
0.0
 74
     0
 49
-0.635
 74
     0
  0
ENDTAB
  0
TABLE
  2
LAYER
  5
2
330
0
100
AcDbSymbolTable
 70
     4
  0
LAYER
  5
10
330
2
100
AcDbSymbolTableRecord
100
AcDbLayerTableRecord
  2
0
 70
     0
 62
     7
  6
Continuous
370
    -3
390
F
  0
LAYER
  5
44
330
2
100
AcDbSymbolTableRecord
100
AcDbLayerTableRecord
  2
FORMAT
 70
     0
 62
     7
  6
Continuous
370
    -3
390
F
  0
LAYER
  5
45
330
2
100
AcDbSymbolTableRecord
100
AcDbLayerTableRecord
  2
SLD-0
 70
     0
 62
     1
  6
Continuous
370
    -3
390
F
  0
LAYER
  5
46
330
2
100
AcDbSymbolTableRecord
100
AcDbLayerTableRecord
  2
WATERMARK
 70
     0
 62
     1
  6
Continuous
370
    -3
390
F
  0
ENDTAB
  0
TABLE
  2
STYLE
  5
3
330
0
100
AcDbSymbolTable
 70
     1
  0
STYLE
  5
11
330
3
100
AcDbSymbolTableRecord
100
AcDbTextStyleTableRecord
  2
Standard
 70
     0
 40
0.0
 41
1.0
 50
0.0
 71
     0
 42
3.5
  3
txt
  4

  0
ENDTAB
  0
TABLE
  2
VIEW
  5
6
330
0
100
AcDbSymbolTable
 70
     0
  0
ENDTAB
  0
TABLE
  2
UCS
  5
7
330
0
100
AcDbSymbolTable
 70
     0
  0
ENDTAB
  0
TABLE
  2
APPID
  5
9
330
0
100
AcDbSymbolTable
 70
     1
  0
APPID
  5
12
330
9
100
AcDbSymbolTableRecord
100
AcDbRegAppTableRecord
  2
ACAD
 70
     0
  0
ENDTAB
  0
TABLE
  2
DIMSTYLE
  5
A
330
0
100
AcDbSymbolTable
 70
     1
100
AcDbDimStyleTable
  0
DIMSTYLE
105
27
330
A
100
AcDbSymbolTableRecord
100
AcDbDimStyleTableRecord
  2
ISO-25
 70
     0
 41
2.5
 42
0.625
 43
3.75
 44
1.25
 73
     0
 74
     0
 77
     1
 78
     8
140
2.5
141
2.5
143
0.0393700787
147
0.625
171
     3
172
     1
178
     0
271
     2
272
     2
274
     3
278
    44
283
     0
284
     8
340
11
  0
ENDTAB
  0
TABLE
  2
BLOCK_RECORD
  5
1
330
0
100
AcDbSymbolTable
 70
     1
  0
BLOCK_RECORD
  5
1F
330
1
100
AcDbSymbolTableRecord
100
AcDbBlockTableRecord
  2
*Model_Space
340
22
  0
BLOCK_RECORD
  5
1B
330
1
100
AcDbSymbolTableRecord
100
AcDbBlockTableRecord
  2
*Paper_Space
340
1E
  0
BLOCK_RECORD
  5
23
330
1
100
AcDbSymbolTableRecord
100
AcDbBlockTableRecord
  2
*Paper_Space0
340
26
  0
ENDTAB
  0
ENDSEC
  0
SECTION
  2
BLOCKS
  0
BLOCK
  5
20
330
1F
100
AcDbEntity
  8
0
100
AcDbBlockBegin
  2
*Model_Space
 70
     0
 10
0.0
 20
0.0
 30
0.0
  3
*Model_Space
  1

  0
ENDBLK
  5
21
330
1F
100
AcDbEntity
  8
0
100
AcDbBlockEnd
  0
BLOCK
  5
1C
330
1B
100
AcDbEntity
 67
     1
  8
0
100
AcDbBlockBegin
  2
*Paper_Space
 70
     0
 10
0.0
 20
0.0
 30
0.0
  3
*Paper_Space
  1

  0
ENDBLK
  5
1D
330
1B
100
AcDbEntity
 67
     1
  8
0
100
AcDbBlockEnd
  0
BLOCK
  5
24
330
23
100
AcDbEntity
  8
0
100
AcDbBlockBegin
  2
*Paper_Space0
 70
     0
 10
0.0
 20
0.0
 30
0.0
  3
*Paper_Space0
  1

  0
ENDBLK
  5
25
330
23
100
AcDbEntity
  8
0
100
AcDbBlockEnd
  0
ENDSEC
  0
SECTION
  2
ENTITIES
  0
LINE
  5
47
330
1F
100
AcDbEntity
  8
0
  6
Continuous
 62
     7
370
    15
100
AcDbLine
 10
460.1053841645
 20
598.142039802
 30
0.0
 11
654.9053885276
 21
598.142039802
 31
0.0
  0
LINE
  5
48
330
1F
100
AcDbEntity
  8
0
  6
Continuous
 62
     7
370
    15
100
AcDbLine
 10
707.207309478
 20
653.7005722784
 30
0.0
 11
707.207309478
 21
1041.3239643239
 31
0.0
  0
LINE
  5
49
330
1F
100
AcDbEntity
  8
0
  6
Continuous
 62
     7
370
    15
100
AcDbLine
 10
407.8034632141
 20
1041.323927071
 30
0.0
 11
407.8034632141
 21
653.7006318831
 31
0.0
  0
LINE
  5
4A
330
1F
100
AcDbEntity
  8
0
  6
Continuous
 62
     7
370
    15
100
AcDbLine
 10
654.9053885276
 20
1096.7950493359
 30
0.0
 11
460.1053841645
 21
1096.7950493359
 31
0.0
  0
LINE
  5
4B
330
1F
100
AcDbEntity
  8
0
  6
Continuous
 62
     7
370
    15
100
AcDbLine
 10
357.5258575613
 20
333.5605979227
 30
0.0
 11
757.5258635218
 21
333.5605979227
 31
0.0
  0
LINE
  5
4C
330
1F
100
AcDbEntity
  8
0
  6
Continuous
 62
     7
370
    15
100
AcDbLine
 10
357.5258575613
 20
333.4788203501
 30
0.0
 11
757.5258635218
 21
333.4788203501
 31
0.0
  0
LINE
  5
4D
330
1F
100
AcDbEntity
  8
0
  6
Continuous
 62
     7
370
    15
100
AcDbLine
 10
707.525866502
 20
1111.2141132616
 30
0.0
 11
709.0258620912
 21
1111.2141132616
 31
0.0
  0
LINE
  5
4E
330
1F
100
AcDbEntity
  8
0
  6
Continuous
 62
     7
370
    15
100
AcDbLine
 10
709.0258620912
 20
1224.0392685198
 30
0.0
 11
707.525866502
 21
1224.0392685198
 31
0.0
  0
LINE
  5
4F
330
1F
100
AcDbEntity
  8
0
  6
Continuous
 62
     7
370
    15
100
AcDbLine
 10
406.0258589918
 20
1111.2141132616
 30
0.0
 11
407.5258694822
 21
1111.2141132616
 31
0.0
  0
LINE
  5
50
330
1F
100
AcDbEntity
  8
0
  6
Continuous
 62
     7
370
    15
100
AcDbLine
 10
407.5258694822
 20
1224.0392685198
 30
0.0
 11
406.0258589918
 21
1224.0392685198
 31
0.0
  0
LINE
  5
51
330
1F
100
AcDbEntity
  8
0
  6
Continuous
 62
     7
370
    15
100
AcDbLine
 10
554.0258627618
 20
1225.3141224646
 30
0.0
 11
554.0258627618
 21
1224.8141289019
 31
0.0
  0
LINE
  5
52
330
1F
100
AcDbEntity
  8
0
  6
Continuous
 62
     7
370
    15
100
AcDbLine
 10
561.0258620465
 20
1224.8141289019
 30
0.0
 11
561.0258620465
 21
1225.3141224646
 31
0.0
  0
LINE
  5
53
330
1F
100
AcDbEntity
  8
0
  6
Continuous
 62
     7
370
    15
100
AcDbLine
 10
415.1258640224
 20
1225.3141224646
 30
0.0
 11
415.1258640224
 21
1224.8141289019
 31
0.0
  0
LINE
  5
54
330
1F
100
AcDbEntity
  8
0
  6
Continuous
 62
     7
370
    15
100
AcDbLine
 10
422.1258633072
 20
1224.8141289019
 30
0.0
 11
422.1258633072
 21
1225.3141224646
 31
0.0
  0
LINE
  5
55
330
1F
100
AcDbEntity
  8
0
  6
Continuous
 62
     7
370
    15
100
AcDbLine
 10
692.9258652264
 20
1225.3141224646
 30
0.0
 11
692.9258652264
 21
1224.8141289019
 31
0.0
  0
LINE
  5
56
330
1F
100
AcDbEntity
  8
0
  6
Continuous
 62
     7
370
    15
100
AcDbLine
 10
699.9258645112
 20
1224.8141289019
 30
0.0
 11
699.9258645112
 21
1225.3141224646
 31
0.0
  0
LINE
  5
57
330
1F
100
AcDbEntity
  8
0
  6
Continuous
 62
     7
370
    15
100
AcDbLine
 10
407.5258694822
 20
1110.4141146206
 30
0.0
 11
707.525866502
 21
1110.4141146206
 31
0.0
  0
LINE
  5
58
330
1F
100
AcDbEntity
  8
0
  6
Continuous
 62
     7
370
    15
100
AcDbLine
 10
581.7841924029
 20
1226.2141227984
 30
0.0
 11
581.7841924029
 21
1226.31410959
 31
0.0
  0
LINE
  5
59
330
1F
100
AcDbEntity
  8
0
  6
Continuous
 62
     7
370
    15
100
AcDbLine
 10
558.2675323123
 20
1226.31410959
 30
0.0
 11
558.2675323123
 21
1226.2141227984
 31
0.0
  0
LINE
  5
5A
330
1F
100
AcDbEntity
  8
0
  6
Continuous
 62
     7
370
    15
100
AcDbLine
 10
556.784192496
 20
1226.2141227984
 30
0.0
 11
556.784192496
 21
1226.31410959
 31
0.0
  0
LINE
  5
5B
330
1F
100
AcDbEntity
  8
0
  6
Continuous
 62
     7
370
    15
100
AcDbLine
 10
533.2675300772
 20
1226.31410959
 30
0.0
 11
533.2675300772
 21
1226.2141227984
 31
0.0
  0
LINE
  5
5C
330
1F
100
AcDbEntity
  8
0
  6
Continuous
 62
     7
370
    15
100
AcDbLine
 10
460.1053841645
 20
598.142039802
 30
0.0
 11
460.1053841645
 21
599.0857303404
 31
0.0
  0
LINE
  5
5D
330
1F
100
AcDbEntity
  8
0
  6
Continuous
 62
     7
370
    15
100
AcDbLine
 10
654.9053885276
 20
599.0857303404
 30
0.0
 11
654.9053885276
 21
598.142039802
 31
0.0
  0
CIRCLE
  5
5E
330
1F
100
AcDbEntity
  8
0
  6
Continuous
 62
     7
370
    15
100
AcDbCircle
 10
477.5013373257
 20
1026.4801633641
 30
0.0
 40
3.195346183377529
  0
CIRCLE
  5
5F
330
1F
100
AcDbEntity
  8
0
  6
Continuous
 62
     7
370
    15
100
AcDbCircle
 10
477.5013374251
 20
986.7239254709
 30
0.0
 40
3.19534675057109
  0
CIRCLE
  5
60
330
1F
100
AcDbEntity
  8
0
  6
Continuous
 62
     7
370
    15
100
AcDbCircle
 10
477.501337362
 20
946.9676847874
 30
0.0
 40
3.195346390371467
  0
CIRCLE
  5
61
330
1F
100
AcDbEntity
  8
0
  6
Continuous
 62
     7
370
    15
100
AcDbCircle
 10
477.5013374251
 20
907.2114448245
 30
0.0
 40
3.19534675057109
  0
CIRCLE
  5
62
330
1F
100
AcDbEntity
  8
0
  6
Continuous
 62
     7
370
    15
100
AcDbCircle
 10
477.5013373257
 20
867.4552020713
 30
0.0
 40
3.195346183377415
  0
CIRCLE
  5
63
330
1F
100
AcDbEntity
  8
0
  6
Continuous
 62
     7
370
    15
100
AcDbCircle
 10
477.5013375245
 20
827.6989647454
 30
0.0
 40
3.19534731777011
  0
CIRCLE
  5
64
330
1F
100
AcDbEntity
  8
0
  6
Continuous
 62
     7
370
    15
100
AcDbCircle
 10
477.5013373445
 20
787.9427178068
 30
0.0
 40
3.195346290493025
  0
CIRCLE
  5
65
330
1F
100
AcDbEntity
  8
0
  6
Continuous
 62
     7
370
    15
100
AcDbCircle
 10
477.5013377422
 20
748.1864816155
 30
0.0
 40
3.195348559256721
  0
CIRCLE
  5
66
330
1F
100
AcDbEntity
  8
0
  6
Continuous
 62
     7
370
    15
100
AcDbCircle
 10
477.5013373069
 20
708.4302406715
 30
0.0
 40
3.195346076283628
  0
CIRCLE
  5
67
330
1F
100
AcDbEntity
  8
0
  6
Continuous
 62
     7
370
    15
100
AcDbCircle
 10
477.5013377422
 20
668.6740046945
 30
0.0
 40
3.195348559256721
  0
CIRCLE
  5
68
330
1F
100
AcDbEntity
  8
0
  6
Continuous
 62
     7
370
    15
100
AcDbCircle
 10
517.5013399273
 20
1026.4801621324
 30
0.0
 40
3.195344947253894
  0
CIRCLE
  5
69
330
1F
100
AcDbEntity
  8
0
  6
Continuous
 62
     7
370
    15
100
AcDbCircle
 10
517.5013400267
 20
986.7239242392
 30
0.0
 40
3.195345514446428
  0
CIRCLE
  5
6A
330
1F
100
AcDbEntity
  8
0
  6
Continuous
 62
     7
370
    15
100
AcDbCircle
 10
517.5013399636
 20
946.9676835557
 30
0.0
 40
3.195345154246963
  0
CIRCLE
  5
6B
330
1F
100
AcDbEntity
  8
0
  6
Continuous
 62
     7
370
    15
100
AcDbCircle
 10
517.5013400267
 20
907.2114435928
 30
0.0
 40
3.195345514446428
  0
CIRCLE
  5
6C
330
1F
100
AcDbEntity
  8
0
  6
Continuous
 62
     7
370
    15
100
AcDbCircle
 10
517.5013399273
 20
867.4552008396
 30
0.0
 40
3.195344947254008
  0
CIRCLE
  5
6D
330
1F
100
AcDbEntity
  8
0
  6
Continuous
 62
     7
370
    15
100
AcDbCircle
 10
517.5013401261
 20
827.6989635137
 30
0.0
 40
3.195346081644194
  0
CIRCLE
  5
6E
330
1F
100
AcDbEntity
  8
0
  6
Continuous
 62
     7
370
    15
100
AcDbCircle
 10
517.501339946
 20
787.9427165751
 30
0.0
 40
3.195345054372366
  0
CIRCLE
  5
6F
330
1F
100
AcDbEntity
  8
0
  6
Continuous
 62
     7
370
    15
100
AcDbCircle
 10
517.5013403437
 20
748.1864803838
 30
0.0
 40
3.19534732313093
  0
CIRCLE
  5
70
330
1F
100
AcDbEntity
  8
0
  6
Continuous
 62
     7
370
    15
100
AcDbCircle
 10
517.5013399085
 20
708.4302394398
 30
0.0
 40
3.195344840157359
  0
CIRCLE
  5
71
330
1F
100
AcDbEntity
  8
0
  6
Continuous
 62
     7
370
    15
100
AcDbCircle
 10
517.5013403437
 20
668.6740034628
 30
0.0
 40
3.19534732313093
  0
CIRCLE
  5
72
330
1F
100
AcDbEntity
  8
0
  6
Continuous
 62
     7
370
    15
100
AcDbCircle
 10
557.501340953
 20
1026.4801624583
 30
0.0
 40
3.195345273102804
  0
CIRCLE
  5
73
330
1F
100
AcDbEntity
  8
0
  6
Continuous
 62
     7
370
    15
100
AcDbCircle
 10
557.5013410524
 20
986.7239245651
 30
0.0
 40
3.195345840296363
  0
CIRCLE
  5
74
330
1F
100
AcDbEntity
  8
0
  6
Continuous
 62
     7
370
    15
100
AcDbCircle
 10
557.5013409892
 20
946.9676838816
 30
0.0
 40
3.195345480096669
  0
CIRCLE
  5
75
330
1F
100
AcDbEntity
  8
0
  6
Continuous
 62
     7
370
    15
100
AcDbCircle
 10
557.5013410524
 20
907.2114439187
 30
0.0
 40
3.195345840296363
  0
CIRCLE
  5
76
330
1F
100
AcDbEntity
  8
0
  6
Continuous
 62
     7
370
    15
100
AcDbCircle
 10
557.501340953
 20
867.4552011656
 30
0.0
 40
3.195345273102918
  0
CIRCLE
  5
77
330
1F
100
AcDbEntity
  8
0
  6
Continuous
 62
     7
370
    15
100
AcDbCircle
 10
557.5013411518
 20
827.6989638397
 30
0.0
 40
3.195346407495153
  0
CIRCLE
  5
78
330
1F
100
AcDbEntity
  8
0
  6
Continuous
 62
     7
370
    15
100
AcDbCircle
 10
557.5013409717
 20
787.942716901
 30
0.0
 40
3.195345380219231
  0
CIRCLE
  5
79
330
1F
100
AcDbEntity
  8
0
  6
Continuous
 62
     7
370
    15
100
AcDbCircle
 10
557.5013413694
 20
748.1864807098
 30
0.0
 40
3.195347648982007
  0
CIRCLE
  5
7A
330
1F
100
AcDbEntity
  8
0
  6
Continuous
 62
     7
370
    15
100
AcDbCircle
 10
557.5013409342
 20
708.4302397657
 30
0.0
 40
3.195345166008428
  0
CIRCLE
  5
7B
330
1F
100
AcDbEntity
  8
0
  6
Continuous
 62
     7
370
    15
100
AcDbCircle
 10
597.5013400589
 20
1026.4801624583
 30
0.0
 40
3.195345273102804
  0
CIRCLE
  5
7C
330
1F
100
AcDbEntity
  8
0
  6
Continuous
 62
     7
370
    15
100
AcDbCircle
 10
597.5013401583
 20
986.7239245651
 30
0.0
 40
3.195345840296363
  0
CIRCLE
  5
7D
330
1F
100
AcDbEntity
  8
0
  6
Continuous
 62
     7
370
    15
100
AcDbCircle
 10
597.5013400952
 20
946.9676838816
 30
0.0
 40
3.195345480096669
  0
CIRCLE
  5
7E
330
1F
100
AcDbEntity
  8
0
  6
Continuous
 62
     7
370
    15
100
AcDbCircle
 10
597.5013401583
 20
907.2114439187
 30
0.0
 40
3.195345840296363
  0
CIRCLE
  5
7F
330
1F
100
AcDbEntity
  8
0
  6
Continuous
 62
     7
370
    15
100
AcDbCircle
 10
597.5013400589
 20
867.4552011656
 30
0.0
 40
3.195345273102918
  0
CIRCLE
  5
80
330
1F
100
AcDbEntity
  8
0
  6
Continuous
 62
     7
370
    15
100
AcDbCircle
 10
597.5013402577
 20
827.6989638397
 30
0.0
 40
3.195346407495153
  0
CIRCLE
  5
81
330
1F
100
AcDbEntity
  8
0
  6
Continuous
 62
     7
370
    15
100
AcDbCircle
 10
597.5013400777
 20
787.942716901
 30
0.0
 40
3.195345380219231
  0
CIRCLE
  5
82
330
1F
100
AcDbEntity
  8
0
  6
Continuous
 62
     7
370
    15
100
AcDbCircle
 10
597.5013404754
 20
748.1864807098
 30
0.0
 40
3.195347648982007
  0
CIRCLE
  5
83
330
1F
100
AcDbEntity
  8
0
  6
Continuous
 62
     7
370
    15
100
AcDbCircle
 10
597.5013400401
 20
708.4302397657
 30
0.0
 40
3.195345166008428
  0
CIRCLE
  5
84
330
1F
100
AcDbEntity
  8
0
  6
Continuous
 62
     7
370
    15
100
AcDbCircle
 10
597.5013404754
 20
668.6740037887
 30
0.0
 40
3.195347648982007
  0
CIRCLE
  5
85
330
1F
100
AcDbEntity
  8
0
  6
Continuous
 62
     7
370
    15
100
AcDbCircle
 10
637.5013410846
 20
1026.4801627842
 30
0.0
 40
3.195345598952852
  0
CIRCLE
  5
86
330
1F
100
AcDbEntity
  8
0
  6
Continuous
 62
     7
370
    15
100
AcDbCircle
 10
637.501341184
 20
986.723924891
 30
0.0
 40
3.195346166147209
  0
CIRCLE
  5
87
330
1F
100
AcDbEntity
  8
0
  6
Continuous
 62
     7
370
    15
100
AcDbCircle
 10
637.5013411209
 20
946.9676842075
 30
0.0
 40
3.195345805947627
  0
CIRCLE
  5
88
330
1F
100
AcDbEntity
  8
0
  6
Continuous
 62
     7
370
    15
100
AcDbCircle
 10
637.501341184
 20
907.2114442446
 30
0.0
 40
3.195346166147209
  0
CIRCLE
  5
89
330
1F
100
AcDbEntity
  8
0
  6
Continuous
 62
     7
370
    15
100
AcDbCircle
 10
637.5013410846
 20
867.4552014915
 30
0.0
 40
3.195345598952966
  0
CIRCLE
  5
8A
330
1F
100
AcDbEntity
  8
0
  6
Continuous
 62
     7
370
    15
100
AcDbCircle
 10
637.5013412834
 20
827.6989641656
 30
0.0
 40
3.195346733347251
  0
CIRCLE
  5
8B
330
1F
100
AcDbEntity
  8
0
  6
Continuous
 62
     7
370
    15
100
AcDbCircle
 10
637.5013411034
 20
787.942717227
 30
0.0
 40
3.19534570606712
  0
CIRCLE
  5
8C
330
1F
100
AcDbEntity
  8
0
  6
Continuous
 62
     7
370
    15
100
AcDbCircle
 10
637.5013415011
 20
748.1864810357
 30
0.0
 40
3.195347974834108
  0
CIRCLE
  5
8D
330
1F
100
AcDbEntity
  8
0
  6
Continuous
 62
     7
370
    15
100
AcDbCircle
 10
637.5013410658
 20
708.4302400916
 30
0.0
 40
3.195345491860522
  0
ARC
  5
8E
330
1F
100
AcDbEntity
  8
0
  6
Continuous
 62
     7
370
    15
100
AcDbCircle
 10
655.0572735475
 20
1046.1906185784
 30
0.0
 40
49.84835371399846
100
AcDbArc
 50
0.1756567135
 51
90.1745771611
  0
LINE
  5
8F
330
1F
100
AcDbEntity
  8
0
  6
Continuous
 62
     7
370
    15
100
AcDbLine
 10
704.9053929979
 20
1041.3739130163
 30
0.0
 11
704.9053929979
 21
1046.3434428238
 31
0.0
  0
LINE
  5
90
330
1F
100
AcDbEntity
  8
0
  6
Continuous
 62
     7
370
    15
100
AcDbLine
 10
704.9073152477
 20
1041.3739130163
 30
0.0
 11
704.9053929979
 21
1041.3739130163
 31
0.0
  0
LINE
  5
91
330
1F
100
AcDbEntity
  8
0
  6
Continuous
 62
     7
370
    15
100
AcDbLine
 10
704.9073152477
 20
653.7505805754
 30
0.0
 11
704.9053929979
 21
653.7505805754
 31
0.0
  0
LINE
  5
92
330
1F
100
AcDbEntity
  8
0
  6
Continuous
 62
     7
370
    15
100
AcDbLine
 10
704.9053929979
 20
648.7810433173
 30
0.0
 11
704.9053929979
 21
653.7505805754
 31
0.0
  0
ARC
  5
93
330
1F
100
AcDbEntity
  8
0
  6
Continuous
 62
     7
370
    15
100
AcDbCircle
 10
655.0572455523
 20
648.9338807825
 30
0.0
 40
49.84838174959034
100
AcDbArc
 50
269.8254551149
 51
359.8243281903
  0
ARC
  5
94
330
1F
100
AcDbEntity
  8
0
  6
Continuous
 62
     7
370
    15
100
AcDbCircle
 10
459.9535305184
 20
648.9338692349
 30
0.0
 40
49.84837019169576
100
AcDbArc
 50
180.1756585774
 51
270.1745410421
  0
LINE
  5
95
330
1F
100
AcDbEntity
  8
0
  6
Continuous
 62
     7
370
    15
100
AcDbLine
 10
410.1053945953
 20
653.7505805754
 30
0.0
 11
410.1053945953
 21
648.7810433173
 31
0.0
  0
LINE
  5
96
330
1F
100
AcDbEntity
  8
0
  6
Continuous
 62
     7
370
    15
100
AcDbLine
 10
410.1034574444
 20
653.7505805754
 30
0.0
 11
410.1053945953
 21
653.7505805754
 31
0.0
  0
LINE
  5
97
330
1F
100
AcDbEntity
  8
0
  6
Continuous
 62
     7
370
    15
100
AcDbLine
 10
410.1034574444
 20
1041.3739130163
 30
0.0
 11
410.1053945953
 21
1041.3739130163
 31
0.0
  0
LINE
  5
98
330
1F
100
AcDbEntity
  8
0
  6
Continuous
 62
     7
370
    15
100
AcDbLine
 10
410.1053945953
 20
1046.3434428238
 30
0.0
 11
410.1053945953
 21
1041.3739130163
 31
0.0
  0
ARC
  5
99
330
1F
100
AcDbEntity
  8
0
  6
Continuous
 62
     7
370
    15
100
AcDbCircle
 10
459.9535025232
 20
1046.1906301261
 30
0.0
 40
49.84834215610738
100
AcDbArc
 50
89.8254266818
 51
179.8243565188
  0
CIRCLE
  5
9A
330
1F
100
AcDbEntity
  8
0
  6
Continuous
 62
     7
370
    15
100
AcDbCircle
 10
657.5013374441
 20
648.7958854642
 30
0.0
 40
3.195348559256721
  0
CIRCLE
  5
9B
330
1F
100
AcDbEntity
  8
0
  6
Continuous
 62
     7
370
    15
100
AcDbCircle
 10
677.5013402908
 20
628.9177637714
 30
0.0
 40
3.195346097313504
  0
CIRCLE
  5
9C
330
1F
100
AcDbEntity
  8
0
  6
Continuous
 62
     7
370
    15
100
AcDbCircle
 10
637.5013415011
 20
668.6740041146
 30
0.0
 40
3.195347974834108
  0
CIRCLE
  5
9D
330
1F
100
AcDbEntity
  8
0
  6
Continuous
 62
     7
370
    15
100
AcDbCircle
 10
637.5013415011
 20
628.9177656541
 30
0.0
 40
3.195347974834108
  0
CIRCLE
  5
9E
330
1F
100
AcDbEntity
  8
0
  6
Continuous
 62
     7
370
    15
100
AcDbCircle
 10
597.5013404754
 20
628.9177653281
 30
0.0
 40
3.195347648982007
  0
CIRCLE
  5
9F
330
1F
100
AcDbEntity
  8
0
  6
Continuous
 62
     7
370
    15
100
AcDbCircle
 10
557.5013413694
 20
628.9177653281
 30
0.0
 40
3.195347648982007
  0
CIRCLE
  5
A0
330
1F
100
AcDbEntity
  8
0
  6
Continuous
 62
     7
370
    15
100
AcDbCircle
 10
517.5013403437
 20
628.9177650022
 30
0.0
 40
3.19534732313093
  0
CIRCLE
  5
A1
330
1F
100
AcDbEntity
  8
0
  6
Continuous
 62
     7
370
    15
100
AcDbCircle
 10
477.5013377422
 20
628.9177662339
 30
0.0
 40
3.195348559256721
  0
CIRCLE
  5
A2
330
1F
100
AcDbEntity
  8
0
  6
Continuous
 62
     7
370
    15
100
AcDbCircle
 10
437.5013375169
 20
628.9177600043
 30
0.0
 40
3.195342321670833
  0
CIRCLE
  5
A3
330
1F
100
AcDbEntity
  8
0
  6
Continuous
 62
     7
370
    15
100
AcDbCircle
 10
677.5013402908
 20
668.674002232
 30
0.0
 40
3.195346097313504
  0
CIRCLE
  5
A4
330
1F
100
AcDbEntity
  8
0
  6
Continuous
 62
     7
370
    15
100
AcDbCircle
 10
437.5013375169
 20
668.6739984649
 30
0.0
 40
3.195342321670833
  0
CIRCLE
  5
A5
330
1F
100
AcDbEntity
  8
0
  6
Continuous
 62
     7
370
    15
100
AcDbCircle
 10
677.5013398556
 20
708.430238209
 30
0.0
 40
3.195343614340472
  0
CIRCLE
  5
A6
330
1F
100
AcDbEntity
  8
0
  6
Continuous
 62
     7
370
    15
100
AcDbCircle
 10
437.5013370817
 20
708.4302344419
 30
0.0
 40
3.195339838696877
  0
CIRCLE
  5
A7
330
1F
100
AcDbEntity
  8
0
  6
Continuous
 62
     7
370
    15
100
AcDbCircle
 10
677.5013402908
 20
748.186479153
 30
0.0
 40
3.195346097313504
  0
CIRCLE
  5
A8
330
1F
100
AcDbEntity
  8
0
  6
Continuous
 62
     7
370
    15
100
AcDbCircle
 10
437.5013375169
 20
748.186475386
 30
0.0
 40
3.195342321670833
  0
CIRCLE
  5
A9
330
1F
100
AcDbEntity
  8
0
  6
Continuous
 62
     7
370
    15
100
AcDbCircle
 10
677.5013398931
 20
787.9427153443
 30
0.0
 40
3.195343828561002
  0
CIRCLE
  5
AA
330
1F
100
AcDbEntity
  8
0
  6
Continuous
 62
     7
370
    15
100
AcDbCircle
 10
437.5013371192
 20
787.9427115773
 30
0.0
 40
3.195340052945447
  0
CIRCLE
  5
AB
330
1F
100
AcDbEntity
  8
0
  6
Continuous
 62
     7
370
    15
100
AcDbCircle
 10
677.5013400732
 20
827.6989622829
 30
0.0
 40
3.195344855827037
  0
CIRCLE
  5
AC
330
1F
100
AcDbEntity
  8
0
  6
Continuous
 62
     7
370
    15
100
AcDbCircle
 10
437.5013372993
 20
827.6989585159
 30
0.0
 40
3.195341080183791
  0
CIRCLE
  5
AD
330
1F
100
AcDbEntity
  8
0
  6
Continuous
 62
     7
370
    15
100
AcDbCircle
 10
677.5013398744
 20
867.4551996088
 30
0.0
 40
3.195343721439939
  0
CIRCLE
  5
AE
330
1F
100
AcDbEntity
  8
0
  6
Continuous
 62
     7
370
    15
100
AcDbCircle
 10
437.5013371005
 20
867.4551958418
 30
0.0
 40
3.195339945810137
  0
CIRCLE
  5
AF
330
1F
100
AcDbEntity
  8
0
  6
Continuous
 62
     7
370
    15
100
AcDbCircle
 10
677.5013399738
 20
907.211442362
 30
0.0
 40
3.195344288630758
  0
CIRCLE
  5
B0
330
1F
100
AcDbEntity
  8
0
  6
Continuous
 62
     7
370
    15
100
AcDbCircle
 10
437.5013371999
 20
907.2114385949
 30
0.0
 40
3.195340512994348
  0
CIRCLE
  5
B1
330
1F
100
AcDbEntity
  8
0
  6
Continuous
 62
     7
370
    15
100
AcDbCircle
 10
677.5013399106
 20
946.9676823249
 30
0.0
 40
3.195343928431599
  0
CIRCLE
  5
B2
330
1F
100
AcDbEntity
  8
0
  6
Continuous
 62
     7
370
    15
100
AcDbCircle
 10
437.5013371367
 20
946.9676785578
 30
0.0
 40
3.195340152796191
  0
CIRCLE
  5
B3
330
1F
100
AcDbEntity
  8
0
  6
Continuous
 62
     7
370
    15
100
AcDbCircle
 10
677.5013399738
 20
986.7239230084
 30
0.0
 40
3.195344288630758
  0
CIRCLE
  5
B4
330
1F
100
AcDbEntity
  8
0
  6
Continuous
 62
     7
370
    15
100
AcDbCircle
 10
437.5013371999
 20
986.7239192413
 30
0.0
 40
3.195340512994462
  0
CIRCLE
  5
B5
330
1F
100
AcDbEntity
  8
0
  6
Continuous
 62
     7
370
    15
100
AcDbCircle
 10
677.5013398744
 20
1026.4801609016
 30
0.0
 40
3.195343721439939
  0
CIRCLE
  5
B6
330
1F
100
AcDbEntity
  8
0
  6
Continuous
 62
     7
370
    15
100
AcDbCircle
 10
437.5013371005
 20
1026.4801571345
 30
0.0
 40
3.195339945810364
  0
CIRCLE
  5
B7
330
1F
100
AcDbEntity
  8
0
  6
Continuous
 62
     7
370
    15
100
AcDbCircle
 10
677.5013398556
 20
1066.2364067056
 30
0.0
 40
3.195343614340472
  0
CIRCLE
  5
B8
330
1F
100
AcDbEntity
  8
0
  6
Continuous
 62
     7
370
    15
100
AcDbCircle
 10
637.5013410658
 20
1066.2364085882
 30
0.0
 40
3.195345491860636
  0
CIRCLE
  5
B9
330
1F
100
AcDbEntity
  8
0
  6
Continuous
 62
     7
370
    15
100
AcDbCircle
 10
597.5013400401
 20
1066.2364082623
 30
0.0
 40
3.195345166008315
  0
CIRCLE
  5
BA
330
1F
100
AcDbEntity
  8
0
  6
Continuous
 62
     7
370
    15
100
AcDbCircle
 10
557.5013409342
 20
1066.2364082623
 30
0.0
 40
3.195345166008315
  0
CIRCLE
  5
BB
330
1F
100
AcDbEntity
  8
0
  6
Continuous
 62
     7
370
    15
100
AcDbCircle
 10
517.5013399085
 20
1066.2364079364
 30
0.0
 40
3.195344840157587
  0
CIRCLE
  5
BC
330
1F
100
AcDbEntity
  8
0
  6
Continuous
 62
     7
370
    15
100
AcDbCircle
 10
477.5013373069
 20
1066.2364091681
 30
0.0
 40
3.195346076283514
  0
CIRCLE
  5
BD
330
1F
100
AcDbEntity
  8
0
  6
Continuous
 62
     7
370
    15
100
AcDbCircle
 10
437.5013370817
 20
1066.2364029385
 30
0.0
 40
3.195339838696991
  0
CIRCLE
  5
BE
330
1F
100
AcDbEntity
  8
0
  6
Continuous
 62
     7
370
    15
100
AcDbCircle
 10
617.5013419481
 20
648.7958848843
 30
0.0
 40
3.195347974834108
  0
CIRCLE
  5
BF
330
1F
100
AcDbEntity
  8
0
  6
Continuous
 62
     7
370
    15
100
AcDbCircle
 10
577.5013405157
 20
648.7958842257
 30
0.0
 40
3.195347316668459
  0
CIRCLE
  5
C0
330
1F
100
AcDbEntity
  8
0
  6
Continuous
 62
     7
370
    15
100
AcDbCircle
 10
537.5013398967
 20
648.7958842325
 30
0.0
 40
3.19534732313093
  0
CIRCLE
  5
C1
330
1F
100
AcDbEntity
  8
0
  6
Continuous
 62
     7
370
    15
100
AcDbCircle
 10
497.5013405612
 20
648.7958830008
 30
0.0
 40
3.195346087010536
  0
CIRCLE
  5
C2
330
1F
100
AcDbEntity
  8
0
  6
Continuous
 62
     7
370
    15
100
AcDbCircle
 10
457.5013414552
 20
648.7958830008
 30
0.0
 40
3.195346087010536
  0
CIRCLE
  5
C3
330
1F
100
AcDbEntity
  8
0
  6
Continuous
 62
     7
370
    15
100
AcDbCircle
 10
657.5013374441
 20
688.5521239247
 30
0.0
 40
3.195348559256721
  0
CIRCLE
  5
C4
330
1F
100
AcDbEntity
  8
0
  6
Continuous
 62
     7
370
    15
100
AcDbCircle
 10
617.5013419481
 20
688.5521233449
 30
0.0
 40
3.195347974834108
  0
CIRCLE
  5
C5
330
1F
100
AcDbEntity
  8
0
  6
Continuous
 62
     7
370
    15
100
AcDbCircle
 10
577.5013405157
 20
688.5521226863
 30
0.0
 40
3.195347316668459
  0
CIRCLE
  5
C6
330
1F
100
AcDbEntity
  8
0
  6
Continuous
 62
     7
370
    15
100
AcDbCircle
 10
537.5013398967
 20
688.552122693
 30
0.0
 40
3.19534732313093
  0
CIRCLE
  5
C7
330
1F
100
AcDbEntity
  8
0
  6
Continuous
 62
     7
370
    15
100
AcDbCircle
 10
497.5013405612
 20
688.5521214613
 30
0.0
 40
3.195346087010536
  0
CIRCLE
  5
C8
330
1F
100
AcDbEntity
  8
0
  6
Continuous
 62
     7
370
    15
100
AcDbCircle
 10
457.5013414552
 20
688.5521214613
 30
0.0
 40
3.195346087010536
  0
CIRCLE
  5
C9
330
1F
100
AcDbEntity
  8
0
  6
Continuous
 62
     7
370
    15
100
AcDbCircle
 10
657.5013374441
 20
728.3083623853
 30
0.0
 40
3.195348559256721
  0
CIRCLE
  5
CA
330
1F
100
AcDbEntity
  8
0
  6
Continuous
 62
     7
370
    15
100
AcDbCircle
 10
617.5013419481
 20
728.3083618054
 30
0.0
 40
3.195347974834108
  0
CIRCLE
  5
CB
330
1F
100
AcDbEntity
  8
0
  6
Continuous
 62
     7
370
    15
100
AcDbCircle
 10
577.5013405157
 20
728.3083611468
 30
0.0
 40
3.195347316668459
  0
CIRCLE
  5
CC
330
1F
100
AcDbEntity
  8
0
  6
Continuous
 62
     7
370
    15
100
AcDbCircle
 10
537.5013398967
 20
728.3083611536
 30
0.0
 40
3.19534732313093
  0
CIRCLE
  5
CD
330
1F
100
AcDbEntity
  8
0
  6
Continuous
 62
     7
370
    15
100
AcDbCircle
 10
497.5013405612
 20
728.3083599219
 30
0.0
 40
3.195346087010536
  0
CIRCLE
  5
CE
330
1F
100
AcDbEntity
  8
0
  6
Continuous
 62
     7
370
    15
100
AcDbCircle
 10
457.5013414552
 20
728.3083599219
 30
0.0
 40
3.195346087010536
  0
CIRCLE
  5
CF
330
1F
100
AcDbEntity
  8
0
  6
Continuous
 62
     7
370
    15
100
AcDbCircle
 10
657.5013370464
 20
768.0645985765
 30
0.0
 40
3.195346290493025
  0
CIRCLE
  5
D0
330
1F
100
AcDbEntity
  8
0
  6
Continuous
 62
     7
370
    15
100
AcDbCircle
 10
617.5013415504
 20
768.0645979967
 30
0.0
 40
3.19534570606712
  0
CIRCLE
  5
D1
330
1F
100
AcDbEntity
  8
0
  6
Continuous
 62
     7
370
    15
100
AcDbCircle
 10
577.501340118
 20
768.0645973381
 30
0.0
 40
3.195345047907993
  0
CIRCLE
  5
D2
330
1F
100
AcDbEntity
  8
0
  6
Continuous
 62
     7
370
    15
100
AcDbCircle
 10
537.501339499
 20
768.0645973448
 30
0.0
 40
3.195345054372366
  0
CIRCLE
  5
D3
330
1F
100
AcDbEntity
  8
0
  6
Continuous
 62
     7
370
    15
100
AcDbCircle
 10
497.5013401635
 20
768.0645961132
 30
0.0
 40
3.195343818256878
  0
CIRCLE
  5
D4
330
1F
100
AcDbEntity
  8
0
  6
Continuous
 62
     7
370
    15
100
AcDbCircle
 10
457.5013410575
 20
768.0645961132
 30
0.0
 40
3.195343818256878
  0
CIRCLE
  5
D5
330
1F
100
AcDbEntity
  8
0
  6
Continuous
 62
     7
370
    15
100
AcDbCircle
 10
657.5013370464
 20
807.8208370371
 30
0.0
 40
3.195346290493025
  0
CIRCLE
  5
D6
330
1F
100
AcDbEntity
  8
0
  6
Continuous
 62
     7
370
    15
100
AcDbCircle
 10
617.5013415504
 20
807.8208364572
 30
0.0
 40
3.19534570606712
  0
CIRCLE
  5
D7
330
1F
100
AcDbEntity
  8
0
  6
Continuous
 62
     7
370
    15
100
AcDbCircle
 10
577.501340118
 20
807.8208357986
 30
0.0
 40
3.195345047907993
  0
CIRCLE
  5
D8
330
1F
100
AcDbEntity
  8
0
  6
Continuous
 62
     7
370
    15
100
AcDbCircle
 10
537.501339499
 20
807.8208358054
 30
0.0
 40
3.195345054372366
  0
CIRCLE
  5
D9
330
1F
100
AcDbEntity
  8
0
  6
Continuous
 62
     7
370
    15
100
AcDbCircle
 10
497.5013401635
 20
807.8208345737
 30
0.0
 40
3.195343818256878
  0
CIRCLE
  5
DA
330
1F
100
AcDbEntity
  8
0
  6
Continuous
 62
     7
370
    15
100
AcDbCircle
 10
457.5013410575
 20
807.8208345737
 30
0.0
 40
3.195343818256878
  0
CIRCLE
  5
DB
330
1F
100
AcDbEntity
  8
0
  6
Continuous
 62
     7
370
    15
100
AcDbCircle
 10
657.5013370277
 20
847.5770828411
 30
0.0
 40
3.195346183377415
  0
CIRCLE
  5
DC
330
1F
100
AcDbEntity
  8
0
  6
Continuous
 62
     7
370
    15
100
AcDbCircle
 10
617.5013415316
 20
847.5770822612
 30
0.0
 40
3.195345598952966
  0
CIRCLE
  5
DD
330
1F
100
AcDbEntity
  8
0
  6
Continuous
 62
     7
370
    15
100
AcDbCircle
 10
577.5013400992
 20
847.5770816026
 30
0.0
 40
3.195344940790545
  0
CIRCLE
  5
DE
330
1F
100
AcDbEntity
  8
0
  6
Continuous
 62
     7
370
    15
100
AcDbCircle
 10
537.5013394802
 20
847.5770816094
 30
0.0
 40
3.195344947254008
  0
CIRCLE
  5
DF
330
1F
100
AcDbEntity
  8
0
  6
Continuous
 62
     7
370
    15
100
AcDbCircle
 10
497.5013401447
 20
847.5770803777
 30
0.0
 40
3.195343711135771
  0
CIRCLE
  5
E0
330
1F
100
AcDbEntity
  8
0
  6
Continuous
 62
     7
370
    15
100
AcDbCircle
 10
457.5013410387
 20
847.5770803777
 30
0.0
 40
3.195343711135771
  0
CIRCLE
  5
E1
330
1F
100
AcDbEntity
  8
0
  6
Continuous
 62
     7
370
    15
100
AcDbCircle
 10
657.5013370277
 20
887.3333213016
 30
0.0
 40
3.195346183377415
  0
CIRCLE
  5
E2
330
1F
100
AcDbEntity
  8
0
  6
Continuous
 62
     7
370
    15
100
AcDbCircle
 10
617.5013415316
 20
887.3333207218
 30
0.0
 40
3.195345598952966
  0
CIRCLE
  5
E3
330
1F
100
AcDbEntity
  8
0
  6
Continuous
 62
     7
370
    15
100
AcDbCircle
 10
577.5013400992
 20
887.3333200631
 30
0.0
 40
3.195344940790545
  0
CIRCLE
  5
E4
330
1F
100
AcDbEntity
  8
0
  6
Continuous
 62
     7
370
    15
100
AcDbCircle
 10
537.5013394802
 20
887.3333200699
 30
0.0
 40
3.195344947254008
  0
CIRCLE
  5
E5
330
1F
100
AcDbEntity
  8
0
  6
Continuous
 62
     7
370
    15
100
AcDbCircle
 10
497.5013401447
 20
887.3333188382
 30
0.0
 40
3.195343711135771
  0
CIRCLE
  5
E6
330
1F
100
AcDbEntity
  8
0
  6
Continuous
 62
     7
370
    15
100
AcDbCircle
 10
457.5013410387
 20
887.3333188382
 30
0.0
 40
3.195343711135771
  0
CIRCLE
  5
E7
330
1F
100
AcDbEntity
  8
0
  6
Continuous
 62
     7
370
    15
100
AcDbCircle
 10
657.5013318041
 20
927.0895647111
 30
0.0
 40
3.195345551050948
  0
CIRCLE
  5
E8
330
1F
100
AcDbEntity
  8
0
  6
Continuous
 62
     7
370
    15
100
AcDbCircle
 10
617.501336308
 20
927.0895641313
 30
0.0
 40
3.195344966604252
  0
CIRCLE
  5
E9
330
1F
100
AcDbEntity
  8
0
  6
Continuous
 62
     7
370
    15
100
AcDbCircle
 10
577.5013348756
 20
927.0895634727
 30
0.0
 40
3.195344308448536
  0
CIRCLE
  5
EA
330
1F
100
AcDbEntity
  8
0
  6
Continuous
 62
     7
370
    15
100
AcDbCircle
 10
537.5013342566
 20
927.0895634794
 30
0.0
 40
3.195344314915824
  0
CIRCLE
  5
EB
330
1F
100
AcDbEntity
  8
0
  6
Continuous
 62
     7
370
    15
100
AcDbCircle
 10
497.501334921
 20
927.0895622477
 30
0.0
 40
3.195343078786098
  0
CIRCLE
  5
EC
330
1F
100
AcDbEntity
  8
0
  6
Continuous
 62
     7
370
    15
100
AcDbCircle
 10
457.5013358151
 20
927.0895622477
 30
0.0
 40
3.195343078786098
  0
CIRCLE
  5
ED
330
1F
100
AcDbEntity
  8
0
  6
Continuous
 62
     7
370
    15
100
AcDbCircle
 10
657.5013370727
 20
966.8458059301
 30
0.0
 40
3.195346440199526
  0
CIRCLE
  5
EE
330
1F
100
AcDbEntity
  8
0
  6
Continuous
 62
     7
370
    15
100
AcDbCircle
 10
617.5013415766
 20
966.8458053503
 30
0.0
 40
3.195345855775583
  0
CIRCLE
  5
EF
330
1F
100
AcDbEntity
  8
0
  6
Continuous
 62
     7
370
    15
100
AcDbCircle
 10
577.5013401443
 20
966.8458046917
 30
0.0
 40
3.19534519761168
  0
CIRCLE
  5
F0
330
1F
100
AcDbEntity
  8
0
  6
Continuous
 62
     7
370
    15
100
AcDbCircle
 10
537.5013395253
 20
966.8458046984
 30
0.0
 40
3.195345204074691
  0
CIRCLE
  5
F1
330
1F
100
AcDbEntity
  8
0
  6
Continuous
 62
     7
370
    15
100
AcDbCircle
 10
497.5013401897
 20
966.8458034668
 30
0.0
 40
3.195343967955254
  0
CIRCLE
  5
F2
330
1F
100
AcDbEntity
  8
0
  6
Continuous
 62
     7
370
    15
100
AcDbCircle
 10
457.5013410838
 20
966.8458034668
 30
0.0
 40
3.195343967955254
  0
CIRCLE
  5
F3
330
1F
100
AcDbEntity
  8
0
  6
Continuous
 62
     7
370
    15
100
AcDbCircle
 10
657.5013371271
 20
1006.6020447011
 30
0.0
 40
3.195346750570976
  0
CIRCLE
  5
F4
330
1F
100
AcDbEntity
  8
0
  6
Continuous
 62
     7
370
    15
100
AcDbCircle
 10
617.501341631
 20
1006.6020441213
 30
0.0
 40
3.195346166147322
  0
CIRCLE
  5
F5
330
1F
100
AcDbEntity
  8
0
  6
Continuous
 62
     7
370
    15
100
AcDbCircle
 10
577.5013401987
 20
1006.6020434627
 30
0.0
 40
3.195345507983413
  0
CIRCLE
  5
F6
330
1F
100
AcDbEntity
  8
0
  6
Continuous
 62
     7
370
    15
100
AcDbCircle
 10
537.5013395797
 20
1006.6020434694
 30
0.0
 40
3.195345514446428
  0
CIRCLE
  5
F7
330
1F
100
AcDbEntity
  8
0
  6
Continuous
 62
     7
370
    15
100
AcDbCircle
 10
497.5013402441
 20
1006.6020422377
 30
0.0
 40
3.195344278326823
  0
CIRCLE
  5
F8
330
1F
100
AcDbEntity
  8
0
  6
Continuous
 62
     7
370
    15
100
AcDbCircle
 10
457.5013411382
 20
1006.6020422377
 30
0.0
 40
3.195344278326823
  0
CIRCLE
  5
F9
330
1F
100
AcDbEntity
  8
0
  6
Continuous
 62
     7
370
    15
100
AcDbCircle
 10
657.5013370277
 20
1046.3582825943
 30
0.0
 40
3.195346183377643
  0
CIRCLE
  5
FA
330
1F
100
AcDbEntity
  8
0
  6
Continuous
 62
     7
370
    15
100
AcDbCircle
 10
617.5013415316
 20
1046.3582820145
 30
0.0
 40
3.195345598952966
  0
CIRCLE
  5
FB
330
1F
100
AcDbEntity
  8
0
  6
Continuous
 62
     7
370
    15
100
AcDbCircle
 10
577.5013400992
 20
1046.3582813559
 30
0.0
 40
3.195344940790431
  0
CIRCLE
  5
FC
330
1F
100
AcDbEntity
  8
0
  6
Continuous
 62
     7
370
    15
100
AcDbCircle
 10
537.5013394802
 20
1046.3582813626
 30
0.0
 40
3.195344947254008
  0
CIRCLE
  5
FD
330
1F
100
AcDbEntity
  8
0
  6
Continuous
 62
     7
370
    15
100
AcDbCircle
 10
497.5013401447
 20
1046.358280131
 30
0.0
 40
3.195343711135771
  0
CIRCLE
  5
FE
330
1F
100
AcDbEntity
  8
0
  6
Continuous
 62
     7
370
    15
100
AcDbCircle
 10
457.5013410387
 20
1046.358280131
 30
0.0
 40
3.195343711135771
  0
LWPOLYLINE
  5
FF
330
1F
100
AcDbEntity
  8
0
  6
Continuous
 62
     7
370
    15
100
AcDbPolyline
 90
       38
 70
   128
 43
0.0
 10
557.5053882087
 20
656.2353194022
 10
559.6178978915
 20
656.4140439295
 10
561.669635051
 20
656.9450021052
 10
563.601574325
 20
657.8129947447
 10
565.3581371764
 20
658.9929878973
 10
566.8887919048
 20
660.4510367178
 10
568.1495018536
 20
662.1452689433
 10
569.1040003905
 20
664.0268385672
 10
569.724827935
 20
666.0417139792
 10
569.9941245141
 20
668.1318700575
 10
569.9041429209
 20
670.237195518
 10
569.4574717665
 20
672.2971320414
 10
568.6669605086
 20
674.2524028086
 10
567.5553515787
 20
676.0467708373
 10
566.1546238
 20
677.6286185049
 10
564.5050727064
 20
678.9524078631
 10
562.6541529084
 20
679.9801111483
 10
560.6551137055
 20
680.6821048521
 10
558.565462404
 20
681.0382128024
 10
556.4453140134
 20
681.0382128024
 10
554.3556627119
 20
680.6821048521
 10
552.3566216463
 20
679.9801111483
 10
550.505703711
 20
678.9524078631
 10
548.8561526174
 20
677.6286185049
 10
547.4554229761
 20
676.0467708373
 10
546.3438149775
 20
674.2524028086
 10
545.5533027882
 20
672.2971320414
 10
545.1066330308
 20
670.237195518
 10
545.016652369
 20
668.1318700575
 10
545.2859461541
 20
666.0417139792
 10
545.9067750955
 20
664.0268385672
 10
546.8612727011
 20
662.1452689433
 10
548.1219835812
 20
660.4510367178
 10
549.6526383097
 20
658.9929878973
 10
551.4092002297
 20
657.8129947447
 10
553.3411395038
 20
656.9450021052
 10
555.3928766633
 20
656.4140439295
 10
557.5053882087
 20
656.2353194022
  0
LINE
  5
100
330
1F
100
AcDbEntity
  8
0
  6
Continuous
 62
     7
370
    15
100
AcDbLine
 10
704.9053929979
 20
648.6928582453
 30
0.0
 11
704.9053929979
 21
648.7810433173
 31
0.0
  0
ARC
  5
101
330
1F
100
AcDbEntity
  8
0
  6
Continuous
 62
     7
370
    15
100
AcDbCircle
 10
655.0572455523
 20
648.8456957106
 30
0.0
 40
49.84838174959034
100
AcDbArc
 50
269.8254551149
 51
359.8243281903
  0
ARC
  5
102
330
1F
100
AcDbEntity
  8
0
  6
Continuous
 62
     7
370
    15
100
AcDbCircle
 10
459.9535305184
 20
648.8456841629
 30
0.0
 40
49.84837019169576
100
AcDbArc
 50
180.1756585774
 51
270.1745410421
  0
LINE
  5
103
330
1F
100
AcDbEntity
  8
0
  6
Continuous
 62
     7
370
    15
100
AcDbLine
 10
410.1053945953
 20
648.6928582453
 30
0.0
 11
410.1053945953
 21
648.7810433173
 31
0.0
  0
ARC
  5
104
330
1F
100
AcDbEntity
  8
0
  6
Continuous
 62
     7
370
    15
100
AcDbCircle
 10
677.5053873891
 20
628.8017082576
 30
0.0
 40
3.200024820600917
100
AcDbArc
 50
0.2333136497
 51
179.7666863503
  0
ARC
  5
105
330
1F
100
AcDbEntity
  8
0
  6
Continuous
 62
     7
370
    15
100
AcDbCircle
 10
637.5053864205
 20
628.8016986422
 30
0.0
 40
3.200026722399657
100
AcDbArc
 50
0.2334856738
 51
179.7665143262
  0
ARC
  5
106
330
1F
100
AcDbEntity
  8
0
  6
Continuous
 62
     7
370
    15
100
AcDbCircle
 10
477.5053881342
 20
628.8016976827
 30
0.0
 40
3.200028588939414
100
AcDbArc
 50
0.2335027167
 51
179.7664972833
  0
ARC
  5
107
330
1F
100
AcDbEntity
  8
0
  6
Continuous
 62
     7
370
    15
100
AcDbCircle
 10
437.5053890283
 20
628.8016976827
 30
0.0
 40
3.200028588939403
100
AcDbArc
 50
0.2335027166
 51
179.7664972834
  0
ARC
  5
108
330
1F
100
AcDbEntity
  8
0
  6
Continuous
 62
     7
370
    15
100
AcDbCircle
 10
517.5053891028
 20
628.8017008062
 30
0.0
 40
3.200026713581988
100
AcDbArc
 50
0.2334469285
 51
179.7665530715
  0
ARC
  5
109
330
1F
100
AcDbEntity
  8
0
  6
Continuous
 62
     7
370
    15
100
AcDbCircle
 10
557.5053882087
 20
628.8017018882
 30
0.0
 40
3.200026709173704
100
AcDbArc
 50
0.2334275559
 51
179.7665724441
  0
ARC
  5
10A
330
1F
100
AcDbEntity
  8
0
  6
Continuous
 62
     7
370
    15
100
AcDbCircle
 10
597.5053873146
 20
628.8017008062
 30
0.0
 40
3.200026713581992
100
AcDbArc
 50
0.2334469286
 51
179.7665530714
  0
ARC
  5
10B
330
1F
100
AcDbEntity
  8
0
  6
Continuous
 62
     7
370
    15
100
AcDbCircle
 10
657.5053878362
 20
648.679816913
 30
0.0
 40
3.200028588939357
100
AcDbArc
 50
0.2335027167
 51
179.7664972833
  0
ARC
  5
10C
330
1F
100
AcDbEntity
  8
0
  6
Continuous
 62
     7
370
    15
100
AcDbCircle
 10
577.5053875288
 20
648.6798211031
 30
0.0
 40
3.200026476407395
100
AcDbArc
 50
0.2334278471
 51
179.7665721529
  0
ARC
  5
10D
330
1F
100
AcDbEntity
  8
0
  6
Continuous
 62
     7
370
    15
100
AcDbCircle
 10
617.5053868676
 20
648.6798200364
 30
0.0
 40
3.200026713581988
100
AcDbArc
 50
0.2334469285
 51
179.7665530715
  0
ARC
  5
10E
330
1F
100
AcDbEntity
  8
0
  6
Continuous
 62
     7
370
    15
100
AcDbCircle
 10
497.5053876871
 20
648.6798274879
 30
0.0
 40
3.200024820600974
100
AcDbArc
 50
0.2333136497
 51
179.7666863503
  0
ARC
  5
10F
330
1F
100
AcDbEntity
  8
0
  6
Continuous
 62
     7
370
    15
100
AcDbCircle
 10
537.5053886557
 20
648.6798200364
 30
0.0
 40
3.200026713581988
100
AcDbArc
 50
0.2334469285
 51
179.7665530715
  0
ARC
  5
110
330
1F
100
AcDbEntity
  8
0
  6
Continuous
 62
     7
370
    15
100
AcDbCircle
 10
457.5053885812
 20
648.6798231599
 30
0.0
 40
3.200024838227709
100
AcDbArc
 50
0.2333911403
 51
179.7666088597
  0
SPLINE
  5
111
330
1F
100
AcDbEntity
  8
0
  6
Continuous
 62
     7
370
    15
100
AcDbSpline
210
0.0
220
0.0
230
1.0
 70
     8
 71
     3
 72
    12
 73
     8
 74
     0
 42
0.00000001
 43
0.00000001
 12
1.0
 22
0.0
 32
0.0
 13
1.0
 23
0.0
 33
0.0
 40
0.0
 40
0.0
 40
0.0
 40
0.0
 40
0.2150920840245519
 40
0.4301833235621703
 40
0.645276056726175
 40
0.8603687043866471
 40
1.0
 40
1.0
 40
1.0
 40
1.0
 10
704.9073152477134
 20
1041.373913016263
 30
0.0
 10
705.1662178509323
 20
1041.385696944129
 30
0.0
 10
705.6840220408758
 20
1041.409264753594
 30
0.0
 10
706.3754374604488
 20
1041.409218775713
 30
0.0
 10
706.8905498986761
 20
1041.388445467591
 30
0.0
 10
707.1813924811805
 20
1041.356027874845
 30
0.0
 10
707.1785938786735
 20
1041.332903101205
 30
0.0
 10
707.1774922544349
 20
1041.323800411169
 30
0.0
  0
LINE
  5
112
330
1F
100
AcDbEntity
  8
0
  6
Continuous
 62
     7
370
    15
100
AcDbLine
 10
706.8991683657
 20
653.6416828894
 30
0.0
 11
707.1677766973
 21
653.6778331065
 31
0.0
  0
SPLINE
  5
113
330
1F
100
AcDbEntity
  8
0
  6
Continuous
 62
     7
370
    15
100
AcDbSpline
210
0.0
220
0.0
230
1.0
 70
     8
 71
     3
 72
    13
 73
     9
 74
     0
 42
0.00000001
 43
0.00000001
 12
1.0
 22
0.0
 32
0.0
 13
1.0
 23
0.0
 33
0.0
 40
0.0
 40
0.0
 40
0.0
 40
0.0
 40
0.0968483945025851
 40
0.3119372885543759
 40
0.5270352618913671
 40
0.7421231773897276
 40
0.9572150793604568
 40
1.0
 40
1.0
 40
1.0
 40
1.0
 10
707.174884551226
 20
653.7006318830885
 30
0.0
 10
707.182125472687
 20
653.7069098548143
 30
0.0
 10
707.2054476291229
 20
653.7271304634036
 30
0.0
 10
706.9662259945877
 20
653.7587026853136
 30
0.0
 10
706.495102134984
 20
653.7836757594478
 30
0.0
 10
705.8303226723245
 20
653.7869235422993
 30
0.0
 10
705.2676830607217
 20
653.769975841022
 30
0.0
 10
704.9585964919248
 20
653.7533405703833
 30
0.0
 10
704.9073152477134
 20
653.7505805754103
 30
0.0
  0
LINE
  5
114
330
1F
100
AcDbEntity
  8
0
  6
Continuous
 62
     7
370
    15
100
AcDbLine
 10
704.9073152477
 20
653.6623955035
 30
0.0
 11
704.9073152477
 21
653.7505805754
 31
0.0
  0
LINE
  5
115
330
1F
100
AcDbEntity
  8
0
  6
Continuous
 62
     7
370
    15
100
AcDbLine
 10
706.2063537771
 20
653.6857605242
 30
0.0
 11
706.8991683657
 21
653.6416828894
 31
0.0
  0
LINE
  5
116
330
1F
100
AcDbEntity
  8
0
  6
Continuous
 62
     7
370
    15
100
AcDbLine
 10
706.2063537771
 20
653.6857605242
 30
0.0
 11
706.3817255432
 21
653.6941647791
 31
0.0
  0
SPLINE
  5
117
330
1F
100
AcDbEntity
  8
0
  6
Continuous
 62
     7
370
    15
100
AcDbSpline
210
0.0
220
0.0
230
1.0
 70
     8
 71
     3
 72
    13
 73
     9
 74
     0
 42
0.00000001
 43
0.00000001
 12
1.0
 22
0.0
 32
0.0
 13
1.0
 23
0.0
 33
0.0
 40
0.0
 40
0.0
 40
0.0
 40
0.0
 40
0.0977930840644585
 40
0.3133485159690405
 40
0.5289067438947728
 40
0.7444710293237414
 40
0.9600359741687214
 40
1.0
 40
1.0
 40
1.0
 40
1.0
 10
706.3860468799461
 20
653.7006020807661
 30
0.0
 10
706.3907522919086
 20
653.7024345344109
 30
0.0
 10
706.4058293688772
 20
653.708306080806
 30
0.0
 10
706.2486241942128
 20
653.7164293793916
 30
0.0
 10
705.9395765893258
 20
653.7174072346966
 30
0.0
 10
705.5041809469833
 20
653.704099697074
 30
0.0
 10
705.1382899257634
 20
653.6818535625907
 30
0.0
 10
704.9385534770761
 20
653.6650271136444
 30
0.0
 10
704.9073152477134
 20
653.6623955034652
 30
0.0
  0
SPLINE
  5
118
330
1F
100
AcDbEntity
  8
0
  6
Continuous
 62
     7
370
    15
100
AcDbSpline
210
0.0
220
0.0
230
1.0
 70
     8
 71
     3
 72
    12
 73
     8
 74
     0
 42
0.00000001
 43
0.00000001
 12
1.0
 22
0.0
 32
0.0
 13
1.0
 23
0.0
 33
0.0
 40
0.0
 40
0.0
 40
0.0
 40
0.0
 40
0.2150877555953229
 40
0.430183131098362
 40
0.6452736067136532
 40
0.8603683552409777
 40
1.0
 40
1.0
 40
1.0
 40
1.0
 10
410.1034574443687
 20
653.7505805754104
 30
0.0
 10
409.8445606010597
 20
653.7623632374901
 30
0.0
 10
409.3267577425105
 20
653.7859289790737
 30
0.0
 10
408.6353357205363
 20
653.7858565864238
 30
0.0
 10
408.1202430380145
 20
653.7651018247903
 30
0.0
 10
407.8293772455304
 20
653.7326800785952
 30
0.0
 10
407.8321779793212
 20
653.7095556021114
 30
0.0
 10
407.8332804376472
 20
653.7004530691543
 30
0.0
  0
SPLINE
  5
119
330
1F
100
AcDbEntity
  8
0
  6
Continuous
 62
     7
370
    15
100
AcDbSpline
210
0.0
220
0.0
230
1.0
 70
     8
 71
     3
 72
     9
 73
     5
 74
     0
 42
0.00000001
 43
0.00000001
 12
1.0
 22
0.0
 32
0.0
 13
1.0
 23
0.0
 33
0.0
 40
0.0
 40
0.0
 40
0.0
 40
0.0
 40
0.8340755522253599
 40
0.9999999999999999
 40
0.9999999999999999
 40
0.9999999999999999
 40
0.9999999999999999
 10
407.819660776316
 20
653.6859393381513
 30
0.0
 10
407.8727281373193
 20
653.6723994522692
 30
0.0
 10
407.9363523028541
 20
653.6561660476981
 30
0.0
 10
408.0866639494675
 20
653.6437440092718
 30
0.0
 10
408.1116043264259
 20
653.6416828894057
 30
0.0
  0
SPLINE
  5
11A
330
1F
100
AcDbEntity
  8
0
  6
Continuous
 62
     7
370
    15
100
AcDbSpline
210
0.0
220
0.0
230
1.0
 70
     8
 71
     3
 72
    13
 73
     9
 74
     0
 42
0.00000001
 43
0.00000001
 12
1.0
 22
0.0
 32
0.0
 13
1.0
 23
0.0
 33
0.0
 40
0.0
 40
0.0
 40
0.0
 40
0.0
 40
0.096847961073248
 40
0.3119368284444306
 40
0.5270344507831239
 40
0.7421221546892055
 40
0.9572146896892666
 40
1.0
 40
1.0
 40
1.0
 40
1.0
 10
407.8358881408561
 20
1041.323986675683
 30
0.0
 10
407.8286472614843
 20
1041.330255319779
 30
0.0
 10
407.8053251706385
 20
1041.350445945749
 30
0.0
 10
408.0445463594564
 20
1041.382066193805
 30
0.0
 10
408.5156707266199
 20
1041.407001000252
 30
0.0
 10
409.180451171896
 20
1041.41025373006
 30
0.0
 10
409.7430913974432
 20
1041.393385030588
 30
0.0
 10
410.0521762253204
 20
1041.376683944991
 30
0.0
 10
410.1034574443687
 20
1041.373913016263
 30
0.0
  0
LINE
  5
11B
330
1F
100
AcDbEntity
  8
0
  6
Continuous
 62
     7
370
    15
100
AcDbLine
 10
410.1034574444
 20
653.6623955035
 30
0.0
 11
410.1034574444
 21
653.7505805754
 31
0.0
  0
SPLINE
  5
11C
330
1F
100
AcDbEntity
  8
0
  6
Continuous
 62
     7
370
    15
100
AcDbSpline
210
0.0
220
0.0
230
1.0
 70
     8
 71
     3
 72
    12
 73
     8
 74
     0
 42
0.00000001
 43
0.00000001
 12
1.0
 22
0.0
 32
0.0
 13
1.0
 23
0.0
 33
0.0
 40
0.0
 40
0.0
 40
0.0
 40
0.0
 40
0.2155591094480037
 40
0.4311206473662098
 40
0.646679956059087
 40
0.8622439881211614
 40
1.0
 40
1.0
 40
1.0
 40
1.0
 10
410.1034574443687
 20
653.6623955034652
 30
0.0
 10
409.934246370093
 20
653.6751761474763
 30
0.0
 10
409.5958223152244
 20
653.7007375794843
 30
0.0
 10
409.1441285201624
 20
653.7159155725252
 30
0.0
 10
408.8082645064061
 20
653.7175329844202
 30
0.0
 10
408.6196001140502
 20
653.7098154517753
 30
0.0
 10
408.6222265684329
 20
653.7031222768904
 30
0.0
 10
408.6232505971778
 20
653.700512673799
 30
0.0
  0
SPLINE
  5
11D
330
1F
100
AcDbEntity
  8
0
  6
Continuous
 62
     7
370
    15
100
AcDbSpline
210
0.0
220
0.0
230
1.0
 70
     8
 71
     3
 72
     9
 73
     5
 74
     0
 42
0.00000001
 43
0.00000001
 12
1.0
 22
0.0
 32
0.0
 13
1.0
 23
0.0
 33
0.0
 40
0.0
 40
0.0
 40
0.0
 40
0.0
 40
0.8435954856818094
 40
1.0
 40
1.0
 40
1.0
 40
1.0
 10
408.6146973306526
 20
653.6962509416976
 30
0.0
 10
408.6500211664978
 20
653.6925278340158
 30
0.0
 10
408.6918941215395
 20
653.6881144537348
 30
0.0
 10
408.7891998584507
 20
653.6860788948204
 30
0.0
 10
408.8044189149726
 20
653.6857605242171
 30
0.0
  0
LINE
  5
11E
330
1F
100
AcDbEntity
  8
0
  6
Continuous
 62
     7
370
    15
100
AcDbLine
 10
408.804418915
 20
653.6857605242
 30
0.0
 11
408.1116043264
 21
653.6416828894
 31
0.0
  0
ARC
  5
11F
330
1F
100
AcDbEntity
  8
0
  6
Continuous
 62
     7
370
    15
100
AcDbCircle
 10
557.5053872774
 20
668.5120573873
 30
0.0
 40
12.50013904856327
100
AcDbArc
 50
0.2700677868
 51
179.7299322132
  0
ARC
  5
120
330
1F
100
AcDbEntity
  8
0
  6
Continuous
 62
     7
370
    15
100
AcDbCircle
 10
637.5053864205
 20
668.5579371027
 30
0.0
 40
3.200026722399657
100
AcDbArc
 50
0.2334856738
 51
179.7665143262
  0
ARC
  5
121
330
1F
100
AcDbEntity
  8
0
  6
Continuous
 62
     7
370
    15
100
AcDbCircle
 10
677.5053873891
 20
668.5579467181
 30
0.0
 40
3.200024820600917
100
AcDbArc
 50
0.2333136497
 51
179.7666863503
  0
ARC
  5
122
330
1F
100
AcDbEntity
  8
0
  6
Continuous
 62
     7
370
    15
100
AcDbCircle
 10
517.5053891028
 20
668.5579392667
 30
0.0
 40
3.200026713581988
100
AcDbArc
 50
0.2334469285
 51
179.7665530715
  0
ARC
  5
123
330
1F
100
AcDbEntity
  8
0
  6
Continuous
 62
     7
370
    15
100
AcDbCircle
 10
437.5053890283
 20
668.5579361433
 30
0.0
 40
3.200028588939403
100
AcDbArc
 50
0.2335027166
 51
179.7664972834
  0
ARC
  5
124
330
1F
100
AcDbEntity
  8
0
  6
Continuous
 62
     7
370
    15
100
AcDbCircle
 10
597.5053873146
 20
668.5579392667
 30
0.0
 40
3.200026713581992
100
AcDbArc
 50
0.2334469286
 51
179.7665530714
  0
ARC
  5
125
330
1F
100
AcDbEntity
  8
0
  6
Continuous
 62
     7
370
    15
100
AcDbCircle
 10
477.5053881342
 20
668.5579361433
 30
0.0
 40
3.200028588939414
100
AcDbArc
 50
0.2335027167
 51
179.7664972833
  0
LINE
  5
126
330
1F
100
AcDbEntity
  8
0
  6
Continuous
 62
     7
370
    15
100
AcDbLine
 10
706.8991683657
 20
653.6416828894
 30
0.0
 11
705.0710641081
 21
653.6745846533
 31
0.0
  0
LINE
  5
127
330
1F
100
AcDbEntity
  8
0
  6
Continuous
 62
     7
370
    15
100
AcDbLine
 10
408.1116043264
 20
653.6416828894
 30
0.0
 11
409.9297546083
 21
653.6744058394
 31
0.0
  0
ARC
  5
128
330
1F
100
AcDbEntity
  8
0
  6
Continuous
 62
     7
370
    15
100
AcDbCircle
 10
577.5053875288
 20
688.4360595637
 30
0.0
 40
3.200026476407395
100
AcDbArc
 50
0.2334278471
 51
179.7665721529
  0
ARC
  5
129
330
1F
100
AcDbEntity
  8
0
  6
Continuous
 62
     7
370
    15
100
AcDbCircle
 10
617.5053868676
 20
688.436058497
 30
0.0
 40
3.200026713581988
100
AcDbArc
 50
0.2334469285
 51
179.7665530715
  0
ARC
  5
12A
330
1F
100
AcDbEntity
  8
0
  6
Continuous
 62
     7
370
    15
100
AcDbCircle
 10
657.5053878362
 20
688.4360553735
 30
0.0
 40
3.200028588939357
100
AcDbArc
 50
0.2335027167
 51
179.7664972833
  0
ARC
  5
12B
330
1F
100
AcDbEntity
  8
0
  6
Continuous
 62
     7
370
    15
100
AcDbCircle
 10
537.5053886557
 20
688.436058497
 30
0.0
 40
3.200026713581988
100
AcDbArc
 50
0.2334469285
 51
179.7665530715
  0
ARC
  5
12C
330
1F
100
AcDbEntity
  8
0
  6
Continuous
 62
     7
370
    15
100
AcDbCircle
 10
457.5053885812
 20
688.4360616204
 30
0.0
 40
3.200024838227709
100
AcDbArc
 50
0.2333911403
 51
179.7666088597
  0
ARC
  5
12D
330
1F
100
AcDbEntity
  8
0
  6
Continuous
 62
     7
370
    15
100
AcDbCircle
 10
497.5053876871
 20
688.4360659484
 30
0.0
 40
3.200024820600974
100
AcDbArc
 50
0.2333136497
 51
179.7666863503
  0
ARC
  5
12E
330
1F
100
AcDbEntity
  8
0
  6
Continuous
 62
     7
370
    15
100
AcDbCircle
 10
677.5053873891
 20
708.3141801811
 30
0.0
 40
3.200024840955462
100
AcDbArc
 50
0.23340313
 51
179.76659687
  0
ARC
  5
12F
330
1F
100
AcDbEntity
  8
0
  6
Continuous
 62
     7
370
    15
100
AcDbCircle
 10
637.5053864205
 20
708.3141705657
 30
0.0
 40
3.200026742769219
100
AcDbArc
 50
0.2335751541
 51
179.7664248459
  0
ARC
  5
130
330
1F
100
AcDbEntity
  8
0
  6
Continuous
 62
     7
370
    15
100
AcDbCircle
 10
517.5053891028
 20
708.3141727297
 30
0.0
 40
3.20002673394817
100
AcDbArc
 50
0.2335364088
 51
179.7664635912
  0
ARC
  5
131
330
1F
100
AcDbEntity
  8
0
  6
Continuous
 62
     7
370
    15
100
AcDbCircle
 10
477.5053881342
 20
708.3141696062
 30
0.0
 40
3.200028609310475
100
AcDbArc
 50
0.233592197
 51
179.766407803
  0
ARC
  5
132
330
1F
100
AcDbEntity
  8
0
  6
Continuous
 62
     7
370
    15
100
AcDbCircle
 10
597.5053873146
 20
708.3141727297
 30
0.0
 40
3.200026733948174
100
AcDbArc
 50
0.2335364089
 51
179.7664635911
  0
ARC
  5
133
330
1F
100
AcDbEntity
  8
0
  6
Continuous
 62
     7
370
    15
100
AcDbCircle
 10
557.5053882087
 20
708.3141738116
 30
0.0
 40
3.200026729538196
100
AcDbArc
 50
0.2335170362
 51
179.7664829638
  0
ARC
  5
134
330
1F
100
AcDbEntity
  8
0
  6
Continuous
 62
     7
370
    15
100
AcDbCircle
 10
437.5053890283
 20
708.3141696062
 30
0.0
 40
3.200028609310463
100
AcDbArc
 50
0.2335921969
 51
179.7664078031
  0
ARC
  5
135
330
1F
100
AcDbEntity
  8
0
  6
Continuous
 62
     7
370
    15
100
AcDbCircle
 10
457.5053885812
 20
728.192300081
 30
0.0
 40
3.200024838227709
100
AcDbArc
 50
0.2333911403
 51
179.7666088597
  0
ARC
  5
136
330
1F
100
AcDbEntity
  8
0
  6
Continuous
 62
     7
370
    15
100
AcDbCircle
 10
537.5053886557
 20
728.1922969575
 30
0.0
 40
3.200026713581988
100
AcDbArc
 50
0.2334469285
 51
179.7665530715
  0
ARC
  5
137
330
1F
100
AcDbEntity
  8
0
  6
Continuous
 62
     7
370
    15
100
AcDbCircle
 10
617.5053868676
 20
728.1922969575
 30
0.0
 40
3.200026713581988
100
AcDbArc
 50
0.2334469285
 51
179.7665530715
  0
ARC
  5
138
330
1F
100
AcDbEntity
  8
0
  6
Continuous
 62
     7
370
    15
100
AcDbCircle
 10
577.5053875288
 20
728.1922980242
 30
0.0
 40
3.200026476407395
100
AcDbArc
 50
0.2334278471
 51
179.7665721529
  0
ARC
  5
139
330
1F
100
AcDbEntity
  8
0
  6
Continuous
 62
     7
370
    15
100
AcDbCircle
 10
497.5053876871
 20
728.1923044089
 30
0.0
 40
3.200024820600974
100
AcDbArc
 50
0.2333136497
 51
179.7666863503
  0
ARC
  5
13A
330
1F
100
AcDbEntity
  8
0
  6
Continuous
 62
     7
370
    15
100
AcDbCircle
 10
657.5053878362
 20
728.1922938341
 30
0.0
 40
3.200028588939357
100
AcDbArc
 50
0.2335027167
 51
179.7664972833
  0
ARC
  5
13B
330
1F
100
AcDbEntity
  8
0
  6
Continuous
 62
     7
370
    15
100
AcDbCircle
 10
637.5053864205
 20
748.0704140238
 30
0.0
 40
3.200026722399657
100
AcDbArc
 50
0.2334856738
 51
179.7665143262
  0
ARC
  5
13C
330
1F
100
AcDbEntity
  8
0
  6
Continuous
 62
     7
370
    15
100
AcDbCircle
 10
677.5053873891
 20
748.0704236392
 30
0.0
 40
3.200024820600917
100
AcDbArc
 50
0.2333136497
 51
179.7666863503
  0
ARC
  5
13D
330
1F
100
AcDbEntity
  8
0
  6
Continuous
 62
     7
370
    15
100
AcDbCircle
 10
597.5053873146
 20
748.0704161878
 30
0.0
 40
3.200026713581992
100
AcDbArc
 50
0.2334469286
 51
179.7665530714
  0
ARC
  5
13E
330
1F
100
AcDbEntity
  8
0
  6
Continuous
 62
     7
370
    15
100
AcDbCircle
 10
477.5053881342
 20
748.0704130644
 30
0.0
 40
3.200028588939414
100
AcDbArc
 50
0.2335027167
 51
179.7664972833
  0
ARC
  5
13F
330
1F
100
AcDbEntity
  8
0
  6
Continuous
 62
     7
370
    15
100
AcDbCircle
 10
557.5053882087
 20
748.0704172698
 30
0.0
 40
3.200026709173704
100
AcDbArc
 50
0.2334275559
 51
179.7665724441
  0
ARC
  5
140
330
1F
100
AcDbEntity
  8
0
  6
Continuous
 62
     7
370
    15
100
AcDbCircle
 10
517.5053891028
 20
748.0704161878
 30
0.0
 40
3.200026713581988
100
AcDbArc
 50
0.2334469285
 51
179.7665530715
  0
ARC
  5
141
330
1F
100
AcDbEntity
  8
0
  6
Continuous
 62
     7
370
    15
100
AcDbCircle
 10
437.5053890283
 20
748.0704130644
 30
0.0
 40
3.200028588939403
100
AcDbArc
 50
0.2335027166
 51
179.7664972834
  0
ARC
  5
142
330
1F
100
AcDbEntity
  8
0
  6
Continuous
 62
     7
370
    15
100
AcDbCircle
 10
657.5053878362
 20
767.9485322946
 30
0.0
 40
3.200028588939357
100
AcDbArc
 50
0.2335027167
 51
179.7664972833
  0
ARC
  5
143
330
1F
100
AcDbEntity
  8
0
  6
Continuous
 62
     7
370
    15
100
AcDbCircle
 10
617.5053868676
 20
767.9485354181
 30
0.0
 40
3.200026713581988
100
AcDbArc
 50
0.2334469285
 51
179.7665530715
  0
ARC
  5
144
330
1F
100
AcDbEntity
  8
0
  6
Continuous
 62
     7
370
    15
100
AcDbCircle
 10
497.5053876871
 20
767.9485428695
 30
0.0
 40
3.200024820600974
100
AcDbArc
 50
0.2333136497
 51
179.7666863503
  0
ARC
  5
145
330
1F
100
AcDbEntity
  8
0
  6
Continuous
 62
     7
370
    15
100
AcDbCircle
 10
577.5053875288
 20
767.9485364847
 30
0.0
 40
3.200026476407395
100
AcDbArc
 50
0.2334278471
 51
179.7665721529
  0
ARC
  5
146
330
1F
100
AcDbEntity
  8
0
  6
Continuous
 62
     7
370
    15
100
AcDbCircle
 10
537.5053886557
 20
767.9485354181
 30
0.0
 40
3.200026713581988
100
AcDbArc
 50
0.2334469285
 51
179.7665530715
  0
ARC
  5
147
330
1F
100
AcDbEntity
  8
0
  6
Continuous
 62
     7
370
    15
100
AcDbCircle
 10
457.5053885812
 20
767.9485385415
 30
0.0
 40
3.200024838227709
100
AcDbArc
 50
0.2333911403
 51
179.7666088597
  0
ARC
  5
148
330
1F
100
AcDbEntity
  8
0
  6
Continuous
 62
     7
370
    15
100
AcDbCircle
 10
677.5053873891
 20
787.8266620997
 30
0.0
 40
3.200024820600917
100
AcDbArc
 50
0.2333136497
 51
179.7666863503
  0
ARC
  5
149
330
1F
100
AcDbEntity
  8
0
  6
Continuous
 62
     7
370
    15
100
AcDbCircle
 10
437.5053890283
 20
787.8266515249
 30
0.0
 40
3.200028588939403
100
AcDbArc
 50
0.2335027166
 51
179.7664972834
  0
ARC
  5
14A
330
1F
100
AcDbEntity
  8
0
  6
Continuous
 62
     7
370
    15
100
AcDbCircle
 10
477.5053881342
 20
787.8266515249
 30
0.0
 40
3.200028588939414
100
AcDbArc
 50
0.2335027167
 51
179.7664972833
  0
ARC
  5
14B
330
1F
100
AcDbEntity
  8
0
  6
Continuous
 62
     7
370
    15
100
AcDbCircle
 10
597.5053873146
 20
787.8266546483
 30
0.0
 40
3.200026713581992
100
AcDbArc
 50
0.2334469286
 51
179.7665530714
  0
ARC
  5
14C
330
1F
100
AcDbEntity
  8
0
  6
Continuous
 62
     7
370
    15
100
AcDbCircle
 10
637.5053864205
 20
787.8266524844
 30
0.0
 40
3.200026722399657
100
AcDbArc
 50
0.2334856738
 51
179.7665143262
  0
ARC
  5
14D
330
1F
100
AcDbEntity
  8
0
  6
Continuous
 62
     7
370
    15
100
AcDbCircle
 10
557.5053882087
 20
787.8266557303
 30
0.0
 40
3.200026709173704
100
AcDbArc
 50
0.2334275559
 51
179.7665724441
  0
ARC
  5
14E
330
1F
100
AcDbEntity
  8
0
  6
Continuous
 62
     7
370
    15
100
AcDbCircle
 10
517.5053891028
 20
787.8266546483
 30
0.0
 40
3.200026713581988
100
AcDbArc
 50
0.2334469285
 51
179.7665530715
  0
ARC
  5
14F
330
1F
100
AcDbEntity
  8
0
  6
Continuous
 62
     7
370
    15
100
AcDbCircle
 10
657.5053878362
 20
807.7047707552
 30
0.0
 40
3.200028588939357
100
AcDbArc
 50
0.2335027167
 51
179.7664972833
  0
ARC
  5
150
330
1F
100
AcDbEntity
  8
0
  6
Continuous
 62
     7
370
    15
100
AcDbCircle
 10
537.5053886557
 20
807.7047738786
 30
0.0
 40
3.200026713581988
100
AcDbArc
 50
0.2334469285
 51
179.7665530715
  0
ARC
  5
151
330
1F
100
AcDbEntity
  8
0
  6
Continuous
 62
     7
370
    15
100
AcDbCircle
 10
457.5053885812
 20
807.7047770021
 30
0.0
 40
3.200024838227709
100
AcDbArc
 50
0.2333911403
 51
179.7666088597
  0
ARC
  5
152
330
1F
100
AcDbEntity
  8
0
  6
Continuous
 62
     7
370
    15
100
AcDbCircle
 10
617.5053868676
 20
807.7047738786
 30
0.0
 40
3.200026713581988
100
AcDbArc
 50
0.2334469285
 51
179.7665530715
  0
ARC
  5
153
330
1F
100
AcDbEntity
  8
0
  6
Continuous
 62
     7
370
    15
100
AcDbCircle
 10
577.5053875288
 20
807.7047749453
 30
0.0
 40
3.200026476407395
100
AcDbArc
 50
0.2334278471
 51
179.7665721529
  0
ARC
  5
154
330
1F
100
AcDbEntity
  8
0
  6
Continuous
 62
     7
370
    15
100
AcDbCircle
 10
497.5053876871
 20
807.70478133
 30
0.0
 40
3.200024820600974
100
AcDbArc
 50
0.2333136497
 51
179.7666863503
  0
ARC
  5
155
330
1F
100
AcDbEntity
  8
0
  6
Continuous
 62
     7
370
    15
100
AcDbCircle
 10
597.5053873146
 20
827.5828931089
 30
0.0
 40
3.200026713581992
100
AcDbArc
 50
0.2334469286
 51
179.7665530714
  0
ARC
  5
156
330
1F
100
AcDbEntity
  8
0
  6
Continuous
 62
     7
370
    15
100
AcDbCircle
 10
637.5053864205
 20
827.5828909449
 30
0.0
 40
3.200026722399657
100
AcDbArc
 50
0.2334856738
 51
179.7665143262
  0
ARC
  5
157
330
1F
100
AcDbEntity
  8
0
  6
Continuous
 62
     7
370
    15
100
AcDbCircle
 10
677.5053873891
 20
827.5829005603
 30
0.0
 40
3.200024820600917
100
AcDbArc
 50
0.2333136497
 51
179.7666863503
  0
ARC
  5
158
330
1F
100
AcDbEntity
  8
0
  6
Continuous
 62
     7
370
    15
100
AcDbCircle
 10
557.5053882087
 20
827.5828941909
 30
0.0
 40
3.200026709173704
100
AcDbArc
 50
0.2334275559
 51
179.7665724441
  0
ARC
  5
159
330
1F
100
AcDbEntity
  8
0
  6
Continuous
 62
     7
370
    15
100
AcDbCircle
 10
437.5053890283
 20
827.5828899854
 30
0.0
 40
3.200028588939403
100
AcDbArc
 50
0.2335027166
 51
179.7664972834
  0
ARC
  5
15A
330
1F
100
AcDbEntity
  8
0
  6
Continuous
 62
     7
370
    15
100
AcDbCircle
 10
517.5053891028
 20
827.5828931089
 30
0.0
 40
3.200026713581988
100
AcDbArc
 50
0.2334469285
 51
179.7665530715
  0
ARC
  5
15B
330
1F
100
AcDbEntity
  8
0
  6
Continuous
 62
     7
370
    15
100
AcDbCircle
 10
477.5053881342
 20
827.5828899854
 30
0.0
 40
3.200028588939414
100
AcDbArc
 50
0.2335027167
 51
179.7664972833
  0
ARC
  5
15C
330
1F
100
AcDbEntity
  8
0
  6
Continuous
 62
     7
370
    15
100
AcDbCircle
 10
617.5053868676
 20
847.4610122933
 30
0.0
 40
3.200026744134192
100
AcDbArc
 50
0.233581149
 51
179.766418851
  0
ARC
  5
15D
330
1F
100
AcDbEntity
  8
0
  6
Continuous
 62
     7
370
    15
100
AcDbCircle
 10
537.5053886557
 20
847.4610122933
 30
0.0
 40
3.200026744134192
100
AcDbArc
 50
0.233581149
 51
179.766418851
  0
ARC
  5
15E
330
1F
100
AcDbEntity
  8
0
  6
Continuous
 62
     7
370
    15
100
AcDbCircle
 10
497.5053876871
 20
847.4610197448
 30
0.0
 40
3.200024851135604
100
AcDbArc
 50
0.2334478697
 51
179.7665521303
  0
ARC
  5
15F
330
1F
100
AcDbEntity
  8
0
  6
Continuous
 62
     7
370
    15
100
AcDbCircle
 10
657.5053878362
 20
847.4610091699
 30
0.0
 40
3.200028619498914
100
AcDbArc
 50
0.2336369373
 51
179.7663630627
  0
ARC
  5
160
330
1F
100
AcDbEntity
  8
0
  6
Continuous
 62
     7
370
    15
100
AcDbCircle
 10
457.5053885812
 20
847.4610154168
 30
0.0
 40
3.20002486877256
100
AcDbArc
 50
0.2335253607
 51
179.7664746393
  0
ARC
  5
161
330
1F
100
AcDbEntity
  8
0
  6
Continuous
 62
     7
370
    15
100
AcDbCircle
 10
577.5053875288
 20
847.46101336
 30
0.0
 40
3.200026506957083
100
AcDbArc
 50
0.2335620675
 51
179.7664379325
  0
ARC
  5
162
330
1F
100
AcDbEntity
  8
0
  6
Continuous
 62
     7
370
    15
100
AcDbCircle
 10
437.5053890283
 20
867.3391284001
 30
0.0
 40
3.200028619498959
100
AcDbArc
 50
0.2336369373
 51
179.7663630627
  0
ARC
  5
163
330
1F
100
AcDbEntity
  8
0
  6
Continuous
 62
     7
370
    15
100
AcDbCircle
 10
557.5053882087
 20
867.3391326056
 30
0.0
 40
3.200026739723353
100
AcDbArc
 50
0.2335617763
 51
179.7664382237
  0
ARC
  5
164
330
1F
100
AcDbEntity
  8
0
  6
Continuous
 62
     7
370
    15
100
AcDbCircle
 10
677.5053873891
 20
867.339138975
 30
0.0
 40
3.200024851135546
100
AcDbArc
 50
0.2334478697
 51
179.7665521303
  0
ARC
  5
165
330
1F
100
AcDbEntity
  8
0
  6
Continuous
 62
     7
370
    15
100
AcDbCircle
 10
637.5053864205
 20
867.3391293596
 30
0.0
 40
3.200026752956971
100
AcDbArc
 50
0.2336198945
 51
179.7663801055
  0
ARC
  5
166
330
1F
100
AcDbEntity
  8
0
  6
Continuous
 62
     7
370
    15
100
AcDbCircle
 10
517.5053891028
 20
867.3391315236
 30
0.0
 40
3.200026744134192
100
AcDbArc
 50
0.233581149
 51
179.766418851
  0
ARC
  5
167
330
1F
100
AcDbEntity
  8
0
  6
Continuous
 62
     7
370
    15
100
AcDbCircle
 10
597.5053873146
 20
867.3391315236
 30
0.0
 40
3.200026744134196
100
AcDbArc
 50
0.233581149
 51
179.766418851
  0
ARC
  5
168
330
1F
100
AcDbEntity
  8
0
  6
Continuous
 62
     7
370
    15
100
AcDbCircle
 10
477.5053881342
 20
867.3391284001
 30
0.0
 40
3.200028619498971
100
AcDbArc
 50
0.2336369373
 51
179.7663630627
  0
ARC
  5
169
330
1F
100
AcDbEntity
  8
0
  6
Continuous
 62
     7
370
    15
100
AcDbCircle
 10
617.5053868676
 20
887.2172532527
 30
0.0
 40
3.200026733948154
100
AcDbArc
 50
0.2335364088
 51
179.7664635912
  0
ARC
  5
16A
330
1F
100
AcDbEntity
  8
0
  6
Continuous
 62
     7
370
    15
100
AcDbCircle
 10
577.5053875288
 20
887.2172543193
 30
0.0
 40
3.200026496771886
100
AcDbArc
 50
0.2335173273
 51
179.7664826727
  0
ARC
  5
16B
330
1F
100
AcDbEntity
  8
0
  6
Continuous
 62
     7
370
    15
100
AcDbCircle
 10
657.5053878362
 20
887.2172501292
 30
0.0
 40
3.200028609310419
100
AcDbArc
 50
0.233592197
 51
179.766407803
  0
ARC
  5
16C
330
1F
100
AcDbEntity
  8
0
  6
Continuous
 62
     7
370
    15
100
AcDbCircle
 10
497.5053876871
 20
887.2172607041
 30
0.0
 40
3.200024840955443
100
AcDbArc
 50
0.2334031297
 51
179.7665968703
  0
ARC
  5
16D
330
1F
100
AcDbEntity
  8
0
  6
Continuous
 62
     7
370
    15
100
AcDbCircle
 10
537.5053886557
 20
887.2172532527
 30
0.0
 40
3.200026733948154
100
AcDbArc
 50
0.2335364088
 51
179.7664635912
  0
ARC
  5
16E
330
1F
100
AcDbEntity
  8
0
  6
Continuous
 62
     7
370
    15
100
AcDbCircle
 10
457.5053885812
 20
887.2172563761
 30
0.0
 40
3.200024858588979
100
AcDbArc
 50
0.2334806205
 51
179.7665193795
  0
ARC
  5
16F
330
1F
100
AcDbEntity
  8
0
  6
Continuous
 62
     7
370
    15
100
AcDbCircle
 10
517.5053891028
 20
907.0953737323
 30
0.0
 40
3.20002672885588
100
AcDbArc
 50
0.2335140387
 51
179.7664859613
  0
ARC
  5
170
330
1F
100
AcDbEntity
  8
0
  6
Continuous
 62
     7
370
    15
100
AcDbCircle
 10
557.5053882087
 20
907.0953748143
 30
0.0
 40
3.200026724446318
100
AcDbArc
 50
0.233494666
 51
179.766505334
  0
ARC
  5
171
330
1F
100
AcDbEntity
  8
0
  6
Continuous
 62
     7
370
    15
100
AcDbCircle
 10
477.5053881342
 20
907.0953706089
 30
0.0
 40
3.200028604216983
100
AcDbArc
 50
0.2335698269
 51
179.7664301731
  0
ARC
  5
172
330
1F
100
AcDbEntity
  8
0
  6
Continuous
 62
     7
370
    15
100
AcDbCircle
 10
637.5053864205
 20
907.0953715684
 30
0.0
 40
3.200026737676104
100
AcDbArc
 50
0.2335527841
 51
179.7664472159
  0
ARC
  5
173
330
1F
100
AcDbEntity
  8
0
  6
Continuous
 62
     7
370
    15
100
AcDbCircle
 10
597.5053873146
 20
907.0953737323
 30
0.0
 40
3.200026728855884
100
AcDbArc
 50
0.2335140387
 51
179.7664859613
  0
ARC
  5
174
330
1F
100
AcDbEntity
  8
0
  6
Continuous
 62
     7
370
    15
100
AcDbCircle
 10
677.5053873891
 20
907.0953811838
 30
0.0
 40
3.200024835866022
100
AcDbArc
 50
0.2333807596
 51
179.7666192404
  0
ARC
  5
175
330
1F
100
AcDbEntity
  8
0
  6
Continuous
 62
     7
370
    15
100
AcDbCircle
 10
437.5053890283
 20
907.0953706089
 30
0.0
 40
3.200028604216971
100
AcDbArc
 50
0.2335698269
 51
179.7664301731
  0
ARC
  5
176
330
1F
100
AcDbEntity
  8
0
  6
Continuous
 62
     7
370
    15
100
AcDbCircle
 10
497.5053876871
 20
926.9735016634
 30
0.0
 40
3.200024830777227
100
AcDbArc
 50
0.2333583897
 51
179.7666416103
  0
ARC
  5
177
330
1F
100
AcDbEntity
  8
0
  6
Continuous
 62
     7
370
    15
100
AcDbCircle
 10
457.5053885812
 20
926.9734973355
 30
0.0
 40
3.200024848407362
100
AcDbArc
 50
0.2334358804
 51
179.7665641196
  0
ARC
  5
178
330
1F
100
AcDbEntity
  8
0
  6
Continuous
 62
     7
370
    15
100
AcDbCircle
 10
617.5053868676
 20
926.973494212
 30
0.0
 40
3.200026723764089
100
AcDbArc
 50
0.2334916686
 51
179.7665083314
  0
ARC
  5
179
330
1F
100
AcDbEntity
  8
0
  6
Continuous
 62
     7
370
    15
100
AcDbCircle
 10
657.5053878362
 20
926.9734910886
 30
0.0
 40
3.200028599123907
100
AcDbArc
 50
0.2335474568
 51
179.7664525432
  0
ARC
  5
17A
330
1F
100
AcDbEntity
  8
0
  6
Continuous
 62
     7
370
    15
100
AcDbCircle
 10
537.5053886557
 20
926.973494212
 30
0.0
 40
3.200026723764089
100
AcDbArc
 50
0.2334916686
 51
179.7665083314
  0
ARC
  5
17B
330
1F
100
AcDbEntity
  8
0
  6
Continuous
 62
     7
370
    15
100
AcDbCircle
 10
577.5053875288
 20
926.9734952787
 30
0.0
 40
3.200026486588659
100
AcDbArc
 50
0.2334725872
 51
179.7665274128
  0
ARC
  5
17C
330
1F
100
AcDbEntity
  8
0
  6
Continuous
 62
     7
370
    15
100
AcDbCircle
 10
677.5053873891
 20
946.851621841
 30
0.0
 40
3.200024833083
100
AcDbArc
 50
0.2333685261
 51
179.7666314739
  0
ARC
  5
17D
330
1F
100
AcDbEntity
  8
0
  6
Continuous
 62
     7
370
    15
100
AcDbCircle
 10
517.5053891028
 20
946.8516143895
 30
0.0
 40
3.200026726071244
100
AcDbArc
 50
0.2335018051
 51
179.7664981949
  0
ARC
  5
17E
330
1F
100
AcDbEntity
  8
0
  6
Continuous
 62
     7
370
    15
100
AcDbCircle
 10
477.5053881342
 20
946.8516112661
 30
0.0
 40
3.200028601431674
100
AcDbArc
 50
0.2335575932
 51
179.7664424068
  0
ARC
  5
17F
330
1F
100
AcDbEntity
  8
0
  6
Continuous
 62
     7
370
    15
100
AcDbCircle
 10
437.5053890283
 20
946.8516112661
 30
0.0
 40
3.200028601431663
100
AcDbArc
 50
0.2335575932
 51
179.7664424068
  0
ARC
  5
180
330
1F
100
AcDbEntity
  8
0
  6
Continuous
 62
     7
370
    15
100
AcDbCircle
 10
637.5053864205
 20
946.8516122256
 30
0.0
 40
3.200026734890999
100
AcDbArc
 50
0.2335405504
 51
179.7664594496
  0
ARC
  5
181
330
1F
100
AcDbEntity
  8
0
  6
Continuous
 62
     7
370
    15
100
AcDbCircle
 10
557.5053882087
 20
946.8516154715
 30
0.0
 40
3.200026721661918
100
AcDbArc
 50
0.2334824324
 51
179.7665175676
  0
ARC
  5
182
330
1F
100
AcDbEntity
  8
0
  6
Continuous
 62
     7
370
    15
100
AcDbCircle
 10
597.5053873146
 20
946.8516143895
 30
0.0
 40
3.200026726071248
100
AcDbArc
 50
0.2335018051
 51
179.7664981949
  0
ARC
  5
183
330
1F
100
AcDbEntity
  8
0
  6
Continuous
 62
     7
370
    15
100
AcDbCircle
 10
537.5053886557
 20
966.7297345352
 30
0.0
 40
3.200026723764089
100
AcDbArc
 50
0.2334916686
 51
179.7665083314
  0
ARC
  5
184
330
1F
100
AcDbEntity
  8
0
  6
Continuous
 62
     7
370
    15
100
AcDbCircle
 10
657.5053878362
 20
966.7297314118
 30
0.0
 40
3.200028599123907
100
AcDbArc
 50
0.2335474568
 51
179.7664525432
  0
ARC
  5
185
330
1F
100
AcDbEntity
  8
0
  6
Continuous
 62
     7
370
    15
100
AcDbCircle
 10
617.5053868676
 20
966.7297345352
 30
0.0
 40
3.200026723764089
100
AcDbArc
 50
0.2334916686
 51
179.7665083314
  0
ARC
  5
186
330
1F
100
AcDbEntity
  8
0
  6
Continuous
 62
     7
370
    15
100
AcDbCircle
 10
577.5053875288
 20
966.7297356019
 30
0.0
 40
3.200026486588659
100
AcDbArc
 50
0.2334725872
 51
179.7665274128
  0
ARC
  5
187
330
1F
100
AcDbEntity
  8
0
  6
Continuous
 62
     7
370
    15
100
AcDbCircle
 10
457.5053885812
 20
966.7297376586
 30
0.0
 40
3.200024848407362
100
AcDbArc
 50
0.2334358804
 51
179.7665641196
  0
ARC
  5
188
330
1F
100
AcDbEntity
  8
0
  6
Continuous
 62
     7
370
    15
100
AcDbCircle
 10
497.5053876871
 20
966.7297419866
 30
0.0
 40
3.200024830777227
100
AcDbArc
 50
0.2333583897
 51
179.7666416103
  0
ARC
  5
189
330
1F
100
AcDbEntity
  8
0
  6
Continuous
 62
     7
370
    15
100
AcDbCircle
 10
557.5053882087
 20
986.6078554607
 30
0.0
 40
3.200026724446318
100
AcDbArc
 50
0.233494666
 51
179.766505334
  0
ARC
  5
18A
330
1F
100
AcDbEntity
  8
0
  6
Continuous
 62
     7
370
    15
100
AcDbCircle
 10
477.5053881342
 20
986.6078512553
 30
0.0
 40
3.200028604216983
100
AcDbArc
 50
0.2335698269
 51
179.7664301731
  0
ARC
  5
18B
330
1F
100
AcDbEntity
  8
0
  6
Continuous
 62
     7
370
    15
100
AcDbCircle
 10
597.5053873146
 20
986.6078543787
 30
0.0
 40
3.200026728855884
100
AcDbArc
 50
0.2335140387
 51
179.7664859613
  0
ARC
  5
18C
330
1F
100
AcDbEntity
  8
0
  6
Continuous
 62
     7
370
    15
100
AcDbCircle
 10
677.5053873891
 20
986.6078618301
 30
0.0
 40
3.200024835866022
100
AcDbArc
 50
0.2333807596
 51
179.7666192404
  0
ARC
  5
18D
330
1F
100
AcDbEntity
  8
0
  6
Continuous
 62
     7
370
    15
100
AcDbCircle
 10
437.5053890283
 20
986.6078512553
 30
0.0
 40
3.200028604216971
100
AcDbArc
 50
0.2335698269
 51
179.7664301731
  0
ARC
  5
18E
330
1F
100
AcDbEntity
  8
0
  6
Continuous
 62
     7
370
    15
100
AcDbCircle
 10
637.5053864205
 20
986.6078522147
 30
0.0
 40
3.200026737676104
100
AcDbArc
 50
0.2335527841
 51
179.7664472159
  0
ARC
  5
18F
330
1F
100
AcDbEntity
  8
0
  6
Continuous
 62
     7
370
    15
100
AcDbCircle
 10
517.5053891028
 20
986.6078543787
 30
0.0
 40
3.20002672885588
100
AcDbArc
 50
0.2335140387
 51
179.7664859613
  0
ARC
  5
190
330
1F
100
AcDbEntity
  8
0
  6
Continuous
 62
     7
370
    15
100
AcDbCircle
 10
657.5053878362
 20
1006.4859729843
 30
0.0
 40
3.200028594031382
100
AcDbArc
 50
0.2335250867
 51
179.7664749133
  0
ARC
  5
191
330
1F
100
AcDbEntity
  8
0
  6
Continuous
 62
     7
370
    15
100
AcDbCircle
 10
537.5053886557
 20
1006.4859761078
 30
0.0
 40
3.200026718672792
100
AcDbArc
 50
0.2334692986
 51
179.7665307014
  0
ARC
  5
192
330
1F
100
AcDbEntity
  8
0
  6
Continuous
 62
     7
370
    15
100
AcDbCircle
 10
497.5053876871
 20
1006.4859835592
 30
0.0
 40
3.200024825688869
100
AcDbArc
 50
0.2333360198
 51
179.7666639802
  0
ARC
  5
193
330
1F
100
AcDbEntity
  8
0
  6
Continuous
 62
     7
370
    15
100
AcDbCircle
 10
617.5053868676
 20
1006.4859761078
 30
0.0
 40
3.200026718672792
100
AcDbArc
 50
0.2334692986
 51
179.7665307014
  0
ARC
  5
194
330
1F
100
AcDbEntity
  8
0
  6
Continuous
 62
     7
370
    15
100
AcDbCircle
 10
577.5053875288
 20
1006.4859771745
 30
0.0
 40
3.200026481497783
100
AcDbArc
 50
0.2334502172
 51
179.7665497828
  0
ARC
  5
195
330
1F
100
AcDbEntity
  8
0
  6
Continuous
 62
     7
370
    15
100
AcDbCircle
 10
457.5053885812
 20
1006.4859792312
 30
0.0
 40
3.200024843317295
100
AcDbArc
 50
0.2334135104
 51
179.7665864896
  0
ARC
  5
196
330
1F
100
AcDbEntity
  8
0
  6
Continuous
 62
     7
370
    15
100
AcDbCircle
 10
597.5053873146
 20
1026.3640928163
 30
0.0
 40
3.200026744134195
100
AcDbArc
 50
0.233581149
 51
179.766418851
  0
ARC
  5
197
330
1F
100
AcDbEntity
  8
0
  6
Continuous
 62
     7
370
    15
100
AcDbCircle
 10
677.5053873891
 20
1026.3641002678
 30
0.0
 40
3.200024851135546
100
AcDbArc
 50
0.2334478697
 51
179.7665521303
  0
ARC
  5
198
330
1F
100
AcDbEntity
  8
0
  6
Continuous
 62
     7
370
    15
100
AcDbCircle
 10
637.5053864205
 20
1026.3640906523
 30
0.0
 40
3.200026752956972
100
AcDbArc
 50
0.2336198945
 51
179.7663801055
  0
ARC
  5
199
330
1F
100
AcDbEntity
  8
0
  6
Continuous
 62
     7
370
    15
100
AcDbCircle
 10
477.5053881342
 20
1026.3640896929
 30
0.0
 40
3.200028619498972
100
AcDbArc
 50
0.2336369373
 51
179.7663630627
  0
ARC
  5
19A
330
1F
100
AcDbEntity
  8
0
  6
Continuous
 62
     7
370
    15
100
AcDbCircle
 10
437.5053890283
 20
1026.3640896929
 30
0.0
 40
3.200028619498958
100
AcDbArc
 50
0.2336369373
 51
179.7663630627
  0
ARC
  5
19B
330
1F
100
AcDbEntity
  8
0
  6
Continuous
 62
     7
370
    15
100
AcDbCircle
 10
557.5053882087
 20
1026.3640938983
 30
0.0
 40
3.200026739723353
100
AcDbArc
 50
0.2335617763
 51
179.7664382237
  0
ARC
  5
19C
330
1F
100
AcDbEntity
  8
0
  6
Continuous
 62
     7
370
    15
100
AcDbCircle
 10
517.5053891028
 20
1026.3640928163
 30
0.0
 40
3.200026744134192
100
AcDbArc
 50
0.233581149
 51
179.766418851
  0
ARC
  5
19D
330
1F
100
AcDbEntity
  8
0
  6
Continuous
 62
     7
370
    15
100
AcDbCircle
 10
537.5053886557
 20
1046.2422170442
 30
0.0
 40
3.200026723764092
100
AcDbArc
 50
0.2334916686
 51
179.7665083314
  0
ARC
  5
19E
330
1F
100
AcDbEntity
  8
0
  6
Continuous
 62
     7
370
    15
100
AcDbCircle
 10
457.5053885812
 20
1046.2422201677
 30
0.0
 40
3.200024848407373
100
AcDbArc
 50
0.2334358804
 51
179.7665641196
  0
ARC
  5
19F
330
1F
100
AcDbEntity
  8
0
  6
Continuous
 62
     7
370
    15
100
AcDbCircle
 10
577.5053875288
 20
1046.2422181109
 30
0.0
 40
3.200026486588667
100
AcDbArc
 50
0.2334725872
 51
179.7665274128
  0
ARC
  5
1A0
330
1F
100
AcDbEntity
  8
0
  6
Continuous
 62
     7
370
    15
100
AcDbCircle
 10
657.5053878362
 20
1046.2422139208
 30
0.0
 40
3.200028599123899
100
AcDbArc
 50
0.2335474568
 51
179.7664525432
  0
ARC
  5
1A1
330
1F
100
AcDbEntity
  8
0
  6
Continuous
 62
     7
370
    15
100
AcDbCircle
 10
497.5053876871
 20
1046.2422244956
 30
0.0
 40
3.200024830777259
100
AcDbArc
 50
0.2333583898
 51
179.7666416102
  0
ARC
  5
1A2
330
1F
100
AcDbEntity
  8
0
  6
Continuous
 62
     7
370
    15
100
AcDbCircle
 10
617.5053868676
 20
1046.2422170442
 30
0.0
 40
3.200026723764092
100
AcDbArc
 50
0.2334916686
 51
179.7665083314
  0
ARC
  5
1A3
330
1F
100
AcDbEntity
  8
0
  6
Continuous
 62
     7
370
    15
100
AcDbCircle
 10
637.5053864205
 20
1066.1203341105
 30
0.0
 40
3.200026732583451
100
AcDbArc
 50
0.2335304139
 51
179.7664695861
  0
ARC
  5
1A4
330
1F
100
AcDbEntity
  8
0
  6
Continuous
 62
     7
370
    15
100
AcDbCircle
 10
597.5053873146
 20
1066.1203362745
 30
0.0
 40
3.200026723764094
100
AcDbArc
 50
0.2334916687
 51
179.7665083313
  0
ARC
  5
1A5
330
1F
100
AcDbEntity
  8
0
  6
Continuous
 62
     7
370
    15
100
AcDbCircle
 10
477.5053881342
 20
1066.120333151
 30
0.0
 40
3.200028599123956
100
AcDbArc
 50
0.2335474568
 51
179.7664525432
  0
ARC
  5
1A6
330
1F
100
AcDbEntity
  8
0
  6
Continuous
 62
     7
370
    15
100
AcDbCircle
 10
557.5053882087
 20
1066.1203373565
 30
0.0
 40
3.200026719354962
100
AcDbArc
 50
0.233472296
 51
179.766527704
  0
ARC
  5
1A7
330
1F
100
AcDbEntity
  8
0
  6
Continuous
 62
     7
370
    15
100
AcDbCircle
 10
677.5053873891
 20
1066.1203437259
 30
0.0
 40
3.200024830777202
100
AcDbArc
 50
0.2333583898
 51
179.7666416102
  0
ARC
  5
1A8
330
1F
100
AcDbEntity
  8
0
  6
Continuous
 62
     7
370
    15
100
AcDbCircle
 10
517.5053891028
 20
1066.1203362745
 30
0.0
 40
3.200026723764092
100
AcDbArc
 50
0.2334916686
 51
179.7665083314
  0
ARC
  5
1A9
330
1F
100
AcDbEntity
  8
0
  6
Continuous
 62
     7
370
    15
100
AcDbCircle
 10
437.5053890283
 20
1066.120333151
 30
0.0
 40
3.200028599123945
100
AcDbArc
 50
0.2335474567
 51
179.7664525433
  0
LINE
  5
1AA
330
1F
100
AcDbEntity
  8
0
  6
Continuous
 62
     7
370
    15
100
AcDbLine
 10
460.1053841645
 20
1096.0387408995
 30
0.0
 11
460.1053841645
 21
1096.7950493359
 31
0.0
  0
LINE
  5
1AB
330
1F
100
AcDbEntity
  8
0
  6
Continuous
 62
     7
370
    15
100
AcDbLine
 10
654.9053885276
 20
1096.7950493359
 30
0.0
 11
654.9053885276
 21
1096.0387408995
 31
0.0
  0
LINE
  5
1AC
330
1F
100
AcDbEntity
  8
0
  6
Continuous
 62
     7
370
    15
100
AcDbLine
 10
710.505383485
 20
1063.1144315266
 30
0.0
 11
710.505383485
 21
635.1144433283
 31
0.0
  0
LINE
  5
1AD
330
1F
100
AcDbEntity
  8
0
  6
Continuous
 62
     7
370
    15
100
AcDbLine
 10
670.5053843791
 20
595.1144218707
 30
0.0
 11
444.5053808624
 21
595.1144218707
 31
0.0
  0
LINE
  5
1AE
330
1F
100
AcDbEntity
  8
0
  6
Continuous
 62
     7
370
    15
100
AcDbLine
 10
444.5053808624
 20
1103.1144380831
 30
0.0
 11
670.5053843791
 21
1103.1144380831
 31
0.0
  0
LINE
  5
1AF
330
1F
100
AcDbEntity
  8
0
  6
Continuous
 62
     7
370
    15
100
AcDbLine
 10
404.5053892071
 20
635.1144433283
 30
0.0
 11
404.5053892071
 21
1063.1144315266
 31
0.0
  0
ARC
  5
1B0
330
1F
100
AcDbEntity
  8
0
  6
Continuous
 62
     7
370
    15
100
AcDbCircle
 10
670.5053876584
 20
635.1144342607
 30
0.0
 40
40.00000000000011
100
AcDbArc
 50
270.0
 51
0.0
  0
ARC
  5
1B1
330
1F
100
AcDbEntity
  8
0
  6
Continuous
 62
     7
370
    15
100
AcDbCircle
 10
444.5053876584
 20
1063.1144342607
 30
0.0
 40
40.0
100
AcDbArc
 50
90.0
 51
180.0
  0
ARC
  5
1B2
330
1F
100
AcDbEntity
  8
0
  6
Continuous
 62
     7
370
    15
100
AcDbCircle
 10
670.5053876584
 20
1063.1144342607
 30
0.0
 40
40.0
100
AcDbArc
 50
0.0
 51
90.0
  0
ARC
  5
1B3
330
1F
100
AcDbEntity
  8
0
  6
Continuous
 62
     7
370
    15
100
AcDbCircle
 10
444.5053876584
 20
635.1144342607
 30
0.0
 40
40.00000000000011
100
AcDbArc
 50
180.0
 51
270.0
  0
LINE
  5
1B4
330
1F
100
AcDbEntity
  8
0
  6
Continuous
 62
     7
370
    15
100
AcDbLine
 10
357.5258575613
 20
1233.5606038832
 30
0.0
 11
357.5258575613
 21
1229.3105840945
 31
0.0
  0
LINE
  5
1B5
330
1F
100
AcDbEntity
  8
0
  6
Continuous
 62
     7
370
    15
100
AcDbLine
 10
357.5258575613
 20
1233.5606038832
 30
0.0
 11
757.5258635218
 21
1233.5606038832
 31
0.0
  0
LINE
  5
1B6
330
1F
100
AcDbEntity
  8
0
  6
Continuous
 62
     7
370
    15
100
AcDbLine
 10
757.5258635218
 20
1233.5606038832
 30
0.0
 11
757.5258635218
 21
1229.3105840945
 31
0.0
  0
LINE
  5
1B7
330
1F
100
AcDbEntity
  8
0
  6
Continuous
 62
     7
370
    15
100
AcDbLine
 10
357.5258575613
 20
1229.3105840945
 30
0.0
 11
357.5258575613
 21
1162.8105908894
 31
0.0
  0
LINE
  5
1B8
330
1F
100
AcDbEntity
  8
0
  6
Continuous
 62
     7
370
    15
100
AcDbLine
 10
757.5258635218
 20
1229.3105840945
 30
0.0
 11
757.5258635218
 21
1162.8105908894
 31
0.0
  0
LINE
  5
1B9
330
1F
100
AcDbEntity
  8
0
  6
Continuous
 62
     7
370
    15
100
AcDbLine
 10
357.5258575613
 20
1158.560600903
 30
0.0
 11
406.0258589918
 21
1158.560600903
 31
0.0
  0
LINE
  5
1BA
330
1F
100
AcDbEntity
  8
0
  6
Continuous
 62
     7
370
    15
100
AcDbLine
 10
709.0258620912
 20
1158.560600903
 30
0.0
 11
757.5258635218
 21
1158.560600903
 31
0.0
  0
LINE
  5
1BB
330
1F
100
AcDbEntity
  8
0
  6
Continuous
 62
     7
370
    15
100
AcDbLine
 10
757.5258635218
 20
1162.8105908894
 30
0.0
 11
757.5258635218
 21
1158.560600903
 31
0.0
  0
LINE
  5
1BC
330
1F
100
AcDbEntity
  8
0
  6
Continuous
 62
     7
370
    15
100
AcDbLine
 10
357.5258575613
 20
1162.8105908894
 30
0.0
 11
357.5258575613
 21
1158.560600903
 31
0.0
  0
LINE
  5
1BD
330
1F
100
AcDbEntity
  8
0
  6
Continuous
 62
     7
370
    15
100
AcDbLine
 10
757.5258635218
 20
1158.560600903
 30
0.0
 11
757.5258635218
 21
1156.3106000685
 31
0.0
  0
LINE
  5
1BE
330
1F
100
AcDbEntity
  8
0
  6
Continuous
 62
     7
370
    15
100
AcDbLine
 10
357.5258575613
 20
1158.560600903
 30
0.0
 11
357.5258575613
 21
1156.3106000685
 31
0.0
  0
LINE
  5
1BF
330
1F
100
AcDbEntity
  8
0
  6
Continuous
 62
     7
370
    15
100
AcDbLine
 10
357.5258575613
 20
1156.3106000685
 30
0.0
 11
357.5258575613
 21
345.5606222414
 31
0.0
  0
LINE
  5
1C0
330
1F
100
AcDbEntity
  8
0
  6
Continuous
 62
     7
370
    15
100
AcDbLine
 10
757.5258635218
 20
1156.3106000685
 30
0.0
 11
757.5258635218
 21
345.5606222414
 31
0.0
  0
ARC
  5
1C1
330
1F
100
AcDbEntity
  8
0
  6
Continuous
 62
     7
370
    15
100
AcDbCircle
 10
690.025862069
 20
447.0605950815
 30
0.0
 40
40.00000000000008
100
AcDbArc
 50
270.0
 51
320.66669498
  0
ARC
  5
1C2
330
1F
100
AcDbEntity
  8
0
  6
Continuous
 62
     7
370
    15
100
AcDbCircle
 10
690.025862069
 20
447.0605950815
 30
0.0
 40
40.00000000000008
100
AcDbArc
 50
320.66669498
 51
0.0
  0
ARC
  5
1C3
330
1F
100
AcDbEntity
  8
0
  6
Continuous
 62
     7
370
    15
100
AcDbCircle
 10
425.025862069
 20
447.0605950815
 30
0.0
 40
40.00000000000008
100
AcDbArc
 50
180.0
 51
219.33330502
  0
ARC
  5
1C4
330
1F
100
AcDbEntity
  8
0
  6
Continuous
 62
     7
370
    15
100
AcDbCircle
 10
425.025862069
 20
447.0605950815
 30
0.0
 40
40.00000000000008
100
AcDbArc
 50
219.33330502
 51
270.0
  0
ARC
  5
1C5
330
1F
100
AcDbEntity
  8
0
  6
Continuous
 62
     7
370
    15
100
AcDbCircle
 10
690.025862069
 20
1081.0605950815
 30
0.0
 40
40.00000000000009
100
AcDbArc
 50
0.0
 51
61.6406499709
  0
LINE
  5
1C6
330
1F
100
AcDbEntity
  8
0
  6
Continuous
 62
     7
370
    15
100
AcDbLine
 10
385.0258611376
 20
1081.0606003069
 30
0.0
 11
385.0258611376
 21
447.0605969691
 31
0.0
  0
LINE
  5
1C7
330
1F
100
AcDbEntity
  8
0
  6
Continuous
 62
     7
370
    15
100
AcDbLine
 10
730.0258599455
 20
1081.0606003069
 30
0.0
 11
730.0258599455
 21
447.0605969691
 31
0.0
  0
LINE
  5
1C8
330
1F
100
AcDbEntity
  8
0
  6
Continuous
 62
     7
370
    15
100
AcDbLine
 10
425.0258676941
 20
407.0605755114
 30
0.0
 11
690.0258608395
 21
407.0605755114
 31
0.0
  0
ARC
  5
1C9
330
1F
100
AcDbEntity
  8
0
  6
Continuous
 62
     7
370
    15
100
AcDbCircle
 10
425.025862069
 20
1081.0605950815
 30
0.0
 40
40.00000000000009
100
AcDbArc
 50
118.3593500272
 51
180.0
  0
LINE
  5
1CA
330
1F
100
AcDbEntity
  8
0
  6
Continuous
 62
     7
370
    15
100
AcDbLine
 10
757.5258635218
 20
345.5606222414
 30
0.0
 11
757.5258635218
 21
333.5605979227
 31
0.0
  0
LINE
  5
1CB
330
1F
100
AcDbEntity
  8
0
  6
Continuous
 62
     7
370
    15
100
AcDbLine
 10
357.5258575613
 20
345.5606222414
 30
0.0
 11
357.5258575613
 21
333.5605979227
 31
0.0
  0
ELLIPSE
  5
1CC
330
1F
100
AcDbEntity
  8
0
  6
Continuous
 62
     7
370
    15
100
AcDbEllipse
 10
395.0463364795
 20
518.3844993299
 30
0.0
 11
8.999999764729637
 21
-0.05718481864482784
 31
0.0
210
0.0
220
0.0
230
1.0
 40
0.0359864627
 41
3.316354232053558
 42
4.712617633646822
  0
ELLIPSE
  5
1CD
330
1F
100
AcDbEntity
  8
0
  6
Continuous
 62
     7
370
    15
100
AcDbEllipse
 10
396.6332793058
 20
643.2594993299
 30
0.0
 11
1.591058419013166
 21
125.1988520140709
 31
0.0
210
0.0
220
0.0
230
1.0
 40
0.0718798391
 41
3.142049960114261
 42
3.142506120363247
  0
ELLIPSE
  5
1CE
330
1F
100
AcDbEntity
  8
0
  6
Continuous
 62
     7
370
    15
100
AcDbEllipse
 10
718.4184448321
 20
643.2594993299
 30
0.0
 11
-1.591058419013052
 21
125.1988520140708
 31
0.0
210
0.0
220
0.0
230
1.0
 40
0.0718798391
 41
3.140679186816552
 42
3.141135347065532
  0
ELLIPSE
  5
1CF
330
1F
100
AcDbEntity
  8
0
  6
Continuous
 62
     7
370
    15
100
AcDbEllipse
 10
720.0053876584
 20
518.3844993299
 30
0.0
 11
8.999999764729637
 21
0.05718481864482784
 31
0.0
210
0.0
220
0.0
230
1.0
 40
0.0359864627
 41
4.712160327122552
 42
6.108423728718301
  0
LINE
  5
1D0
330
1F
100
AcDbEntity
  8
0
  6
Continuous
 62
     7
370
    15
100
AcDbLine
 10
395.0504385168
 20
518.0606067442
 30
0.0
 11
720.0012825662
 21
518.0606067442
 31
0.0
  0
LINE
  5
1D1
330
1F
100
AcDbEntity
  8
0
  6
Continuous
 62
     7
370
    15
100
AcDbLine
 10
660.0509308512
 20
1106.1144292616
 30
0.0
 11
454.9598418409
 21
1106.1144292616
 31
0.0
  0
ARC
  5
1D2
330
1F
100
AcDbEntity
  8
0
  6
Continuous
 62
     7
370
    15
100
AcDbCircle
 10
445.525862069
 20
1062.1144342607
 30
0.0
 40
45.00000000000002
100
AcDbArc
 50
77.8985079682
 51
192.1014920318
  0
LINE
  5
1D3
330
1F
100
AcDbEntity
  8
0
  6
Continuous
 62
     7
370
    15
100
AcDbLine
 10
401.5258573229
 20
1052.6804521942
 30
0.0
 11
401.5258573229
 21
645.5484152102
 31
0.0
  0
ARC
  5
1D4
330
1F
100
AcDbEntity
  8
0
  6
Continuous
 62
     7
370
    15
100
AcDbCircle
 10
669.4849132479
 20
636.1144342607
 30
0.0
 40
45.00000000000016
100
AcDbArc
 50
257.8985079682
 51
12.1014920318
  0
LINE
  5
1D5
330
1F
100
AcDbEntity
  8
0
  6
Continuous
 62
     7
370
    15
100
AcDbLine
 10
713.4849153692
 20
645.5484152102
 30
0.0
 11
713.4849153692
 21
1052.6804521942
 31
0.0
  0
ARC
  5
1D6
330
1F
100
AcDbEntity
  8
0
  6
Continuous
 62
     7
370
    15
100
AcDbCircle
 10
669.4849132479
 20
1062.1144342607
 30
0.0
 40
45.00000000000001
100
AcDbArc
 50
347.8985079682
 51
102.1014920318
  0
ARC
  5
1D7
330
1F
100
AcDbEntity
  8
0
  6
Continuous
 62
     7
370
    15
100
AcDbCircle
 10
445.525862069
 20
636.1144342607
 30
0.0
 40
45.00000000000007
100
AcDbArc
 50
167.8985079682
 51
282.1014920318
  0
LINE
  5
1D8
330
1F
100
AcDbEntity
  8
0
  6
Continuous
 62
     7
370
    15
100
AcDbLine
 10
454.9598418409
 20
592.1144306921
 30
0.0
 11
660.0509308512
 21
592.1144306921
 31
0.0
  0
CIRCLE
  5
1D9
330
1F
100
AcDbEntity
  8
0
  6
Continuous
 62
     7
370
    15
100
AcDbCircle
 10
367.525862069
 20
1196.0589880257
 30
0.0
 40
9.4999999999999
  0
CIRCLE
  5
1DA
330
1F
100
AcDbEntity
  8
0
  6
Continuous
 62
     7
370
    15
100
AcDbCircle
 10
747.525862069
 20
1196.0589880257
 30
0.0
 40
9.5
  0
LINE
  5
1DB
330
1F
100
AcDbEntity
  8
0
  6
Continuous
 62
     7
370
    15
100
AcDbLine
 10
757.5258635218
 20
333.4788203501
 30
0.0
 11
757.5258635218
 21
333.5605979227
 31
0.0
  0
LINE
  5
1DC
330
1F
100
AcDbEntity
  8
0
  6
Continuous
 62
     7
370
    15
100
AcDbLine
 10
357.5258575613
 20
333.4788203501
 30
0.0
 11
357.5258575613
 21
333.5605979227
 31
0.0
  0
LINE
  5
1DD
330
1F
100
AcDbEntity
  8
0
  6
Continuous
 62
     7
370
    15
100
AcDbLine
 10
597.5258615101
 20
1224.8141289019
 30
0.0
 11
597.5258615101
 21
1225.3141224646
 31
0.0
  0
LINE
  5
1DE
330
1F
100
AcDbEntity
  8
0
  6
Continuous
 62
     7
370
    15
100
AcDbLine
 10
517.5258614356
 20
1224.8141289019
 30
0.0
 11
517.5258614356
 21
1225.3141224646
 31
0.0
  0
LINE
  5
1DF
330
1F
100
AcDbEntity
  8
0
  6
Continuous
 62
     7
370
    15
100
AcDbLine
 10
705.5258624489
 20
1226.1141062045
 30
0.0
 11
409.5258586342
 21
1226.1141062045
 31
0.0
  0
LINE
  5
1E0
330
1F
100
AcDbEntity
  8
0
  6
Continuous
 62
     7
370
    15
100
AcDbLine
 10
705.5258624489
 20
1225.3141224646
 30
0.0
 11
409.5258586342
 21
1225.3141224646
 31
0.0
  0
LINE
  5
1E1
330
1F
100
AcDbEntity
  8
0
  6
Continuous
 62
     7
370
    15
100
AcDbLine
 10
707.525866502
 20
1226.1141062045
 30
0.0
 11
707.525866502
 21
1225.3141224646
 31
0.0
  0
LINE
  5
1E2
330
1F
100
AcDbEntity
  8
0
  6
Continuous
 62
     7
370
    15
100
AcDbLine
 10
705.5258624489
 20
1226.1141062045
 30
0.0
 11
707.525866502
 21
1226.1141062045
 31
0.0
  0
LINE
  5
1E3
330
1F
100
AcDbEntity
  8
0
  6
Continuous
 62
     7
370
    15
100
AcDbLine
 10
707.525866502
 20
1225.3141224646
 30
0.0
 11
705.5258624489
 21
1225.3141224646
 31
0.0
  0
LINE
  5
1E4
330
1F
100
AcDbEntity
  8
0
  6
Continuous
 62
     7
370
    15
100
AcDbLine
 10
407.5258694822
 20
1225.3141224646
 30
0.0
 11
407.5258694822
 21
1226.1141062045
 31
0.0
  0
LINE
  5
1E5
330
1F
100
AcDbEntity
  8
0
  6
Continuous
 62
     7
370
    15
100
AcDbLine
 10
407.5258694822
 20
1226.1141062045
 30
0.0
 11
409.5258586342
 21
1226.1141062045
 31
0.0
  0
LINE
  5
1E6
330
1F
100
AcDbEntity
  8
0
  6
Continuous
 62
     7
370
    15
100
AcDbLine
 10
409.5258586342
 20
1225.3141224646
 30
0.0
 11
407.5258694822
 21
1225.3141224646
 31
0.0
  0
LINE
  5
1E7
330
1F
100
AcDbEntity
  8
0
  6
Continuous
 62
     7
370
    15
100
AcDbLine
 10
412.4899678165
 20
1193.5141206049
 30
0.0
 11
437.5617675716
 21
1193.5141206049
 31
0.0
  0
LINE
  5
1E8
330
1F
100
AcDbEntity
  8
0
  6
Continuous
 62
     7
370
    15
100
AcDbLine
 10
410.757916444
 20
1191.5141165518
 30
0.0
 11
439.293804043
 21
1191.5141165518
 31
0.0
  0
ARC
  5
1E9
330
1F
100
AcDbEntity
  8
0
  6
Continuous
 62
     7
370
    15
100
AcDbCircle
 10
410.7579128765
 20
1192.5141146039
 30
0.0
 40
1.0
100
AcDbArc
 50
150.0
 51
270.0
  0
ARC
  5
1EA
330
1F
100
AcDbEntity
  8
0
  6
Continuous
 62
     7
370
    15
100
AcDbCircle
 10
439.2938112614
 20
1192.5141146039
 30
0.0
 40
1.000000000000033
100
AcDbArc
 50
270.0
 51
30.0
  0
LINE
  5
1EB
330
1F
100
AcDbEntity
  8
0
  6
Continuous
 62
     7
370
    15
100
AcDbLine
 10
424.1598420078
 20
1217.7269280219
 30
0.0
 11
409.8918907577
 21
1193.0141121411
 31
0.0
  0
LINE
  5
1EC
330
1F
100
AcDbEntity
  8
0
  6
Continuous
 62
     7
370
    15
100
AcDbLine
 10
437.5617675716
 20
1193.5141206049
 30
0.0
 11
425.0258676941
 21
1215.226930406
 31
0.0
  0
LINE
  5
1ED
330
1F
100
AcDbEntity
  8
0
  6
Continuous
 62
     7
370
    15
100
AcDbLine
 10
440.1598297293
 20
1193.0141121411
 30
0.0
 11
425.8918933803
 21
1217.7269280219
 31
0.0
  0
ARC
  5
1EE
330
1F
100
AcDbEntity
  8
0
  6
Continuous
 62
     7
370
    15
100
AcDbCircle
 10
425.025862069
 20
1217.226927525
 30
0.0
 40
1.000000000000033
100
AcDbArc
 50
30.0
 51
150.0
  0
LINE
  5
1EF
330
1F
100
AcDbEntity
  8
0
  6
Continuous
 62
     7
370
    15
100
AcDbLine
 10
425.0258676941
 20
1215.226930406
 30
0.0
 11
412.4899678165
 21
1193.5141206049
 31
0.0
  0
LINE
  5
1F0
330
1F
100
AcDbEntity
  8
0
  6
Continuous
 62
     7
370
    15
100
AcDbLine
 10
407.5258694822
 20
1187.5141084456
 30
0.0
 11
442.5258659059
 21
1187.5141084456
 31
0.0
  0
LINE
  5
1F1
330
1F
100
AcDbEntity
  8
0
  6
Continuous
 62
     7
370
    15
100
AcDbLine
 10
407.5258694822
 20
1222.5141048693
 30
0.0
 11
407.5258694822
 21
1187.5141084456
 31
0.0
  0
LINE
  5
1F2
330
1F
100
AcDbEntity
  8
0
  6
Continuous
 62
     7
370
    15
100
AcDbLine
 10
442.5258659059
 20
1222.5141048693
 30
0.0
 11
407.5258694822
 21
1222.5141048693
 31
0.0
  0
LINE
  5
1F3
330
1F
100
AcDbEntity
  8
0
  6
Continuous
 62
     7
370
    15
100
AcDbLine
 10
442.5258659059
 20
1187.5141084456
 30
0.0
 11
442.5258659059
 21
1222.5141048693
 31
0.0
  0
LINE
  5
1F4
330
1F
100
AcDbEntity
  8
0
  6
Continuous
 62
     7
370
    15
100
AcDbLine
 10
419.0258555347
 20
1195.5141097569
 30
0.0
 11
431.0258649523
 21
1195.5141097569
 31
0.0
  0
LINE
  5
1F5
330
1F
100
AcDbEntity
  8
0
  6
Continuous
 62
     7
370
    15
100
AcDbLine
 10
431.0258649523
 20
1195.5141097569
 30
0.0
 11
431.0258649523
 21
1196.5141117834
 31
0.0
  0
LINE
  5
1F6
330
1F
100
AcDbEntity
  8
0
  6
Continuous
 62
     7
370
    15
100
AcDbLine
 10
431.0258649523
 20
1196.5141117834
 30
0.0
 11
419.0258555347
 21
1196.5141117834
 31
0.0
  0
LINE
  5
1F7
330
1F
100
AcDbEntity
  8
0
  6
Continuous
 62
     7
370
    15
100
AcDbLine
 10
419.0258555347
 20
1196.5141117834
 30
0.0
 11
419.0258555347
 21
1195.5141097569
 31
0.0
  0
LINE
  5
1F8
330
1F
100
AcDbEntity
  8
0
  6
Continuous
 62
     7
370
    15
100
AcDbLine
 10
428.2048367197
 20
1208.1543624663
 30
0.0
 11
427.4804316694
 21
1208.8437199854
 31
0.0
  0
SPLINE
  5
1F9
330
1F
100
AcDbEntity
  8
0
  6
Continuous
 62
     7
370
    15
100
AcDbSpline
210
0.0
220
0.0
230
1.0
 70
     8
 71
     3
 72
    16
 73
    12
 74
     0
 42
0.00000001
 43
0.00000001
 12
1.0
 22
0.0
 32
0.0
 13
1.0
 23
0.0
 33
0.0
 40
0.0
 40
0.0
 40
0.0
 40
0.0
 40
0.1748429273622865
 40
0.3268359750596914
 40
0.4652173625601984
 40
0.5935865498034885
 40
0.7092185678445955
 40
0.8069150513054993
 40
0.8641083189374745
 40
0.9241590402924194
 40
0.9999999999999999
 40
0.9999999999999999
 40
0.9999999999999999
 40
0.9999999999999999
 10
427.480431669413
 20
1208.843719985429
 30
0.0
 10
427.0433140531213
 20
1208.29641480459
 30
0.0
 10
426.226204865511
 20
1207.273330684842
 30
0.0
 10
425.9191991090702
 20
1205.392029126225
 30
0.0
 10
426.1977785702273
 20
1203.752703373666
 30
0.0
 10
426.685870537756
 20
1202.323094922037
 30
0.0
 10
427.1311540467357
 20
1201.05264255743
 30
0.0
 10
427.3465711958825
 20
1199.995472969983
 30
0.0
 10
427.2808103611553
 20
1199.141784295354
 30
0.0
 10
427.0075110062796
 20
1198.415971157747
 30
0.0
 10
426.6629522484561
 20
1198.000920495971
 30
0.0
 10
426.4706544811119
 20
1197.76928129429
 30
0.0
  0
LINE
  5
1FA
330
1F
100
AcDbEntity
  8
0
  6
Continuous
 62
     7
370
    15
100
AcDbLine
 10
426.4706544811
 20
1197.7692812943
 30
0.0
 11
427.2048346931
 21
1197.0903396868
 31
0.0
  0
SPLINE
  5
1FB
330
1F
100
AcDbEntity
  8
0
  6
Continuous
 62
     7
370
    15
100
AcDbSpline
210
0.0
220
0.0
230
1.0
 70
     8
 71
     3
 72
    17
 73
    13
 74
     0
 42
0.00000001
 43
0.00000001
 12
1.0
 22
0.0
 32
0.0
 13
1.0
 23
0.0
 33
0.0
 40
0.0
 40
0.0
 40
0.0
 40
0.0
 40
0.0970854214035885
 40
0.1804052736719299
 40
0.25834460725766
 40
0.375810336119582
 40
0.4973761792983963
 40
0.6189530693722574
 40
0.7367454057691732
 40
0.8154949585275968
 40
0.9004154747931418
 40
1.0
 40
1.0
 40
1.0
 40
1.0
 10
427.2048346931327
 20
1197.090339686815
 30
0.0
 10
427.4496777358979
 20
1197.387843230066
 30
0.0
 10
427.904647962098
 20
1197.940667818583
 30
0.0
 10
428.265249387539
 20
1198.913776549469
 30
0.0
 10
428.357513060709
 20
1200.019718419047
 30
0.0
 10
428.1164958772431
 20
1201.260665221934
 30
0.0
 10
427.6480468879492
 20
1202.602957315869
 30
0.0
 10
427.1855067526142
 20
1203.949053675676
 30
0.0
 10
426.9635779099594
 20
1205.199361001401
 30
0.0
 10
427.0833043427382
 20
1206.314087174946
 30
0.0
 10
427.4744998691779
 20
1207.295921218802
 30
0.0
 10
427.9488250352435
 20
1207.853445170909
 30
0.0
 10
428.2048367196907
 20
1208.15436246628
 30
0.0
  0
LINE
  5
1FC
330
1F
100
AcDbEntity
  8
0
  6
Continuous
 62
     7
370
    15
100
AcDbLine
 10
423.5805891687
 20
1208.1543624663
 30
0.0
 11
422.8561841184
 21
1208.8437199854
 31
0.0
  0
SPLINE
  5
1FD
330
1F
100
AcDbEntity
  8
0
  6
Continuous
 62
     7
370
    15
100
AcDbSpline
210
0.0
220
0.0
230
1.0
 70
     8
 71
     3
 72
    16
 73
    12
 74
     0
 42
0.00000001
 43
0.00000001
 12
1.0
 22
0.0
 32
0.0
 13
1.0
 23
0.0
 33
0.0
 40
0.0
 40
0.0
 40
0.0
 40
0.0
 40
0.1748428830831276
 40
0.3268358922881302
 40
0.4652172447434024
 40
0.5935860218740122
 40
0.7092180106311867
 40
0.8069144693503515
 40
0.8641076105826
 40
0.9241583167296352
 40
0.9999999999999999
 40
0.9999999999999999
 40
0.9999999999999999
 40
0.9999999999999999
 10
422.8561841184486
 20
1208.843719985429
 30
0.0
 10
422.4190666877997
 20
1208.296414858572
 30
0.0
 10
421.6019578472134
 20
1207.273330839732
 30
0.0
 10
421.2949498146683
 20
1205.392028619263
 30
0.0
 10
421.5735365026508
 20
1203.752706519457
 30
0.0
 10
422.0616029879316
 20
1202.323092210745
 30
0.0
 10
422.5068961482583
 20
1201.052642585408
 30
0.0
 10
422.7222992866735
 20
1199.995474069211
 30
0.0
 10
422.6565675424425
 20
1199.141783712959
 30
0.0
 10
422.3832624484252
 20
1198.415967174253
 30
0.0
 10
422.0386953072988
 20
1198.000919712524
 30
0.0
 10
421.8463920289863
 20
1197.76928129429
 30
0.0
  0
LINE
  5
1FE
330
1F
100
AcDbEntity
  8
0
  6
Continuous
 62
     7
370
    15
100
AcDbLine
 10
421.846392029
 20
1197.7692812943
 30
0.0
 11
422.5805871422
 21
1197.0903396868
 31
0.0
  0
SPLINE
  5
1FF
330
1F
100
AcDbEntity
  8
0
  6
Continuous
 62
     7
370
    15
100
AcDbSpline
210
0.0
220
0.0
230
1.0
 70
     8
 71
     3
 72
    17
 73
    13
 74
     0
 42
0.00000001
 43
0.00000001
 12
1.0
 22
0.0
 32
0.0
 13
1.0
 23
0.0
 33
0.0
 40
0.0
 40
0.0
 40
0.0
 40
0.0
 40
0.0970846644602341
 40
0.1804049450258463
 40
0.2583442654465907
 40
0.3758101755524504
 40
0.4973756136132303
 40
0.6189524831511445
 40
0.7367449813076571
 40
0.8154945207642381
 40
0.9004154916142871
 40
1.0
 40
1.0
 40
1.0
 40
1.0
 10
422.5805871421684
 20
1197.090339686815
 30
0.0
 10
422.8254222641364
 20
1197.387844787068
 30
0.0
 10
423.2803804901816
 20
1197.940675571976
 30
0.0
 10
423.6410052510598
 20
1198.913772732762
 30
0.0
 10
423.7332677924074
 20
1200.019720774353
 30
0.0
 10
423.4922243225921
 20
1201.260660309776
 30
0.0
 10
423.0238038316455
 20
1202.602960394438
 30
0.0
 10
422.561262619446
 20
1203.949054912237
 30
0.0
 10
422.3393138779265
 20
1205.199359222325
 30
0.0
 10
422.4590388900544
 20
1206.314090725829
 30
0.0
 10
422.8502563004711
 20
1207.295917571528
 30
0.0
 10
423.324579302796
 20
1207.853444389103
 30
0.0
 10
423.5805891687263
 20
1208.15436246628
 30
0.0
  0
LINE
  5
200
330
1F
100
AcDbEntity
  8
0
  6
Continuous
 62
     7
370
    15
100
AcDbLine
 10
426.0258548195
 20
1208.1543624663
 30
0.0
 11
425.3014497692
 21
1208.8437199854
 31
0.0
  0
SPLINE
  5
201
330
1F
100
AcDbEntity
  8
0
  6
Continuous
 62
     7
370
    15
100
AcDbSpline
210
0.0
220
0.0
230
1.0
 70
     8
 71
     3
 72
    16
 73
    12
 74
     0
 42
0.00000001
 43
0.00000001
 12
1.0
 22
0.0
 32
0.0
 13
1.0
 23
0.0
 33
0.0
 40
0.0
 40
0.0
 40
0.0
 40
0.0
 40
0.1748429098616132
 40
0.3268359423454735
 40
0.4652174948791915
 40
0.5935862916704325
 40
0.7092182981375045
 40
0.8069147718196069
 40
0.864108033726897
 40
0.9241583051139184
 40
0.9999999999999999
 40
0.9999999999999999
 40
0.9999999999999999
 40
0.9999999999999999
 10
425.3014497691978
 20
1208.843719985429
 30
0.0
 10
424.864332947659
 20
1208.296414950109
 30
0.0
 10
424.0472252456896
 20
1207.273331102379
 30
0.0
 10
423.7402096269923
 20
1205.392027036217
 30
0.0
 10
424.0188213119694
 20
1203.752707956659
 30
0.0
 10
424.5068838160519
 20
1202.323091848679
 30
0.0
 10
424.9521725266688
 20
1201.052643235568
 30
0.0
 10
425.1675912528351
 20
1199.995472047899
 30
0.0
 10
425.1018241566684
 20
1199.141787917086
 30
0.0
 10
424.8285495832137
 20
1198.415963392602
 30
0.0
 10
424.4839786203718
 20
1198.000918843653
 30
0.0
 10
424.2916725808967
 20
1197.76928129429
 30
0.0
  0
LINE
  5
202
330
1F
100
AcDbEntity
  8
0
  6
Continuous
 62
     7
370
    15
100
AcDbLine
 10
424.2916725809
 20
1197.7692812943
 30
0.0
 11
425.0258676941
 21
1197.0903396868
 31
0.0
  0
SPLINE
  5
203
330
1F
100
AcDbEntity
  8
0
  6
Continuous
 62
     7
370
    15
100
AcDbSpline
210
0.0
220
0.0
230
1.0
 70
     8
 71
     3
 72
    17
 73
    13
 74
     0
 42
0.00000001
 43
0.00000001
 12
1.0
 22
0.0
 32
0.0
 13
1.0
 23
0.0
 33
0.0
 40
0.0
 40
0.0
 40
0.0
 40
0.0
 40
0.0970847533494917
 40
0.1804046678303964
 40
0.2583440596112095
 40
0.3758098761814495
 40
0.4973754255457148
 40
0.6189527848553551
 40
0.7367452092044573
 40
0.8154948207629314
 40
0.90041540043621
 40
1.0
 40
1.0
 40
1.0
 40
1.0
 10
425.0258676940788
 20
1197.090339686815
 30
0.0
 10
425.2707046492703
 20
1197.387844049722
 30
0.0
 10
425.7256651662416
 20
1197.940672108884
 30
0.0
 10
426.0862677066426
 20
1198.913776134401
 30
0.0
 10
426.1785319882466
 20
1200.019718882568
 30
0.0
 10
425.9375082289041
 20
1201.260661723152
 30
0.0
 10
425.469088926313
 20
1202.602963363716
 30
0.0
 10
425.0065189959419
 20
1203.949050249038
 30
0.0
 10
424.7845970386016
 20
1205.199361327379
 30
0.0
 10
424.9043221965841
 20
1206.314087097024
 30
0.0
 10
425.2955180452477
 20
1207.295921242972
 30
0.0
 10
425.7698431617694
 20
1207.853445179382
 30
0.0
 10
426.0258548194755
 20
1208.15436246628
 30
0.0
  0
LINE
  5
204
330
1F
100
AcDbEntity
  8
0
  6
Continuous
 62
     7
370
    15
100
AcDbLine
 10
709.0258620912
 20
1222.5385427737
 30
0.0
 11
707.525866502
 21
1222.5385427737
 31
0.0
  0
LINE
  5
205
330
1F
100
AcDbEntity
  8
0
  6
Continuous
 62
     7
370
    15
100
AcDbLine
 10
709.0258620912
 20
1122.5385487341
 30
0.0
 11
707.525866502
 21
1122.5385487341
 31
0.0
  0
LINE
  5
206
330
1F
100
AcDbEntity
  8
0
  6
Continuous
 62
     7
370
    15
100
AcDbLine
 10
709.0258620912
 20
1122.5385487341
 30
0.0
 11
709.0258620912
 21
1222.5385427737
 31
0.0
  0
LINE
  5
207
330
1F
100
AcDbEntity
  8
0
  6
Continuous
 62
     7
370
    15
100
AcDbLine
 10
709.0258620912
 20
1111.2141132616
 30
0.0
 11
709.0258620912
 21
1122.5385487341
 31
0.0
  0
LINE
  5
208
330
1F
100
AcDbEntity
  8
0
  6
Continuous
 62
     7
370
    15
100
AcDbLine
 10
709.0258620912
 20
1222.5385427737
 30
0.0
 11
709.0258620912
 21
1224.0392685198
 31
0.0
  0
LINE
  5
209
330
1F
100
AcDbEntity
  8
0
  6
Continuous
 62
     7
370
    15
100
AcDbLine
 10
709.0258620912
 20
1224.8269737029
 30
0.0
 11
707.525866502
 21
1224.8269737029
 31
0.0
  0
LINE
  5
20A
330
1F
100
AcDbEntity
  8
0
  6
Continuous
 62
     7
370
    15
100
AcDbLine
 10
709.0258620912
 20
1224.0392685198
 30
0.0
 11
709.0258620912
 21
1224.8269737029
 31
0.0
  0
LINE
  5
20B
330
1F
100
AcDbEntity
  8
0
  6
Continuous
 62
     7
370
    15
100
AcDbLine
 10
707.525866502
 20
1224.8141289019
 30
0.0
 11
707.525866502
 21
1224.8269737029
 31
0.0
  0
LINE
  5
20C
330
1F
100
AcDbEntity
  8
0
  6
Continuous
 62
     7
370
    15
100
AcDbLine
 10
406.0258589918
 20
1122.5385487341
 30
0.0
 11
407.5258694822
 21
1122.5385487341
 31
0.0
  0
LINE
  5
20D
330
1F
100
AcDbEntity
  8
0
  6
Continuous
 62
     7
370
    15
100
AcDbLine
 10
406.0258589918
 20
1222.5385427737
 30
0.0
 11
407.5258694822
 21
1222.5385427737
 31
0.0
  0
LINE
  5
20E
330
1F
100
AcDbEntity
  8
0
  6
Continuous
 62
     7
370
    15
100
AcDbLine
 10
406.0258589918
 20
1122.5385487341
 30
0.0
 11
406.0258589918
 21
1222.5385427737
 31
0.0
  0
LINE
  5
20F
330
1F
100
AcDbEntity
  8
0
  6
Continuous
 62
     7
370
    15
100
AcDbLine
 10
406.0258589918
 20
1111.2141132616
 30
0.0
 11
406.0258589918
 21
1122.5385487341
 31
0.0
  0
LINE
  5
210
330
1F
100
AcDbEntity
  8
0
  6
Continuous
 62
     7
370
    15
100
AcDbLine
 10
406.0258589918
 20
1222.5385427737
 30
0.0
 11
406.0258589918
 21
1224.0392685198
 31
0.0
  0
LINE
  5
211
330
1F
100
AcDbEntity
  8
0
  6
Continuous
 62
     7
370
    15
100
AcDbLine
 10
406.0258589918
 20
1224.8269737029
 30
0.0
 11
407.5258694822
 21
1224.8269737029
 31
0.0
  0
LINE
  5
212
330
1F
100
AcDbEntity
  8
0
  6
Continuous
 62
     7
370
    15
100
AcDbLine
 10
406.0258589918
 20
1224.0392685198
 30
0.0
 11
406.0258589918
 21
1224.8269737029
 31
0.0
  0
LINE
  5
213
330
1F
100
AcDbEntity
  8
0
  6
Continuous
 62
     7
370
    15
100
AcDbLine
 10
407.5258694822
 20
1224.8141289019
 30
0.0
 11
407.5258694822
 21
1224.8269737029
 31
0.0
  0
LINE
  5
214
330
1F
100
AcDbEntity
  8
0
  6
Continuous
 62
     7
370
    15
100
AcDbLine
 10
707.525866502
 20
1110.4141146206
 30
0.0
 11
707.525866502
 21
1123.214107778
 31
0.0
  0
LINE
  5
215
330
1F
100
AcDbEntity
  8
0
  6
Continuous
 62
     7
370
    15
100
AcDbLine
 10
407.5258694822
 20
1110.4141146206
 30
0.0
 11
407.5258694822
 21
1123.214107778
 31
0.0
  0
LINE
  5
216
330
1F
100
AcDbEntity
  8
0
  6
Continuous
 62
     7
370
    15
100
AcDbLine
 10
407.5258694822
 20
1123.214107778
 30
0.0
 11
407.5258694822
 21
1187.5141084456
 31
0.0
  0
LINE
  5
217
330
1F
100
AcDbEntity
  8
0
  6
Continuous
 62
     7
370
    15
100
AcDbLine
 10
707.525866502
 20
1123.214107778
 30
0.0
 11
707.525866502
 21
1222.5141048693
 31
0.0
  0
LINE
  5
218
330
1F
100
AcDbEntity
  8
0
  6
Continuous
 62
     7
370
    15
100
AcDbLine
 10
407.5258694822
 20
1222.5141048693
 30
0.0
 11
407.5258694822
 21
1224.8141289019
 31
0.0
  0
LINE
  5
219
330
1F
100
AcDbEntity
  8
0
  6
Continuous
 62
     7
370
    15
100
AcDbLine
 10
707.525866502
 20
1224.8141289019
 30
0.0
 11
407.5258694822
 21
1224.8141289019
 31
0.0
  0
LINE
  5
21A
330
1F
100
AcDbEntity
  8
0
  6
Continuous
 62
     7
370
    15
100
AcDbLine
 10
707.525866502
 20
1224.8141289019
 30
0.0
 11
707.525866502
 21
1222.5141048693
 31
0.0
  0
LINE
  5
21B
330
1F
100
AcDbEntity
  8
0
  6
Continuous
 62
     7
370
    15
100
AcDbLine
 10
532.5258620316
 20
1226.2141227984
 30
0.0
 11
532.5258620316
 21
1226.1141062045
 31
0.0
  0
LINE
  5
21C
330
1F
100
AcDbEntity
  8
0
  6
Continuous
 62
     7
370
    15
100
AcDbLine
 10
532.5258620316
 20
1226.2141227984
 30
0.0
 11
582.5258618454
 21
1226.2141227984
 31
0.0
  0
LINE
  5
21D
330
1F
100
AcDbEntity
  8
0
  6
Continuous
 62
     7
370
    15
100
AcDbLine
 10
582.5258618454
 20
1226.2141227984
 30
0.0
 11
582.5258618454
 21
1226.1141062045
 31
0.0
  0
LINE
  5
21E
330
1F
100
AcDbEntity
  8
0
  6
Continuous
 62
     7
370
    15
100
AcDbLine
 10
544.5928484434
 20
1226.31410959
 30
0.0
 11
545.4588741297
 21
1226.31410959
 31
0.0
  0
LINE
  5
21F
330
1F
100
AcDbEntity
  8
0
  6
Continuous
 62
     7
370
    15
100
AcDbLine
 10
569.5928492816
 20
1226.31410959
 30
0.0
 11
570.4588749679
 21
1226.31410959
 31
0.0
  0
LINE
  5
220
330
1F
100
AcDbEntity
  8
0
  6
Continuous
 62
     7
370
    15
100
AcDbLine
 10
558.3345186198
 20
1226.31410959
 30
0.0
 11
569.5928492816
 21
1226.31410959
 31
0.0
  0
LINE
  5
221
330
1F
100
AcDbEntity
  8
0
  6
Continuous
 62
     7
370
    15
100
AcDbLine
 10
570.4588749679
 20
1226.31410959
 30
0.0
 11
581.717205164
 21
1226.31410959
 31
0.0
  0
LINE
  5
222
330
1F
100
AcDbEntity
  8
0
  6
Continuous
 62
     7
370
    15
100
AcDbLine
 10
533.3345182473
 20
1226.31410959
 30
0.0
 11
544.5928484434
 21
1226.31410959
 31
0.0
  0
LINE
  5
223
330
1F
100
AcDbEntity
  8
0
  6
Continuous
 62
     7
370
    15
100
AcDbLine
 10
545.4588741297
 20
1226.31410959
 30
0.0
 11
556.7172043259
 21
1226.31410959
 31
0.0
  0
LINE
  5
224
330
1F
100
AcDbEntity
  8
0
  6
Continuous
 62
     7
370
    15
100
AcDbLine
 10
581.717205164
 20
1226.31410959
 30
0.0
 11
581.7841924029
 21
1226.31410959
 31
0.0
  0
LINE
  5
225
330
1F
100
AcDbEntity
  8
0
  6
Continuous
 62
     7
370
    15
100
AcDbLine
 10
558.2675323123
 20
1226.31410959
 30
0.0
 11
558.3345186198
 21
1226.31410959
 31
0.0
  0
LINE
  5
226
330
1F
100
AcDbEntity
  8
0
  6
Continuous
 62
     7
370
    15
100
AcDbLine
 10
556.7172043259
 20
1226.31410959
 30
0.0
 11
556.784192496
 21
1226.31410959
 31
0.0
  0
LINE
  5
227
330
1F
100
AcDbEntity
  8
0
  6
Continuous
 62
     7
370
    15
100
AcDbLine
 10
533.2675300772
 20
1226.31410959
 30
0.0
 11
533.3345182473
 21
1226.31410959
 31
0.0
  0
ENDSEC
  0
SECTION
  2
OBJECTS
  0
DICTIONARY
  5
C
330
0
100
AcDbDictionary
281
     1
  3
ACAD_GROUP
350
D
  3
ACAD_LAYOUT
350
1A
  3
ACAD_MLINESTYLE
350
17
  3
ACAD_PLOTSETTINGS
350
19
  3
ACAD_PLOTSTYLENAME
350
E
  0
DICTIONARY
  5
D
102
{ACAD_REACTORS
330
C
102
}
330
C
100
AcDbDictionary
281
     1
  0
DICTIONARY
  5
1A
102
{ACAD_REACTORS
330
C
102
}
330
C
100
AcDbDictionary
281
     1
  3
Layout1
350
1E
  3
Layout2
350
26
  3
Model
350
22
  0
DICTIONARY
  5
17
102
{ACAD_REACTORS
330
C
102
}
330
C
100
AcDbDictionary
281
     1
  3
Standard
350
18
  0
DICTIONARY
  5
19
102
{ACAD_REACTORS
330
C
102
}
330
C
100
AcDbDictionary
281
     1
  0
ACDBDICTIONARYWDFLT
  5
E
102
{ACAD_REACTORS
330
C
102
}
330
C
100
AcDbDictionary
281
     1
  3
Normal
350
F
100
AcDbDictionaryWithDefault
340
F
  0
LAYOUT
  5
1E
102
{ACAD_REACTORS
330
1A
102
}
330
1A
100
AcDbPlotSettings
  1

  2
none_device
  4

  6

 40
0.0
 41
0.0
 42
0.0
 43
0.0
 44
0.0
 45
0.0
 46
0.0
 47
0.0
 48
0.0
 49
0.0
140
0.0
141
0.0
142
1.0
143
1.0
 70
   688
 72
     0
 73
     0
 74
     5
  7

 75
    16
147
1.0
148
0.0
149
0.0
100
AcDbLayout
  1
Layout1
 70
     1
 71
     1
 10
0.0
 20
0.0
 11
420.0
 21
297.0
 12
0.0
 22
0.0
 32
0.0
 14
1.0000000000E+20
 24
1.0000000000E+20
 34
1.0000000000E+20
 15
-1.0000000000E+20
 25
-1.0000000000E+20
 35
-1.0000000000E+20
146
0.0
 13
0.0
 23
0.0
 33
0.0
 16
1.0
 26
0.0
 36
0.0
 17
0.0
 27
1.0
 37
0.0
 76
     0
330
1B
  0
LAYOUT
  5
26
102
{ACAD_REACTORS
330
1A
102
}
330
1A
100
AcDbPlotSettings
  1

  2
none_device
  4

  6

 40
0.0
 41
0.0
 42
0.0
 43
0.0
 44
0.0
 45
0.0
 46
0.0
 47
0.0
 48
0.0
 49
0.0
140
0.0
141
0.0
142
1.0
143
1.0
 70
   688
 72
     0
 73
     0
 74
     5
  7

 75
    16
147
1.0
148
0.0
149
0.0
100
AcDbLayout
  1
Layout2
 70
     1
 71
     2
 10
0.0
 20
0.0
 11
0.0
 21
0.0
 12
0.0
 22
0.0
 32
0.0
 14
0.0
 24
0.0
 34
0.0
 15
0.0
 25
0.0
 35
0.0
146
0.0
 13
0.0
 23
0.0
 33
0.0
 16
1.0
 26
0.0
 36
0.0
 17
0.0
 27
1.0
 37
0.0
 76
     0
330
23
  0
LAYOUT
  5
22
102
{ACAD_REACTORS
330
1A
102
}
330
1A
100
AcDbPlotSettings
  1

  2
none_device
  4

  6

 40
0.0
 41
0.0
 42
0.0
 43
0.0
 44
0.0
 45
0.0
 46
0.0
 47
0.0
 48
0.0
 49
0.0
140
0.0
141
0.0
142
1.0
143
1.0
 70
  1712
 72
     0
 73
     0
 74
     0
  7

 75
     0
147
1.0
148
0.0
149
0.0
100
AcDbLayout
  1
Model
 70
     1
 71
     0
 10
0.0
 20
0.0
 11
1100.0
 21
1500.0
 12
0.0
 22
0.0
 32
0.0
 14
0.0
 24
0.0
 34
0.0
 15
1100.0
 25
1500.0
 35
0.0
146
0.0
 13
0.0
 23
0.0
 33
0.0
 16
1.0
 26
0.0
 36
0.0
 17
0.0
 27
1.0
 37
0.0
 76
     0
330
1F
331
29
  0
MLINESTYLE
  5
18
102
{ACAD_REACTORS
330
17
102
}
330
17
100
AcDbMlineStyle
  2
Standard
 70
     0
  3

 62
   256
 51
90.0
 52
90.0
 71
     2
 49
0.5
 62
   256
  6
BYLAYER
 49
-0.5
 62
   256
  6
BYLAYER
  0
ACDBPLACEHOLDER
  5
F
102
{ACAD_REACTORS
330
E
102
}
330
E
  0
ENDSEC
  0
EOF
