  0
SECTION
  2
HEADER
  9
$ACADVER
  1
AC1015
  9
$ACADMAINTVER
 70
     6
  9
$DWGCODEPAGE
  3
ANSI_1252
  9
$INSBASE
 10
0.0
 20
0.0
 30
0.0
  9
$EXTMIN
 10
0.0
 20
0.0
 30
0.0
  9
$EXTMAX
 10
1100.0
 20
1500.0
 30
0.0
  9
$LIMMIN
 10
0.0
 20
0.0
  9
$LIMMAX
 10
1100.0
 20
1500.0
  9
$ORTHOMODE
 70
     0
  9
$REGENMODE
 70
     1
  9
$FILLMODE
 70
     1
  9
$QTEXTMODE
 70
     0
  9
$MIRRTEXT
 70
     1
  9
$LTSCALE
 40
1.0
  9
$ATTMODE
 70
     1
  9
$TEXTSIZE
 40
3.5
  9
$TRACEWID
 40
1.0
  9
$TEXTSTYLE
  7
Standard
  9
$CLAYER
  8
0
  9
$CELTYPE
  6
ByLayer
  9
$CECOLOR
 62
   256
  9
$CELTSCALE
 40
1.0
  9
$DISPSILH
 70
     0
  9
$DIMSCALE
 40
1.0
  9
$DIMASZ
 40
3.302
  9
$DIMEXO
 40
1.0
  9
$DIMDLI
 40
3.75
  9
$DIMRND
 40
0.0
  9
$DIMDLE
 40
0.0
  9
$DIMEXE
 40
1.0
  9
$DIMTP
 40
0.0
  9
$DIMTM
 40
0.0
  9
$DIMTXT
 40
3.5
  9
$DIMCEN
 40
2.5
  9
$DIMTSZ
 40
0.0
  9
$DIMTOL
 70
     0
  9
$DIMLIM
 70
     0
  9
$DIMTIH
 70
     1
  9
$DIMTOH
 70
     1
  9
$DIMSE1
 70
     0
  9
$DIMSE2
 70
     0
  9
$DIMTAD
 70
     1
  9
$DIMZIN
 70
     0
  9
$DIMBLK
  1

  9
$DIMASO
 70
     1
  9
$DIMSHO
 70
     1
  9
$DIMPOST
  1

  9
$DIMAPOST
  1

  9
$DIMALT
 70
     0
  9
$DIMALTD
 70
     3
  9
$DIMALTF
 40
0.0393700787
  9
$DIMLFAC
 40
1.0
  9
$DIMTOFL
 70
     1
  9
$DIMTVP
 40
0.0
  9
$DIMTIX
 70
     0
  9
$DIMSOXD
 70
     0
  9
$DIMSAH
 70
     0
  9
$DIMBLK1
  1

  9
$DIMBLK2
  1

  9
$DIMSTYLE
  2
ISO-25
  9
$DIMCLRD
 70
     0
  9
$DIMCLRE
 70
     0
  9
$DIMCLRT
 70
     0
  9
$DIMTFAC
 40
1.0
  9
$DIMGAP
 40
1.524
  9
$DIMJUST
 70
     0
  9
$DIMSD1
 70
     0
  9
$DIMSD2
 70
     0
  9
$DIMTOLJ
 70
     0
  9
$DIMTZIN
 70
     0
  9
$DIMALTZ
 70
     0
  9
$DIMALTTZ
 70
     0
  9
$DIMUPT
 70
     0
  9
$DIMDEC
 70
     1
  9
$DIMTDEC
 70
     1
  9
$DIMALTU
 70
     2
  9
$DIMALTTD
 70
     3
  9
$DIMTXSTY
  7
Standard
  9
$DIMAUNIT
 70
     0
  9
$DIMADEC
 70
     1
  9
$DIMALTRND
 40
0.0
  9
$DIMAZIN
 70
     0
  9
$DIMDSEP
 70
    44
  9
$DIMATFIT
 70
     3
  9
$DIMFRAC
 70
     0
  9
$DIMLDRBLK
  1

  9
$DIMLUNIT
 70
     2
  9
$DIMLWD
 70
    -2
  9
$DIMLWE
 70
    -2
  9
$DIMTMOVE
 70
     0
  9
$LUNITS
 70
     2
  9
$LUPREC
 70
     1
  9
$SKETCHINC
 40
1.0
  9
$FILLETRAD
 40
10.0
  9
$AUNITS
 70
     0
  9
$AUPREC
 70
     1
  9
$MENU
  1
.
  9
$ELEVATION
 40
0.0
  9
$PELEVATION
 40
0.0
  9
$THICKNESS
 40
0.0
  9
$LIMCHECK
 70
     0
  9
$CHAMFERA
 40
10.0
  9
$CHAMFERB
 40
10.0
  9
$CHAMFERC
 40
20.0
  9
$CHAMFERD
 40
0.0
  9
$SKPOLY
 70
     0
  9
$TDCREATE
 40
2457423.413159387
  9
$TDUCREATE
 40
2457423.413159387
  9
$TDUPDATE
 40
2457423.413159931
  9
$TDUUPDATE
 40
2457423.413159931
  9
$TDINDWG
 40
0.0000000116
  9
$TDUSRTIMER
 40
0.0000000116
  9
$USRTIMER
 70
     1
  9
$ANGBASE
 50
0.0
  9
$ANGDIR
 70
     0
  9
$PDMODE
 70
     0
  9
$PDSIZE
 40
-1.0
  9
$PLINEWID
 40
0.0
  9
$SPLFRAME
 70
     0
  9
$SPLINETYPE
 70
     6
  9
$SPLINESEGS
 70
     8
  9
$HANDSEED
  5
1F7
  9
$SURFTAB1
 70
     6
  9
$SURFTAB2
 70
     6
  9
$SURFTYPE
 70
     6
  9
$SURFU
 70
     6
  9
$SURFV
 70
     6
  9
$UCSBASE
  2

  9
$UCSNAME
  2

  9
$UCSORG
 10
0.0
 20
0.0
 30
0.0
  9
$UCSXDIR
 10
1.0
 20
0.0
 30
0.0
  9
$UCSYDIR
 10
0.0
 20
1.0
 30
0.0
  9
$UCSORTHOREF
  2

  9
$UCSORTHOVIEW
 70
     0
  9
$UCSORGTOP
 10
0.0
 20
0.0
 30
0.0
  9
$UCSORGBOTTOM
 10
0.0
 20
0.0
 30
0.0
  9
$UCSORGLEFT
 10
0.0
 20
0.0
 30
0.0
  9
$UCSORGRIGHT
 10
0.0
 20
0.0
 30
0.0
  9
$UCSORGFRONT
 10
0.0
 20
0.0
 30
0.0
  9
$UCSORGBACK
 10
0.0
 20
0.0
 30
0.0
  9
$PUCSBASE
  2

  9
$PUCSNAME
  2

  9
$PUCSORG
 10
0.0
 20
0.0
 30
0.0
  9
$PUCSXDIR
 10
1.0
 20
0.0
 30
0.0
  9
$PUCSYDIR
 10
0.0
 20
1.0
 30
0.0
  9
$PUCSORTHOREF
  2

  9
$PUCSORTHOVIEW
 70
     0
  9
$PUCSORGTOP
 10
0.0
 20
0.0
 30
0.0
  9
$PUCSORGBOTTOM
 10
0.0
 20
0.0
 30
0.0
  9
$PUCSORGLEFT
 10
0.0
 20
0.0
 30
0.0
  9
$PUCSORGRIGHT
 10
0.0
 20
0.0
 30
0.0
  9
$PUCSORGFRONT
 10
0.0
 20
0.0
 30
0.0
  9
$PUCSORGBACK
 10
0.0
 20
0.0
 30
0.0
  9
$USERI1
 70
     0
  9
$USERI2
 70
     0
  9
$USERI3
 70
     0
  9
$USERI4
 70
     0
  9
$USERI5
 70
     0
  9
$USERR1
 40
0.0
  9
$USERR2
 40
0.0
  9
$USERR3
 40
0.0
  9
$USERR4
 40
0.0
  9
$USERR5
 40
0.0
  9
$WORLDVIEW
 70
     1
  9
$SHADEDGE
 70
     3
  9
$SHADEDIF
 70
    70
  9
$TILEMODE
 70
     1
  9
$MAXACTVP
 70
    64
  9
$PINSBASE
 10
0.0
 20
0.0
 30
0.0
  9
$PLIMCHECK
 70
     0
  9
$PEXTMIN
 10
1.0000000000E+20
 20
1.0000000000E+20
 30
1.0000000000E+20
  9
$PEXTMAX
 10
-1.0000000000E+20
 20
-1.0000000000E+20
 30
-1.0000000000E+20
  9
$PLIMMIN
 10
0.0
 20
0.0
  9
$PLIMMAX
 10
420.0
 20
297.0
  9
$UNITMODE
 70
     0
  9
$VISRETAIN
 70
     1
  9
$PLINEGEN
 70
     0
  9
$PSLTSCALE
 70
     1
  9
$TREEDEPTH
 70
  3020
  9
$CMLSTYLE
  2
Standard
  9
$CMLJUST
 70
     0
  9
$CMLSCALE
 40
20.0
  9
$PROXYGRAPHICS
 70
     1
  9
$MEASUREMENT
 70
     1
  9
$CELWEIGHT
370
    -1
  9
$ENDCAPS
280
     0
  9
$JOINSTYLE
280
     0
  9
$LWDISPLAY
290
     1
  9
$INSUNITS
 70
     4
  9
$HYPERLINKBASE
  1

  9
$STYLESHEET
  1

  9
$XEDIT
290
     1
  9
$CEPSNTYPE
380
     0
  9
$PSTYLEMODE
290
     1
  9
$FINGERPRINTGUID
  2
{B6F90F4D-1233-46C0-95BF-A54F505FFC24}
  9
$VERSIONGUID
  2
{FAEB1C32-E019-11D5-929B-00C0DF256EC4}
  9
$EXTNAMES
290
     1
  9
$PSVPSCALE
 40
0.0
  9
$OLESTARTUP
290
     0
  0
ENDSEC
  0
SECTION
  2
CLASSES
  0
CLASS
  1
ACDBDICTIONARYWDFLT
  2
AcDbDictionaryWithDefault
  3
ObjectDBX Classes
 90
        0
280
     0
281
     0
  0
CLASS
  1
VISUALSTYLE
  2
AcDbVisualStyle
  3
ObjectDBX Classes
 90
     4095
280
     0
281
     0
  0
CLASS
  1
MATERIAL
  2
AcDbMaterial
  3
ObjectDBX Classes
 90
     1153
280
     0
281
     0
  0
CLASS
  1
ACDBPLACEHOLDER
  2
AcDbPlaceHolder
  3
ObjectDBX Classes
 90
        0
280
     0
281
     0
  0
CLASS
  1
LAYOUT
  2
AcDbLayout
  3
ObjectDBX Classes
 90
        0
280
     0
281
     0
  0
ENDSEC
  0
SECTION
  2
TABLES
  0
TABLE
  2
VPORT
  5
8
330
0
100
AcDbSymbolTable
 70
     1
  0
VPORT
  5
29
330
8
100
AcDbSymbolTableRecord
100
AcDbViewportTableRecord
  2
*Active
 70
     0
 10
0.0
 20
0.0
 11
1.0
 21
1.0
 12
550.0
 22
750.0
 13
0.0
 23
0.0
 14
10.0
 24
10.0
 15
10.0
 25
10.0
 16
0.0
 26
0.0
 36
1.0
 17
0.0
 27
0.0
 37
0.0
 40
1500.0
 41
0.7333333333
 42
50.0
 43
0.0
 44
0.0
 50
0.0
 51
0.0
 71
     0
 72
  2000
 73
     1
 74
     3
 75
     0
 76
     0
 77
     0
 78
     0
281
     0
 65
     1
110
0.0
120
0.0
130
0.0
111
1.0
121
0.0
131
0.0
112
0.0
122
1.0
132
0.0
 79
     0
146
0.0
  0
ENDTAB
  0
TABLE
  2
LTYPE
  5
5
330
0
100
AcDbSymbolTable
 70
     6
  0
LTYPE
  5
14
330
5
100
AcDbSymbolTableRecord
100
AcDbLinetypeTableRecord
  2
ByBlock
 70
     0
  3

 72
    65
 73
     0
 40
0.0
  0
LTYPE
  5
15
330
5
100
AcDbSymbolTableRecord
100
AcDbLinetypeTableRecord
  2
ByLayer
 70
     0
  3

 72
    65
 73
     0
 40
0.0
  0
LTYPE
  5
16
330
5
100
AcDbSymbolTableRecord
100
AcDbLinetypeTableRecord
  2
Continuous
 70
     0
  3
Solid line
 72
    65
 73
     0
 40
0.0
  0
LTYPE
  5
3F
330
5
100
AcDbSymbolTableRecord
100
AcDbLinetypeTableRecord
  2
HIDDEN
 70
     0
  3
Hidden __ __ __ __ __ __ __ __ __ __ __ __ __ __
 72
    65
 73
     2
 40
1.905
 49
1.27
 74
     0
 49
-0.635
 74
     0
  0
LTYPE
  5
40
330
5
100
AcDbSymbolTableRecord
100
AcDbLinetypeTableRecord
  2
PHANTOM
 70
     0
  3
Phantom ______  __  __  ______  __  __  ______
 72
    65
 73
     6
 40
12.7
 49
6.35
 74
     0
 49
-1.27
 74
     0
 49
1.27
 74
     0
 49
-1.27
 74
     0
 49
1.27
 74
     0
 49
-1.27
 74
     0
  0
LTYPE
  5
41
330
5
100
AcDbSymbolTableRecord
100
AcDbLinetypeTableRecord
  2
CENTER
 70
     0
  3
Center ____ _ ____ _ ____ _ ____ _ ____ _ ____
 72
    65
 73
     4
 40
10.16
 49
6.35
 74
     0
 49
-1.27
 74
     0
 49
1.27
 74
     0
 49
-1.27
 74
     0
  0
LTYPE
  5
42
330
5
100
AcDbSymbolTableRecord
100
AcDbLinetypeTableRecord
  2
CENTERX2
 70
     0
  3
Center (2x) ________  __  ________  __  _____
 72
    65
 73
     4
 40
20.32
 49
12.7
 74
     0
 49
-2.54
 74
     0
 49
2.54
 74
     0
 49
-2.54
 74
     0
  0
LTYPE
  5
43
330
5
100
AcDbSymbolTableRecord
100
AcDbLinetypeTableRecord
  2
DOT2
 70
     0
  3
Dot (.5x) ........................................
 72
    65
 73
     2
 40
0.635
 49
0.0
 74
     0
 49
-0.635
 74
     0
  0
ENDTAB
  0
TABLE
  2
LAYER
  5
2
330
0
100
AcDbSymbolTable
 70
     4
  0
LAYER
  5
10
330
2
100
AcDbSymbolTableRecord
100
AcDbLayerTableRecord
  2
0
 70
     0
 62
     7
  6
Continuous
370
    -3
390
F
  0
LAYER
  5
44
330
2
100
AcDbSymbolTableRecord
100
AcDbLayerTableRecord
  2
FORMAT
 70
     0
 62
     7
  6
Continuous
370
    -3
390
F
  0
LAYER
  5
45
330
2
100
AcDbSymbolTableRecord
100
AcDbLayerTableRecord
  2
SLD-0
 70
     0
 62
     1
  6
Continuous
370
    -3
390
F
  0
LAYER
  5
46
330
2
100
AcDbSymbolTableRecord
100
AcDbLayerTableRecord
  2
WATERMARK
 70
     0
 62
     1
  6
Continuous
370
    -3
390
F
  0
ENDTAB
  0
TABLE
  2
STYLE
  5
3
330
0
100
AcDbSymbolTable
 70
     1
  0
STYLE
  5
11
330
3
100
AcDbSymbolTableRecord
100
AcDbTextStyleTableRecord
  2
Standard
 70
     0
 40
0.0
 41
1.0
 50
0.0
 71
     0
 42
3.5
  3
txt
  4

  0
ENDTAB
  0
TABLE
  2
VIEW
  5
6
330
0
100
AcDbSymbolTable
 70
     0
  0
ENDTAB
  0
TABLE
  2
UCS
  5
7
330
0
100
AcDbSymbolTable
 70
     0
  0
ENDTAB
  0
TABLE
  2
APPID
  5
9
330
0
100
AcDbSymbolTable
 70
     1
  0
APPID
  5
12
330
9
100
AcDbSymbolTableRecord
100
AcDbRegAppTableRecord
  2
ACAD
 70
     0
  0
ENDTAB
  0
TABLE
  2
DIMSTYLE
  5
A
330
0
100
AcDbSymbolTable
 70
     1
100
AcDbDimStyleTable
  0
DIMSTYLE
105
27
330
A
100
AcDbSymbolTableRecord
100
AcDbDimStyleTableRecord
  2
ISO-25
 70
     0
 41
2.5
 42
0.625
 43
3.75
 44
1.25
 73
     0
 74
     0
 77
     1
 78
     8
140
2.5
141
2.5
143
0.0393700787
147
0.625
171
     3
172
     1
178
     0
271
     2
272
     2
274
     3
278
    44
283
     0
284
     8
340
11
  0
ENDTAB
  0
TABLE
  2
BLOCK_RECORD
  5
1
330
0
100
AcDbSymbolTable
 70
     1
  0
BLOCK_RECORD
  5
1F
330
1
100
AcDbSymbolTableRecord
100
AcDbBlockTableRecord
  2
*Model_Space
340
22
  0
BLOCK_RECORD
  5
1B
330
1
100
AcDbSymbolTableRecord
100
AcDbBlockTableRecord
  2
*Paper_Space
340
1E
  0
BLOCK_RECORD
  5
23
330
1
100
AcDbSymbolTableRecord
100
AcDbBlockTableRecord
  2
*Paper_Space0
340
26
  0
ENDTAB
  0
ENDSEC
  0
SECTION
  2
BLOCKS
  0
BLOCK
  5
20
330
1F
100
AcDbEntity
  8
0
100
AcDbBlockBegin
  2
*Model_Space
 70
     0
 10
0.0
 20
0.0
 30
0.0
  3
*Model_Space
  1

  0
ENDBLK
  5
21
330
1F
100
AcDbEntity
  8
0
100
AcDbBlockEnd
  0
BLOCK
  5
1C
330
1B
100
AcDbEntity
 67
     1
  8
0
100
AcDbBlockBegin
  2
*Paper_Space
 70
     0
 10
0.0
 20
0.0
 30
0.0
  3
*Paper_Space
  1

  0
ENDBLK
  5
1D
330
1B
100
AcDbEntity
 67
     1
  8
0
100
AcDbBlockEnd
  0
BLOCK
  5
24
330
23
100
AcDbEntity
  8
0
100
AcDbBlockBegin
  2
*Paper_Space0
 70
     0
 10
0.0
 20
0.0
 30
0.0
  3
*Paper_Space0
  1

  0
ENDBLK
  5
25
330
23
100
AcDbEntity
  8
0
100
AcDbBlockEnd
  0
ENDSEC
  0
SECTION
  2
ENTITIES
  0
LINE
  5
47
330
1F
100
AcDbEntity
  8
0
  6
Continuous
 62
     7
370
    15
100
AcDbLine
 10
757.0258550579
 20
1136.469708037
 30
0.0
 11
757.0258550579
 21
1145.9697049376
 31
0.0
  0
LINE
  5
48
330
1F
100
AcDbEntity
  8
0
  6
Continuous
 62
     7
370
    15
100
AcDbLine
 10
738.0258612568
 20
1145.9697049376
 30
0.0
 11
738.0258612568
 21
1136.469708037
 31
0.0
  0
ARC
  5
49
330
1F
100
AcDbEntity
  8
0
  6
Continuous
 62
     7
370
    15
100
AcDbCircle
 10
740.025862069
 20
1145.9697044335
 30
0.0
 40
2.0
100
AcDbArc
 50
90.0
 51
180.0
  0
ARC
  5
4A
330
1F
100
AcDbEntity
  8
0
  6
Continuous
 62
     7
370
    15
100
AcDbCircle
 10
755.025862069
 20
1145.9697044335
 30
0.0
 40
2.0
100
AcDbArc
 50
0.0
 51
90.0
  0
ARC
  5
4B
330
1F
100
AcDbEntity
  8
0
  6
Continuous
 62
     7
370
    15
100
AcDbCircle
 10
360.025862069
 20
1145.9697044335
 30
0.0
 40
2.0
100
AcDbArc
 50
90.0
 51
180.0
  0
ARC
  5
4C
330
1F
100
AcDbEntity
  8
0
  6
Continuous
 62
     7
370
    15
100
AcDbCircle
 10
375.025862069
 20
1145.9697044335
 30
0.0
 40
2.0
100
AcDbArc
 50
0.0
 51
90.0
  0
LINE
  5
4D
330
1F
100
AcDbEntity
  8
0
  6
Continuous
 62
     7
370
    15
100
AcDbLine
 10
377.0258598263
 20
1136.469708037
 30
0.0
 11
377.0258598263
 21
1145.9697049376
 31
0.0
  0
LINE
  5
4E
330
1F
100
AcDbEntity
  8
0
  6
Continuous
 62
     7
370
    15
100
AcDbLine
 10
358.0258660251
 20
1145.9697049376
 30
0.0
 11
358.0258660251
 21
1136.469708037
 31
0.0
  0
LINE
  5
4F
330
1F
100
AcDbEntity
  8
0
  6
Continuous
 62
     7
370
    15
100
AcDbLine
 10
513.1106995279
 20
992.9614525553
 30
0.0
 11
512.2946821386
 21
993.7062125918
 31
0.0
  0
LINE
  5
50
330
1F
100
AcDbEntity
  8
0
  6
Continuous
 62
     7
370
    15
100
AcDbLine
 10
502.8572552139
 20
993.7062125918
 30
0.0
 11
502.0412378246
 21
992.9614525553
 31
0.0
  0
LINE
  5
51
330
1F
100
AcDbEntity
  8
0
  6
Continuous
 62
     7
370
    15
100
AcDbLine
 10
568.325861753
 20
1004.9866598364
 30
0.0
 11
546.725862124
 21
1004.9866598364
 31
0.0
  0
ARC
  5
52
330
1F
100
AcDbEntity
  8
0
  6
Continuous
 62
     7
370
    15
100
AcDbCircle
 10
546.725862069
 20
1004.4866625649
 30
0.0
 40
0.5000000000002274
100
AcDbArc
 50
90.0
 51
180.0
  0
ARC
  5
53
330
1F
100
AcDbEntity
  8
0
  6
Continuous
 62
     7
370
    15
100
AcDbCircle
 10
568.325862069
 20
1004.4866625649
 30
0.0
 40
0.5000000000002274
100
AcDbArc
 50
0.0
 51
90.0
  0
ARC
  5
54
330
1F
100
AcDbEntity
  8
0
  6
Continuous
 62
     7
370
    15
100
AcDbCircle
 10
571.275862069
 20
1005.4346189065
 30
0.0
 40
1.0
100
AcDbArc
 50
0.0
 51
90.0
  0
LINE
  5
55
330
1F
100
AcDbEntity
  8
0
  6
Continuous
 62
     7
370
    15
100
AcDbLine
 10
571.275861864
 20
1006.4346056696
 30
0.0
 11
543.7758624787
 21
1006.4346056696
 31
0.0
  0
ARC
  5
56
330
1F
100
AcDbEntity
  8
0
  6
Continuous
 62
     7
370
    15
100
AcDbCircle
 10
543.775862069
 20
1005.4346189065
 30
0.0
 40
1.0
100
AcDbArc
 50
90.0
 51
180.0
  0
LINE
  5
57
330
1F
100
AcDbEntity
  8
0
  6
Continuous
 62
     7
370
    15
100
AcDbLine
 10
612.9605941707
 20
992.9614525553
 30
0.0
 11
612.1445767815
 21
993.7062125918
 31
0.0
  0
LINE
  5
58
330
1F
100
AcDbEntity
  8
0
  6
Continuous
 62
     7
370
    15
100
AcDbLine
 10
602.7071479941
 20
993.7062125918
 30
0.0
 11
601.8911287422
 21
992.9614525553
 31
0.0
  0
LINE
  5
59
330
1F
100
AcDbEntity
  8
0
  6
Continuous
 62
     7
370
    15
100
AcDbLine
 10
444.5258550579
 20
1300.9645667425
 30
0.0
 11
670.5258585746
 21
1300.9645667425
 31
0.0
  0
SPLINE
  5
5A
330
1F
100
AcDbEntity
  8
0
  6
Continuous
 62
     7
370
    15
100
AcDbSpline
210
0.0
220
0.0
230
1.0
 70
     8
 71
     3
 72
    11
 73
     7
 74
     0
 42
0.00000001
 43
0.00000001
 12
1.0
 22
0.0
 32
0.0
 13
1.0
 23
0.0
 33
0.0
 40
0.0
 40
0.0
 40
0.0
 40
0.0
 40
0.1533545025905819
 40
0.4664686763857897
 40
0.7896532450360858
 40
1.0
 40
1.0
 40
1.0
 40
1.0
 10
670.5258585745681
 20
1300.964566742468
 30
0.0
 10
670.6318635621917
 20
1300.960991092507
 30
0.0
 10
670.9543060430562
 20
1300.950114798193
 30
0.0
 10
671.4702442335309
 20
1300.823251990459
 30
0.0
 10
671.9315429356012
 20
1300.592682230935
 30
0.0
 10
672.0871389492767
 20
1300.435199606314
 30
0.0
 10
672.1484832698692
 20
1300.373111482176
 30
0.0
  0
SPLINE
  5
5B
330
1F
100
AcDbEntity
  8
0
  6
Continuous
 62
     7
370
    15
100
AcDbSpline
210
0.0
220
0.0
230
1.0
 70
     8
 71
     3
 72
    11
 73
     7
 74
     0
 42
0.00000001
 43
0.00000001
 12
1.0
 22
0.0
 32
0.0
 13
1.0
 23
0.0
 33
0.0
 40
0.0
 40
0.0
 40
0.0
 40
0.0
 40
0.0917429110408685
 40
0.4196433871276433
 40
0.7260252716786064
 40
1.0
 40
1.0
 40
1.0
 40
1.0
 10
442.8956084186424
 20
1300.370363789543
 30
0.0
 10
442.9165915997202
 20
1300.396144732602
 30
0.0
 10
443.0125712572254
 20
1300.514069944981
 30
0.0
 10
443.377407829407
 20
1300.734624707536
 30
0.0
 10
443.9286948485228
 20
1300.928836376823
 30
0.0
 10
444.3343523021855
 20
1300.953108404528
 30
0.0
 10
444.5258550578941
 20
1300.964566742468
 30
0.0
  0
SPLINE
  5
5C
330
1F
100
AcDbEntity
  8
0
  6
Continuous
 62
     7
370
    15
100
AcDbSpline
210
0.0
220
0.0
230
1.0
 70
     8
 71
     3
 72
    11
 73
     7
 74
     0
 42
0.00000001
 43
0.00000001
 12
1.0
 22
0.0
 32
0.0
 13
1.0
 23
0.0
 33
0.0
 40
0.0
 40
0.0
 40
0.0
 40
0.0
 40
0.1533546752782478
 40
0.4664682228486958
 40
0.7896481781713243
 40
1.0
 40
1.0
 40
1.0
 40
1.0
 10
659.5258586341728
 20
1289.939941119801
 30
0.0
 10
659.6318636364402
 20
1289.936365716906
 30
0.0
 10
659.9543054852527
 20
1289.925490196933
 30
0.0
 10
660.4702392342676
 20
1289.79862917691
 30
0.0
 10
660.9315504228005
 20
1289.568050980086
 30
0.0
 10
661.0871400868
 20
1289.410573593947
 30
0.0
 10
661.1484833294738
 20
1289.34848609234
 30
0.0
  0
LINE
  5
5D
330
1F
100
AcDbEntity
  8
0
  6
Continuous
 62
     7
370
    15
100
AcDbLine
 10
455.5258624489
 20
1289.9399411198
 30
0.0
 11
659.5258586342
 21
1289.9399411198
 31
0.0
  0
SPLINE
  5
5E
330
1F
100
AcDbEntity
  8
0
  6
Continuous
 62
     7
370
    15
100
AcDbSpline
210
0.0
220
0.0
230
1.0
 70
     8
 71
     3
 72
    11
 73
     7
 74
     0
 42
0.00000001
 43
0.00000001
 12
1.0
 22
0.0
 32
0.0
 13
1.0
 23
0.0
 33
0.0
 40
0.0
 40
0.0
 40
0.0
 40
0.0
 40
0.0917435697835309
 40
0.4196445733250599
 40
0.7260188248738969
 40
1.0
 40
1.0
 40
1.0
 40
1.0
 10
453.8956083590377
 20
1289.345738690745
 30
0.0
 10
453.9165944353941
 20
1289.371519411036
 30
0.0
 10
454.0125869183451
 20
1289.489443091056
 30
0.0
 10
454.3773949648064
 20
1289.709995597835
 30
0.0
 10
454.9286992371802
 20
1289.904214628078
 30
0.0
 10
455.3343554033614
 20
1289.928483825141
 30
0.0
 10
455.52586244887
 20
1289.939941119801
 30
0.0
  0
LINE
  5
5F
330
1F
100
AcDbEntity
  8
0
  6
Continuous
 62
     7
370
    15
100
AcDbLine
 10
461.4186384017
 20
1280.6114118811
 30
0.0
 11
648.5258586938
 21
1280.6114118811
 31
0.0
  0
SPLINE
  5
60
330
1F
100
AcDbEntity
  8
0
  6
Continuous
 62
     7
370
    15
100
AcDbSpline
210
0.0
220
0.0
230
1.0
 70
     8
 71
     3
 72
    11
 73
     7
 74
     0
 42
0.00000001
 43
0.00000001
 12
1.0
 22
0.0
 32
0.0
 13
1.0
 23
0.0
 33
0.0
 40
0.0
 40
0.0
 40
0.0
 40
0.0
 40
0.2609900946186629
 40
0.5164182355721254
 40
0.7638676097737851
 40
1.0
 40
1.0
 40
1.0
 40
1.0
 10
459.3674265081276
 20
1281.457622748266
 30
0.0
 10
459.519989470156
 20
1281.326397514117
 30
0.0
 10
459.8218641285774
 20
1281.066743583646
 30
0.0
 10
460.3552020682606
 20
1280.804857670982
 30
0.0
 10
460.9017107163608
 20
1280.63954612961
 30
0.0
 10
461.2603674276061
 20
1280.622887738643
 30
0.0
 10
461.4354990655769
 20
1280.614753466498
 30
0.0
  0
SPLINE
  5
61
330
1F
100
AcDbEntity
  8
0
  6
Continuous
 62
     7
370
    15
100
AcDbSpline
210
0.0
220
0.0
230
1.0
 70
     8
 71
     3
 72
    11
 73
     7
 74
     0
 42
0.00000001
 43
0.00000001
 12
1.0
 22
0.0
 32
0.0
 13
1.0
 23
0.0
 33
0.0
 40
0.0
 40
0.0
 40
0.0
 40
0.0
 40
0.1533546752782478
 40
0.4664682228486958
 40
0.7896481781713243
 40
1.0
 40
1.0
 40
1.0
 40
1.0
 10
648.5258586937774
 20
1280.6114118811
 30
0.0
 10
648.6318636960449
 20
1280.607836478205
 30
0.0
 10
648.9543055448573
 20
1280.596960958232
 30
0.0
 10
649.4702392938723
 20
1280.47009993821
 30
0.0
 10
649.9315504824051
 20
1280.239521741385
 30
0.0
 10
650.0871401464046
 20
1280.082044355246
 30
0.0
 10
650.1484833890785
 20
1280.019956853639
 30
0.0
  0
SPLINE
  5
62
330
1F
100
AcDbEntity
  8
0
  6
Continuous
 62
     7
370
    15
100
AcDbSpline
210
0.0
220
0.0
230
1.0
 70
     8
 71
     3
 72
    12
 73
     8
 74
     0
 42
0.00000001
 43
0.00000001
 12
1.0
 22
0.0
 32
0.0
 13
1.0
 23
0.0
 33
0.0
 40
0.0
 40
0.0
 40
0.0
 40
0.0
 40
0.161515102330197
 40
0.4255443255050428
 40
0.6909741592173797
 40
0.9566728117503179
 40
1.0
 40
1.0
 40
1.0
 40
1.0
 10
648.5258586937774
 20
1271.282882642399
 30
0.0
 10
648.8559847047953
 20
1271.293944173271
 30
0.0
 10
649.7257686981403
 20
1271.323088021902
 30
0.0
 10
651.1183980443686
 20
1271.614540232043
 30
0.0
 10
652.5974077578552
 20
1272.239831917434
 30
0.0
 10
653.6095396853883
 20
1272.831848230697
 30
0.0
 10
654.035073311041
 20
1273.26952097879
 30
0.0
 10
654.0947355563034
 20
1273.330885198365
 30
0.0
  0
SPLINE
  5
63
330
1F
100
AcDbEntity
  8
0
  6
Continuous
 62
     7
370
    15
100
AcDbSpline
210
0.0
220
0.0
230
1.0
 70
     8
 71
     3
 72
    12
 73
     8
 74
     0
 42
0.00000001
 43
0.00000001
 12
1.0
 22
0.0
 32
0.0
 13
1.0
 23
0.0
 33
0.0
 40
0.0
 40
0.0
 40
0.0
 40
0.0
 40
0.1206878820235012
 40
0.3850411593164947
 40
0.6527222494676045
 40
0.923166576284579
 40
1.0
 40
1.0
 40
1.0
 40
1.0
 10
450.1289300853599
 20
1273.20337968732
 30
0.0
 10
450.3021643505974
 20
1273.050548638817
 30
0.0
 10
450.8548488554711
 20
1272.562958309876
 30
0.0
 10
451.9939394688285
 20
1271.976143048232
 30
0.0
 10
453.4817791830314
 20
1271.470014542073
 30
0.0
 10
454.6902792822564
 20
1271.296252033226
 30
0.0
 10
455.3744853586442
 20
1271.285304686741
 30
0.0
 10
455.52586244887
 20
1271.282882642399
 30
0.0
  0
LINE
  5
64
330
1F
100
AcDbEntity
  8
0
  6
Continuous
 62
     7
370
    15
100
AcDbLine
 10
455.5258624489
 20
1271.2828826424
 30
0.0
 11
648.5258586938
 21
1271.2828826424
 31
0.0
  0
SPLINE
  5
65
330
1F
100
AcDbEntity
  8
0
  6
Continuous
 62
     7
370
    15
100
AcDbSpline
210
0.0
220
0.0
230
1.0
 70
     8
 71
     3
 72
    12
 73
     8
 74
     0
 42
0.00000001
 43
0.00000001
 12
1.0
 22
0.0
 32
0.0
 13
1.0
 23
0.0
 33
0.0
 40
0.0
 40
0.0
 40
0.0
 40
0.0
 40
0.1615150753769084
 40
0.4255441936613515
 40
0.6909742107869391
 40
0.9566728189806648
 40
1.0
 40
1.0
 40
1.0
 40
1.0
 10
659.5258586341728
 20
1261.954353403698
 30
0.0
 10
659.8559846078624
 20
1261.965415074282
 30
0.0
 10
660.7257683785266
 20
1261.994559286845
 30
0.0
 10
662.1183991664424
 20
1262.286007405917
 30
0.0
 10
663.5974067555593
 20
1262.911305758982
 30
0.0
 10
664.6095396425719
 20
1263.503320809616
 30
0.0
 10
665.0350732535006
 20
1263.940993597197
 30
0.0
 10
665.0947354966987
 20
1264.00235782231
 30
0.0
  0
LINE
  5
66
330
1F
100
AcDbEntity
  8
0
  6
Continuous
 62
     7
370
    15
100
AcDbLine
 10
444.5258550579
 20
1261.9543534037
 30
0.0
 11
659.5258586342
 21
1261.9543534037
 31
0.0
  0
SPLINE
  5
67
330
1F
100
AcDbEntity
  8
0
  6
Continuous
 62
     7
370
    15
100
AcDbSpline
210
0.0
220
0.0
230
1.0
 70
     8
 71
     3
 72
    11
 73
     7
 74
     0
 42
0.00000001
 43
0.00000001
 12
1.0
 22
0.0
 32
0.0
 13
1.0
 23
0.0
 33
0.0
 40
0.0
 40
0.0
 40
0.0
 40
0.0
 40
0.0917426298267554
 40
0.4196471779815454
 40
0.7260258322744486
 40
0.9999999999999999
 40
0.9999999999999999
 40
0.9999999999999999
 40
0.9999999999999999
 10
442.8956084186424
 20
1261.360150974642
 30
0.0
 10
442.9165917415255
 20
1261.385931769595
 30
0.0
 10
443.0125732089111
 20
1261.503857731263
 30
0.0
 10
443.3773993088175
 20
1261.724407381444
 30
0.0
 10
443.9286985150042
 20
1261.91862598786
 30
0.0
 10
444.3343528944319
 20
1261.942895976815
 30
0.0
 10
444.5258550578941
 20
1261.954353403698
 30
0.0
  0
LINE
  5
68
330
1F
100
AcDbEntity
  8
0
  6
Continuous
 62
     7
370
    15
100
AcDbLine
 10
439.5258598263
 20
1253.1314913448
 30
0.0
 11
675.5258612568
 21
1253.1314913448
 31
0.0
  0
ARC
  5
69
330
1F
100
AcDbEntity
  8
0
  6
Continuous
 62
     7
370
    15
100
AcDbCircle
 10
675.5258620695
 20
1255.1314901798
 30
0.0
 40
2.0
100
AcDbArc
 50
270.0
 51
0.0
  0
ARC
  5
6A
330
1F
100
AcDbEntity
  8
0
  6
Continuous
 62
     7
370
    15
100
AcDbCircle
 10
439.5258620695
 20
1255.1314901798
 30
0.0
 40
2.0
100
AcDbArc
 50
180.0
 51
270.0
  0
LINE
  5
6B
330
1F
100
AcDbEntity
  8
0
  6
Continuous
 62
     7
370
    15
100
AcDbLine
 10
440.2938060696
 20
1347.7697048601
 30
0.0
 11
440.2938060696
 21
1347.8697028276
 31
0.0
  0
LINE
  5
6C
330
1F
100
AcDbEntity
  8
0
  6
Continuous
 62
     7
370
    15
100
AcDbLine
 10
409.7579144174
 20
1347.8697028276
 30
0.0
 11
409.7579144174
 21
1347.7697048601
 31
0.0
  0
ARC
  5
6D
330
1F
100
AcDbEntity
  8
0
  6
Continuous
 62
     7
370
    15
100
AcDbCircle
 10
721.025862069
 20
772.0697044335
 30
0.0
 40
2.0
100
AcDbArc
 50
270.0
 51
0.0
  0
ARC
  5
6E
330
1F
100
AcDbEntity
  8
0
  6
Continuous
 62
     7
370
    15
100
AcDbCircle
 10
668.025862069
 20
772.0697044335
 30
0.0
 40
2.0
100
AcDbArc
 50
180.0
 51
270.0
  0
LINE
  5
6F
330
1F
100
AcDbEntity
  8
0
  6
Continuous
 62
     7
370
    15
100
AcDbLine
 10
723.0258606607
 20
772.0696788546
 30
0.0
 11
723.0258606607
 21
776.0696869608
 31
0.0
  0
LINE
  5
70
330
1F
100
AcDbEntity
  8
0
  6
Continuous
 62
     7
370
    15
100
AcDbLine
 10
666.0258643562
 20
776.0696869608
 30
0.0
 11
666.0258643562
 21
772.0696788546
 31
0.0
  0
LINE
  5
71
330
1F
100
AcDbEntity
  8
0
  6
Continuous
 62
     7
370
    15
100
AcDbLine
 10
449.0258567268
 20
772.0696788546
 30
0.0
 11
449.0258567268
 21
776.0696869608
 31
0.0
  0
LINE
  5
72
330
1F
100
AcDbEntity
  8
0
  6
Continuous
 62
     7
370
    15
100
AcDbLine
 10
392.0258604223
 20
776.0696869608
 30
0.0
 11
392.0258604223
 21
772.0696788546
 31
0.0
  0
ARC
  5
73
330
1F
100
AcDbEntity
  8
0
  6
Continuous
 62
     7
370
    15
100
AcDbCircle
 10
447.025862069
 20
772.0697044335
 30
0.0
 40
2.0
100
AcDbArc
 50
270.0
 51
0.0
  0
ARC
  5
74
330
1F
100
AcDbEntity
  8
0
  6
Continuous
 62
     7
370
    15
100
AcDbCircle
 10
394.025862069
 20
772.0697044335
 30
0.0
 40
2.0
100
AcDbArc
 50
180.0
 51
270.0
  0
LINE
  5
75
330
1F
100
AcDbEntity
  8
0
  6
Continuous
 62
     7
370
    15
100
AcDbLine
 10
448.8258682424
 20
776.0696869608
 30
0.0
 11
448.8258682424
 21
805.0697010275
 31
0.0
  0
LINE
  5
76
330
1F
100
AcDbEntity
  8
0
  6
Continuous
 62
     7
370
    15
100
AcDbLine
 10
392.2258638079
 20
805.0697010275
 30
0.0
 11
392.2258638079
 21
776.0696869608
 31
0.0
  0
LINE
  5
77
330
1F
100
AcDbEntity
  8
0
  6
Continuous
 62
     7
370
    15
100
AcDbLine
 10
722.8258572752
 20
776.0696869608
 30
0.0
 11
722.8258572752
 21
805.0697010275
 31
0.0
  0
LINE
  5
78
330
1F
100
AcDbEntity
  8
0
  6
Continuous
 62
     7
370
    15
100
AcDbLine
 10
666.2258602912
 20
805.0697010275
 30
0.0
 11
666.2258602912
 21
776.0696869608
 31
0.0
  0
ARC
  5
79
330
1F
100
AcDbEntity
  8
0
  6
Continuous
 62
     7
370
    15
100
AcDbCircle
 10
727.925862069
 20
866.5697044335
 30
0.0
 40
1.5
100
AcDbArc
 50
90.0
 51
180.0
  0
ARC
  5
7A
330
1F
100
AcDbEntity
  8
0
  6
Continuous
 62
     7
370
    15
100
AcDbCircle
 10
661.125862069
 20
866.5697044335
 30
0.0
 40
1.500000000000114
100
AcDbArc
 50
0.0
 51
90.0
  0
ARC
  5
7B
330
1F
100
AcDbEntity
  8
0
  6
Continuous
 62
     7
370
    15
100
AcDbCircle
 10
721.725862069
 20
811.1022703792
 30
0.0
 40
4.699999999999932
100
AcDbArc
 50
350.5402980318
 51
0.0
  0
ARC
  5
7C
330
1F
100
AcDbEntity
  8
0
  6
Continuous
 62
     7
370
    15
100
AcDbCircle
 10
667.325862069
 20
811.1022703792
 30
0.0
 40
4.70000000000001
100
AcDbArc
 50
180.0
 51
189.4597019682
  0
LINE
  5
7D
330
1F
100
AcDbEntity
  8
0
  6
Continuous
 62
     7
370
    15
100
AcDbLine
 10
726.4258586103
 20
811.1022573229
 30
0.0
 11
726.4258586103
 21
866.5697139021
 31
0.0
  0
LINE
  5
7E
330
1F
100
AcDbEntity
  8
0
  6
Continuous
 62
     7
370
    15
100
AcDbLine
 10
662.625858956
 20
866.5697139021
 30
0.0
 11
662.625858956
 21
811.1022573229
 31
0.0
  0
LINE
  5
7F
330
1F
100
AcDbEntity
  8
0
  6
Continuous
 62
     7
370
    15
100
AcDbLine
 10
662.689777487
 20
810.329810929
 30
0.0
 11
663.5662116343
 21
805.0697010275
 31
0.0
  0
LINE
  5
80
330
1F
100
AcDbEntity
  8
0
  6
Continuous
 62
     7
370
    15
100
AcDbLine
 10
725.485505932
 20
805.0697010275
 30
0.0
 11
726.36194753
 21
810.329810929
 31
0.0
  0
ARC
  5
81
330
1F
100
AcDbEntity
  8
0
  6
Continuous
 62
     7
370
    15
100
AcDbCircle
 10
453.925862069
 20
866.5697044335
 30
0.0
 40
1.5
100
AcDbArc
 50
90.0
 51
180.0
  0
ARC
  5
82
330
1F
100
AcDbEntity
  8
0
  6
Continuous
 62
     7
370
    15
100
AcDbCircle
 10
387.125862069
 20
866.5697044335
 30
0.0
 40
1.5
100
AcDbArc
 50
0.0
 51
90.0
  0
ARC
  5
83
330
1F
100
AcDbEntity
  8
0
  6
Continuous
 62
     7
370
    15
100
AcDbCircle
 10
447.725862069
 20
811.1022703792
 30
0.0
 40
4.700000000000066
100
AcDbArc
 50
350.5402980318
 51
0.0
  0
ARC
  5
84
330
1F
100
AcDbEntity
  8
0
  6
Continuous
 62
     7
370
    15
100
AcDbCircle
 10
393.325862069
 20
811.1022703792
 30
0.0
 40
4.699999999999989
100
AcDbArc
 50
180.0
 51
189.4597019682
  0
LINE
  5
85
330
1F
100
AcDbEntity
  8
0
  6
Continuous
 62
     7
370
    15
100
AcDbLine
 10
452.425862127
 20
811.1022573229
 30
0.0
 11
452.425862127
 21
866.5697139021
 31
0.0
  0
LINE
  5
86
330
1F
100
AcDbEntity
  8
0
  6
Continuous
 62
     7
370
    15
100
AcDbLine
 10
388.6258624727
 20
866.5697139021
 30
0.0
 11
388.6258624727
 21
811.1022573229
 31
0.0
  0
LINE
  5
87
330
1F
100
AcDbEntity
  8
0
  6
Continuous
 62
     7
370
    15
100
AcDbLine
 10
388.6897735531
 20
810.329810929
 30
0.0
 11
389.566215151
 21
805.0697010275
 31
0.0
  0
LINE
  5
88
330
1F
100
AcDbEntity
  8
0
  6
Continuous
 62
     7
370
    15
100
AcDbLine
 10
451.4855168993
 20
805.0697010275
 30
0.0
 11
452.3619510466
 21
810.329810929
 31
0.0
  0
LINE
  5
89
330
1F
100
AcDbEntity
  8
0
  6
Continuous
 62
     7
370
    15
100
AcDbLine
 10
708.2675270969
 20
1028.310970616
 30
0.0
 11
708.2675270969
 21
1028.2687109228
 31
0.0
  0
LINE
  5
8A
330
1F
100
AcDbEntity
  8
0
  6
Continuous
 62
     7
370
    15
100
AcDbLine
 10
756.7841880257
 20
1028.2687109228
 30
0.0
 11
756.7841880257
 21
1028.310970616
 31
0.0
  0
LINE
  5
8B
330
1F
100
AcDbEntity
  8
0
  6
Continuous
 62
     7
370
    15
100
AcDbLine
 10
731.7841969663
 20
1028.2687109228
 30
0.0
 11
731.7841969663
 21
1028.310970616
 31
0.0
  0
LINE
  5
8C
330
1F
100
AcDbEntity
  8
0
  6
Continuous
 62
     7
370
    15
100
AcDbLine
 10
733.2675330574
 20
1028.310970616
 30
0.0
 11
733.2675330574
 21
1028.2687109228
 31
0.0
  0
SPLINE
  5
8D
330
1F
100
AcDbEntity
  8
0
  6
Continuous
 62
     7
370
    15
100
AcDbSpline
210
0.0
220
0.0
230
1.0
 70
     8
 71
     3
 72
    13
 73
     9
 74
     0
 42
0.00000001
 43
0.00000001
 12
1.0
 22
0.0
 32
0.0
 13
1.0
 23
0.0
 33
0.0
 40
0.0
 40
0.0
 40
0.0
 40
0.0
 40
0.1560154419440131
 40
0.4086736391836996
 40
0.595310031303179
 40
0.7561005439477587
 40
0.9248976485591993
 40
1.0
 40
1.0
 40
1.0
 40
1.0
 10
493.9698152477134
 20
857.6707404371604
 30
0.0
 10
493.9675968075466
 20
857.6704934147888
 30
0.0
 10
493.961785728816
 20
857.6698463536368
 30
0.0
 10
493.9387444113374
 20
857.6801831661307
 30
0.0
 10
493.8989724816596
 20
857.7258856020204
 30
0.0
 10
493.8684516751745
 20
857.79367885806
 30
0.0
 10
493.8518380941134
 20
857.8625310967413
 30
0.0
 10
493.8529923495545
 20
857.9062476793378
 30
0.0
 10
493.8533477718223
 20
857.9197090383873
 30
0.0
  0
ARC
  5
8E
330
1F
100
AcDbEntity
  8
0
  6
Continuous
 62
     7
370
    15
100
AcDbCircle
 10
493.601452733
 20
863.0197044335
 30
0.0
 40
0.2500000000000568
100
AcDbArc
 50
0.0
 51
90.0
  0
LINE
  5
8F
330
1F
100
AcDbEntity
  8
0
  6
Continuous
 62
     7
370
    15
100
AcDbLine
 10
493.8514553244
 20
857.9197090384
 30
0.0
 11
493.8514553244
 21
863.0196910616
 31
0.0
  0
ARC
  5
90
330
1F
100
AcDbEntity
  8
0
  6
Continuous
 62
     7
370
    15
100
AcDbCircle
 10
488.7752857609
 20
863.0197044335
 30
0.0
 40
0.25
100
AcDbArc
 50
90.0
 51
180.0
  0
LINE
  5
91
330
1F
100
AcDbEntity
  8
0
  6
Continuous
 62
     7
370
    15
100
AcDbLine
 10
488.5252885754
 20
863.0196910616
 30
0.0
 11
488.5252885754
 21
857.9197090384
 31
0.0
  0
ARC
  5
92
330
1F
100
AcDbEntity
  8
0
  6
Continuous
 62
     7
370
    15
100
AcDbCircle
 10
489.075862069
 20
856.7197044335
 30
0.0
 40
0.25
100
AcDbArc
 50
180.0
 51
270.0
  0
LINE
  5
93
330
1F
100
AcDbEntity
  8
0
  6
Continuous
 62
     7
370
    15
100
AcDbLine
 10
488.8258598978
 20
856.9829326388
 30
0.0
 11
488.8258598978
 21
856.7197185274
 31
0.0
  0
ARC
  5
94
330
1F
100
AcDbEntity
  8
0
  6
Continuous
 62
     7
370
    15
100
AcDbCircle
 10
506.2764383771
 20
863.0197044335
 30
0.0
 40
0.25
100
AcDbArc
 50
0.0
 51
90.0
  0
LINE
  5
95
330
1F
100
AcDbEntity
  8
0
  6
Continuous
 62
     7
370
    15
100
AcDbLine
 10
506.5264351899
 20
858.4912281748
 30
0.0
 11
506.5264351899
 21
863.0196910616
 31
0.0
  0
SPLINE
  5
96
330
1F
100
AcDbEntity
  8
0
  6
Continuous
 62
     7
370
    15
100
AcDbSpline
210
0.0
220
0.0
230
1.0
 70
     8
 71
     3
 72
    13
 73
     9
 74
     0
 42
0.00000001
 43
0.00000001
 12
1.0
 22
0.0
 32
0.0
 13
1.0
 23
0.0
 33
0.0
 40
0.0
 40
0.0
 40
0.0
 40
0.0
 40
0.1536947677362557
 40
0.4677861333579792
 40
0.6522696140257911
 40
0.8142354665842869
 40
0.9818147052236502
 40
1.0
 40
1.0
 40
1.0
 40
1.0
 10
501.8638096982826
 20
857.6673131700859
 30
0.0
 10
501.8708888215941
 20
857.6676796686171
 30
0.0
 10
501.8924348753099
 20
857.6687951453077
 30
0.0
 10
501.9330228146629
 20
857.646524731994
 30
0.0
 10
501.9811122911775
 20
857.584378839802
 30
0.0
 10
502.0087452747137
 20
857.5129224302169
 30
0.0
 10
502.0199065438451
 20
857.4542091177573
 30
0.0
 10
502.0180269983889
 20
857.423062569433
 30
0.0
 10
502.0178430015434
 20
857.4200134989128
 30
0.0
  0
ARC
  5
97
330
1F
100
AcDbEntity
  8
0
  6
Continuous
 62
     7
370
    15
100
AcDbCircle
 10
502.2684799644
 20
852.3197044335
 30
0.0
 40
0.2500000000001137
100
AcDbArc
 50
180.0
 51
270.0
  0
LINE
  5
98
330
1F
100
AcDbEntity
  8
0
  6
Continuous
 62
     7
370
    15
100
AcDbLine
 10
502.0184763009
 20
857.4197154757
 30
0.0
 11
502.0184763009
 21
852.3197036501
 31
0.0
  0
ARC
  5
99
330
1F
100
AcDbEntity
  8
0
  6
Continuous
 62
     7
370
    15
100
AcDbCircle
 10
506.706301179
 20
852.3197044335
 30
0.0
 40
0.2500000000001137
100
AcDbArc
 50
270.0
 51
0.0
  0
LINE
  5
9A
330
1F
100
AcDbEntity
  8
0
  6
Continuous
 62
     7
370
    15
100
AcDbLine
 10
506.956303888
 20
852.3197036501
 30
0.0
 11
506.956303888
 21
857.4197154757
 31
0.0
  0
ARC
  5
9B
330
1F
100
AcDbEntity
  8
0
  6
Continuous
 62
     7
370
    15
100
AcDbCircle
 10
505.975862069
 20
858.6197044335
 30
0.0
 40
0.2500000000001137
100
AcDbArc
 50
31.0756875732
 51
90.0
  0
ARC
  5
9C
330
1F
100
AcDbEntity
  8
0
  6
Continuous
 62
     7
370
    15
100
AcDbCircle
 10
488.3454229589
 20
852.3197044335
 30
0.0
 40
0.25
100
AcDbArc
 50
180.0
 51
270.0
  0
LINE
  5
9D
330
1F
100
AcDbEntity
  8
0
  6
Continuous
 62
     7
370
    15
100
AcDbLine
 10
488.0954198772
 20
857.4197154757
 30
0.0
 11
488.0954198772
 21
852.3197036501
 31
0.0
  0
LINE
  5
9E
330
1F
100
AcDbEntity
  8
0
  6
Continuous
 62
     7
370
    15
100
AcDbLine
 10
492.5258629257
 20
864.0697162863
 30
0.0
 11
492.37308132
 21
863.981501412
 31
0.0
  0
LINE
  5
9F
330
1F
100
AcDbEntity
  8
0
  6
Continuous
 62
     7
370
    15
100
AcDbLine
 10
502.5258608395
 20
858.8697176691
 30
0.0
 11
502.6786424453
 21
858.9579027411
 31
0.0
  0
LINE
  5
A0
330
1F
100
AcDbEntity
  8
0
  6
Continuous
 62
     7
370
    15
100
AcDbLine
 10
502.6786424453
 20
863.981501412
 30
0.0
 11
502.5258608395
 21
864.0697162863
 31
0.0
  0
LINE
  5
A1
330
1F
100
AcDbEntity
  8
0
  6
Continuous
 62
     7
370
    15
100
AcDbLine
 10
502.5258608395
 20
864.3196981665
 30
0.0
 11
502.8659649426
 21
864.5160656687
 31
0.0
  0
LINE
  5
A2
330
1F
100
AcDbEntity
  8
0
  6
Continuous
 62
     7
370
    15
100
AcDbLine
 10
492.1857588226
 20
864.5160656687
 30
0.0
 11
492.5258629257
 21
864.3196981665
 31
0.0
  0
LINE
  5
A3
330
1F
100
AcDbEntity
  8
0
  6
Continuous
 62
     7
370
    15
100
AcDbLine
 10
494.5258595282
 20
864.3196981665
 30
0.0
 11
494.5258595282
 21
864.0697162863
 31
0.0
  0
LINE
  5
A4
330
1F
100
AcDbEntity
  8
0
  6
Continuous
 62
     7
370
    15
100
AcDbLine
 10
500.525864237
 20
864.0697162863
 30
0.0
 11
500.525864237
 21
864.3196981665
 31
0.0
  0
LINE
  5
A5
330
1F
100
AcDbEntity
  8
0
  6
Continuous
 62
     7
370
    15
100
AcDbLine
 10
357.5258575613
 20
1118.4697013613
 30
0.0
 11
757.5258635218
 21
1118.4697013613
 31
0.0
  0
LINE
  5
A6
330
1F
100
AcDbEntity
  8
0
  6
Continuous
 62
     7
370
    15
100
AcDbLine
 10
757.5258635218
 20
1118.4697013613
 30
0.0
 11
757.5258635218
 21
1101.3982903477
 31
0.0
  0
LINE
  5
A7
330
1F
100
AcDbEntity
  8
0
  6
Continuous
 62
     7
370
    15
100
AcDbLine
 10
357.5258575613
 20
1118.4697013613
 30
0.0
 11
357.5258575613
 21
1101.3982903477
 31
0.0
  0
LINE
  5
A8
330
1F
100
AcDbEntity
  8
0
  6
Continuous
 62
     7
370
    15
100
AcDbLine
 10
357.5258575613
 20
1101.3982903477
 30
0.0
 11
357.5258575613
 21
1070.4025637623
 31
0.0
  0
LINE
  5
A9
330
1F
100
AcDbEntity
  8
0
  6
Continuous
 62
     7
370
    15
100
AcDbLine
 10
757.5258635218
 20
1101.3982903477
 30
0.0
 11
757.5258635218
 21
1070.4025637623
 31
0.0
  0
LINE
  5
AA
330
1F
100
AcDbEntity
  8
0
  6
Continuous
 62
     7
370
    15
100
AcDbLine
 10
357.5258575613
 20
1070.4025637623
 30
0.0
 11
357.5258575613
 21
1064.5982783553
 31
0.0
  0
LINE
  5
AB
330
1F
100
AcDbEntity
  8
0
  6
Continuous
 62
     7
370
    15
100
AcDbLine
 10
757.5258635218
 20
1070.4025637623
 30
0.0
 11
757.5258635218
 21
1064.5982783553
 31
0.0
  0
LWPOLYLINE
  5
AC
330
1F
100
AcDbEntity
  8
0
  6
Continuous
 62
     7
370
    15
100
AcDbPolyline
 90
        9
 70
   128
 43
0.0
 10
755.5258594686
 20
1055.5542569872
 10
755.9160463745
 20
1055.5704992529
 10
756.291227811
 20
1055.6186002013
 10
756.6370092565
 20
1055.6966971871
 10
756.9400690729
 20
1055.8018248793
 10
757.1887992555
 20
1055.9299003598
 10
757.3736183578
 20
1056.0760360476
 10
757.487433427
 20
1056.2345993039
 10
757.5258635218
 20
1056.3994955536
  0
LINE
  5
AD
330
1F
100
AcDbEntity
  8
0
  6
Continuous
 62
     7
370
    15
100
AcDbLine
 10
359.5258616144
 20
1055.5542569872
 30
0.0
 11
755.5258594686
 21
1055.5542569872
 31
0.0
  0
LWPOLYLINE
  5
AE
330
1F
100
AcDbEntity
  8
0
  6
Continuous
 62
     7
370
    15
100
AcDbPolyline
 90
        9
 70
   128
 43
0.0
 10
357.5258575613
 20
1056.3994955536
 10
357.564287656
 20
1056.2345993039
 10
357.6781027252
 20
1056.0760360476
 10
357.8629218275
 20
1055.9299003598
 10
358.1116520101
 20
1055.8018248793
 10
358.4147267277
 20
1055.6966971871
 10
358.760493272
 20
1055.6186002013
 10
359.1356747085
 20
1055.5704992529
 10
359.5258616144
 20
1055.5542569872
  0
LINE
  5
AF
330
1F
100
AcDbEntity
  8
0
  6
Continuous
 62
     7
370
    15
100
AcDbLine
 10
357.5258575613
 20
1064.5982783553
 30
0.0
 11
357.5258575613
 21
1056.3994955536
 31
0.0
  0
LINE
  5
B0
330
1F
100
AcDbEntity
  8
0
  6
Continuous
 62
     7
370
    15
100
AcDbLine
 10
757.5258635218
 20
1064.5982783553
 30
0.0
 11
757.5258635218
 21
1056.3994955536
 31
0.0
  0
LINE
  5
B1
330
1F
100
AcDbEntity
  8
0
  6
Continuous
 62
     7
370
    15
100
AcDbLine
 10
357.5258575613
 20
1120.7197021958
 30
0.0
 11
357.5258575613
 21
1118.4697013613
 31
0.0
  0
LINE
  5
B2
330
1F
100
AcDbEntity
  8
0
  6
Continuous
 62
     7
370
    15
100
AcDbLine
 10
757.5258635218
 20
1120.7197021958
 30
0.0
 11
757.5258635218
 21
1118.4697013613
 31
0.0
  0
LINE
  5
B3
330
1F
100
AcDbEntity
  8
0
  6
Continuous
 62
     7
370
    15
100
AcDbLine
 10
357.5258575613
 20
1136.469708037
 30
0.0
 11
357.5258575613
 21
1132.2197031494
 31
0.0
  0
LINE
  5
B4
330
1F
100
AcDbEntity
  8
0
  6
Continuous
 62
     7
370
    15
100
AcDbLine
 10
357.5258575613
 20
1136.469708037
 30
0.0
 11
757.5258635218
 21
1136.469708037
 31
0.0
  0
LINE
  5
B5
330
1F
100
AcDbEntity
  8
0
  6
Continuous
 62
     7
370
    15
100
AcDbLine
 10
757.5258635218
 20
1136.469708037
 30
0.0
 11
757.5258635218
 21
1132.2197031494
 31
0.0
  0
LINE
  5
B6
330
1F
100
AcDbEntity
  8
0
  6
Continuous
 62
     7
370
    15
100
AcDbLine
 10
357.5258575613
 20
1132.2197031494
 30
0.0
 11
357.5258575613
 21
1120.7197021958
 31
0.0
  0
LINE
  5
B7
330
1F
100
AcDbEntity
  8
0
  6
Continuous
 62
     7
370
    15
100
AcDbLine
 10
757.5258635218
 20
1132.2197031494
 30
0.0
 11
757.5258635218
 21
1120.7197021958
 31
0.0
  0
LINE
  5
B8
330
1F
100
AcDbEntity
  8
0
  6
Continuous
 62
     7
370
    15
100
AcDbLine
 10
747.5258581573
 20
1147.9697089907
 30
0.0
 11
755.0258659059
 21
1147.9697089907
 31
0.0
  0
LINE
  5
B9
330
1F
100
AcDbEntity
  8
0
  6
Continuous
 62
     7
370
    15
100
AcDbLine
 10
740.0258653099
 20
1147.9697089907
 30
0.0
 11
747.5258581573
 21
1147.9697089907
 31
0.0
  0
LINE
  5
BA
330
1F
100
AcDbEntity
  8
0
  6
Continuous
 62
     7
370
    15
100
AcDbLine
 10
372.2332142526
 20
1147.9697089907
 30
0.0
 11
375.0258557731
 21
1147.9697089907
 31
0.0
  0
LINE
  5
BB
330
1F
100
AcDbEntity
  8
0
  6
Continuous
 62
     7
370
    15
100
AcDbLine
 10
360.0258551771
 20
1147.9697089907
 30
0.0
 11
372.2332142526
 21
1147.9697089907
 31
0.0
  0
LINE
  5
BC
330
1F
100
AcDbEntity
  8
0
  6
Continuous
 62
     7
370
    15
100
AcDbLine
 10
757.5258635218
 20
918.9054232355
 30
0.0
 11
757.5258635218
 21
928.0339937922
 31
0.0
  0
LINE
  5
BD
330
1F
100
AcDbEntity
  8
0
  6
Continuous
 62
     7
370
    15
100
AcDbLine
 10
357.5258575613
 20
918.9054232355
 30
0.0
 11
357.5258575613
 21
928.0339937922
 31
0.0
  0
LINE
  5
BE
330
1F
100
AcDbEntity
  8
0
  6
Continuous
 62
     7
370
    15
100
AcDbLine
 10
357.5258575613
 20
874.7054200884
 30
0.0
 11
357.5258575613
 21
918.9054232355
 31
0.0
  0
LINE
  5
BF
330
1F
100
AcDbEntity
  8
0
  6
Continuous
 62
     7
370
    15
100
AcDbLine
 10
757.5258635218
 20
874.7054200884
 30
0.0
 11
757.5258635218
 21
918.9054232355
 31
0.0
  0
LINE
  5
C0
330
1F
100
AcDbEntity
  8
0
  6
Continuous
 62
     7
370
    15
100
AcDbLine
 10
357.5258575613
 20
928.0339937922
 30
0.0
 11
357.5258575613
 21
1047.9266505953
 31
0.0
  0
LINE
  5
C1
330
1F
100
AcDbEntity
  8
0
  6
Continuous
 62
     7
370
    15
100
AcDbLine
 10
757.5258635218
 20
928.0339937922
 30
0.0
 11
757.5258635218
 21
1026.175276589
 31
0.0
  0
LINE
  5
C2
330
1F
100
AcDbEntity
  8
0
  6
Continuous
 62
     7
370
    15
100
AcDbLine
 10
757.5258635218
 20
868.4697013613
 30
0.0
 11
757.5258635218
 21
874.7054200884
 31
0.0
  0
LINE
  5
C3
330
1F
100
AcDbEntity
  8
0
  6
Continuous
 62
     7
370
    15
100
AcDbLine
 10
757.5258635218
 20
868.4697013613
 30
0.0
 11
357.5258575613
 21
868.4697013613
 31
0.0
  0
LINE
  5
C4
330
1F
100
AcDbEntity
  8
0
  6
Continuous
 62
     7
370
    15
100
AcDbLine
 10
357.5258575613
 20
868.4697013613
 30
0.0
 11
357.5258575613
 21
874.7054200884
 31
0.0
  0
LINE
  5
C5
330
1F
100
AcDbEntity
  8
0
  6
Continuous
 62
     7
370
    15
100
AcDbLine
 10
357.5258575613
 20
1055.4833274599
 30
0.0
 11
357.5258575613
 21
1056.2083732602
 31
0.0
  0
LINE
  5
C6
330
1F
100
AcDbEntity
  8
0
  6
Continuous
 62
     7
370
    15
100
AcDbLine
 10
357.5258575613
 20
1056.2083732602
 30
0.0
 11
357.5386874611
 21
1056.3039344069
 31
0.0
  0
ARC
  5
C7
330
1F
100
AcDbEntity
  8
0
  6
Continuous
 62
     7
370
    15
100
AcDbCircle
 10
358.1145494574
 20
1055.4133903237
 30
0.0
 40
0.5928316385123215
100
AcDbArc
 50
117.0400425614
 51
173.2249633734
  0
ARC
  5
C8
330
1F
100
AcDbEntity
  8
0
  6
Continuous
 62
     7
370
    15
100
AcDbCircle
 10
756.9371716256
 20
1055.4133903237
 30
0.0
 40
0.5928316385123779
100
AcDbArc
 50
6.7750366266
 51
62.9599574386
  0
LINE
  5
C9
330
1F
100
AcDbEntity
  8
0
  6
Continuous
 62
     7
370
    15
100
AcDbLine
 10
757.5258635218
 20
1049.5878022429
 30
0.0
 11
757.5258635218
 21
1055.4833274599
 31
0.0
  0
LINE
  5
CA
330
1F
100
AcDbEntity
  8
0
  6
Continuous
 62
     7
370
    15
100
AcDbLine
 10
357.5258575613
 20
1049.5878022429
 30
0.0
 11
357.5258575613
 21
1055.4833274599
 31
0.0
  0
LINE
  5
CB
330
1F
100
AcDbEntity
  8
0
  6
Continuous
 62
     7
370
    15
100
AcDbLine
 10
375.2758674557
 20
1055.4833274599
 30
0.0
 11
375.2688043053
 21
1055.5542569872
 31
0.0
  0
LINE
  5
CC
330
1F
100
AcDbEntity
  8
0
  6
Continuous
 62
     7
370
    15
100
AcDbLine
 10
375.2758674557
 20
1055.402816486
 30
0.0
 11
375.2758674557
 21
1055.4833274599
 31
0.0
  0
LWPOLYLINE
  5
CD
330
1F
100
AcDbEntity
  8
0
  6
Continuous
 62
     7
370
    15
100
AcDbPolyline
 90
        9
 70
   128
 43
0.0
 10
375.525864237
 20
1055.402816486
 10
375.516342395
 20
1055.3825956103
 10
375.489252084
 20
1055.3654592749
 10
375.4486911232
 20
1055.3540002819
 10
375.4008583958
 20
1055.3499769684
 10
375.3530256683
 20
1055.3540002819
 10
375.3124796087
 20
1055.3654592749
 10
375.2853743965
 20
1055.3825956103
 10
375.2758674557
 20
1055.402816486
  0
LINE
  5
CE
330
1F
100
AcDbEntity
  8
0
  6
Continuous
 62
     7
370
    15
100
AcDbLine
 10
375.525864237
 20
1055.5542569872
 30
0.0
 11
375.525864237
 21
1055.402816486
 31
0.0
  0
LINE
  5
CF
330
1F
100
AcDbEntity
  8
0
  6
Continuous
 62
     7
370
    15
100
AcDbLine
 10
739.525856846
 20
1055.402816486
 30
0.0
 11
739.525856846
 21
1055.5542569872
 31
0.0
  0
LWPOLYLINE
  5
D0
330
1F
100
AcDbEntity
  8
0
  6
Continuous
 62
     7
370
    15
100
AcDbPolyline
 90
        9
 70
   128
 43
0.0
 10
739.7758685285
 20
1055.402816486
 10
739.7663466865
 20
1055.3825956103
 10
739.7392563755
 20
1055.3654592749
 10
739.6986954147
 20
1055.3540002819
 10
739.6508626873
 20
1055.3499769684
 10
739.6030299599
 20
1055.3540002819
 10
739.5624689991
 20
1055.3654592749
 10
739.535378688
 20
1055.3825956103
 10
739.525856846
 20
1055.402816486
  0
LINE
  5
D1
330
1F
100
AcDbEntity
  8
0
  6
Continuous
 62
     7
370
    15
100
AcDbLine
 10
739.7758685285
 20
1055.4833274599
 30
0.0
 11
739.7758685285
 21
1055.402816486
 31
0.0
  0
LINE
  5
D2
330
1F
100
AcDbEntity
  8
0
  6
Continuous
 62
     7
370
    15
100
AcDbLine
 10
739.7829167778
 20
1055.5542569872
 30
0.0
 11
739.7758685285
 21
1055.4833274599
 31
0.0
  0
LWPOLYLINE
  5
D3
330
1F
100
AcDbEntity
  8
0
  6
Continuous
 62
     7
370
    15
100
AcDbPolyline
 90
       19
 70
   128
 43
0.0
 10
746.5258561308
 20
1055.1452350136
 10
745.4313956434
 20
1055.0636809584
 10
744.4689445431
 20
1054.828838658
 10
743.7545828754
 20
1054.469050121
 10
743.3744840557
 20
1054.0276926276
 10
743.3744840557
 20
1053.5580229279
 10
743.7545828754
 20
1053.1166654345
 10
744.4689445431
 20
1052.7568768975
 10
745.4313956434
 20
1052.522034597
 10
746.5258561308
 20
1052.4404805418
 10
747.6203315193
 20
1052.522034597
 10
748.5827826197
 20
1052.7568768975
 10
749.2971442873
 20
1053.1166654345
 10
749.677243107
 20
1053.5580229279
 10
749.677243107
 20
1054.0276926276
 10
749.2971442873
 20
1054.469050121
 10
748.5827826197
 20
1054.828838658
 10
747.6203315193
 20
1055.0636809584
 10
746.5258561308
 20
1055.1452350136
  0
LWPOLYLINE
  5
D4
330
1F
100
AcDbEntity
  8
0
  6
Continuous
 62
     7
370
    15
100
AcDbPolyline
 90
       19
 70
   128
 43
0.0
 10
368.5258649523
 20
1052.4404805418
 10
369.6203254396
 20
1052.522034597
 10
370.58277654
 20
1052.7568768975
 10
371.2971382076
 20
1053.1166654345
 10
371.6772519285
 20
1053.5580229279
 10
371.6772519285
 20
1054.0276926276
 10
371.2971382076
 20
1054.469050121
 10
370.58277654
 20
1054.828838658
 10
369.6203254396
 20
1055.0636809584
 10
368.5258649523
 20
1055.1452350136
 10
367.4314044649
 20
1055.0636809584
 10
366.4689384634
 20
1054.828838658
 10
365.7545767958
 20
1054.469050121
 10
365.374477976
 20
1054.0276926276
 10
365.374477976
 20
1053.5580229279
 10
365.7545767958
 20
1053.1166654345
 10
366.4689384634
 20
1052.7568768975
 10
367.4314044649
 20
1052.522034597
 10
368.5258649523
 20
1052.4404805418
  0
LINE
  5
D5
330
1F
100
AcDbEntity
  8
0
  6
Continuous
 62
     7
370
    15
100
AcDbLine
 10
739.7758685285
 20
1055.4833274599
 30
0.0
 11
739.7758685285
 21
1055.5542569872
 31
0.0
  0
LINE
  5
D6
330
1F
100
AcDbEntity
  8
0
  6
Continuous
 62
     7
370
    15
100
AcDbLine
 10
375.2758674557
 20
1055.5542569872
 30
0.0
 11
375.2758674557
 21
1055.4833274599
 31
0.0
  0
LINE
  5
D7
330
1F
100
AcDbEntity
  8
0
  6
Continuous
 62
     7
370
    15
100
AcDbLine
 10
757.513033622
 20
1056.3039344069
 30
0.0
 11
757.5258635218
 21
1056.2083732602
 31
0.0
  0
LINE
  5
D8
330
1F
100
AcDbEntity
  8
0
  6
Continuous
 62
     7
370
    15
100
AcDbLine
 10
757.5258635218
 20
1056.2083732602
 30
0.0
 11
757.5258635218
 21
1055.4833274599
 31
0.0
  0
ARC
  5
D9
330
1F
100
AcDbEntity
  8
0
  6
Continuous
 62
     7
370
    15
100
AcDbCircle
 10
746.5258635814
 20
1057.9762032692
 30
0.0
 40
4.909463057274364
100
AcDbArc
 50
231.1012378312
 51
308.8987621688
  0
ARC
  5
DA
330
1F
100
AcDbEntity
  8
0
  6
Continuous
 62
     7
370
    15
100
AcDbCircle
 10
368.990196814
 20
1057.0151003648
 30
0.0
 40
3.877476529200075
100
AcDbArc
 50
263.1222651664
 51
312.4793461119
  0
ARC
  5
DB
330
1F
100
AcDbEntity
  8
0
  6
Continuous
 62
     7
370
    15
100
AcDbCircle
 10
368.0615104585
 20
1057.0150298775
 30
0.0
 40
3.877409259484503
100
AcDbArc
 50
227.5201971344
 51
276.8781915873
  0
LINE
  5
DC
330
1F
100
AcDbEntity
  8
0
  6
Continuous
 62
     7
370
    15
100
AcDbLine
 10
357.5258575613
 20
1047.9266505953
 30
0.0
 11
357.5258575613
 21
1049.5878022429
 31
0.0
  0
LINE
  5
DD
330
1F
100
AcDbEntity
  8
0
  6
Continuous
 62
     7
370
    15
100
AcDbLine
 10
757.5258635218
 20
1047.9689102885
 30
0.0
 11
757.5258635218
 21
1049.5878022429
 31
0.0
  0
LWPOLYLINE
  5
DE
330
1F
100
AcDbEntity
  8
0
  6
Continuous
 62
     7
370
    15
100
AcDbPolyline
 90
       28
 70
   128
 43
0.0
 10
501.0985829169
 20
990.8237617728
 10
500.9260349209
 20
989.4331556078
 10
501.1119790608
 20
988.0439799544
 10
501.6464017565
 20
986.7310982462
 10
502.5004916126
 20
985.5652909991
 10
503.6282040412
 20
984.6094411131
 10
504.9687348539
 20
983.9150768038
 10
506.4498283202
 20
983.5195701834
 10
507.9916291172
 20
983.4443193194
 10
509.5110185677
 20
983.6933475252
 10
510.9260924394
 20
984.2532139536
 10
512.1605567867
 20
985.0937586542
 10
513.1478704745
 20
986.1696522948
 10
513.8347991044
 20
987.4228995558
 10
514.1843132908
 20
988.7859385725
 10
514.1775705153
 20
990.1853066203
 10
513.8149284059
 20
991.5455442187
 10
513.1159447367
 20
992.7933078524
 10
512.1183045441
 20
993.8613336798
 10
510.8757786686
 20
994.6920734164
 10
509.4553627307
 20
995.2407341715
 10
507.9336263472
 20
995.4776924368
 10
506.3926153118
 20
995.3902226206
 10
504.9153886968
 20
994.9830334898
 10
503.5816006595
 20
994.2780595538
 10
502.4631493027
 20
993.3133285757
 10
501.620332175
 20
992.140815806
 10
501.0985829169
 20
990.8237617728
  0
LWPOLYLINE
  5
DF
330
1F
100
AcDbEntity
  8
0
  6
Continuous
 62
     7
370
    15
100
AcDbPolyline
 90
       21
 70
   128
 43
0.0
 10
499.9784328277
 20
989.580528092
 10
499.7764997417
 20
988.0628746268
 10
499.9392651255
 20
986.5414064642
 10
500.4591070349
 20
985.087172341
 10
501.3117291266
 20
983.7682407614
 10
502.4572558934
 20
982.6462727305
 10
503.8421325619
 20
981.7736905333
 10
505.4015986854
 20
981.1913531538
 10
507.0627354318
 20
980.9264403101
 10
508.7478704984
 20
980.9913497683
 10
510.3782139952
 20
981.3830714938
 10
511.8775166804
 20
982.0832770583
 10
513.1756909425
 20
983.0592137095
 10
514.2120257253
 20
984.2652540919
 10
514.938066178
 20
985.6450122115
 10
515.3198637301
 20
987.1339660403
 10
515.3395667905
 20
988.6624973532
 10
514.9962514872
 20
990.1591103789
 10
514.3059700961
 20
991.5538590666
 10
513.3010022575
 20
992.7815359351
 10
513.1106995279
 20
992.9614525553
  0
ARC
  5
E0
330
1F
100
AcDbEntity
  8
0
  6
Continuous
 62
     7
370
    15
100
AcDbCircle
 10
506.692538085
 20
987.8038002771
 30
0.0
 40
6.94521210155356
100
AcDbArc
 50
132.0449337359
 51
165.1777893823
  0
LINE
  5
E1
330
1F
100
AcDbEntity
  8
0
  6
Continuous
 62
     7
370
    15
100
AcDbLine
 10
546.2258629734
 20
981.2851708647
 30
0.0
 11
546.2258629734
 21
1004.4866662737
 31
0.0
  0
LINE
  5
E2
330
1F
100
AcDbEntity
  8
0
  6
Continuous
 62
     7
370
    15
100
AcDbLine
 10
568.8258618349
 20
1004.4866662737
 30
0.0
 11
568.8258618349
 21
981.2851708647
 31
0.0
  0
LINE
  5
E3
330
1F
100
AcDbEntity
  8
0
  6
Continuous
 62
     7
370
    15
100
AcDbLine
 10
546.2258629734
 20
978.1155448672
 30
0.0
 11
546.2258629734
 21
981.2851708647
 31
0.0
  0
LWPOLYLINE
  5
E4
330
1F
100
AcDbEntity
  8
0
  6
Continuous
 62
     7
370
    15
100
AcDbPolyline
 90
        3
 70
   128
 43
0.0
 10
546.2459888542
 20
977.9882591483
 10
546.2354686344
 20
978.027151179
 10
546.2258629734
 20
978.1155448672
  0
LINE
  5
E5
330
1F
100
AcDbEntity
  8
0
  6
Continuous
 62
     7
370
    15
100
AcDbLine
 10
568.8258618349
 20
981.2851708647
 30
0.0
 11
568.8258618349
 21
978.1155448672
 31
0.0
  0
LWPOLYLINE
  5
E6
330
1F
100
AcDbEntity
  8
0
  6
Continuous
 62
     7
370
    15
100
AcDbPolyline
 90
        3
 70
   128
 43
0.0
 10
568.8258618349
 20
978.1155448672
 10
568.8162543113
 20
978.027151179
 10
568.8057359541
 20
977.9882591483
  0
LINE
  5
E7
330
1F
100
AcDbEntity
  8
0
  6
Continuous
 62
     7
370
    15
100
AcDbLine
 10
572.2758620279
 20
1005.4346185442
 30
0.0
 11
572.2758620279
 21
974.1670053717
 31
0.0
  0
LINE
  5
E8
330
1F
100
AcDbEntity
  8
0
  6
Continuous
 62
     7
370
    15
100
AcDbLine
 10
569.0258619609
 20
977.9882591483
 30
0.0
 11
569.0258619609
 21
1002.4585884329
 31
0.0
  0
LINE
  5
E9
330
1F
100
AcDbEntity
  8
0
  6
Continuous
 62
     7
370
    15
100
AcDbLine
 10
569.0258619609
 20
1002.4585884329
 30
0.0
 11
568.8258618349
 21
1002.4585884329
 31
0.0
  0
LINE
  5
EA
330
1F
100
AcDbEntity
  8
0
  6
Continuous
 62
     7
370
    15
100
AcDbLine
 10
546.2258629734
 20
1002.4585884329
 30
0.0
 11
546.0258614505
 21
1002.4585884329
 31
0.0
  0
LINE
  5
EB
330
1F
100
AcDbEntity
  8
0
  6
Continuous
 62
     7
370
    15
100
AcDbLine
 10
546.0258614505
 20
1002.4585884329
 30
0.0
 11
546.0258614505
 21
977.9882591483
 31
0.0
  0
LINE
  5
EC
330
1F
100
AcDbEntity
  8
0
  6
Continuous
 62
     7
370
    15
100
AcDbLine
 10
546.0258614505
 20
977.9882591483
 30
0.0
 11
569.0258619609
 21
977.9882591483
 31
0.0
  0
LINE
  5
ED
330
1F
100
AcDbEntity
  8
0
  6
Continuous
 62
     7
370
    15
100
AcDbLine
 10
542.7758604521
 20
974.1670053717
 30
0.0
 11
542.7758604521
 21
1005.4346185442
 31
0.0
  0
LINE
  5
EE
330
1F
100
AcDbEntity
  8
0
  6
Continuous
 62
     7
370
    15
100
AcDbLine
 10
543.7758624787
 20
971.5702098128
 30
0.0
 11
571.275861864
 21
971.5702098128
 31
0.0
  0
LINE
  5
EF
330
1F
100
AcDbEntity
  8
0
  6
Continuous
 62
     7
370
    15
100
AcDbLine
 10
572.2758620279
 20
974.1670053717
 30
0.0
 11
572.2758620279
 21
972.4765282389
 31
0.0
  0
ARC
  5
F0
330
1F
100
AcDbEntity
  8
0
  6
Continuous
 62
     7
370
    15
100
AcDbCircle
 10
571.320511582
 20
972.5257867473
 30
0.0
 40
0.9566195038541497
100
AcDbArc
 50
267.3247773468
 51
357.0484050158
  0
LINE
  5
F1
330
1F
100
AcDbEntity
  8
0
  6
Continuous
 62
     7
370
    15
100
AcDbLine
 10
542.7758604521
 20
972.4765282389
 30
0.0
 11
542.7758604521
 21
974.1670053717
 31
0.0
  0
ARC
  5
F2
330
1F
100
AcDbEntity
  8
0
  6
Continuous
 62
     7
370
    15
100
AcDbCircle
 10
543.7312140001
 20
972.5257900783
 30
0.0
 40
0.9566227733273919
100
AcDbArc
 50
182.9517846559
 51
272.6751391888
  0
LINE
  5
F3
330
1F
100
AcDbEntity
  8
0
  6
Continuous
 62
     7
370
    15
100
AcDbLine
 10
546.0258614505
 20
1001.9514423128
 30
0.0
 11
546.2258629734
 21
1001.9514423128
 31
0.0
  0
LINE
  5
F4
330
1F
100
AcDbEntity
  8
0
  6
Continuous
 62
     7
370
    15
100
AcDbLine
 10
568.8258618349
 20
1001.9514423128
 30
0.0
 11
569.0258619609
 21
1001.9514423128
 31
0.0
  0
LWPOLYLINE
  5
F5
330
1F
100
AcDbEntity
  8
0
  6
Continuous
 62
     7
370
    15
100
AcDbPolyline
 90
       13
 70
   128
 43
0.0
 10
601.6483310843
 20
983.2987647768
 10
602.8938409174
 20
982.2825949904
 10
604.3512638891
 20
981.5328281638
 10
605.9524514014
 20
981.0845416304
 10
607.6225344325
 20
980.958686423
 10
609.2834197218
 20
981.1611634013
 10
610.8574480051
 20
981.6824954268
 10
612.2710205848
 20
982.4983340021
 10
613.4580396349
 20
983.57047255
 10
614.3629983301
 20
984.8488133665
 10
614.9435848231
 20
986.2735729929
 10
615.1726529235
 20
987.7781432387
 10
615.1758603985
 20
987.9803221938
  0
ARC
  5
F6
330
1F
100
AcDbEntity
  8
0
  6
Continuous
 62
     7
370
    15
100
AcDbCircle
 10
606.3193152372
 20
988.0230848088
 30
0.0
 40
6.643590348694672
100
AcDbArc
 50
180.3687967128
 51
225.3252569453
  0
LWPOLYLINE
  5
F7
330
1F
100
AcDbEntity
  8
0
  6
Continuous
 62
     7
370
    15
100
AcDbPolyline
 90
       16
 70
   128
 43
0.0
 10
499.8259715969
 20
987.9803221938
 10
499.913940602
 20
986.925021958
 10
500.343384617
 20
985.4568999525
 10
501.1110179359
 20
984.1067653414
 10
502.1809436614
 20
982.9377692458
 10
503.5031311447
 20
982.0045691248
 10
505.0157629187
 20
981.3507657763
 10
506.6481106216
 20
981.0069661852
 10
508.3238356048
 20
980.9892040011
 10
509.9646024639
 20
981.2983732935
 10
511.4936702186
 20
981.9199603316
 10
512.8395579988
 20
982.8249376532
 10
513.939315849
 20
983.9709561583
 10
514.7415384883
 20
985.3044610735
 10
515.2087047929
 20
986.7631059405
 10
515.3259694809
 20
987.9803221938
  0
LWPOLYLINE
  5
F8
330
1F
100
AcDbEntity
  8
0
  6
Continuous
 62
     7
370
    15
100
AcDbPolyline
 90
       28
 70
   128
 43
0.0
 10
611.8582137162
 20
984.9664729353
 10
612.8820166225
 20
986.0139649626
 10
613.6116780574
 20
987.2472446677
 10
614.0078589553
 20
988.5997634646
 10
614.0492022271
 20
989.9986248728
 10
613.733480149
 20
991.3684290167
 10
613.0777098472
 20
992.6353257414
 10
612.1172517771
 20
993.731008124
 10
610.9038762981
 20
994.5964079615
 10
609.5030032331
 20
995.1848846194
 10
607.9901479418
 20
995.4646986243
 10
606.4468737925
 20
995.4207700011
 10
604.9563758308
 20
995.0554531332
 10
603.5990085686
 20
994.3884771582
 10
602.4479497457
 20
993.4557538744
 10
601.5652496601
 20
992.3076194044
 10
600.9984970326
 20
991.0059135672
 10
600.7782466943
 20
989.6208506342
 10
600.9163692827
 20
988.2270854231
 10
601.4054216678
 20
986.8997793909
 10
602.2190362448
 20
985.7104581114
 10
603.3133533085
 20
984.72322638
 10
604.6293754364
 20
983.9913409468
 10
606.0961582
 20
983.5542600867
 10
607.6346248621
 20
983.435497832
 10
609.1618374223
 20
983.6415212866
 10
610.5954632396
 20
984.1611843821
 10
611.8582137162
 20
984.9664729353
  0
ARC
  5
F9
330
1F
100
AcDbEntity
  8
0
  6
Continuous
 62
     7
370
    15
100
AcDbCircle
 10
608.5584777454
 20
987.9746200074
 30
0.0
 40
6.651851462823639
100
AcDbArc
 50
307.6830850247
 51
48.5636102828
  0
LWPOLYLINE
  5
FA
330
1F
100
AcDbEntity
  8
0
  6
Continuous
 62
     7
370
    15
100
AcDbPolyline
 90
       16
 70
   128
 43
0.0
 10
601.8911287422
 20
992.9614525553
 10
601.6287975246
 20
992.7100103613
 10
600.642480352
 20
991.4699655291
 10
599.9733455712
 20
990.0667827841
 10
599.6526818956
 20
988.5660272356
 10
599.6954836184
 20
987.0379131552
 10
600.099750259
 20
985.5538171049
 10
600.8465778316
 20
984.1832082983
 10
601.9010454649
 20
982.9901617285
 10
603.2138452167
 20
982.0304375407
 10
604.7235973412
 20
981.3489180323
 10
606.3597019995
 20
980.9774618861
 10
608.0456584925
 20
980.9334736582
 10
609.7026378149
 20
981.2189799067
 10
611.2531557912
 20
981.8206291911
 10
612.6247108216
 20
982.7103179213
  0
LINE
  5
FB
330
1F
100
AcDbEntity
  8
0
  6
Continuous
 62
     7
370
    15
100
AcDbLine
 10
712.0281927521
 20
989.8859422919
 30
0.0
 11
748.0275057489
 21
989.8859422919
 31
0.0
  0
SPLINE
  5
FC
330
1F
100
AcDbEntity
  8
0
  6
Continuous
 62
     7
370
    15
100
AcDbSpline
210
0.0
220
0.0
230
1.0
 70
     8
 71
     3
 72
    11
 73
     7
 74
     0
 42
0.00000001
 43
0.00000001
 12
1.0
 22
0.0
 32
0.0
 13
1.0
 23
0.0
 33
0.0
 40
0.0
 40
0.0
 40
0.0
 40
0.0
 40
0.2833032076150941
 40
0.5580371242912721
 40
0.7754298216183848
 40
1.0
 40
1.0
 40
1.0
 40
1.0
 10
748.0275057489265
 20
989.8859422918663
 30
0.0
 10
748.3246237872008
 20
989.8506436177074
 30
0.0
 10
748.9098727049575
 20
989.781113975651
 30
0.0
 10
749.5590030662881
 20
989.2966696436174
 30
0.0
 10
749.9541527497063
 20
988.7062771171755
 30
0.0
 10
750.0016973902063
 20
988.2873387136486
 30
0.0
 10
750.0258557731498
 20
988.074467730175
 30
0.0
  0
LINE
  5
FD
330
1F
100
AcDbEntity
  8
0
  6
Continuous
 62
     7
370
    15
100
AcDbLine
 10
750.0258557731
 20
988.0744677302
 30
0.0
 11
750.0258557731
 21
937.3186093088
 31
0.0
  0
SPLINE
  5
FE
330
1F
100
AcDbEntity
  8
0
  6
Continuous
 62
     7
370
    15
100
AcDbSpline
210
0.0
220
0.0
230
1.0
 70
     8
 71
     3
 72
    11
 73
     7
 74
     0
 42
0.00000001
 43
0.00000001
 12
1.0
 22
0.0
 32
0.0
 13
1.0
 23
0.0
 33
0.0
 40
0.0
 40
0.0
 40
0.0
 40
0.0
 40
0.2833261666070097
 40
0.5580498313723512
 40
0.7754295840124166
 40
1.0
 40
1.0
 40
1.0
 40
1.0
 10
750.0258557731498
 20
937.3186093088493
 30
0.0
 10
749.9869352421116
 20
937.0493367417768
 30
0.0
 10
749.9102759061847
 20
936.5189674065064
 30
0.0
 10
749.3759119106589
 20
935.9305841374221
 30
0.0
 10
748.7245955147376
 20
935.5724776702739
 30
0.0
 10
748.2623758224132
 20
935.5293878350072
 30
0.0
 10
748.0275057489265
 20
935.5074923750267
 30
0.0
  0
LINE
  5
FF
330
1F
100
AcDbEntity
  8
0
  6
Continuous
 62
     7
370
    15
100
AcDbLine
 10
748.0275057489
 20
935.507492375
 30
0.0
 11
712.0281927521
 21
935.507492375
 31
0.0
  0
SPLINE
  5
100
330
1F
100
AcDbEntity
  8
0
  6
Continuous
 62
     7
370
    15
100
AcDbSpline
210
0.0
220
0.0
230
1.0
 70
     8
 71
     3
 72
    11
 73
     7
 74
     0
 42
0.00000001
 43
0.00000001
 12
1.0
 22
0.0
 32
0.0
 13
1.0
 23
0.0
 33
0.0
 40
0.0
 40
0.0
 40
0.0
 40
0.0
 40
0.283276957810888
 40
0.5579965739771433
 40
0.7753949113872298
 40
0.9999999999999999
 40
0.9999999999999999
 40
0.9999999999999999
 40
0.9999999999999999
 10
712.0281927520622
 20
935.5074923750267
 30
0.0
 10
711.7310739304451
 20
935.5421830701948
 30
0.0
 10
711.1458117693162
 20
935.6105165103809
 30
0.0
 10
710.495619822324
 20
936.0935205082518
 30
0.0
 10
710.099080312509
 20
936.6830264305639
 30
0.0
 10
710.0505333645011
 20
937.1018297171864
 30
0.0
 10
710.0258641178001
 20
937.3146455999718
 30
0.0
  0
LINE
  5
101
330
1F
100
AcDbEntity
  8
0
  6
Continuous
 62
     7
370
    15
100
AcDbLine
 10
710.0258641178
 20
937.3146456
 30
0.0
 11
710.0258641178
 21
988.0784314391
 31
0.0
  0
SPLINE
  5
102
330
1F
100
AcDbEntity
  8
0
  6
Continuous
 62
     7
370
    15
100
AcDbSpline
210
0.0
220
0.0
230
1.0
 70
     8
 71
     3
 72
    11
 73
     7
 74
     0
 42
0.00000001
 43
0.00000001
 12
1.0
 22
0.0
 32
0.0
 13
1.0
 23
0.0
 33
0.0
 40
0.0
 40
0.0
 40
0.0
 40
0.0
 40
0.2833532900347245
 40
0.5581097530648487
 40
0.7754781381585892
 40
1.0
 40
1.0
 40
1.0
 40
1.0
 10
710.0258641178001
 20
988.0784314390526
 30
0.0
 10
710.0654393698754
 20
988.3476459795337
 30
0.0
 10
710.143389176495
 20
988.8779071975738
 30
0.0
 10
710.6790653805535
 20
989.4652816734229
 30
0.0
 10
711.3310908897505
 20
989.8222908579593
 30
0.0
 10
711.7933311612267
 20
989.8644973957406
 30
0.0
 10
712.0281927520622
 20
989.8859422918663
 30
0.0
  0
SPLINE
  5
103
330
1F
100
AcDbEntity
  8
0
  6
Continuous
 62
     7
370
    15
100
AcDbSpline
210
0.0
220
0.0
230
1.0
 70
     8
 71
     3
 72
    11
 73
     7
 74
     0
 42
0.00000001
 43
0.00000001
 12
1.0
 22
0.0
 32
0.0
 13
1.0
 23
0.0
 33
0.0
 40
0.0
 40
0.0
 40
0.0
 40
0.0
 40
0.2832791725054115
 40
0.5580040494155527
 40
0.7754026226422817
 40
1.0
 40
1.0
 40
1.0
 40
1.0
 10
712.0281927520622
 20
934.8312776800499
 30
0.0
 10
711.7310729931485
 20
934.8659817584628
 30
0.0
 10
711.145805720695
 20
934.9343419422149
 30
0.0
 10
710.4956258963222
 20
935.41732997392
 30
0.0
 10
710.0990841301141
 20
936.0068299095702
 30
0.0
 10
710.0505343658306
 20
936.4256433647403
 30
0.0
 10
710.0258641178001
 20
936.6384607073173
 30
0.0
  0
LINE
  5
104
330
1F
100
AcDbEntity
  8
0
  6
Continuous
 62
     7
370
    15
100
AcDbLine
 10
748.0275057489
 20
934.83127768
 30
0.0
 11
712.0281927521
 21
934.83127768
 31
0.0
  0
SPLINE
  5
105
330
1F
100
AcDbEntity
  8
0
  6
Continuous
 62
     7
370
    15
100
AcDbSpline
210
0.0
220
0.0
230
1.0
 70
     8
 71
     3
 72
    11
 73
     7
 74
     0
 42
0.00000001
 43
0.00000001
 12
1.0
 22
0.0
 32
0.0
 13
1.0
 23
0.0
 33
0.0
 40
0.0
 40
0.0
 40
0.0
 40
0.0
 40
0.2833188849901415
 40
0.5580431310774441
 40
0.7754276876944365
 40
1.0
 40
1.0
 40
1.0
 40
1.0
 10
750.0258557731498
 20
936.6424244161949
 30
0.0
 10
749.986934180821
 20
936.3731491585307
 30
0.0
 10
749.9102717047194
 20
935.842767260713
 30
0.0
 10
749.3759036822629
 20
935.2544084930297
 30
0.0
 10
748.7246013786348
 20
934.8962547903457
 30
0.0
 10
748.2623767521335
 20
934.8531702847804
 30
0.0
 10
748.0275057489265
 20
934.8312776800499
 30
0.0
  0
LINE
  5
106
330
1F
100
AcDbEntity
  8
0
  6
Continuous
 62
     7
370
    15
100
AcDbLine
 10
750.0258557731
 20
936.6424244162
 30
0.0
 11
750.0258557731
 21
937.3186093088
 31
0.0
  0
SPLINE
  5
107
330
1F
100
AcDbEntity
  8
0
  6
Continuous
 62
     7
370
    15
100
AcDbSpline
210
0.0
220
0.0
230
1.0
 70
     8
 71
     3
 72
    13
 73
     9
 74
     0
 42
0.00000001
 43
0.00000001
 12
1.0
 22
0.0
 32
0.0
 13
1.0
 23
0.0
 33
0.0
 40
0.0
 40
0.0
 40
0.0
 40
0.0
 40
0.1275875393387389
 40
0.2546804043919084
 40
0.5000521538478162
 40
0.7453986499555816
 40
0.8725383727035616
 40
1.0
 40
1.0
 40
1.0
 40
1.0
 10
710.0258641178001
 20
937.3146455999718
 30
0.0
 10
710.0337078380264
 20
937.193954154611
 30
0.0
 10
710.0493648673065
 20
936.9530392010781
 30
0.0
 10
710.211938289067
 20
936.5001124578145
 30
0.0
 10
710.5799448281712
 20
936.003971245074
 30
0.0
 10
711.1289200846329
 20
935.6725219426098
 30
0.0
 10
711.629318145491
 20
935.5272519716515
 30
0.0
 10
711.8951225268479
 20
935.5140844566728
 30
0.0
 10
712.0281927520622
 20
935.5074923750267
 30
0.0
  0
SPLINE
  5
108
330
1F
100
AcDbEntity
  8
0
  6
Continuous
 62
     7
370
    15
100
AcDbSpline
210
0.0
220
0.0
230
1.0
 70
     8
 71
     3
 72
    13
 73
     9
 74
     0
 42
0.00000001
 43
0.00000001
 12
1.0
 22
0.0
 32
0.0
 13
1.0
 23
0.0
 33
0.0
 40
0.0
 40
0.0
 40
0.0
 40
0.0
 40
0.1275737434986372
 40
0.2546455178809555
 40
0.4999953551150552
 40
0.7453500658601676
 40
0.8725054839749767
 40
1.0
 40
1.0
 40
1.0
 40
1.0
 10
748.0275057489265
 20
935.5074923750267
 30
0.0
 10
748.1606964773312
 20
935.5143276428877
 30
0.0
 10
748.4265538636663
 20
935.5279712836291
 30
0.0
 10
748.9266670549847
 20
935.6743507093867
 30
0.0
 10
749.4748812268784
 20
936.0068336021849
 30
0.0
 10
749.8418129179502
 20
936.5037205531285
 30
0.0
 10
750.0031671870715
 20
936.957054970802
 30
0.0
 10
750.0182862001778
 20
937.1979842537786
 30
0.0
 10
750.0258557731498
 20
937.3186093088493
 30
0.0
  0
SPLINE
  5
109
330
1F
100
AcDbEntity
  8
0
  6
Continuous
 62
     7
370
    15
100
AcDbSpline
210
0.0
220
0.0
230
1.0
 70
     8
 71
     3
 72
    13
 73
     9
 74
     0
 42
0.00000001
 43
0.00000001
 12
1.0
 22
0.0
 32
0.0
 13
1.0
 23
0.0
 33
0.0
 40
0.0
 40
0.0
 40
0.0
 40
0.0
 40
0.1275697030302115
 40
0.2546423671982453
 40
0.5000138452150761
 40
0.7453689964776966
 40
0.8725251773880732
 40
1.0
 40
1.0
 40
1.0
 40
1.0
 10
750.0258557731498
 20
988.074467730175
 30
0.0
 10
750.0183035849109
 20
988.1951746737839
 30
0.0
 10
750.0032286333742
 20
988.4361182609185
 30
0.0
 10
749.8417080583242
 20
988.8894703019862
 30
0.0
 10
749.4749079357772
 20
989.3863685861093
 30
0.0
 10
748.9266111742442
 20
989.7190577713496
 30
0.0
 10
748.4264543653112
 20
989.8653787361145
 30
0.0
 10
748.1605995167432
 20
989.8790820572339
 30
0.0
 10
748.0275057489265
 20
989.8859422918663
 30
0.0
  0
SPLINE
  5
10A
330
1F
100
AcDbEntity
  8
0
  6
Continuous
 62
     7
370
    15
100
AcDbSpline
210
0.0
220
0.0
230
1.0
 70
     8
 71
     3
 72
    13
 73
     9
 74
     0
 42
0.00000001
 43
0.00000001
 12
1.0
 22
0.0
 32
0.0
 13
1.0
 23
0.0
 33
0.0
 40
0.0
 40
0.0
 40
0.0
 40
0.0
 40
0.1275375402268376
 40
0.2545898920229684
 40
0.4999406036670344
 40
0.7453272373369173
 40
0.8725076281884665
 40
1.0
 40
1.0
 40
1.0
 40
1.0
 10
712.0281927520622
 20
989.8859422918663
 30
0.0
 10
711.895028422803
 20
989.8793552892091
 30
0.0
 10
711.6292063585925
 20
989.8662063426926
 30
0.0
 10
711.1288409832127
 20
989.7207688218413
 30
0.0
 10
710.5799444892845
 20
989.3892214673834
 30
0.0
 10
710.2118473302297
 20
988.8929982406594
 30
0.0
 10
710.0494339943046
 20
988.4399576170268
 30
0.0
 10
710.0337271570671
 20
988.1990385424851
 30
0.0
 10
710.0258641178001
 20
988.0784314390526
 30
0.0
  0
LINE
  5
10B
330
1F
100
AcDbEntity
  8
0
  6
Continuous
 62
     7
370
    15
100
AcDbLine
 10
629.4774398441
 20
868.1947153326
 30
0.0
 11
629.4774398441
 21
868.2696979758
 31
0.0
  0
LINE
  5
10C
330
1F
100
AcDbEntity
  8
0
  6
Continuous
 62
     7
370
    15
100
AcDbLine
 10
469.4774396951
 20
868.1947153326
 30
0.0
 11
469.4774396951
 21
868.2696979758
 31
0.0
  0
LINE
  5
10D
330
1F
100
AcDbEntity
  8
0
  6
Continuous
 62
     7
370
    15
100
AcDbLine
 10
469.4774396951
 20
868.2696979758
 30
0.0
 11
629.4774398441
 21
868.2696979758
 31
0.0
  0
LINE
  5
10E
330
1F
100
AcDbEntity
  8
0
  6
Continuous
 62
     7
370
    15
100
AcDbLine
 10
469.4774396951
 20
868.1947153326
 30
0.0
 11
629.4774398441
 21
868.1947153326
 31
0.0
  0
LINE
  5
10F
330
1F
100
AcDbEntity
  8
0
  6
Continuous
 62
     7
370
    15
100
AcDbLine
 10
474.4774423773
 20
868.2696979758
 30
0.0
 11
474.4774423773
 21
868.4697013613
 31
0.0
  0
LINE
  5
110
330
1F
100
AcDbEntity
  8
0
  6
Continuous
 62
     7
370
    15
100
AcDbLine
 10
624.4774408872
 20
868.2696979758
 30
0.0
 11
624.4774408872
 21
868.4697013613
 31
0.0
  0
LINE
  5
111
330
1F
100
AcDbEntity
  8
0
  6
Continuous
 62
     7
370
    15
100
AcDbLine
 10
677.5258653099
 20
1303.4702315726
 30
0.0
 11
677.5258653099
 21
1255.1314916726
 31
0.0
  0
LINE
  5
112
330
1F
100
AcDbEntity
  8
0
  6
Continuous
 62
     7
370
    15
100
AcDbLine
 10
437.5258557731
 20
1255.1314916726
 30
0.0
 11
437.5258557731
 21
1303.4702315726
 31
0.0
  0
LINE
  5
113
330
1F
100
AcDbEntity
  8
0
  6
Continuous
 62
     7
370
    15
100
AcDbLine
 10
677.5258653099
 20
1306.562863503
 30
0.0
 11
677.5258653099
 21
1303.4702315726
 31
0.0
  0
LINE
  5
114
330
1F
100
AcDbEntity
  8
0
  6
Continuous
 62
     7
370
    15
100
AcDbLine
 10
437.5258557731
 20
1303.4702315726
 30
0.0
 11
437.5258557731
 21
1306.562863503
 31
0.0
  0
LINE
  5
115
330
1F
100
AcDbEntity
  8
0
  6
Continuous
 62
     7
370
    15
100
AcDbLine
 10
508.025864535
 20
1236.4697020766
 30
0.0
 11
508.025864535
 21
1136.469708037
 31
0.0
  0
LINE
  5
116
330
1F
100
AcDbEntity
  8
0
  6
Continuous
 62
     7
370
    15
100
AcDbLine
 10
607.0258621359
 20
1136.469708037
 30
0.0
 11
607.0258621359
 21
1236.4697020766
 31
0.0
  0
LINE
  5
117
330
1F
100
AcDbEntity
  8
0
  6
Continuous
 62
     7
370
    15
100
AcDbLine
 10
407.5258694822
 20
1347.7697048601
 30
0.0
 11
407.5258694822
 21
1347.6697031673
 31
0.0
  0
LINE
  5
118
330
1F
100
AcDbEntity
  8
0
  6
Continuous
 62
     7
370
    15
100
AcDbLine
 10
442.5258659059
 20
1347.7697048601
 30
0.0
 11
442.5258659059
 21
1347.6697031673
 31
0.0
  0
LINE
  5
119
330
1F
100
AcDbEntity
  8
0
  6
Continuous
 62
     7
370
    15
100
AcDbLine
 10
407.5258694822
 20
1347.7697048601
 30
0.0
 11
442.5258659059
 21
1347.7697048601
 31
0.0
  0
LINE
  5
11A
330
1F
100
AcDbEntity
  8
0
  6
Continuous
 62
     7
370
    15
100
AcDbLine
 10
410.757916444
 20
1347.8697028276
 30
0.0
 11
439.293804043
 21
1347.8697028276
 31
0.0
  0
LINE
  5
11B
330
1F
100
AcDbEntity
  8
0
  6
Continuous
 62
     7
370
    15
100
AcDbLine
 10
439.293804043
 20
1347.8697028276
 30
0.0
 11
440.2938060696
 21
1347.8697028276
 31
0.0
  0
LINE
  5
11C
330
1F
100
AcDbEntity
  8
0
  6
Continuous
 62
     7
370
    15
100
AcDbLine
 10
409.7579144174
 20
1347.8697028276
 30
0.0
 11
410.757916444
 21
1347.8697028276
 31
0.0
  0
LINE
  5
11D
330
1F
100
AcDbEntity
  8
0
  6
Continuous
 62
     7
370
    15
100
AcDbLine
 10
709.0258620912
 20
1346.8506720182
 30
0.0
 11
707.525866502
 21
1346.8506720182
 31
0.0
  0
LINE
  5
11E
330
1F
100
AcDbEntity
  8
0
  6
Continuous
 62
     7
370
    15
100
AcDbLine
 10
709.0258620912
 20
1328.6386944618
 30
0.0
 11
707.525866502
 21
1328.6386944618
 31
0.0
  0
LINE
  5
11F
330
1F
100
AcDbEntity
  8
0
  6
Continuous
 62
     7
370
    15
100
AcDbLine
 10
709.0258620912
 20
1328.6386944618
 30
0.0
 11
709.0258620912
 21
1346.8506720182
 31
0.0
  0
LINE
  5
120
330
1F
100
AcDbEntity
  8
0
  6
Continuous
 62
     7
370
    15
100
AcDbLine
 10
709.0258620912
 20
1237.9722569403
 30
0.0
 11
709.0258620912
 21
1328.6386944618
 31
0.0
  0
LINE
  5
121
330
1F
100
AcDbEntity
  8
0
  6
Continuous
 62
     7
370
    15
100
AcDbLine
 10
709.0258620912
 20
1237.2484777387
 30
0.0
 11
707.525866502
 21
1237.2484777387
 31
0.0
  0
LINE
  5
122
330
1F
100
AcDbEntity
  8
0
  6
Continuous
 62
     7
370
    15
100
AcDbLine
 10
709.0258620912
 20
1237.2484777387
 30
0.0
 11
709.0258620912
 21
1237.9722569403
 31
0.0
  0
LINE
  5
123
330
1F
100
AcDbEntity
  8
0
  6
Continuous
 62
     7
370
    15
100
AcDbLine
 10
406.0258589918
 20
1328.6386944618
 30
0.0
 11
407.5258694822
 21
1328.6386944618
 31
0.0
  0
LINE
  5
124
330
1F
100
AcDbEntity
  8
0
  6
Continuous
 62
     7
370
    15
100
AcDbLine
 10
406.0258589918
 20
1346.8506720182
 30
0.0
 11
407.5258694822
 21
1346.8506720182
 31
0.0
  0
LINE
  5
125
330
1F
100
AcDbEntity
  8
0
  6
Continuous
 62
     7
370
    15
100
AcDbLine
 10
406.0258589918
 20
1328.6386944618
 30
0.0
 11
406.0258589918
 21
1346.8506720182
 31
0.0
  0
LINE
  5
126
330
1F
100
AcDbEntity
  8
0
  6
Continuous
 62
     7
370
    15
100
AcDbLine
 10
406.0258589918
 20
1237.9722569403
 30
0.0
 11
406.0258589918
 21
1328.6386944618
 31
0.0
  0
LINE
  5
127
330
1F
100
AcDbEntity
  8
0
  6
Continuous
 62
     7
370
    15
100
AcDbLine
 10
406.0258589918
 20
1237.2484777387
 30
0.0
 11
407.5258694822
 21
1237.2484777387
 31
0.0
  0
LINE
  5
128
330
1F
100
AcDbEntity
  8
0
  6
Continuous
 62
     7
370
    15
100
AcDbLine
 10
406.0258589918
 20
1237.2484777387
 30
0.0
 11
406.0258589918
 21
1237.9722569403
 31
0.0
  0
LINE
  5
129
330
1F
100
AcDbEntity
  8
0
  6
Continuous
 62
     7
370
    15
100
AcDbLine
 10
707.525866502
 20
1347.6697031673
 30
0.0
 11
407.5258694822
 21
1347.6697031673
 31
0.0
  0
LINE
  5
12A
330
1F
100
AcDbEntity
  8
0
  6
Continuous
 62
     7
370
    15
100
AcDbLine
 10
407.5258694822
 20
1328.245935243
 30
0.0
 11
407.5258694822
 21
1347.6697031673
 31
0.0
  0
LINE
  5
12B
330
1F
100
AcDbEntity
  8
0
  6
Continuous
 62
     7
370
    15
100
AcDbLine
 10
707.525866502
 20
1328.245935243
 30
0.0
 11
707.525866502
 21
1347.6697031673
 31
0.0
  0
LINE
  5
12C
330
1F
100
AcDbEntity
  8
0
  6
Continuous
 62
     7
370
    15
100
AcDbLine
 10
707.525866502
 20
1237.5794958588
 30
0.0
 11
707.525866502
 21
1328.245935243
 31
0.0
  0
LINE
  5
12D
330
1F
100
AcDbEntity
  8
0
  6
Continuous
 62
     7
370
    15
100
AcDbLine
 10
407.5258694822
 20
1237.5794958588
 30
0.0
 11
407.5258694822
 21
1328.245935243
 31
0.0
  0
LWPOLYLINE
  5
12E
330
1F
100
AcDbEntity
  8
0
  6
Continuous
 62
     7
370
    15
100
AcDbPolyline
 90
        9
 70
   128
 43
0.0
 10
672.5258626277
 20
1307.7092768889
 10
674.4767673547
 20
1307.5448574763
 10
676.3526968891
 20
1307.0579182621
 10
678.0815668637
 20
1306.2671718452
 10
679.5969330007
 20
1305.2030063499
 10
680.8405615622
 20
1303.9063170817
 10
681.7646570737
 20
1302.4269349206
 10
682.3337175185
 20
1300.821711522
 10
682.5258605415
 20
1299.1523351319
  0
LINE
  5
12F
330
1F
100
AcDbEntity
  8
0
  6
Continuous
 62
     7
370
    15
100
AcDbLine
 10
672.5258626277
 20
1307.7092768889
 30
0.0
 11
442.5258659059
 21
1307.7092768889
 31
0.0
  0
LWPOLYLINE
  5
130
330
1F
100
AcDbEntity
  8
0
  6
Continuous
 62
     7
370
    15
100
AcDbPolyline
 90
        9
 70
   128
 43
0.0
 10
432.5258605415
 20
1299.1523351319
 10
432.7180110151
 20
1300.821711522
 10
433.2870714599
 20
1302.4269349206
 10
434.2111669714
 20
1303.9063170817
 10
435.4547880823
 20
1305.2030063499
 10
436.9701616699
 20
1306.2671718452
 10
438.6990241939
 20
1307.0579182621
 10
440.574961179
 20
1307.5448574763
 10
442.5258659059
 20
1307.7092768889
  0
LINE
  5
131
330
1F
100
AcDbEntity
  8
0
  6
Continuous
 62
     7
370
    15
100
AcDbLine
 10
432.5258605415
 20
1299.1523351319
 30
0.0
 11
432.5258605415
 21
1256.3676286754
 31
0.0
  0
LWPOLYLINE
  5
132
330
1F
100
AcDbEntity
  8
0
  6
Continuous
 62
     7
370
    15
100
AcDbPolyline
 90
        9
 70
   128
 43
0.0
 10
442.5258659059
 20
1247.8106852886
 10
440.574961179
 20
1247.9751047012
 10
438.6990241939
 20
1248.4620448467
 10
436.9701616699
 20
1249.2527898666
 10
435.4547880823
 20
1250.3169562932
 10
434.2111669714
 20
1251.6136478897
 10
433.2870714599
 20
1253.0930277225
 10
432.7180110151
 20
1254.6982515868
 10
432.5258605415
 20
1256.3676286754
  0
LINE
  5
133
330
1F
100
AcDbEntity
  8
0
  6
Continuous
 62
     7
370
    15
100
AcDbLine
 10
442.5258659059
 20
1247.8106852886
 30
0.0
 11
672.5258626277
 21
1247.8106852886
 31
0.0
  0
LWPOLYLINE
  5
134
330
1F
100
AcDbEntity
  8
0
  6
Continuous
 62
     7
370
    15
100
AcDbPolyline
 90
        9
 70
   128
 43
0.0
 10
682.5258605415
 20
1256.3676286754
 10
682.3337175185
 20
1254.6982515868
 10
681.7646570737
 20
1253.0930277225
 10
680.8405615622
 20
1251.6136478897
 10
679.5969330007
 20
1250.3169562932
 10
678.0815668637
 20
1249.2527898666
 10
676.3526968891
 20
1248.4620448467
 10
674.4767673547
 20
1247.9751047012
 10
672.5258626277
 20
1247.8106852886
  0
LINE
  5
135
330
1F
100
AcDbEntity
  8
0
  6
Continuous
 62
     7
370
    15
100
AcDbLine
 10
682.5258605415
 20
1256.3676286754
 30
0.0
 11
682.5258605415
 21
1299.1523351319
 31
0.0
  0
LWPOLYLINE
  5
136
330
1F
100
AcDbEntity
  8
0
  6
Continuous
 62
     7
370
    15
100
AcDbPolyline
 90
        9
 70
   128
 43
0.0
 10
672.5258626277
 20
1248.2246730741
 10
674.4767673547
 20
1248.3890924867
 10
676.3526968891
 20
1248.8760326322
 10
678.0815668637
 20
1249.6667776522
 10
679.5969330007
 20
1250.7309440788
 10
680.8405615622
 20
1252.02763195
 10
681.7646570737
 20
1253.5070155081
 10
682.3337175185
 20
1255.1122356471
 10
682.5258605415
 20
1256.7816127356
  0
LWPOLYLINE
  5
137
330
1F
100
AcDbEntity
  8
0
  6
Continuous
 62
     7
370
    15
100
AcDbPolyline
 90
        9
 70
   128
 43
0.0
 10
432.5258605415
 20
1256.7816127356
 10
432.7180110151
 20
1255.1122356471
 10
433.2870714599
 20
1253.5070155081
 10
434.2111669714
 20
1252.02763195
 10
435.4547880823
 20
1250.7309440788
 10
436.9701616699
 20
1249.6667776522
 10
438.6990241939
 20
1248.8760326322
 10
440.574961179
 20
1248.3890924867
 10
442.5258659059
 20
1248.2246730741
  0
LINE
  5
138
330
1F
100
AcDbEntity
  8
0
  6
Continuous
 62
     7
370
    15
100
AcDbLine
 10
442.5258659059
 20
1248.2246730741
 30
0.0
 11
672.5258626277
 21
1248.2246730741
 31
0.0
  0
LINE
  5
139
330
1F
100
AcDbEntity
  8
0
  6
Continuous
 62
     7
370
    15
100
AcDbLine
 10
707.525866502
 20
1236.4697020766
 30
0.0
 11
707.525866502
 21
1237.5794958588
 31
0.0
  0
LINE
  5
13A
330
1F
100
AcDbEntity
  8
0
  6
Continuous
 62
     7
370
    15
100
AcDbLine
 10
707.525866502
 20
1236.4697020766
 30
0.0
 11
407.5258694822
 21
1236.4697020766
 31
0.0
  0
LINE
  5
13B
330
1F
100
AcDbEntity
  8
0
  6
Continuous
 62
     7
370
    15
100
AcDbLine
 10
407.5258694822
 20
1236.4697020766
 30
0.0
 11
407.5258694822
 21
1237.5794958588
 31
0.0
  0
LINE
  5
13C
330
1F
100
AcDbEntity
  8
0
  6
Continuous
 62
     7
370
    15
100
AcDbLine
 10
746.5258561308
 20
1053.4586917874
 30
0.0
 11
749.3758671219
 21
1054.1540842768
 31
0.0
  0
LINE
  5
13D
330
1F
100
AcDbEntity
  8
0
  6
Continuous
 62
     7
370
    15
100
AcDbLine
 10
749.3758671219
 20
1054.1540842768
 30
0.0
 11
749.3758671219
 21
1054.4078361508
 31
0.0
  0
LINE
  5
13E
330
1F
100
AcDbEntity
  8
0
  6
Continuous
 62
     7
370
    15
100
AcDbLine
 10
743.6758600408
 20
1054.4078361508
 30
0.0
 11
743.6758600408
 21
1054.1540842768
 31
0.0
  0
LINE
  5
13F
330
1F
100
AcDbEntity
  8
0
  6
Continuous
 62
     7
370
    15
100
AcDbLine
 10
743.6758600408
 20
1054.1540842768
 30
0.0
 11
746.5258561308
 21
1053.4586917874
 31
0.0
  0
LINE
  5
140
330
1F
100
AcDbEntity
  8
0
  6
Continuous
 62
     7
370
    15
100
AcDbLine
 10
746.7396877939
 20
1055.1422100779
 30
0.0
 11
746.5258561308
 21
1055.0900411126
 31
0.0
  0
LINE
  5
141
330
1F
100
AcDbEntity
  8
0
  6
Continuous
 62
     7
370
    15
100
AcDbLine
 10
746.5258561308
 20
1055.0900411126
 30
0.0
 11
746.3120393688
 21
1055.1422100779
 31
0.0
  0
LINE
  5
142
330
1F
100
AcDbEntity
  8
0
  6
Continuous
 62
     7
370
    15
100
AcDbLine
 10
746.5258561308
 20
1055.0900411126
 30
0.0
 11
746.5258561308
 21
1053.4586917874
 31
0.0
  0
LINE
  5
143
330
1F
100
AcDbEntity
  8
0
  6
Continuous
 62
     7
370
    15
100
AcDbLine
 10
365.5363790924
 20
1054.2752754208
 30
0.0
 11
368.5258649523
 21
1053.5458486792
 31
0.0
  0
LINE
  5
144
330
1F
100
AcDbEntity
  8
0
  6
Continuous
 62
     7
370
    15
100
AcDbLine
 10
368.5258649523
 20
1053.5458486792
 30
0.0
 11
371.5153508121
 21
1054.2752754208
 31
0.0
  0
LINE
  5
145
330
1F
100
AcDbEntity
  8
0
  6
Continuous
 62
     7
370
    15
100
AcDbLine
 10
368.5258649523
 20
1053.5458486792
 30
0.0
 11
368.5258649523
 21
1054.6334099289
 31
0.0
  0
LINE
  5
146
330
1F
100
AcDbEntity
  8
0
  6
Continuous
 62
     7
370
    15
100
AcDbLine
 10
368.5258649523
 20
1054.6334099289
 30
0.0
 11
370.0002007419
 21
1054.9931537625
 31
0.0
  0
LINE
  5
147
330
1F
100
AcDbEntity
  8
0
  6
Continuous
 62
     7
370
    15
100
AcDbLine
 10
367.0515291626
 20
1054.9931537625
 30
0.0
 11
368.5258649523
 21
1054.6334099289
 31
0.0
  0
LINE
  5
148
330
1F
100
AcDbEntity
  8
0
  6
Continuous
 62
     7
370
    15
100
AcDbLine
 10
721.0258566076
 20
770.0697046038
 30
0.0
 11
668.0258609588
 21
770.0697046038
 31
0.0
  0
LINE
  5
149
330
1F
100
AcDbEntity
  8
0
  6
Continuous
 62
     7
370
    15
100
AcDbLine
 10
723.0258606607
 20
776.0696869608
 30
0.0
 11
666.0258643562
 21
776.0696869608
 31
0.0
  0
LINE
  5
14A
330
1F
100
AcDbEntity
  8
0
  6
Continuous
 62
     7
370
    15
100
AcDbLine
 10
449.0258567268
 20
776.0696869608
 30
0.0
 11
392.0258604223
 21
776.0696869608
 31
0.0
  0
LINE
  5
14B
330
1F
100
AcDbEntity
  8
0
  6
Continuous
 62
     7
370
    15
100
AcDbLine
 10
447.0258675749
 20
770.0697046038
 30
0.0
 11
394.0258644754
 21
770.0697046038
 31
0.0
  0
LINE
  5
14C
330
1F
100
AcDbEntity
  8
0
  6
Continuous
 62
     7
370
    15
100
AcDbLine
 10
659.5258586342
 20
868.0696945902
 30
0.0
 11
729.5258663828
 21
868.0696945902
 31
0.0
  0
LINE
  5
14D
330
1F
100
AcDbEntity
  8
0
  6
Continuous
 62
     7
370
    15
100
AcDbLine
 10
729.5258663828
 20
868.0696945902
 30
0.0
 11
729.5258663828
 21
868.4697013613
 31
0.0
  0
LINE
  5
14E
330
1F
100
AcDbEntity
  8
0
  6
Continuous
 62
     7
370
    15
100
AcDbLine
 10
659.5258586342
 20
868.0696945902
 30
0.0
 11
659.5258586342
 21
868.4697013613
 31
0.0
  0
LINE
  5
14F
330
1F
100
AcDbEntity
  8
0
  6
Continuous
 62
     7
370
    15
100
AcDbLine
 10
725.485505932
 20
805.0697010275
 30
0.0
 11
663.5662116343
 21
805.0697010275
 31
0.0
  0
LINE
  5
150
330
1F
100
AcDbEntity
  8
0
  6
Continuous
 62
     7
370
    15
100
AcDbLine
 10
455.5258624489
 20
868.0696945902
 30
0.0
 11
455.5258624489
 21
868.4697013613
 31
0.0
  0
LINE
  5
151
330
1F
100
AcDbEntity
  8
0
  6
Continuous
 62
     7
370
    15
100
AcDbLine
 10
385.5258547003
 20
868.0696945902
 30
0.0
 11
455.5258624489
 21
868.0696945902
 31
0.0
  0
LINE
  5
152
330
1F
100
AcDbEntity
  8
0
  6
Continuous
 62
     7
370
    15
100
AcDbLine
 10
385.5258547003
 20
868.0696945902
 30
0.0
 11
385.5258547003
 21
868.4697013613
 31
0.0
  0
LINE
  5
153
330
1F
100
AcDbEntity
  8
0
  6
Continuous
 62
     7
370
    15
100
AcDbLine
 10
451.4855168993
 20
805.0697010275
 30
0.0
 11
389.566215151
 21
805.0697010275
 31
0.0
  0
ARC
  5
154
330
1F
100
AcDbEntity
  8
0
  6
Continuous
 62
     7
370
    15
100
AcDbCircle
 10
733.7452053055
 20
1028.2933215053
 30
0.0
 40
0.4783058199755263
100
AcDbArc
 50
182.9493796244
 51
272.674819611
  0
LINE
  5
155
330
1F
100
AcDbEntity
  8
0
  6
Continuous
 62
     7
370
    15
100
AcDbLine
 10
733.7675266201
 20
1027.8155368086
 30
0.0
 11
756.284194463
 21
1027.8155368086
 31
0.0
  0
ARC
  5
156
330
1F
100
AcDbEntity
  8
0
  6
Continuous
 62
     7
370
    15
100
AcDbCircle
 10
756.3065157775
 20
1028.2933215053
 30
0.0
 40
0.4783058199754519
100
AcDbArc
 50
267.325180389
 51
357.0506203756
  0
ARC
  5
157
330
1F
100
AcDbEntity
  8
0
  6
Continuous
 62
     7
370
    15
100
AcDbCircle
 10
708.7452201006
 20
1028.2933436716
 30
0.0
 40
0.4783276890030004
100
AcDbArc
 50
182.9519033469
 51
272.6739952099
  0
LINE
  5
158
330
1F
100
AcDbEntity
  8
0
  6
Continuous
 62
     7
370
    15
100
AcDbLine
 10
708.7675355608
 20
1027.8155368086
 30
0.0
 11
731.2841885025
 21
1027.8155368086
 31
0.0
  0
ARC
  5
159
330
1F
100
AcDbEntity
  8
0
  6
Continuous
 62
     7
370
    15
100
AcDbCircle
 10
731.3065039627
 20
1028.2933436716
 30
0.0
 40
0.4783276890029374
100
AcDbArc
 50
267.32600479
 51
357.0480966531
  0
LINE
  5
15A
330
1F
100
AcDbEntity
  8
0
  6
Continuous
 62
     7
370
    15
100
AcDbLine
 10
707.525866502
 20
1026.2175362822
 30
0.0
 11
757.5258635218
 21
1026.2175362822
 31
0.0
  0
LINE
  5
15B
330
1F
100
AcDbEntity
  8
0
  6
Continuous
 62
     7
370
    15
100
AcDbLine
 10
707.525866502
 20
1047.9689102885
 30
0.0
 11
707.525866502
 21
1026.2175362822
 31
0.0
  0
LINE
  5
15C
330
1F
100
AcDbEntity
  8
0
  6
Continuous
 62
     7
370
    15
100
AcDbLine
 10
757.5258635218
 20
1047.9689102885
 30
0.0
 11
707.525866502
 21
1047.9689102885
 31
0.0
  0
LINE
  5
15D
330
1F
100
AcDbEntity
  8
0
  6
Continuous
 62
     7
370
    15
100
AcDbLine
 10
757.5258635218
 20
1026.2175362822
 30
0.0
 11
757.5258635218
 21
1047.9689102885
 31
0.0
  0
LINE
  5
15E
330
1F
100
AcDbEntity
  8
0
  6
Continuous
 62
     7
370
    15
100
AcDbLine
 10
707.525866502
 20
1026.2175362822
 30
0.0
 11
707.525866502
 21
1026.175276589
 31
0.0
  0
LINE
  5
15F
330
1F
100
AcDbEntity
  8
0
  6
Continuous
 62
     7
370
    15
100
AcDbLine
 10
707.525866502
 20
1026.175276589
 30
0.0
 11
757.5258635218
 21
1026.175276589
 31
0.0
  0
LINE
  5
160
330
1F
100
AcDbEntity
  8
0
  6
Continuous
 62
     7
370
    15
100
AcDbLine
 10
757.5258635218
 20
1026.2175362822
 30
0.0
 11
757.5258635218
 21
1026.175276589
 31
0.0
  0
LINE
  5
161
330
1F
100
AcDbEntity
  8
0
  6
Continuous
 62
     7
370
    15
100
AcDbLine
 10
736.3656036789
 20
1029.670433354
 30
0.0
 11
753.6861174042
 21
1029.670433354
 31
0.0
  0
LINE
  5
162
330
1F
100
AcDbEntity
  8
0
  6
Continuous
 62
     7
370
    15
100
AcDbLine
 10
753.6861174042
 20
1029.670433354
 30
0.0
 11
745.0258605415
 21
1043.2650309321
 31
0.0
  0
LINE
  5
163
330
1F
100
AcDbEntity
  8
0
  6
Continuous
 62
     7
370
    15
100
AcDbLine
 10
745.0258605415
 20
1043.2650309321
 30
0.0
 11
736.3656036789
 21
1029.670433354
 31
0.0
  0
LINE
  5
164
330
1F
100
AcDbEntity
  8
0
  6
Continuous
 62
     7
370
    15
100
AcDbLine
 10
733.7675266201
 20
1027.8577965018
 30
0.0
 11
756.284194463
 21
1027.8577965018
 31
0.0
  0
ARC
  5
165
330
1F
100
AcDbEntity
  8
0
  6
Continuous
 62
     7
370
    15
100
AcDbCircle
 10
733.7305900205
 20
1028.3120544929
 30
0.0
 40
0.4557572104237255
100
AcDbArc
 50
150.3485421181
 51
274.6486041692
  0
LINE
  5
166
330
1F
100
AcDbEntity
  8
0
  6
Continuous
 62
     7
370
    15
100
AcDbLine
 10
744.5928476984
 20
1046.2105434653
 30
0.0
 11
733.334513777
 21
1028.5375278708
 31
0.0
  0
ARC
  5
167
330
1F
100
AcDbEntity
  8
0
  6
Continuous
 62
     7
370
    15
100
AcDbCircle
 10
745.0258605415
 20
1045.9144173706
 30
0.0
 40
0.5245863001216751
100
AcDbArc
 50
34.3671976349
 51
145.6328023651
  0
LINE
  5
168
330
1F
100
AcDbEntity
  8
0
  6
Continuous
 62
     7
370
    15
100
AcDbLine
 10
756.7172073061
 20
1028.5375278708
 30
0.0
 11
745.4588733847
 21
1046.2105434653
 31
0.0
  0
ARC
  5
169
330
1F
100
AcDbEntity
  8
0
  6
Continuous
 62
     7
370
    15
100
AcDbCircle
 10
756.3211310625
 20
1028.3120544929
 30
0.0
 40
0.4557572104236559
100
AcDbArc
 50
265.3513958308
 51
29.6514578819
  0
LINE
  5
16A
330
1F
100
AcDbEntity
  8
0
  6
Continuous
 62
     7
370
    15
100
AcDbLine
 10
720.0258694822
 20
1043.2650309321
 30
0.0
 11
711.3656126196
 21
1029.670433354
 31
0.0
  0
LINE
  5
16B
330
1F
100
AcDbEntity
  8
0
  6
Continuous
 62
     7
370
    15
100
AcDbLine
 10
711.3656126196
 20
1029.670433354
 30
0.0
 11
728.6861114437
 21
1029.670433354
 31
0.0
  0
LINE
  5
16C
330
1F
100
AcDbEntity
  8
0
  6
Continuous
 62
     7
370
    15
100
AcDbLine
 10
728.6861114437
 20
1029.670433354
 30
0.0
 11
720.0258694822
 21
1043.2650309321
 31
0.0
  0
LINE
  5
16D
330
1F
100
AcDbEntity
  8
0
  6
Continuous
 62
     7
370
    15
100
AcDbLine
 10
731.7172013456
 20
1028.5375278708
 30
0.0
 11
720.4588674242
 21
1046.2105434653
 31
0.0
  0
ARC
  5
16E
330
1F
100
AcDbEntity
  8
0
  6
Continuous
 62
     7
370
    15
100
AcDbCircle
 10
731.3211356132
 20
1028.3120477969
 30
0.0
 40
0.4557513884826236
100
AcDbArc
 50
265.3500105228
 51
29.6528431899
  0
LINE
  5
16F
330
1F
100
AcDbEntity
  8
0
  6
Continuous
 62
     7
370
    15
100
AcDbLine
 10
708.7675355608
 20
1027.8577965018
 30
0.0
 11
731.2841885025
 21
1027.8577965018
 31
0.0
  0
ARC
  5
170
330
1F
100
AcDbEntity
  8
0
  6
Continuous
 62
     7
370
    15
100
AcDbCircle
 10
708.73058845
 20
1028.3120477969
 30
0.0
 40
0.4557513884826144
100
AcDbArc
 50
150.3471568101
 51
274.6499894772
  0
LINE
  5
171
330
1F
100
AcDbEntity
  8
0
  6
Continuous
 62
     7
370
    15
100
AcDbLine
 10
719.5928566391
 20
1046.2105434653
 30
0.0
 11
708.3345227177
 21
1028.5375278708
 31
0.0
  0
ARC
  5
172
330
1F
100
AcDbEntity
  8
0
  6
Continuous
 62
     7
370
    15
100
AcDbCircle
 10
720.0258620316
 20
1045.9144425728
 30
0.0
 40
0.524565923889461
100
AcDbArc
 50
34.365384823
 51
145.634615177
  0
LINE
  5
173
330
1F
100
AcDbEntity
  8
0
  6
Continuous
 62
     7
370
    15
100
AcDbLine
 10
745.0258605415
 20
1043.2650309321
 30
0.0
 11
745.0258605415
 21
1043.2227712389
 31
0.0
  0
LINE
  5
174
330
1F
100
AcDbEntity
  8
0
  6
Continuous
 62
     7
370
    15
100
AcDbLine
 10
753.6591910059
 20
1029.670433354
 30
0.0
 11
745.0258605415
 21
1043.2227712389
 31
0.0
  0
LINE
  5
175
330
1F
100
AcDbEntity
  8
0
  6
Continuous
 62
     7
370
    15
100
AcDbLine
 10
720.0258694822
 20
1043.2650309321
 30
0.0
 11
720.0258694822
 21
1043.2227712389
 31
0.0
  0
LINE
  5
176
330
1F
100
AcDbEntity
  8
0
  6
Continuous
 62
     7
370
    15
100
AcDbLine
 10
728.6591999466
 20
1029.670433354
 30
0.0
 11
720.0258694822
 21
1043.2227712389
 31
0.0
  0
LINE
  5
177
330
1F
100
AcDbEntity
  8
0
  6
Continuous
 62
     7
370
    15
100
AcDbLine
 10
720.0258694822
 20
1043.2227712389
 30
0.0
 11
711.3925241167
 21
1029.670433354
 31
0.0
  0
LINE
  5
178
330
1F
100
AcDbEntity
  8
0
  6
Continuous
 62
     7
370
    15
100
AcDbLine
 10
745.0258605415
 20
1043.2227712389
 30
0.0
 11
736.3925300772
 21
1029.670433354
 31
0.0
  0
LINE
  5
179
330
1F
100
AcDbEntity
  8
0
  6
Continuous
 62
     7
370
    15
100
AcDbLine
 10
743.8336037332
 20
1032.3004883047
 30
0.0
 11
744.3784497911
 21
1030.7367604491
 31
0.0
  0
LINE
  5
17A
330
1F
100
AcDbEntity
  8
0
  6
Continuous
 62
     7
370
    15
100
AcDbLine
 10
744.3784497911
 20
1030.7367604491
 30
0.0
 11
745.8783261711
 21
1031.6539269205
 31
0.0
  0
LINE
  5
17B
330
1F
100
AcDbEntity
  8
0
  6
Continuous
 62
     7
370
    15
100
AcDbLine
 10
745.2034078771
 20
1031.7031007525
 30
0.0
 11
747.2956948215
 21
1037.1547799822
 31
0.0
  0
LINE
  5
17C
330
1F
100
AcDbEntity
  8
0
  6
Continuous
 62
     7
370
    15
100
AcDbLine
 10
744.4029473001
 20
1035.5483155962
 30
0.0
 11
746.2128721411
 21
1039.8534696814
 31
0.0
  0
LINE
  5
17D
330
1F
100
AcDbEntity
  8
0
  6
Continuous
 62
     7
370
    15
100
AcDbLine
 10
741.34031164
 20
1032.984034371
 30
0.0
 11
745.3446708853
 21
1034.4490867373
 31
0.0
  0
LINE
  5
17E
330
1F
100
AcDbEntity
  8
0
  6
Continuous
 62
     7
370
    15
100
AcDbLine
 10
719.2596964771
 20
1031.7018490549
 30
0.0
 11
720.5231361324
 21
1031.7018490549
 31
0.0
  0
LINE
  5
17F
330
1F
100
AcDbEntity
  8
0
  6
Continuous
 62
     7
370
    15
100
AcDbLine
 10
719.2596964771
 20
1033.9919787165
 30
0.0
 11
720.5231361324
 21
1033.9919787165
 31
0.0
  0
LINE
  5
180
330
1F
100
AcDbEntity
  8
0
  6
Continuous
 62
     7
370
    15
100
AcDbLine
 10
745.1300941641
 20
1039.8957293745
 30
0.0
 11
744.1923640901
 21
1040.3863948103
 31
0.0
  0
LINE
  5
181
330
1F
100
AcDbEntity
  8
0
  6
Continuous
 62
     7
370
    15
100
AcDbLine
 10
746.2128721411
 20
1039.8957293745
 30
0.0
 11
745.1300941641
 21
1039.8957293745
 31
0.0
  0
LINE
  5
182
330
1F
100
AcDbEntity
  8
0
  6
Continuous
 62
     7
370
    15
100
AcDbLine
 10
744.3795822794
 20
1035.5349939581
 30
0.0
 11
746.2128721411
 21
1039.8957293745
 31
0.0
  0
LINE
  5
183
330
1F
100
AcDbEntity
  8
0
  6
Continuous
 62
     7
370
    15
100
AcDbLine
 10
747.2956948215
 20
1037.1970396754
 30
0.0
 11
744.3795822794
 21
1035.5349939581
 31
0.0
  0
LINE
  5
184
330
1F
100
AcDbEntity
  8
0
  6
Continuous
 62
     7
370
    15
100
AcDbLine
 10
745.1872401173
 20
1031.7032795664
 30
0.0
 11
747.2956948215
 21
1037.1970396754
 31
0.0
  0
LINE
  5
185
330
1F
100
AcDbEntity
  8
0
  6
Continuous
 62
     7
370
    15
100
AcDbLine
 10
745.8783261711
 20
1031.6961866137
 30
0.0
 11
745.1872401173
 21
1031.7032795664
 31
0.0
  0
LINE
  5
186
330
1F
100
AcDbEntity
  8
0
  6
Continuous
 62
     7
370
    15
100
AcDbLine
 10
744.3784497911
 20
1030.7790201422
 30
0.0
 11
745.8783261711
 21
1031.6961866137
 31
0.0
  0
LINE
  5
187
330
1F
100
AcDbEntity
  8
0
  6
Continuous
 62
     7
370
    15
100
AcDbLine
 10
743.8336037332
 20
1032.3427479979
 30
0.0
 11
744.3784497911
 21
1030.7790201422
 31
0.0
  0
LINE
  5
188
330
1F
100
AcDbEntity
  8
0
  6
Continuous
 62
     7
370
    15
100
AcDbLine
 10
744.3795822794
 20
1031.9586258646
 30
0.0
 11
743.8336037332
 21
1032.3427479979
 31
0.0
  0
LINE
  5
189
330
1F
100
AcDbEntity
  8
0
  6
Continuous
 62
     7
370
    15
100
AcDbLine
 10
745.3637592728
 20
1034.4983201739
 30
0.0
 11
744.3795822794
 21
1031.9586258646
 31
0.0
  0
LINE
  5
18A
330
1F
100
AcDbEntity
  8
0
  6
Continuous
 62
     7
370
    15
100
AcDbLine
 10
741.34031164
 20
1033.0262940642
 30
0.0
 11
745.3637592728
 21
1034.4983201739
 31
0.0
  0
LINE
  5
18B
330
1F
100
AcDbEntity
  8
0
  6
Continuous
 62
     7
370
    15
100
AcDbLine
 10
744.1923640901
 20
1040.3863948103
 30
0.0
 11
741.34031164
 21
1033.0262940642
 31
0.0
  0
LINE
  5
18C
330
1F
100
AcDbEntity
  8
0
  6
Continuous
 62
     7
370
    15
100
AcDbLine
 10
743.8336037332
 20
1032.3427479979
 30
0.0
 11
743.8336037332
 21
1032.3004883047
 31
0.0
  0
LINE
  5
18D
330
1F
100
AcDbEntity
  8
0
  6
Continuous
 62
     7
370
    15
100
AcDbLine
 10
744.3784497911
 20
1030.7790201422
 30
0.0
 11
744.3784497911
 21
1030.7367604491
 31
0.0
  0
LINE
  5
18E
330
1F
100
AcDbEntity
  8
0
  6
Continuous
 62
     7
370
    15
100
AcDbLine
 10
745.8783261711
 20
1031.6961866137
 30
0.0
 11
745.8783261711
 21
1031.6539269205
 31
0.0
  0
LINE
  5
18F
330
1F
100
AcDbEntity
  8
0
  6
Continuous
 62
     7
370
    15
100
AcDbLine
 10
747.2956948215
 20
1037.1970396754
 30
0.0
 11
747.2956948215
 21
1037.1547799822
 31
0.0
  0
LINE
  5
190
330
1F
100
AcDbEntity
  8
0
  6
Continuous
 62
     7
370
    15
100
AcDbLine
 10
719.2596964771
 20
1031.7441087481
 30
0.0
 11
720.5231361324
 21
1031.7441087481
 31
0.0
  0
LINE
  5
191
330
1F
100
AcDbEntity
  8
0
  6
Continuous
 62
     7
370
    15
100
AcDbLine
 10
719.2596964771
 20
1032.6029222723
 30
0.0
 11
719.2596964771
 21
1031.7441087481
 31
0.0
  0
LINE
  5
192
330
1F
100
AcDbEntity
  8
0
  6
Continuous
 62
     7
370
    15
100
AcDbLine
 10
720.5231361324
 20
1032.6029222723
 30
0.0
 11
719.2596964771
 21
1032.6029222723
 31
0.0
  0
LINE
  5
193
330
1F
100
AcDbEntity
  8
0
  6
Continuous
 62
     7
370
    15
100
AcDbLine
 10
720.5231361324
 20
1031.7441087481
 30
0.0
 11
720.5231361324
 21
1032.6029222723
 31
0.0
  0
LINE
  5
194
330
1F
100
AcDbEntity
  8
0
  6
Continuous
 62
     7
370
    15
100
AcDbLine
 10
720.5231361324
 20
1031.7441087481
 30
0.0
 11
720.5231361324
 21
1031.7018490549
 31
0.0
  0
LINE
  5
195
330
1F
100
AcDbEntity
  8
0
  6
Continuous
 62
     7
370
    15
100
AcDbLine
 10
719.2596964771
 20
1031.7441087481
 30
0.0
 11
719.2596964771
 21
1031.7018490549
 31
0.0
  0
LINE
  5
196
330
1F
100
AcDbEntity
  8
0
  6
Continuous
 62
     7
370
    15
100
AcDbLine
 10
741.34031164
 20
1033.0262940642
 30
0.0
 11
741.34031164
 21
1032.984034371
 31
0.0
  0
LINE
  5
197
330
1F
100
AcDbEntity
  8
0
  6
Continuous
 62
     7
370
    15
100
AcDbLine
 10
719.2596964771
 20
1034.0342384096
 30
0.0
 11
720.5231361324
 21
1034.0342384096
 31
0.0
  0
LINE
  5
198
330
1F
100
AcDbEntity
  8
0
  6
Continuous
 62
     7
370
    15
100
AcDbLine
 10
719.2596964771
 20
1040.236697745
 30
0.0
 11
719.2596964771
 21
1034.0342384096
 31
0.0
  0
LINE
  5
199
330
1F
100
AcDbEntity
  8
0
  6
Continuous
 62
     7
370
    15
100
AcDbLine
 10
720.5231361324
 20
1040.236697745
 30
0.0
 11
719.2596964771
 21
1040.236697745
 31
0.0
  0
LINE
  5
19A
330
1F
100
AcDbEntity
  8
0
  6
Continuous
 62
     7
370
    15
100
AcDbLine
 10
720.5231361324
 20
1034.0342384096
 30
0.0
 11
720.5231361324
 21
1040.236697745
 31
0.0
  0
LINE
  5
19B
330
1F
100
AcDbEntity
  8
0
  6
Continuous
 62
     7
370
    15
100
AcDbLine
 10
719.2596964771
 20
1034.0342384096
 30
0.0
 11
719.2596964771
 21
1033.9919787165
 31
0.0
  0
LINE
  5
19C
330
1F
100
AcDbEntity
  8
0
  6
Continuous
 62
     7
370
    15
100
AcDbLine
 10
720.5231361324
 20
1034.0342384096
 30
0.0
 11
720.5231361324
 21
1033.9919787165
 31
0.0
  0
LINE
  5
19D
330
1F
100
AcDbEntity
  8
0
  6
Continuous
 62
     7
370
    15
100
AcDbLine
 10
746.2128721411
 20
1039.8957293745
 30
0.0
 11
746.2128721411
 21
1039.8534696814
 31
0.0
  0
SPLINE
  5
19E
330
1F
100
AcDbEntity
  8
0
  6
Continuous
 62
     7
370
    15
100
AcDbSpline
210
0.0
220
0.0
230
1.0
 70
     8
 71
     3
 72
    13
 73
     9
 74
     0
 42
0.00000001
 43
0.00000001
 12
1.0
 22
0.0
 32
0.0
 13
1.0
 23
0.0
 33
0.0
 40
0.0
 40
0.0
 40
0.0
 40
0.0
 40
0.0075418074404856
 40
0.2722725443882684
 40
0.4815163190975516
 40
0.6613532722505352
 40
0.8304727561354097
 40
1.0
 40
1.0
 40
1.0
 40
1.0
 10
494.1925429040779
 20
857.6696973558769
 30
0.0
 10
494.1927589571116
 20
857.669699081544
 30
0.0
 10
494.2005588525161
 20
857.6697613811637
 30
0.0
 10
494.2144484848433
 20
857.6579387622992
 30
0.0
 10
494.2318275237762
 20
857.6153013732984
 30
0.0
 10
494.2439817027437
 20
857.5596177874484
 30
0.0
 10
494.2520900086927
 20
857.4934797347978
 30
0.0
 10
494.2531610860859
 20
857.4443232915962
 30
0.0
 10
494.2536972696174
 20
857.4197154756889
 30
0.0
  0
LINE
  5
19F
330
1F
100
AcDbEntity
  8
0
  6
Continuous
 62
     7
370
    15
100
AcDbLine
 10
494.1925429041
 20
857.6696973559
 30
0.0
 11
501.6955532367
 21
857.6696973559
 31
0.0
  0
SPLINE
  5
1A0
330
1F
100
AcDbEntity
  8
0
  6
Continuous
 62
     7
370
    15
100
AcDbSpline
210
0.0
220
0.0
230
1.0
 70
     8
 71
     3
 72
    13
 73
     9
 74
     0
 42
0.00000001
 43
0.00000001
 12
1.0
 22
0.0
 32
0.0
 13
1.0
 23
0.0
 33
0.0
 40
0.0
 40
0.0
 40
0.0
 40
0.0
 40
0.1695834571673284
 40
0.3386914936390563
 40
0.5185162739314415
 40
0.7277458852818827
 40
0.9924587030517631
 40
0.9999999999999999
 40
0.9999999999999999
 40
0.9999999999999999
 40
0.9999999999999999
 10
494.2536972696174
 20
856.7197185274467
 30
0.0
 10
494.253161387542
 20
856.6951004041574
 30
0.0
 10
494.2520911257161
 20
856.6459331735406
 30
0.0
 10
494.2439816860897
 20
856.5797863926695
 30
0.0
 10
494.2318275291757
 20
856.5241028342248
 30
0.0
 10
494.2144484827413
 20
856.4814654359018
 30
0.0
 10
494.2005588525276
 20
856.4696428196645
 30
0.0
 10
494.1927589571118
 20
856.4697051192697
 30
0.0
 10
494.1925429040779
 20
856.4697068449362
 30
0.0
  0
LINE
  5
1A1
330
1F
100
AcDbEntity
  8
0
  6
Continuous
 62
     7
370
    15
100
AcDbLine
 10
502.0184763009
 20
856.4697068449
 30
0.0
 11
494.1925429041
 21
856.4697068449
 31
0.0
  0
LINE
  5
1A2
330
1F
100
AcDbEntity
  8
0
  6
Continuous
 62
     7
370
    15
100
AcDbLine
 10
494.2536972696
 20
857.4197154757
 30
0.0
 11
494.2536972696
 21
856.7197185274
 31
0.0
  0
SPLINE
  5
1A3
330
1F
100
AcDbEntity
  8
0
  6
Continuous
 62
     7
370
    15
100
AcDbSpline
210
0.0
220
0.0
230
1.0
 70
     8
 71
     3
 72
    12
 73
     8
 74
     0
 42
0.00000001
 43
0.00000001
 12
1.0
 22
0.0
 32
0.0
 13
1.0
 23
0.0
 33
0.0
 40
0.0
 40
0.0
 40
0.0
 40
0.0
 40
0.2289412891586312
 40
0.4594182752482516
 40
0.6825376589089067
 40
0.8947201554478292
 40
1.0
 40
1.0
 40
1.0
 40
1.0
 10
493.9700611168731
 20
856.4697068449362
 30
0.0
 10
493.8540137584262
 20
856.4870394406288
 30
0.0
 10
493.6211406167541
 20
856.5218208959433
 30
0.0
 10
493.3122491139646
 20
856.7956919836229
 30
0.0
 10
493.0893866839421
 20
857.1927404519338
 30
0.0
 10
492.9891349994609
 20
857.5936146026493
 30
0.0
 10
492.9806062694118
 20
857.8384983793385
 30
0.0
 10
492.9777778918136
 20
857.9197090383873
 30
0.0
  0
SPLINE
  5
1A4
330
1F
100
AcDbEntity
  8
0
  6
Continuous
 62
     7
370
    15
100
AcDbSpline
210
0.0
220
0.0
230
1.0
 70
     8
 71
     3
 72
    12
 73
     8
 74
     0
 42
0.00000001
 43
0.00000001
 12
1.0
 22
0.0
 32
0.0
 13
1.0
 23
0.0
 33
0.0
 40
0.0
 40
0.0
 40
0.0
 40
0.0
 40
0.2028188111169745
 40
0.4049482012010789
 40
0.6098289536979064
 40
0.8226915816537294
 40
1.0
 40
1.0
 40
1.0
 40
1.0
 10
488.5554187232841
 20
857.9197090383872
 30
0.0
 10
488.5666354806615
 20
857.7625701034239
 30
0.0
 10
488.5890308674515
 20
857.4488263796454
 30
0.0
 10
488.7630933426726
 20
857.0284318029142
 30
0.0
 10
489.0221381912291
 20
856.7013493485209
 30
0.0
 10
489.3341546987584
 20
856.5031472803953
 30
0.0
 10
489.5555036808145
 20
856.4801552771518
 30
0.0
 10
489.6560929948677
 20
856.4697068449364
 30
0.0
  0
LINE
  5
1A5
330
1F
100
AcDbEntity
  8
0
  6
Continuous
 62
     7
370
    15
100
AcDbLine
 10
493.9700611169
 20
856.4697068449
 30
0.0
 11
489.6560929949
 21
856.4697068449
 31
0.0
  0
LINE
  5
1A6
330
1F
100
AcDbEntity
  8
0
  6
Continuous
 62
     7
370
    15
100
AcDbLine
 10
488.7752853567
 20
863.2697027441
 30
0.0
 11
493.0892534787
 21
863.2697027441
 31
0.0
  0
LINE
  5
1A7
330
1F
100
AcDbEntity
  8
0
  6
Continuous
 62
     7
370
    15
100
AcDbLine
 10
493.0892534787
 20
863.2697027441
 30
0.0
 11
493.6014510924
 21
863.2697027441
 31
0.0
  0
LINE
  5
1A8
330
1F
100
AcDbEntity
  8
0
  6
Continuous
 62
     7
370
    15
100
AcDbLine
 10
493.9700611169
 20
857.6696973559
 30
0.0
 11
494.1925429041
 21
857.6696973559
 31
0.0
  0
LINE
  5
1A9
330
1F
100
AcDbEntity
  8
0
  6
Continuous
 62
     7
370
    15
100
AcDbLine
 10
494.1925429041
 20
856.4697068449
 30
0.0
 11
493.9700611169
 21
856.4697068449
 31
0.0
  0
LINE
  5
1AA
330
1F
100
AcDbEntity
  8
0
  6
Continuous
 62
     7
370
    15
100
AcDbLine
 10
488.5252885754
 20
857.9197090384
 30
0.0
 11
488.5554187233
 21
857.9197090384
 31
0.0
  0
LINE
  5
1AB
330
1F
100
AcDbEntity
  8
0
  6
Continuous
 62
     7
370
    15
100
AcDbLine
 10
489.6560929949
 20
856.4697068449
 30
0.0
 11
489.0758641297
 21
856.4697068449
 31
0.0
  0
LINE
  5
1AC
330
1F
100
AcDbEntity
  8
0
  6
Continuous
 62
     7
370
    15
100
AcDbLine
 10
505.7642333443
 20
863.2697027441
 30
0.0
 11
506.2764384086
 21
863.2697027441
 31
0.0
  0
LINE
  5
1AD
330
1F
100
AcDbEntity
  8
0
  6
Continuous
 62
     7
370
    15
100
AcDbLine
 10
503.0271806056
 20
863.2697027441
 30
0.0
 11
505.7642333443
 21
863.2697027441
 31
0.0
  0
SPLINE
  5
1AE
330
1F
100
AcDbEntity
  8
0
  6
Continuous
 62
     7
370
    15
100
AcDbSpline
210
0.0
220
0.0
230
1.0
 70
     8
 71
     3
 72
    13
 73
     9
 74
     0
 42
0.00000001
 43
0.00000001
 12
1.0
 22
0.0
 32
0.0
 13
1.0
 23
0.0
 33
0.0
 40
0.0
 40
0.0
 40
0.0
 40
0.0
 40
0.0075319276537821
 40
0.2722705632719085
 40
0.4815112031063981
 40
0.6613492333578791
 40
0.8304747346648691
 40
1.0
 40
1.0
 40
1.0
 40
1.0
 10
501.6191847855438
 20
857.6696973558768
 30
0.0
 10
501.6190780222687
 20
857.6697057296809
 30
0.0
 10
501.6152186520779
 20
857.6700084331133
 30
0.0
 10
501.6081965891997
 20
857.6813612204209
 30
0.0
 10
501.5993350770617
 20
857.7241486902969
 30
0.0
 10
501.5930508373775
 20
857.7798021798044
 30
0.0
 10
501.5888320479427
 20
857.845944151172
 30
0.0
 10
501.5882703733822
 20
857.8951013999103
 30
0.0
 10
501.5879892045845
 20
857.9197090383873
 30
0.0
  0
LINE
  5
1AF
330
1F
100
AcDbEntity
  8
0
  6
Continuous
 62
     7
370
    15
100
AcDbLine
 10
501.6191847855
 20
857.6696973559
 30
0.0
 11
494.1925429041
 21
857.6696973559
 31
0.0
  0
SPLINE
  5
1B0
330
1F
100
AcDbEntity
  8
0
  6
Continuous
 62
     7
370
    15
100
AcDbSpline
210
0.0
220
0.0
230
1.0
 70
     8
 71
     3
 72
    13
 73
     9
 74
     0
 42
0.00000001
 43
0.00000001
 12
1.0
 22
0.0
 32
0.0
 13
1.0
 23
0.0
 33
0.0
 40
0.0
 40
0.0
 40
0.0
 40
0.0
 40
0.169525265335131
 40
0.3386507666421209
 40
0.5184887968936019
 40
0.7277294367280914
 40
0.9924680723462179
 40
1.0
 40
1.0
 40
1.0
 40
1.0
 10
501.5879892045845
 20
858.6197059866295
 30
0.0
 10
501.5882703733822
 20
858.6443136251065
 30
0.0
 10
501.5888320479427
 20
858.6934708738448
 30
0.0
 10
501.5930508373775
 20
858.7596128452124
 30
0.0
 10
501.5993350770617
 20
858.8152663347199
 30
0.0
 10
501.6081965891997
 20
858.858053804596
 30
0.0
 10
501.6152186520779
 20
858.8694065919041
 30
0.0
 10
501.6190780222687
 20
858.8697092953358
 30
0.0
 10
501.6191847855438
 20
858.8697176691398
 30
0.0
  0
LINE
  5
1B1
330
1F
100
AcDbEntity
  8
0
  6
Continuous
 62
     7
370
    15
100
AcDbLine
 10
493.8514553244
 20
858.8697176691
 30
0.0
 11
501.6191847855
 21
858.8697176691
 31
0.0
  0
LINE
  5
1B2
330
1F
100
AcDbEntity
  8
0
  6
Continuous
 62
     7
370
    15
100
AcDbLine
 10
501.5879892046
 20
857.9197090384
 30
0.0
 11
501.5879892046
 21
858.6197059866
 31
0.0
  0
SPLINE
  5
1B3
330
1F
100
AcDbEntity
  8
0
  6
Continuous
 62
     7
370
    15
100
AcDbSpline
210
0.0
220
0.0
230
1.0
 70
     8
 71
     3
 72
    12
 73
     8
 74
     0
 42
0.00000001
 43
0.00000001
 12
1.0
 22
0.0
 32
0.0
 13
1.0
 23
0.0
 33
0.0
 40
0.0
 40
0.0
 40
0.0
 40
0.0
 40
0.2289467908576475
 40
0.4594252897069447
 40
0.6825339725230606
 40
0.8947195004221816
 40
1.0
 40
1.0
 40
1.0
 40
1.0
 10
501.8635787302841
 20
858.8697176691398
 30
0.0
 10
501.992457009543
 20
858.8523731060203
 30
0.0
 10
502.2510757941246
 20
858.817567940566
 30
0.0
 10
502.5936898724932
 20
858.5437076750388
 30
0.0
 10
502.8407471654428
 20
858.1466754925291
 30
0.0
 10
502.9518373125338
 20
857.7458114582372
 30
0.0
 10
502.9612840993257
 20
857.5009261912262
 30
0.0
 10
502.9644169146408
 20
857.4197154756889
 30
0.0
  0
SPLINE
  5
1B4
330
1F
100
AcDbEntity
  8
0
  6
Continuous
 62
     7
370
    15
100
AcDbSpline
210
0.0
220
0.0
230
1.0
 70
     8
 71
     3
 72
    12
 73
     8
 74
     0
 42
0.00000001
 43
0.00000001
 12
1.0
 22
0.0
 32
0.0
 13
1.0
 23
0.0
 33
0.0
 40
0.0
 40
0.0
 40
0.0
 40
0.0
 40
0.2028188210066831
 40
0.4049474802616348
 40
0.6098283116612022
 40
0.8226906171549693
 40
1.0
 40
1.0
 40
1.0
 40
1.0
 10
506.9369621807922
 20
857.4197154756888
 30
0.0
 10
506.9247385958814
 20
857.5768542423217
 30
0.0
 10
506.9003330210694
 20
857.8905970561468
 30
0.0
 10
506.7106931162338
 20
858.3109937905377
 30
0.0
 10
506.4285555794816
 20
858.6380746636895
 30
0.0
 10
506.0889109478752
 20
858.8362777407353
 30
0.0
 10
505.8481644844422
 20
858.8592693680972
 30
0.0
 10
505.7387598091949
 20
858.8697176691398
 30
0.0
  0
LINE
  5
1B5
330
1F
100
AcDbEntity
  8
0
  6
Continuous
 62
     7
370
    15
100
AcDbLine
 10
501.8635787303
 20
858.8697176691
 30
0.0
 11
505.7387598092
 21
858.8697176691
 31
0.0
  0
LINE
  5
1B6
330
1F
100
AcDbEntity
  8
0
  6
Continuous
 62
     7
370
    15
100
AcDbLine
 10
506.7062996561
 20
852.0696919676
 30
0.0
 11
502.8311185772
 21
852.0696919676
 31
0.0
  0
LINE
  5
1B7
330
1F
100
AcDbEntity
  8
0
  6
Continuous
 62
     7
370
    15
100
AcDbLine
 10
502.8311185772
 20
852.0696919676
 30
0.0
 11
502.2684805328
 21
852.0696919676
 31
0.0
  0
LINE
  5
1B8
330
1F
100
AcDbEntity
  8
0
  6
Continuous
 62
     7
370
    15
100
AcDbLine
 10
501.8635787303
 20
857.6696973559
 30
0.0
 11
501.6191847855
 21
857.6696973559
 31
0.0
  0
LINE
  5
1B9
330
1F
100
AcDbEntity
  8
0
  6
Continuous
 62
     7
370
    15
100
AcDbLine
 10
501.6191847855
 20
858.8697176691
 30
0.0
 11
501.8635787303
 21
858.8697176691
 31
0.0
  0
LINE
  5
1BA
330
1F
100
AcDbEntity
  8
0
  6
Continuous
 62
     7
370
    15
100
AcDbLine
 10
506.956303888
 20
857.4197154757
 30
0.0
 11
506.9369621808
 21
857.4197154757
 31
0.0
  0
LINE
  5
1BB
330
1F
100
AcDbEntity
  8
0
  6
Continuous
 62
     7
370
    15
100
AcDbLine
 10
505.7387598092
 20
858.8697176691
 30
0.0
 11
505.9758596355
 21
858.8697176691
 31
0.0
  0
SPLINE
  5
1BC
330
1F
100
AcDbEntity
  8
0
  6
Continuous
 62
     7
370
    15
100
AcDbSpline
210
0.0
220
0.0
230
1.0
 70
     8
 71
     3
 72
    10
 73
     6
 74
     0
 42
0.00000001
 43
0.00000001
 12
1.0
 22
0.0
 32
0.0
 13
1.0
 23
0.0
 33
0.0
 40
0.0
 40
0.0
 40
0.0
 40
0.0
 40
0.3816799845245386
 40
0.7620624049635791
 40
1.0
 40
1.0
 40
1.0
 40
1.0
 10
488.1147615844596
 20
857.4197154756889
 30
0.0
 10
488.127618752213
 20
857.5759641466439
 30
0.0
 10
488.1532893783303
 20
857.8879303036028
 30
0.0
 10
488.3102526239706
 20
858.2658866711779
 30
0.0
 10
488.4655342017954
 20
858.4286100856111
 30
0.0
 10
488.5252885753501
 20
858.4912281748161
 30
0.0
  0
LINE
  5
1BD
330
1F
100
AcDbEntity
  8
0
  6
Continuous
 62
     7
370
    15
100
AcDbLine
 10
488.9080621535
 20
852.0696919676
 30
0.0
 11
488.3454241092
 21
852.0696919676
 31
0.0
  0
LINE
  5
1BE
330
1F
100
AcDbEntity
  8
0
  6
Continuous
 62
     7
370
    15
100
AcDbLine
 10
492.2091536457
 20
852.0696919676
 30
0.0
 11
488.9080621535
 21
852.0696919676
 31
0.0
  0
LINE
  5
1BF
330
1F
100
AcDbEntity
  8
0
  6
Continuous
 62
     7
370
    15
100
AcDbLine
 10
492.9182850057
 20
856.023119044
 30
0.0
 11
495.5766372616
 21
856.4697068449
 31
0.0
  0
SPLINE
  5
1C0
330
1F
100
AcDbEntity
  8
0
  6
Continuous
 62
     7
370
    15
100
AcDbSpline
210
0.0
220
0.0
230
1.0
 70
     8
 71
     3
 72
     9
 73
     5
 74
     0
 42
0.00000001
 43
0.00000001
 12
1.0
 22
0.0
 32
0.0
 13
1.0
 23
0.0
 33
0.0
 40
0.0
 40
0.0
 40
0.0
 40
0.0
 40
0.0702021844976188
 40
1.0
 40
1.0
 40
1.0
 40
1.0
 10
495.5766372615684
 20
856.4697068449364
 30
0.0
 10
495.6396564868224
 20
856.4692560153969
 30
0.0
 10
496.5373383140333
 20
856.4628341420224
 30
0.0
 10
497.4170424932581
 20
856.2349786151203
 30
0.0
 10
498.2349895173896
 20
856.0231190439567
 30
0.0
  0
LINE
  5
1C1
330
1F
100
AcDbEntity
  8
0
  6
Continuous
 62
     7
370
    15
100
AcDbLine
 10
498.2349895174
 20
856.023119044
 30
0.0
 11
498.2349895174
 21
851.7162960287
 31
0.0
  0
SPLINE
  5
1C2
330
1F
100
AcDbEntity
  8
0
  6
Continuous
 62
     7
370
    15
100
AcDbSpline
210
0.0
220
0.0
230
1.0
 70
     8
 71
     3
 72
     9
 73
     5
 74
     0
 42
0.00000001
 43
0.00000001
 12
1.0
 22
0.0
 32
0.0
 13
1.0
 23
0.0
 33
0.0
 40
0.0
 40
0.0
 40
0.0
 40
0.0
 40
0.0702019553577532
 40
0.9999999999999999
 40
0.9999999999999999
 40
0.9999999999999999
 40
0.9999999999999999
 10
495.5766372615684
 20
851.2697082277641
 30
0.0
 10
495.6396564943839
 20
851.2701487507364
 30
0.0
 10
496.5373413593479
 20
851.2764238319661
 30
0.0
 10
497.4170438560703
 20
851.504360738628
 30
0.0
 10
498.2349895173896
 20
851.7162960287437
 30
0.0
  0
LINE
  5
1C3
330
1F
100
AcDbEntity
  8
0
  6
Continuous
 62
     7
370
    15
100
AcDbLine
 10
492.9182850057
 20
851.7162960287
 30
0.0
 11
495.5766372616
 21
851.2697082278
 31
0.0
  0
LINE
  5
1C4
330
1F
100
AcDbEntity
  8
0
  6
Continuous
 62
     7
370
    15
100
AcDbLine
 10
492.9182850057
 20
856.023119044
 30
0.0
 11
492.9182850057
 21
851.7162960287
 31
0.0
  0
SPLINE
  5
1C5
330
1F
100
AcDbEntity
  8
0
  6
Continuous
 62
     7
370
    15
100
AcDbSpline
210
0.0
220
0.0
230
1.0
 70
     8
 71
     3
 72
     9
 73
     5
 74
     0
 42
0.00000001
 43
0.00000001
 12
1.0
 22
0.0
 32
0.0
 13
1.0
 23
0.0
 33
0.0
 40
0.0
 40
0.0
 40
0.0
 40
0.0
 40
0.2575521182900413
 40
1.0
 40
1.0
 40
1.0
 40
1.0
 10
498.2349895173896
 20
851.7162960287437
 30
0.0
 10
498.4283956113588
 20
851.6488764199579
 30
0.0
 10
499.1793352473951
 20
851.387105679211
 30
0.0
 10
499.9595254958716
 20
851.3197306646242
 30
0.0
 10
500.5387760931839
 20
851.2697082277641
 30
0.0
  0
LINE
  5
1C6
330
1F
100
AcDbEntity
  8
0
  6
Continuous
 62
     7
370
    15
100
AcDbLine
 10
500.5387760932
 20
851.2697082278
 30
0.0
 11
495.5766372616
 21
851.2697082278
 31
0.0
  0
SPLINE
  5
1C7
330
1F
100
AcDbEntity
  8
0
  6
Continuous
 62
     7
370
    15
100
AcDbSpline
210
0.0
220
0.0
230
1.0
 70
     8
 71
     3
 72
     9
 73
     5
 74
     0
 42
0.00000001
 43
0.00000001
 12
1.0
 22
0.0
 32
0.0
 13
1.0
 23
0.0
 33
0.0
 40
0.0
 40
0.0
 40
0.0
 40
0.0
 40
0.2575521182900413
 40
1.0
 40
1.0
 40
1.0
 40
1.0
 10
498.2349895173896
 20
856.0231190439567
 30
0.0
 10
498.4283956113588
 20
856.0905386527425
 30
0.0
 10
499.1793352473951
 20
856.3523093934892
 30
0.0
 10
499.9595254958716
 20
856.4196844080761
 30
0.0
 10
500.5387760931839
 20
856.4697068449364
 30
0.0
  0
SPLINE
  5
1C8
330
1F
100
AcDbEntity
  8
0
  6
Continuous
 62
     7
370
    15
100
AcDbSpline
210
0.0
220
0.0
230
1.0
 70
     8
 71
     3
 72
     9
 73
     5
 74
     0
 42
0.00000001
 43
0.00000001
 12
1.0
 22
0.0
 32
0.0
 13
1.0
 23
0.0
 33
0.0
 40
0.0
 40
0.0
 40
0.0
 40
0.0
 40
0.4193708503290844
 40
1.0
 40
1.0
 40
1.0
 40
1.0
 10
500.5387760931839
 20
856.4697068449364
 30
0.0
 10
500.7485347150735
 20
856.4659876579633
 30
0.0
 10
501.2487092544463
 20
856.4571191661018
 30
0.0
 10
501.7357096660281
 20
856.3103798905388
 30
0.0
 10
502.0184763008941
 20
856.2251787897453
 30
0.0
  0
LINE
  5
1C9
330
1F
100
AcDbEntity
  8
0
  6
Continuous
 62
     7
370
    15
100
AcDbLine
 10
502.8425701196
 20
852.0696919676
 30
0.0
 11
502.8425701196
 21
851.7162960287
 31
0.0
  0
SPLINE
  5
1CA
330
1F
100
AcDbEntity
  8
0
  6
Continuous
 62
     7
370
    15
100
AcDbSpline
210
0.0
220
0.0
230
1.0
 70
     8
 71
     3
 72
     9
 73
     5
 74
     0
 42
0.00000001
 43
0.00000001
 12
1.0
 22
0.0
 32
0.0
 13
1.0
 23
0.0
 33
0.0
 40
0.0
 40
0.0
 40
0.0
 40
0.0
 40
0.2686358386148682
 40
1.0
 40
1.0
 40
1.0
 40
1.0
 10
500.5387760931839
 20
851.2697082277641
 30
0.0
 10
500.7482568693673
 20
851.2763330896358
 30
0.0
 10
501.5280514688653
 20
851.3009942141741
 30
0.0
 10
502.2872901547589
 20
851.5408639214445
 30
0.0
 10
502.8425701195587
 20
851.7162960287437
 30
0.0
  0
SPLINE
  5
1CB
330
1F
100
AcDbEntity
  8
0
  6
Continuous
 62
     7
370
    15
100
AcDbSpline
210
0.0
220
0.0
230
1.0
 70
     8
 71
     3
 72
     9
 73
     5
 74
     0
 42
0.00000001
 43
0.00000001
 12
1.0
 22
0.0
 32
0.0
 13
1.0
 23
0.0
 33
0.0
 40
0.0
 40
0.0
 40
0.0
 40
0.0
 40
0.0702023090960525
 40
0.9999999999999999
 40
0.9999999999999999
 40
0.9999999999999999
 40
0.9999999999999999
 10
492.5637193257202
 20
856.4697068449364
 30
0.0
 10
492.5721250482261
 20
856.4692560167916
 30
0.0
 10
492.691860746584
 20
856.4628341746807
 30
0.0
 10
492.8091913145655
 20
856.234978616144
 30
0.0
 10
492.9182850057472
 20
856.0231190439566
 30
0.0
  0
SPLINE
  5
1CC
330
1F
100
AcDbEntity
  8
0
  6
Continuous
 62
     7
370
    15
100
AcDbSpline
210
0.0
220
0.0
230
1.0
 70
     8
 71
     3
 72
     9
 73
     5
 74
     0
 42
0.00000001
 43
0.00000001
 12
1.0
 22
0.0
 32
0.0
 13
1.0
 23
0.0
 33
0.0
 40
0.0
 40
0.0
 40
0.0
 40
0.0
 40
0.0702020799571258
 40
1.0
 40
1.0
 40
1.0
 40
1.0
 10
492.5637193257202
 20
851.2697082277641
 30
0.0
 10
492.5721250492347
 20
851.2701487493413
 30
0.0
 10
492.6918611527743
 20
851.2764237995576
 30
0.0
 10
492.8091914963409
 20
851.50436073773
 30
0.0
 10
492.9182850057472
 20
851.7162960287437
 30
0.0
  0
LINE
  5
1CD
330
1F
100
AcDbEntity
  8
0
  6
Continuous
 62
     7
370
    15
100
AcDbLine
 10
495.5766372616
 20
851.2697082278
 30
0.0
 11
492.5637193257
 21
851.2697082278
 31
0.0
  0
LINE
  5
1CE
330
1F
100
AcDbEntity
  8
0
  6
Continuous
 62
     7
370
    15
100
AcDbLine
 10
502.8425701196
 20
851.7162960287
 30
0.0
 11
502.4880044395
 21
851.2697082278
 31
0.0
  0
LINE
  5
1CF
330
1F
100
AcDbEntity
  8
0
  6
Continuous
 62
     7
370
    15
100
AcDbLine
 10
500.5387760932
 20
851.2697082278
 30
0.0
 11
502.5257118279
 21
851.2697082278
 31
0.0
  0
LINE
  5
1D0
330
1F
100
AcDbEntity
  8
0
  6
Continuous
 62
     7
370
    15
100
AcDbLine
 10
492.2091536457
 20
856.023119044
 30
0.0
 11
492.5637193257
 21
856.4697068449
 31
0.0
  0
LINE
  5
1D1
330
1F
100
AcDbEntity
  8
0
  6
Continuous
 62
     7
370
    15
100
AcDbLine
 10
492.2091536457
 20
851.7162960287
 30
0.0
 11
492.5637193257
 21
851.2697082278
 31
0.0
  0
LINE
  5
1D2
330
1F
100
AcDbEntity
  8
0
  6
Continuous
 62
     7
370
    15
100
AcDbLine
 10
492.2091536457
 20
856.023119044
 30
0.0
 11
492.2091536457
 21
851.7162960287
 31
0.0
  0
LINE
  5
1D3
330
1F
100
AcDbEntity
  8
0
  6
Continuous
 62
     7
370
    15
100
AcDbLine
 10
492.0245431597
 20
863.6231284853
 30
0.0
 11
494.1584266955
 21
864.0697162863
 31
0.0
  0
SPLINE
  5
1D4
330
1F
100
AcDbEntity
  8
0
  6
Continuous
 62
     7
370
    15
100
AcDbSpline
210
0.0
220
0.0
230
1.0
 70
     8
 71
     3
 72
     9
 73
     5
 74
     0
 42
0.00000001
 43
0.00000001
 12
1.0
 22
0.0
 32
0.0
 13
1.0
 23
0.0
 33
0.0
 40
0.0
 40
0.0
 40
0.0
 40
0.0
 40
0.0702024395857219
 40
1.0
 40
1.0
 40
1.0
 40
1.0
 10
494.1584266955246
 20
864.0697162863121
 30
0.0
 10
494.2090125085342
 20
864.0692654596278
 30
0.0
 10
494.929583094231
 20
864.0628436502584
 30
0.0
 10
495.6357333998947
 20
863.8349880585914
 30
0.0
 10
496.2923102313865
 20
863.6231284853324
 30
0.0
  0
LINE
  5
1D5
330
1F
100
AcDbEntity
  8
0
  6
Continuous
 62
     7
370
    15
100
AcDbLine
 10
496.2923102314
 20
863.6231284853
 30
0.0
 11
496.2923102314
 21
859.3162756678
 31
0.0
  0
SPLINE
  5
1D6
330
1F
100
AcDbEntity
  8
0
  6
Continuous
 62
     7
370
    15
100
AcDbSpline
210
0.0
220
0.0
230
1.0
 70
     8
 71
     3
 72
     9
 73
     5
 74
     0
 42
0.00000001
 43
0.00000001
 12
1.0
 22
0.0
 32
0.0
 13
1.0
 23
0.0
 33
0.0
 40
0.0
 40
0.0
 40
0.0
 40
0.0
 40
0.0702023273970177
 40
1.0
 40
1.0
 40
1.0
 40
1.0
 10
494.1584266955246
 20
858.8697176691398
 30
0.0
 10
494.209012511506
 20
858.8701582142737
 30
0.0
 10
494.9295842910621
 20
858.8764335779288
 30
0.0
 10
495.635733935489
 20
859.1043549274633
 30
0.0
 10
496.2923102313865
 20
859.316275667797
 30
0.0
  0
LINE
  5
1D7
330
1F
100
AcDbEntity
  8
0
  6
Continuous
 62
     7
370
    15
100
AcDbLine
 10
493.8514553244
 20
858.9339416739
 30
0.0
 11
494.1584266955
 21
858.8697176691
 31
0.0
  0
LINE
  5
1D8
330
1F
100
AcDbEntity
  8
0
  6
Continuous
 62
     7
370
    15
100
AcDbLine
 10
492.0245431597
 20
863.6231284853
 30
0.0
 11
492.0245431597
 21
863.2697027441
 31
0.0
  0
SPLINE
  5
1D9
330
1F
100
AcDbEntity
  8
0
  6
Continuous
 62
     7
370
    15
100
AcDbSpline
210
0.0
220
0.0
230
1.0
 70
     8
 71
     3
 72
     9
 73
     5
 74
     0
 42
0.00000001
 43
0.00000001
 12
1.0
 22
0.0
 32
0.0
 13
1.0
 23
0.0
 33
0.0
 40
0.0
 40
0.0
 40
0.0
 40
0.0
 40
0.2575510992415979
 40
1.0
 40
1.0
 40
1.0
 40
1.0
 10
496.2923102313865
 20
859.3162756677971
 30
0.0
 10
496.5232340775661
 20
859.2488672689839
 30
0.0
 10
497.4198477859119
 20
858.9871390177292
 30
0.0
 10
498.3513685864274
 20
858.9197503278582
 30
0.0
 10
499.0429751808036
 20
858.8697176691398
 30
0.0
  0
SPLINE
  5
1DA
330
1F
100
AcDbEntity
  8
0
  6
Continuous
 62
     7
370
    15
100
AcDbSpline
210
0.0
220
0.0
230
1.0
 70
     8
 71
     3
 72
     9
 73
     5
 74
     0
 42
0.00000001
 43
0.00000001
 12
1.0
 22
0.0
 32
0.0
 13
1.0
 23
0.0
 33
0.0
 40
0.0
 40
0.0
 40
0.0
 40
0.0
 40
0.2575507886626971
 40
1.0
 40
1.0
 40
1.0
 40
1.0
 10
496.2923102313865
 20
863.6231284853325
 30
0.0
 10
496.5232341282114
 20
863.6905364414151
 30
0.0
 10
497.4198491144205
 20
863.9522632892829
 30
0.0
 10
498.3513689864616
 20
864.0196701303347
 30
0.0
 10
499.0429751808036
 20
864.0697162863121
 30
0.0
  0
LINE
  5
1DB
330
1F
100
AcDbEntity
  8
0
  6
Continuous
 62
     7
370
    15
100
AcDbLine
 10
494.1584266955
 20
864.0697162863
 30
0.0
 11
499.0429751808
 21
864.0697162863
 31
0.0
  0
SPLINE
  5
1DC
330
1F
100
AcDbEntity
  8
0
  6
Continuous
 62
     7
370
    15
100
AcDbSpline
210
0.0
220
0.0
230
1.0
 70
     8
 71
     3
 72
     9
 73
     5
 74
     0
 42
0.00000001
 43
0.00000001
 12
1.0
 22
0.0
 32
0.0
 13
1.0
 23
0.0
 33
0.0
 40
0.0
 40
0.0
 40
0.0
 40
0.0
 40
0.26863174328336
 40
1.0
 40
1.0
 40
1.0
 40
1.0
 10
499.0429751808036
 20
864.0697162863121
 30
0.0
 10
499.2930856160665
 20
864.0630794460637
 30
0.0
 10
500.2241387827767
 20
864.0383733552381
 30
0.0
 10
501.1306437338607
 20
863.7985371053272
 30
0.0
 10
501.7936326796402
 20
863.6231284853325
 30
0.0
  0
LINE
  5
1DD
330
1F
100
AcDbEntity
  8
0
  6
Continuous
 62
     7
370
    15
100
AcDbLine
 10
501.7936326796
 20
863.6231284853
 30
0.0
 11
501.7936326796
 21
859.3162756678
 31
0.0
  0
SPLINE
  5
1DE
330
1F
100
AcDbEntity
  8
0
  6
Continuous
 62
     7
370
    15
100
AcDbSpline
210
0.0
220
0.0
230
1.0
 70
     8
 71
     3
 72
     9
 73
     5
 74
     0
 42
0.00000001
 43
0.00000001
 12
1.0
 22
0.0
 32
0.0
 13
1.0
 23
0.0
 33
0.0
 40
0.0
 40
0.0
 40
0.0
 40
0.0
 40
0.2686314079203349
 40
1.0
 40
1.0
 40
1.0
 40
1.0
 10
499.0429751808036
 20
858.8697176691398
 30
0.0
 10
499.293085671529
 20
858.8763432589756
 30
0.0
 10
500.2241402070414
 20
858.9010075001637
 30
0.0
 10
501.1306441599135
 20
859.1408571598682
 30
0.0
 10
501.7936326796402
 20
859.3162756677971
 30
0.0
  0
LINE
  5
1DF
330
1F
100
AcDbEntity
  8
0
  6
Continuous
 62
     7
370
    15
100
AcDbLine
 10
501.7936326796
 20
859.3162756678
 30
0.0
 11
502.4104066426
 21
858.8697176691
 31
0.0
  0
LINE
  5
1E0
330
1F
100
AcDbEntity
  8
0
  6
Continuous
 62
     7
370
    15
100
AcDbLine
 10
501.7936326796
 20
863.6231284853
 30
0.0
 11
502.4104066426
 21
864.0697162863
 31
0.0
  0
LINE
  5
1E1
330
1F
100
AcDbEntity
  8
0
  6
Continuous
 62
     7
370
    15
100
AcDbLine
 10
499.0429751808
 20
864.0697162863
 30
0.0
 11
502.4104066426
 21
864.0697162863
 31
0.0
  0
LINE
  5
1E2
330
1F
100
AcDbEntity
  8
0
  6
Continuous
 62
     7
370
    15
100
AcDbLine
 10
492.408255511
 20
863.9205854651
 30
0.0
 11
492.0245431597
 21
863.6231284853
 31
0.0
  0
LINE
  5
1E3
330
1F
100
AcDbEntity
  8
0
  6
Continuous
 62
     7
370
    15
100
AcDbLine
 10
492.5258629257
 20
864.0697162863
 30
0.0
 11
494.1584266955
 21
864.0697162863
 31
0.0
  0
SPLINE
  5
1E4
330
1F
100
AcDbEntity
  8
0
  6
Continuous
 62
     7
370
    15
100
AcDbSpline
210
0.0
220
0.0
230
1.0
 70
     8
 71
     3
 72
     9
 73
     5
 74
     0
 42
0.00000001
 43
0.00000001
 12
1.0
 22
0.0
 32
0.0
 13
1.0
 23
0.0
 33
0.0
 40
0.0
 40
0.0
 40
0.0
 40
0.0
 40
0.0702007124056616
 40
1.0
 40
1.0
 40
1.0
 40
1.0
 10
502.4104066426147
 20
864.0697162863121
 30
0.0
 10
502.4250265254378
 20
864.0692654402961
 30
0.0
 10
502.6332848510611
 20
864.0628431975509
 30
0.0
 10
502.8373971424587
 20
863.8349880444036
 30
0.0
 10
503.0271806055893
 20
863.6231284853325
 30
0.0
  0
LINE
  5
1E5
330
1F
100
AcDbEntity
  8
0
  6
Continuous
 62
     7
370
    15
100
AcDbLine
 10
503.0271806056
 20
863.6231284853
 30
0.0
 11
503.0271806056
 21
859.3162756678
 31
0.0
  0
LINE
  5
1E6
330
1F
100
AcDbEntity
  8
0
  6
Continuous
 62
     7
370
    15
100
AcDbLine
 10
502.6434682543
 20
859.018818688
 30
0.0
 11
503.0271806056
 21
859.3162756678
 31
0.0
  0
LINE
  5
1E7
330
1F
100
AcDbEntity
  8
0
  6
Continuous
 62
     7
370
    15
100
AcDbLine
 10
502.4104066426
 20
864.0697162863
 30
0.0
 11
502.5258608395
 21
864.0697162863
 31
0.0
  0
LINE
  5
1E8
330
1F
100
AcDbEntity
  8
0
  6
Continuous
 62
     7
370
    15
100
AcDbLine
 10
503.1981118256
 20
868.1947153326
 30
0.0
 11
503.1981118256
 21
864.7662859675
 31
0.0
  0
SPLINE
  5
1E9
330
1F
100
AcDbEntity
  8
0
  6
Continuous
 62
     7
370
    15
100
AcDbSpline
210
0.0
220
0.0
230
1.0
 70
     8
 71
     3
 72
     9
 73
     5
 74
     0
 42
0.00000001
 43
0.00000001
 12
1.0
 22
0.0
 32
0.0
 13
1.0
 23
0.0
 33
0.0
 40
0.0
 40
0.0
 40
0.0
 40
0.0
 40
0.0702010270718331
 40
1.0
 40
1.0
 40
1.0
 40
1.0
 10
501.3139046961654
 20
864.3196981665001
 30
0.0
 10
501.3585720204525
 20
864.3201490089941
 30
0.0
 10
501.9948493820547
 20
864.3265711727834
 30
0.0
 10
502.6183663703364
 20
864.5544264058232
 30
0.0
 10
503.1981118256439
 20
864.7662859674797
 30
0.0
  0
LINE
  5
1EA
330
1F
100
AcDbEntity
  8
0
  6
Continuous
 62
     7
370
    15
100
AcDbLine
 10
499.4296975667
 20
864.7662859675
 30
0.0
 11
501.3139046962
 21
864.3196981665
 31
0.0
  0
LINE
  5
1EB
330
1F
100
AcDbEntity
  8
0
  6
Continuous
 62
     7
370
    15
100
AcDbLine
 10
499.4296975667
 20
868.1947153326
 30
0.0
 11
499.4296975667
 21
864.7662859675
 31
0.0
  0
SPLINE
  5
1EC
330
1F
100
AcDbEntity
  8
0
  6
Continuous
 62
     7
370
    15
100
AcDbSpline
210
0.0
220
0.0
230
1.0
 70
     8
 71
     3
 72
     9
 73
     5
 74
     0
 42
0.00000001
 43
0.00000001
 12
1.0
 22
0.0
 32
0.0
 13
1.0
 23
0.0
 33
0.0
 40
0.0
 40
0.0
 40
0.0
 40
0.0
 40
0.2686350147109305
 40
1.0
 40
1.0
 40
1.0
 40
1.0
 10
496.5935670072425
 20
864.3196981665001
 30
0.0
 10
496.8514517562173
 20
864.3263348311436
 30
0.0
 10
497.811433645593
 20
864.3510399674068
 30
0.0
 10
498.7461088497492
 20
864.5908773232511
 30
0.0
 10
499.429697566687
 20
864.7662859674797
 30
0.0
  0
LINE
  5
1ED
330
1F
100
AcDbEntity
  8
0
  6
Continuous
 62
     7
370
    15
100
AcDbLine
 10
501.3139046962
 20
864.3196981665
 30
0.0
 11
496.5935670072
 21
864.3196981665
 31
0.0
  0
SPLINE
  5
1EE
330
1F
100
AcDbEntity
  8
0
  6
Continuous
 62
     7
370
    15
100
AcDbSpline
210
0.0
220
0.0
230
1.0
 70
     8
 71
     3
 72
     9
 73
     5
 74
     0
 42
0.00000001
 43
0.00000001
 12
1.0
 22
0.0
 32
0.0
 13
1.0
 23
0.0
 33
0.0
 40
0.0
 40
0.0
 40
0.0
 40
0.0
 40
0.2575517351660612
 40
1.0
 40
1.0
 40
1.0
 40
1.0
 10
493.7574438983787
 20
864.7662859674797
 30
0.0
 10
493.9955407280535
 20
864.6988663574137
 30
0.0
 10
494.9200028735765
 20
864.4370952222962
 30
0.0
 10
495.8804699172425
 20
864.3697204495897
 30
0.0
 10
496.5935670072425
 20
864.3196981665001
 30
0.0
  0
LINE
  5
1EF
330
1F
100
AcDbEntity
  8
0
  6
Continuous
 62
     7
370
    15
100
AcDbLine
 10
493.7574438984
 20
868.1947153326
 30
0.0
 11
493.7574438984
 21
864.7662859675
 31
0.0
  0
SPLINE
  5
1F0
330
1F
100
AcDbEntity
  8
0
  6
Continuous
 62
     7
370
    15
100
AcDbSpline
210
0.0
220
0.0
230
1.0
 70
     8
 71
     3
 72
     9
 73
     5
 74
     0
 42
0.00000001
 43
0.00000001
 12
1.0
 22
0.0
 32
0.0
 13
1.0
 23
0.0
 33
0.0
 40
0.0
 40
0.0
 40
0.0
 40
0.0
 40
0.0701972995602201
 40
1.0
 40
1.0
 40
1.0
 40
1.0
 10
492.8055279189933
 20
864.3196981665001
 30
0.0
 10
492.828093932939
 20
864.320149050713
 30
0.0
 10
493.1495594891211
 20
864.3265721498309
 30
0.0
 10
493.4645577058399
 20
864.5544264364627
 30
0.0
 10
493.7574438983787
 20
864.7662859674797
 30
0.0
  0
LINE
  5
1F1
330
1F
100
AcDbEntity
  8
0
  6
Continuous
 62
     7
370
    15
100
AcDbLine
 10
496.5935670072
 20
864.3196981665
 30
0.0
 11
492.805527919
 21
864.3196981665
 31
0.0
  0
LINE
  5
1F2
330
1F
100
AcDbEntity
  8
0
  6
Continuous
 62
     7
370
    15
100
AcDbLine
 10
491.8536119396
 20
864.7662859675
 30
0.0
 11
492.805527919
 21
864.3196981665
 31
0.0
  0
LINE
  5
1F3
330
1F
100
AcDbEntity
  8
0
  6
Continuous
 62
     7
370
    15
100
AcDbLine
 10
491.8536119396
 20
868.1947153326
 30
0.0
 11
491.8536119396
 21
864.7662859675
 31
0.0
  0
LINE
  5
1F4
330
1F
100
AcDbEntity
  8
0
  6
Continuous
 62
     7
370
    15
100
AcDbLine
 10
503.1981118256
 20
864.7662859675
 30
0.0
 11
502.8230794007
 21
864.5903330561
 31
0.0
  0
LINE
  5
1F5
330
1F
100
AcDbEntity
  8
0
  6
Continuous
 62
     7
370
    15
100
AcDbLine
 10
502.5258608395
 20
864.3196981665
 30
0.0
 11
501.3139046962
 21
864.3196981665
 31
0.0
  0
LINE
  5
1F6
330
1F
100
AcDbEntity
  8
0
  6
Continuous
 62
     7
370
    15
100
AcDbLine
 10
492.805527919
 20
864.3196981665
 30
0.0
 11
492.5258629257
 21
864.3196981665
 31
0.0
  0
ENDSEC
  0
SECTION
  2
OBJECTS
  0
DICTIONARY
  5
C
330
0
100
AcDbDictionary
281
     1
  3
ACAD_GROUP
350
D
  3
ACAD_LAYOUT
350
1A
  3
ACAD_MLINESTYLE
350
17
  3
ACAD_PLOTSETTINGS
350
19
  3
ACAD_PLOTSTYLENAME
350
E
  0
DICTIONARY
  5
D
102
{ACAD_REACTORS
330
C
102
}
330
C
100
AcDbDictionary
281
     1
  0
DICTIONARY
  5
1A
102
{ACAD_REACTORS
330
C
102
}
330
C
100
AcDbDictionary
281
     1
  3
Layout1
350
1E
  3
Layout2
350
26
  3
Model
350
22
  0
DICTIONARY
  5
17
102
{ACAD_REACTORS
330
C
102
}
330
C
100
AcDbDictionary
281
     1
  3
Standard
350
18
  0
DICTIONARY
  5
19
102
{ACAD_REACTORS
330
C
102
}
330
C
100
AcDbDictionary
281
     1
  0
ACDBDICTIONARYWDFLT
  5
E
102
{ACAD_REACTORS
330
C
102
}
330
C
100
AcDbDictionary
281
     1
  3
Normal
350
F
100
AcDbDictionaryWithDefault
340
F
  0
LAYOUT
  5
1E
102
{ACAD_REACTORS
330
1A
102
}
330
1A
100
AcDbPlotSettings
  1

  2
none_device
  4

  6

 40
0.0
 41
0.0
 42
0.0
 43
0.0
 44
0.0
 45
0.0
 46
0.0
 47
0.0
 48
0.0
 49
0.0
140
0.0
141
0.0
142
1.0
143
1.0
 70
   688
 72
     0
 73
     0
 74
     5
  7

 75
    16
147
1.0
148
0.0
149
0.0
100
AcDbLayout
  1
Layout1
 70
     1
 71
     1
 10
0.0
 20
0.0
 11
420.0
 21
297.0
 12
0.0
 22
0.0
 32
0.0
 14
1.0000000000E+20
 24
1.0000000000E+20
 34
1.0000000000E+20
 15
-1.0000000000E+20
 25
-1.0000000000E+20
 35
-1.0000000000E+20
146
0.0
 13
0.0
 23
0.0
 33
0.0
 16
1.0
 26
0.0
 36
0.0
 17
0.0
 27
1.0
 37
0.0
 76
     0
330
1B
  0
LAYOUT
  5
26
102
{ACAD_REACTORS
330
1A
102
}
330
1A
100
AcDbPlotSettings
  1

  2
none_device
  4

  6

 40
0.0
 41
0.0
 42
0.0
 43
0.0
 44
0.0
 45
0.0
 46
0.0
 47
0.0
 48
0.0
 49
0.0
140
0.0
141
0.0
142
1.0
143
1.0
 70
   688
 72
     0
 73
     0
 74
     5
  7

 75
    16
147
1.0
148
0.0
149
0.0
100
AcDbLayout
  1
Layout2
 70
     1
 71
     2
 10
0.0
 20
0.0
 11
0.0
 21
0.0
 12
0.0
 22
0.0
 32
0.0
 14
0.0
 24
0.0
 34
0.0
 15
0.0
 25
0.0
 35
0.0
146
0.0
 13
0.0
 23
0.0
 33
0.0
 16
1.0
 26
0.0
 36
0.0
 17
0.0
 27
1.0
 37
0.0
 76
     0
330
23
  0
LAYOUT
  5
22
102
{ACAD_REACTORS
330
1A
102
}
330
1A
100
AcDbPlotSettings
  1

  2
none_device
  4

  6

 40
0.0
 41
0.0
 42
0.0
 43
0.0
 44
0.0
 45
0.0
 46
0.0
 47
0.0
 48
0.0
 49
0.0
140
0.0
141
0.0
142
1.0
143
1.0
 70
  1712
 72
     0
 73
     0
 74
     0
  7

 75
     0
147
1.0
148
0.0
149
0.0
100
AcDbLayout
  1
Model
 70
     1
 71
     0
 10
0.0
 20
0.0
 11
1100.0
 21
1500.0
 12
0.0
 22
0.0
 32
0.0
 14
0.0
 24
0.0
 34
0.0
 15
1100.0
 25
1500.0
 35
0.0
146
0.0
 13
0.0
 23
0.0
 33
0.0
 16
1.0
 26
0.0
 36
0.0
 17
0.0
 27
1.0
 37
0.0
 76
     0
330
1F
331
29
  0
MLINESTYLE
  5
18
102
{ACAD_REACTORS
330
17
102
}
330
17
100
AcDbMlineStyle
  2
Standard
 70
     0
  3

 62
   256
 51
90.0
 52
90.0
 71
     2
 49
0.5
 62
   256
  6
BYLAYER
 49
-0.5
 62
   256
  6
BYLAYER
  0
ACDBPLACEHOLDER
  5
F
102
{ACAD_REACTORS
330
E
102
}
330
E
  0
ENDSEC
  0
EOF
