  0
SECTION
  2
HEADER
  9
$ACADVER
  1
AC1015
  9
$ACADMAINTVER
 70
     6
  9
$DWGCODEPAGE
  3
ANSI_1252
  9
$INSBASE
 10
0.0
 20
0.0
 30
0.0
  9
$EXTMIN
 10
0.0
 20
0.0
 30
0.0
  9
$EXTMAX
 10
950.0
 20
950.0
 30
0.0
  9
$LIMMIN
 10
0.0
 20
0.0
  9
$LIMMAX
 10
950.0
 20
950.0
  9
$ORTHOMODE
 70
     0
  9
$REGENMODE
 70
     1
  9
$FILLMODE
 70
     1
  9
$QTEXTMODE
 70
     0
  9
$MIRRTEXT
 70
     1
  9
$LTSCALE
 40
1.0
  9
$ATTMODE
 70
     1
  9
$TEXTSIZE
 40
3.5
  9
$TRACEWID
 40
1.0
  9
$TEXTSTYLE
  7
Standard
  9
$CLAYER
  8
0
  9
$CELTYPE
  6
ByLayer
  9
$CECOLOR
 62
   256
  9
$CELTSCALE
 40
1.0
  9
$DISPSILH
 70
     0
  9
$DIMSCALE
 40
1.0
  9
$DIMASZ
 40
3.302
  9
$DIMEXO
 40
1.0
  9
$DIMDLI
 40
3.75
  9
$DIMRND
 40
0.0
  9
$DIMDLE
 40
0.0
  9
$DIMEXE
 40
1.0
  9
$DIMTP
 40
0.0
  9
$DIMTM
 40
0.0
  9
$DIMTXT
 40
3.5
  9
$DIMCEN
 40
2.5
  9
$DIMTSZ
 40
0.0
  9
$DIMTOL
 70
     0
  9
$DIMLIM
 70
     0
  9
$DIMTIH
 70
     1
  9
$DIMTOH
 70
     1
  9
$DIMSE1
 70
     0
  9
$DIMSE2
 70
     0
  9
$DIMTAD
 70
     1
  9
$DIMZIN
 70
     0
  9
$DIMBLK
  1

  9
$DIMASO
 70
     1
  9
$DIMSHO
 70
     1
  9
$DIMPOST
  1

  9
$DIMAPOST
  1

  9
$DIMALT
 70
     0
  9
$DIMALTD
 70
     3
  9
$DIMALTF
 40
0.0393700787
  9
$DIMLFAC
 40
1.0
  9
$DIMTOFL
 70
     1
  9
$DIMTVP
 40
0.0
  9
$DIMTIX
 70
     0
  9
$DIMSOXD
 70
     0
  9
$DIMSAH
 70
     0
  9
$DIMBLK1
  1

  9
$DIMBLK2
  1

  9
$DIMSTYLE
  2
ISO-25
  9
$DIMCLRD
 70
     0
  9
$DIMCLRE
 70
     0
  9
$DIMCLRT
 70
     0
  9
$DIMTFAC
 40
1.0
  9
$DIMGAP
 40
5.0
  9
$DIMJUST
 70
     0
  9
$DIMSD1
 70
     0
  9
$DIMSD2
 70
     0
  9
$DIMTOLJ
 70
     0
  9
$DIMTZIN
 70
     0
  9
$DIMALTZ
 70
     0
  9
$DIMALTTZ
 70
     0
  9
$DIMUPT
 70
     0
  9
$DIMDEC
 70
     1
  9
$DIMTDEC
 70
     1
  9
$DIMALTU
 70
     2
  9
$DIMALTTD
 70
     3
  9
$DIMTXSTY
  7
Standard
  9
$DIMAUNIT
 70
     0
  9
$DIMADEC
 70
     1
  9
$DIMALTRND
 40
0.0
  9
$DIMAZIN
 70
     0
  9
$DIMDSEP
 70
    44
  9
$DIMATFIT
 70
     3
  9
$DIMFRAC
 70
     0
  9
$DIMLDRBLK
  1

  9
$DIMLUNIT
 70
     2
  9
$DIMLWD
 70
    -2
  9
$DIMLWE
 70
    -2
  9
$DIMTMOVE
 70
     0
  9
$LUNITS
 70
     2
  9
$LUPREC
 70
     1
  9
$SKETCHINC
 40
1.0
  9
$FILLETRAD
 40
10.0
  9
$AUNITS
 70
     0
  9
$AUPREC
 70
     1
  9
$MENU
  1
.
  9
$ELEVATION
 40
0.0
  9
$PELEVATION
 40
0.0
  9
$THICKNESS
 40
0.0
  9
$LIMCHECK
 70
     0
  9
$CHAMFERA
 40
0.0
  9
$CHAMFERB
 40
0.0
  9
$CHAMFERC
 40
0.0
  9
$CHAMFERD
 40
0.0
  9
$SKPOLY
 70
     0
  9
$TDCREATE
 40
2457905.342281134
  9
$TDUCREATE
 40
2457905.300614468
  9
$TDUPDATE
 40
2457905.342283299
  9
$TDUUPDATE
 40
2457905.300616632
  9
$TDINDWG
 40
0.0000000116
  9
$TDUSRTIMER
 40
0.0000000116
  9
$USRTIMER
 70
     1
  9
$ANGBASE
 50
0.0
  9
$ANGDIR
 70
     0
  9
$PDMODE
 70
     0
  9
$PDSIZE
 40
-1.0
  9
$PLINEWID
 40
0.0
  9
$SPLFRAME
 70
     0
  9
$SPLINETYPE
 70
     6
  9
$SPLINESEGS
 70
     8
  9
$HANDSEED
  5
393
  9
$SURFTAB1
 70
     6
  9
$SURFTAB2
 70
     6
  9
$SURFTYPE
 70
     6
  9
$SURFU
 70
     6
  9
$SURFV
 70
     6
  9
$UCSBASE
  2

  9
$UCSNAME
  2

  9
$UCSORG
 10
0.0
 20
0.0
 30
0.0
  9
$UCSXDIR
 10
1.0
 20
0.0
 30
0.0
  9
$UCSYDIR
 10
0.0
 20
1.0
 30
0.0
  9
$UCSORTHOREF
  2

  9
$UCSORTHOVIEW
 70
     0
  9
$UCSORGTOP
 10
0.0
 20
0.0
 30
0.0
  9
$UCSORGBOTTOM
 10
0.0
 20
0.0
 30
0.0
  9
$UCSORGLEFT
 10
0.0
 20
0.0
 30
0.0
  9
$UCSORGRIGHT
 10
0.0
 20
0.0
 30
0.0
  9
$UCSORGFRONT
 10
0.0
 20
0.0
 30
0.0
  9
$UCSORGBACK
 10
0.0
 20
0.0
 30
0.0
  9
$PUCSBASE
  2

  9
$PUCSNAME
  2

  9
$PUCSORG
 10
0.0
 20
0.0
 30
0.0
  9
$PUCSXDIR
 10
1.0
 20
0.0
 30
0.0
  9
$PUCSYDIR
 10
0.0
 20
1.0
 30
0.0
  9
$PUCSORTHOREF
  2

  9
$PUCSORTHOVIEW
 70
     0
  9
$PUCSORGTOP
 10
0.0
 20
0.0
 30
0.0
  9
$PUCSORGBOTTOM
 10
0.0
 20
0.0
 30
0.0
  9
$PUCSORGLEFT
 10
0.0
 20
0.0
 30
0.0
  9
$PUCSORGRIGHT
 10
0.0
 20
0.0
 30
0.0
  9
$PUCSORGFRONT
 10
0.0
 20
0.0
 30
0.0
  9
$PUCSORGBACK
 10
0.0
 20
0.0
 30
0.0
  9
$USERI1
 70
     0
  9
$USERI2
 70
     0
  9
$USERI3
 70
     0
  9
$USERI4
 70
     0
  9
$USERI5
 70
     0
  9
$USERR1
 40
0.0
  9
$USERR2
 40
0.0
  9
$USERR3
 40
0.0
  9
$USERR4
 40
0.0
  9
$USERR5
 40
0.0
  9
$WORLDVIEW
 70
     1
  9
$SHADEDGE
 70
     3
  9
$SHADEDIF
 70
    70
  9
$TILEMODE
 70
     1
  9
$MAXACTVP
 70
    64
  9
$PINSBASE
 10
0.0
 20
0.0
 30
0.0
  9
$PLIMCHECK
 70
     0
  9
$PEXTMIN
 10
1.0000000000E+20
 20
1.0000000000E+20
 30
1.0000000000E+20
  9
$PEXTMAX
 10
-1.0000000000E+20
 20
-1.0000000000E+20
 30
-1.0000000000E+20
  9
$PLIMMIN
 10
0.0
 20
0.0
  9
$PLIMMAX
 10
420.0
 20
297.0
  9
$UNITMODE
 70
     0
  9
$VISRETAIN
 70
     1
  9
$PLINEGEN
 70
     0
  9
$PSLTSCALE
 70
     1
  9
$TREEDEPTH
 70
  3020
  9
$CMLSTYLE
  2
Standard
  9
$CMLJUST
 70
     0
  9
$CMLSCALE
 40
20.0
  9
$PROXYGRAPHICS
 70
     1
  9
$MEASUREMENT
 70
     1
  9
$CELWEIGHT
370
    -1
  9
$ENDCAPS
280
     0
  9
$JOINSTYLE
280
     0
  9
$LWDISPLAY
290
     1
  9
$INSUNITS
 70
     4
  9
$HYPERLINKBASE
  1

  9
$STYLESHEET
  1

  9
$XEDIT
290
     1
  9
$CEPSNTYPE
380
     0
  9
$PSTYLEMODE
290
     1
  9
$FINGERPRINTGUID
  2
{00CDA5FB-67B7-471D-9887-078AC0FD75C5}
  9
$VERSIONGUID
  2
{FAEB1C32-E019-11D5-929B-00C0DF256EC4}
  9
$EXTNAMES
290
     1
  9
$PSVPSCALE
 40
0.0
  9
$OLESTARTUP
290
     0
  0
ENDSEC
  0
SECTION
  2
CLASSES
  0
CLASS
  1
ACDBDICTIONARYWDFLT
  2
AcDbDictionaryWithDefault
  3
ObjectDBX Classes
 90
        0
280
     0
281
     0
  0
CLASS
  1
VISUALSTYLE
  2
AcDbVisualStyle
  3
ObjectDBX Classes
 90
     4095
280
     0
281
     0
  0
CLASS
  1
MATERIAL
  2
AcDbMaterial
  3
ObjectDBX Classes
 90
     1153
280
     0
281
     0
  0
CLASS
  1
SCALE
  2
AcDbScale
  3
ObjectDBX Classes
 90
     1153
280
     0
281
     0
  0
CLASS
  1
TABLESTYLE
  2
AcDbTableStyle
  3
ObjectDBX Classes
 90
     4095
280
     0
281
     0
  0
CLASS
  1
MLEADERSTYLE
  2
AcDbMLeaderStyle
  3
ACDB_MLEADERSTYLE_CLASS
 90
     4095
280
     0
281
     0
  0
CLASS
  1
SUN
  2
AcDbSun
  3
SCENEOE
 90
     1153
280
     0
281
     0
  0
CLASS
  1
ACDBPLACEHOLDER
  2
AcDbPlaceHolder
  3
ObjectDBX Classes
 90
        0
280
     0
281
     0
  0
CLASS
  1
LAYOUT
  2
AcDbLayout
  3
ObjectDBX Classes
 90
        0
280
     0
281
     0
  0
ENDSEC
  0
SECTION
  2
TABLES
  0
TABLE
  2
VPORT
  5
8
330
0
100
AcDbSymbolTable
 70
     1
  0
VPORT
  5
29
330
8
100
AcDbSymbolTableRecord
100
AcDbViewportTableRecord
  2
*Active
 70
     0
 10
0.0
 20
0.0
 11
1.0
 21
1.0
 12
475.0
 22
475.0
 13
0.0
 23
0.0
 14
10.0
 24
10.0
 15
10.0
 25
10.0
 16
0.0
 26
0.0
 36
1.0
 17
0.0
 27
0.0
 37
0.0
 40
950.0
 41
1.0
 42
50.0
 43
0.0
 44
0.0
 50
0.0
 51
0.0
 71
     0
 72
  2000
 73
     1
 74
     3
 75
     0
 76
     0
 77
     0
 78
     0
281
     0
 65
     1
110
0.0
120
0.0
130
0.0
111
1.0
121
0.0
131
0.0
112
0.0
122
1.0
132
0.0
 79
     0
146
0.0
  0
ENDTAB
  0
TABLE
  2
LTYPE
  5
5
330
0
100
AcDbSymbolTable
 70
     6
  0
LTYPE
  5
14
330
5
100
AcDbSymbolTableRecord
100
AcDbLinetypeTableRecord
  2
ByBlock
 70
     0
  3

 72
    65
 73
     0
 40
0.0
  0
LTYPE
  5
15
330
5
100
AcDbSymbolTableRecord
100
AcDbLinetypeTableRecord
  2
ByLayer
 70
     0
  3

 72
    65
 73
     0
 40
0.0
  0
LTYPE
  5
16
330
5
100
AcDbSymbolTableRecord
100
AcDbLinetypeTableRecord
  2
Continuous
 70
     0
  3
Solid line
 72
    65
 73
     0
 40
0.0
  0
LTYPE
  5
6E
330
5
100
AcDbSymbolTableRecord
100
AcDbLinetypeTableRecord
  2
HIDDEN
 70
     0
  3
Hidden __ __ __ __ __ __ __ __ __ __ __ __ __ __
 72
    65
 73
     2
 40
1.905
 49
1.27
 74
     0
 49
-0.635
 74
     0
  0
LTYPE
  5
6F
330
5
100
AcDbSymbolTableRecord
100
AcDbLinetypeTableRecord
  2
PHANTOM
 70
     0
  3
Phantom ______  __  __  ______  __  __  ______
 72
    65
 73
     6
 40
12.7
 49
6.35
 74
     0
 49
-1.27
 74
     0
 49
1.27
 74
     0
 49
-1.27
 74
     0
 49
1.27
 74
     0
 49
-1.27
 74
     0
  0
LTYPE
  5
70
330
5
100
AcDbSymbolTableRecord
100
AcDbLinetypeTableRecord
  2
CENTER
 70
     0
  3
Center ____ _ ____ _ ____ _ ____ _ ____ _ ____
 72
    65
 73
     4
 40
10.16
 49
6.35
 74
     0
 49
-1.27
 74
     0
 49
1.27
 74
     0
 49
-1.27
 74
     0
  0
LTYPE
  5
71
330
5
100
AcDbSymbolTableRecord
100
AcDbLinetypeTableRecord
  2
CENTERX2
 70
     0
  3
Center (2x) ________  __  ________  __  _____
 72
    65
 73
     4
 40
20.32
 49
12.7
 74
     0
 49
-2.54
 74
     0
 49
2.54
 74
     0
 49
-2.54
 74
     0
  0
LTYPE
  5
72
330
5
100
AcDbSymbolTableRecord
100
AcDbLinetypeTableRecord
  2
DOT2
 70
     0
  3
Dot (.5x) ........................................
 72
    65
 73
     2
 40
0.635
 49
0.0
 74
     0
 49
-0.635
 74
     0
  0
ENDTAB
  0
TABLE
  2
LAYER
  5
2
330
0
100
AcDbSymbolTable
 70
     4
  0
LAYER
  5
10
330
2
100
AcDbSymbolTableRecord
100
AcDbLayerTableRecord
  2
0
 70
     0
 62
     7
  6
Continuous
370
    -3
390
F
  0
LAYER
  5
73
330
2
100
AcDbSymbolTableRecord
100
AcDbLayerTableRecord
  2
FORMAT
 70
     0
 62
     7
  6
Continuous
370
    -3
390
F
  0
LAYER
  5
74
330
2
100
AcDbSymbolTableRecord
100
AcDbLayerTableRecord
  2
SLD-0
 70
     0
 62
     1
  6
Continuous
370
    -3
390
F
  0
LAYER
  5
75
330
2
100
AcDbSymbolTableRecord
100
AcDbLayerTableRecord
  2
WATERMARK
 70
     0
 62
     1
  6
Continuous
370
    -3
390
F
  0
ENDTAB
  0
TABLE
  2
STYLE
  5
3
330
0
100
AcDbSymbolTable
 70
     1
  0
STYLE
  5
11
330
3
100
AcDbSymbolTableRecord
100
AcDbTextStyleTableRecord
  2
Standard
 70
     0
 40
0.0
 41
1.0
 50
0.0
 71
     0
 42
3.5
  3
txt
  4

  0
ENDTAB
  0
TABLE
  2
VIEW
  5
6
330
0
100
AcDbSymbolTable
 70
     0
  0
ENDTAB
  0
TABLE
  2
UCS
  5
7
330
0
100
AcDbSymbolTable
 70
     0
  0
ENDTAB
  0
TABLE
  2
APPID
  5
9
330
0
100
AcDbSymbolTable
 70
     1
  0
APPID
  5
12
330
9
100
AcDbSymbolTableRecord
100
AcDbRegAppTableRecord
  2
ACAD
 70
     0
  0
ENDTAB
  0
TABLE
  2
DIMSTYLE
  5
A
330
0
100
AcDbSymbolTable
 70
     1
100
AcDbDimStyleTable
  0
DIMSTYLE
105
27
330
A
100
AcDbSymbolTableRecord
100
AcDbDimStyleTableRecord
  2
ISO-25
 70
     0
 41
2.5
 42
0.625
 43
3.75
 44
1.25
 73
     0
 74
     0
 77
     1
 78
     8
140
2.5
141
2.5
143
0.0393700787
147
0.625
171
     3
172
     1
178
     0
271
     2
272
     2
274
     3
278
    44
283
     0
284
     8
340
11
  0
ENDTAB
  0
TABLE
  2
BLOCK_RECORD
  5
1
330
0
100
AcDbSymbolTable
 70
     1
  0
BLOCK_RECORD
  5
1F
330
1
100
AcDbSymbolTableRecord
100
AcDbBlockTableRecord
  2
*Model_Space
340
22
  0
BLOCK_RECORD
  5
1B
330
1
100
AcDbSymbolTableRecord
100
AcDbBlockTableRecord
  2
*Paper_Space
340
1E
  0
BLOCK_RECORD
  5
23
330
1
100
AcDbSymbolTableRecord
100
AcDbBlockTableRecord
  2
*Paper_Space0
340
26
  0
ENDTAB
  0
ENDSEC
  0
SECTION
  2
BLOCKS
  0
BLOCK
  5
20
330
1F
100
AcDbEntity
  8
0
100
AcDbBlockBegin
  2
*Model_Space
 70
     0
 10
0.0
 20
0.0
 30
0.0
  3
*Model_Space
  1

  0
ENDBLK
  5
21
330
1F
100
AcDbEntity
  8
0
100
AcDbBlockEnd
  0
BLOCK
  5
1C
330
1B
100
AcDbEntity
 67
     1
  8
0
100
AcDbBlockBegin
  2
*Paper_Space
 70
     0
 10
0.0
 20
0.0
 30
0.0
  3
*Paper_Space
  1

  0
ENDBLK
  5
1D
330
1B
100
AcDbEntity
 67
     1
  8
0
100
AcDbBlockEnd
  0
BLOCK
  5
24
330
23
100
AcDbEntity
  8
0
100
AcDbBlockBegin
  2
*Paper_Space0
 70
     0
 10
0.0
 20
0.0
 30
0.0
  3
*Paper_Space0
  1

  0
ENDBLK
  5
25
330
23
100
AcDbEntity
  8
0
100
AcDbBlockEnd
  0
ENDSEC
  0
SECTION
  2
ENTITIES
  0
LINE
  5
76
330
1F
100
AcDbEntity
  8
0
  6
CENTERX2
 62
     7
100
AcDbLine
 10
291.9153098709
 20
911.2874445473
 30
0.0
 11
691.9153098709
 21
911.2874445473
 31
0.0
  0
LINE
  5
77
330
1F
100
AcDbEntity
  8
0
  6
CENTERX2
 62
     7
100
AcDbLine
 10
291.9153098709
 20
911.2874445473
 30
0.0
 11
691.9153098709
 21
911.2874445473
 31
0.0
  0
LINE
  5
78
330
1F
100
AcDbEntity
  8
0
  6
CENTERX2
 62
     7
100
AcDbLine
 10
291.9153098709
 20
911.2874445473
 30
0.0
 11
691.9153098709
 21
911.2874445473
 31
0.0
  0
LINE
  5
79
330
1F
100
AcDbEntity
  8
0
  6
CENTERX2
 62
     7
100
AcDbLine
 10
691.9153098709
 20
911.2874445473
 30
0.0
 11
291.9153098709
 21
911.2874445473
 31
0.0
  0
LINE
  5
7A
330
1F
100
AcDbEntity
  8
0
  6
CENTERX2
 62
     7
100
AcDbLine
 10
691.9153098709
 20
911.2874445473
 30
0.0
 11
291.9153098709
 21
911.2874445473
 31
0.0
  0
LINE
  5
7B
330
1F
100
AcDbEntity
  8
0
  6
CENTERX2
 62
     7
100
AcDbLine
 10
291.9153098709
 20
911.2874445473
 30
0.0
 11
691.9153098709
 21
911.2874445473
 31
0.0
  0
LINE
  5
7C
330
1F
100
AcDbEntity
  8
0
  6
Continuous
 62
     7
370
    25
100
AcDbLine
 10
346.1736401365
 20
722.9639210689
 30
0.0
 11
346.1736401365
 21
723.0061828951
 31
0.0
  0
LINE
  5
7D
330
1F
100
AcDbEntity
  8
0
  6
Continuous
 62
     7
370
    25
100
AcDbLine
 10
297.6569796381
 20
723.0061828951
 30
0.0
 11
297.6569796381
 21
722.9639210689
 31
0.0
  0
LINE
  5
7E
330
1F
100
AcDbEntity
  8
0
  6
Continuous
 62
     7
370
    25
100
AcDbLine
 10
321.1736401365
 20
722.9639210689
 30
0.0
 11
321.1736401365
 21
723.0061828951
 31
0.0
  0
LINE
  5
7F
330
1F
100
AcDbEntity
  8
0
  6
Continuous
 62
     7
370
    25
100
AcDbLine
 10
322.6569796381
 20
723.0061828951
 30
0.0
 11
322.6569796381
 21
722.9639210689
 31
0.0
  0
LINE
  5
80
330
1F
100
AcDbEntity
  8
0
  6
Continuous
 62
     7
370
    25
100
AcDbLine
 10
318.5653098709
 20
657.700842007
 30
0.0
 11
318.5653098709
 21
660.700842007
 31
0.0
  0
LINE
  5
81
330
1F
100
AcDbEntity
  8
0
  6
Continuous
 62
     7
370
    25
100
AcDbLine
 10
304.5653098709
 20
657.700842007
 30
0.0
 11
304.5653098709
 21
655.0874445473
 31
0.0
  0
LINE
  5
82
330
1F
100
AcDbEntity
  8
0
  6
Continuous
 62
     7
370
    25
100
AcDbLine
 10
314.5653098709
 20
655.0874445473
 30
0.0
 11
314.5653098709
 21
657.700842007
 31
0.0
  0
LINE
  5
83
330
1F
100
AcDbEntity
  8
0
  6
Continuous
 62
     7
370
    25
100
AcDbLine
 10
301.0653098709
 20
181.5874445473
 30
0.0
 11
301.0653098709
 21
178.5874445473
 31
0.0
  0
SPLINE
  5
84
330
1F
100
AcDbEntity
  8
0
  6
Continuous
 62
     7
370
    25
100
AcDbSpline
210
0.0
220
0.0
230
1.0
 70
     8
 71
     3
 72
    12
 73
     8
 74
     0
 42
0.000000001
 43
0.00000001
 40
0.0
 40
0.0
 40
0.0
 40
0.0
 40
0.0715055978010421
 40
0.2076814571357365
 40
0.3963017263578703
 40
0.6631738080232391
 40
1.0
 40
1.0
 40
1.0
 40
1.0
 10
640.7621578008466
 20
582.0408513629808
 30
0.0
 10
640.8088739703913
 20
582.0375457896905
 30
0.0
 10
640.94455680448
 20
582.0279450549408
 30
0.0
 10
641.1849328310414
 20
581.9128727612685
 30
0.0
 10
641.4625227350133
 20
581.6383187591919
 30
0.0
 10
641.7077837575059
 20
581.1682104506023
 30
0.0
 10
641.7426850464097
 20
580.772628548154
 30
0.0
 10
641.7621578008466
 20
580.5519183827716
 30
0.0
  0
LINE
  5
85
330
1F
100
AcDbEntity
  8
0
  6
Continuous
 62
     7
370
    25
100
AcDbLine
 10
565.7621578008
 20
582.040851363
 30
0.0
 11
640.7621578008
 21
582.040851363
 31
0.0
  0
SPLINE
  5
86
330
1F
100
AcDbEntity
  8
0
  6
Continuous
 62
     7
370
    25
100
AcDbSpline
210
0.0
220
0.0
230
1.0
 70
     8
 71
     3
 72
    12
 73
     8
 74
     0
 42
0.000000001
 43
0.00000001
 40
0.0
 40
0.0
 40
0.0
 40
0.0
 40
0.176396238212811
 40
0.5365638846233457
 40
0.7577814011217996
 40
0.905651922679546
 40
1.0
 40
1.0
 40
1.0
 40
1.0
 10
564.7621578008465
 20
580.5519183827719
 30
0.0
 10
564.7678559404713
 20
580.6668423982103
 30
0.0
 10
564.7851885999607
 20
581.0164194457988
 30
0.0
 10
564.9591216526214
 20
581.4976064666888
 30
0.0
 10
565.2716060693592
 20
581.8640497109309
 30
0.0
 10
565.5421234239419
 20
582.020232692818
 30
0.0
 10
565.7004766485711
 20
582.0350714328088
 30
0.0
 10
565.7621578008464
 20
582.0408513629811
 30
0.0
  0
LINE
  5
87
330
1F
100
AcDbEntity
  8
0
  6
Continuous
 62
     7
370
    25
100
AcDbLine
 10
301.0653098709
 20
183.5874445473
 30
0.0
 11
301.0653098709
 21
182.0874445473
 31
0.0
  0
LINE
  5
88
330
1F
100
AcDbEntity
  8
0
  6
Continuous
 62
     7
370
    25
100
AcDbLine
 10
318.0653098709
 20
182.0874445473
 30
0.0
 11
318.0653098709
 21
183.5874445473
 31
0.0
  0
LINE
  5
89
330
1F
100
AcDbEntity
  8
0
  6
Continuous
 62
     7
370
    25
100
AcDbLine
 10
301.0653098709
 20
182.0874445473
 30
0.0
 11
301.5653098709
 21
181.5874445473
 31
0.0
  0
LINE
  5
8A
330
1F
100
AcDbEntity
  8
0
  6
Continuous
 62
     7
370
    25
100
AcDbLine
 10
317.5653098709
 20
181.5874445473
 30
0.0
 11
318.0653098709
 21
182.0874445473
 31
0.0
  0
LINE
  5
8B
330
1F
100
AcDbEntity
  8
0
  6
Continuous
 62
     7
370
    25
100
AcDbLine
 10
318.0653098709
 20
183.5874445473
 30
0.0
 11
317.5653098709
 21
184.0874445473
 31
0.0
  0
LINE
  5
8C
330
1F
100
AcDbEntity
  8
0
  6
Continuous
 62
     7
370
    25
100
AcDbLine
 10
301.5653098709
 20
184.0874445473
 30
0.0
 11
301.0653098709
 21
183.5874445473
 31
0.0
  0
LINE
  5
8D
330
1F
100
AcDbEntity
  8
0
  6
Continuous
 62
     7
370
    25
100
AcDbLine
 10
318.0653098709
 20
653.0874445473
 30
0.0
 11
318.0653098709
 21
654.5874445473
 31
0.0
  0
LINE
  5
8E
330
1F
100
AcDbEntity
  8
0
  6
Continuous
 62
     7
370
    25
100
AcDbLine
 10
301.0653098709
 20
654.5874445473
 30
0.0
 11
301.0653098709
 21
653.0874445473
 31
0.0
  0
LINE
  5
8F
330
1F
100
AcDbEntity
  8
0
  6
Continuous
 62
     7
370
    25
100
AcDbLine
 10
301.0653098709
 20
653.0874445473
 30
0.0
 11
301.3653098709
 21
652.7874445473
 31
0.0
  0
LINE
  5
90
330
1F
100
AcDbEntity
  8
0
  6
Continuous
 62
     7
370
    25
100
AcDbLine
 10
317.5653098709
 20
652.5874445473
 30
0.0
 11
318.0653098709
 21
653.0874445473
 31
0.0
  0
LINE
  5
91
330
1F
100
AcDbEntity
  8
0
  6
Continuous
 62
     7
370
    25
100
AcDbLine
 10
318.0653098709
 20
654.5874445473
 30
0.0
 11
317.5653098709
 21
655.0874445473
 31
0.0
  0
LINE
  5
92
330
1F
100
AcDbEntity
  8
0
  6
Continuous
 62
     7
370
    25
100
AcDbLine
 10
301.5653098709
 20
655.0874445473
 30
0.0
 11
301.0653098709
 21
654.5874445473
 31
0.0
  0
LINE
  5
93
330
1F
100
AcDbEntity
  8
0
  6
Continuous
 62
     7
370
    25
100
AcDbLine
 10
691.4153098709
 20
929.2874445473
 30
0.0
 11
691.4153098709
 21
938.7474445473
 31
0.0
  0
LINE
  5
94
330
1F
100
AcDbEntity
  8
0
  6
Continuous
 62
     7
370
    25
100
AcDbLine
 10
672.4153098709
 20
938.7474445473
 30
0.0
 11
672.4153098709
 21
929.2874445473
 31
0.0
  0
ARC
  5
95
330
1F
100
AcDbEntity
  8
0
  6
Continuous
 62
     7
370
    25
100
AcDbCircle
 10
674.4153098709
 20
938.7474445473
 30
0.0
 40
2.0
100
AcDbArc
 50
90.0
 51
180.0
  0
ARC
  5
96
330
1F
100
AcDbEntity
  8
0
  6
Continuous
 62
     7
370
    25
100
AcDbCircle
 10
689.4153098709
 20
938.7474445473
 30
0.0
 40
2.0
100
AcDbArc
 50
0.0
 51
90.0
  0
ARC
  5
97
330
1F
100
AcDbEntity
  8
0
  6
Continuous
 62
     7
370
    25
100
AcDbCircle
 10
294.4153098709
 20
938.7474445473
 30
0.0
 40
2.0
100
AcDbArc
 50
90.0
 51
180.0
  0
ARC
  5
98
330
1F
100
AcDbEntity
  8
0
  6
Continuous
 62
     7
370
    25
100
AcDbCircle
 10
309.4153098709
 20
938.7474445473
 30
0.0
 40
2.0
100
AcDbArc
 50
0.0
 51
90.0
  0
LINE
  5
99
330
1F
100
AcDbEntity
  8
0
  6
Continuous
 62
     7
370
    25
100
AcDbLine
 10
311.4153098709
 20
929.2874445473
 30
0.0
 11
311.4153098709
 21
938.7474445473
 31
0.0
  0
LINE
  5
9A
330
1F
100
AcDbEntity
  8
0
  6
Continuous
 62
     7
370
    25
100
AcDbLine
 10
292.4153098709
 20
938.7474445473
 30
0.0
 11
292.4153098709
 21
929.2874445473
 31
0.0
  0
LINE
  5
9B
330
1F
100
AcDbEntity
  8
0
  6
Continuous
 62
     7
370
    25
100
AcDbLine
 10
545.6153098709
 20
763.2057464885
 30
0.0
 11
545.6153098709
 21
763.311401054
 31
0.0
  0
LINE
  5
9C
330
1F
100
AcDbEntity
  8
0
  6
Continuous
 62
     7
370
    25
100
AcDbLine
 10
535.6153098709
 20
763.311401054
 30
0.0
 11
535.6153098709
 21
763.2057464885
 31
0.0
  0
LINE
  5
9D
330
1F
100
AcDbEntity
  8
0
  6
Continuous
 62
     7
370
    25
100
AcDbLine
 10
527.8153098709
 20
763.2057464885
 30
0.0
 11
527.8153098709
 21
763.311401054
 31
0.0
  0
LINE
  5
9E
330
1F
100
AcDbEntity
  8
0
  6
Continuous
 62
     7
370
    25
100
AcDbLine
 10
517.8153098709
 20
763.311401054
 30
0.0
 11
517.8153098709
 21
763.2057464885
 31
0.0
  0
LINE
  5
9F
330
1F
100
AcDbEntity
  8
0
  6
Continuous
 62
     7
370
    25
100
AcDbLine
 10
492.2153098709
 20
763.2057464885
 30
0.0
 11
492.2153098709
 21
763.311401054
 31
0.0
  0
LINE
  5
A0
330
1F
100
AcDbEntity
  8
0
  6
Continuous
 62
     7
370
    25
100
AcDbLine
 10
482.2153098709
 20
763.311401054
 30
0.0
 11
482.2153098709
 21
763.2057464885
 31
0.0
  0
LINE
  5
A1
330
1F
100
AcDbEntity
  8
0
  6
Continuous
 62
     7
370
    25
100
AcDbLine
 10
510.0153098709
 20
763.2057464885
 30
0.0
 11
510.0153098709
 21
763.311401054
 31
0.0
  0
LINE
  5
A2
330
1F
100
AcDbEntity
  8
0
  6
Continuous
 62
     7
370
    25
100
AcDbLine
 10
500.0153098709
 20
763.311401054
 30
0.0
 11
500.0153098709
 21
763.2057464885
 31
0.0
  0
LINE
  5
A3
330
1F
100
AcDbEntity
  8
0
  6
Continuous
 62
     7
370
    25
100
AcDbLine
 10
537.6153098709
 20
763.6706265764
 30
0.0
 11
537.6153098709
 21
763.6283647503
 31
0.0
  0
LINE
  5
A4
330
1F
100
AcDbEntity
  8
0
  6
Continuous
 62
     7
370
    25
100
AcDbLine
 10
562.6153098709
 20
771.3172011825
 30
0.0
 11
562.6153098709
 21
771.3594630087
 31
0.0
  0
LINE
  5
A5
330
1F
100
AcDbEntity
  8
0
  6
Continuous
 62
     7
370
    25
100
AcDbLine
 10
560.8153098709
 20
771.3594630087
 30
0.0
 11
560.8153098709
 21
771.3172011825
 31
0.0
  0
LINE
  5
A6
330
1F
100
AcDbEntity
  8
0
  6
Continuous
 62
     7
370
    25
100
AcDbLine
 10
564.2153098709
 20
779.4286558765
 30
0.0
 11
564.2153098709
 21
779.4709177027
 31
0.0
  0
LINE
  5
A7
330
1F
100
AcDbEntity
  8
0
  6
Continuous
 62
     7
370
    25
100
AcDbLine
 10
559.2153098709
 20
779.4709177027
 30
0.0
 11
559.2153098709
 21
779.4286558765
 31
0.0
  0
LINE
  5
A8
330
1F
100
AcDbEntity
  8
0
  6
Continuous
 62
     7
370
    25
100
AcDbLine
 10
562.0653098709
 20
785.1495305208
 30
0.0
 11
562.0653098709
 21
785.191792347
 31
0.0
  0
LINE
  5
A9
330
1F
100
AcDbEntity
  8
0
  6
Continuous
 62
     7
370
    25
100
AcDbLine
 10
561.3653098709
 20
785.191792347
 30
0.0
 11
561.3653098709
 21
785.1495305208
 31
0.0
  0
LINE
  5
AA
330
1F
100
AcDbEntity
  8
0
  6
Continuous
 62
     7
370
    25
100
AcDbLine
 10
563.9108743899
 20
792.3380845706
 30
0.0
 11
563.9108743899
 21
792.3803463968
 31
0.0
  0
LINE
  5
AB
330
1F
100
AcDbEntity
  8
0
  6
Continuous
 62
     7
370
    25
100
AcDbLine
 10
562.4108743899
 20
792.3380845706
 30
0.0
 11
562.4108743899
 21
792.3803463968
 31
0.0
  0
LINE
  5
AC
330
1F
100
AcDbEntity
  8
0
  6
Continuous
 62
     7
370
    25
100
AcDbLine
 10
560.9108743899
 20
792.3380845706
 30
0.0
 11
560.9108743899
 21
792.3803463968
 31
0.0
  0
LINE
  5
AD
330
1F
100
AcDbEntity
  8
0
  6
Continuous
 62
     7
370
    25
100
AcDbLine
 10
562.2264327921
 20
794.5555649328
 30
0.0
 11
562.2264327921
 21
794.5133031066
 31
0.0
  0
LINE
  5
AE
330
1F
100
AcDbEntity
  8
0
  6
Continuous
 62
     7
370
    25
100
AcDbLine
 10
560.7264327921
 20
794.5555649328
 30
0.0
 11
560.7264327921
 21
794.5133031066
 31
0.0
  0
LINE
  5
AF
330
1F
100
AcDbEntity
  8
0
  6
Continuous
 62
     7
370
    25
100
AcDbLine
 10
559.2264327921
 20
794.5555649328
 30
0.0
 11
559.2264327921
 21
794.5133031066
 31
0.0
  0
ARC
  5
B0
330
1F
100
AcDbEntity
  8
0
  6
Continuous
 62
     7
370
    25
100
AcDbCircle
 10
339.4653098709
 20
794.6141457322
 30
0.0
 40
0.8000000000000682
100
AcDbArc
 50
90.0
 51
180.0
  0
ARC
  5
B1
330
1F
100
AcDbEntity
  8
0
  6
Continuous
 62
     7
370
    25
100
AcDbCircle
 10
353.8653098709
 20
794.6141457322
 30
0.0
 40
0.8000000000000682
100
AcDbArc
 50
0.0
 51
90.0
  0
LINE
  5
B2
330
1F
100
AcDbEntity
  8
0
  6
Continuous
 62
     7
370
    25
100
AcDbLine
 10
353.8653098709
 20
795.4141457322
 30
0.0
 11
339.4653098709
 21
795.4141457322
 31
0.0
  0
LINE
  5
B3
330
1F
100
AcDbEntity
  8
0
  6
Continuous
 62
     7
370
    25
100
AcDbLine
 10
360.5716176579
 20
804.1412368085
 30
0.0
 11
332.7590020839
 21
804.1412368085
 31
0.0
  0
LINE
  5
B4
330
1F
100
AcDbEntity
  8
0
  6
Continuous
 62
     7
370
    25
100
AcDbLine
 10
556.8153098709
 20
773.0210598221
 30
0.0
 11
556.8153098709
 21
773.1732023964
 31
0.0
  0
LINE
  5
B5
330
1F
100
AcDbEntity
  8
0
  6
Continuous
 62
     7
370
    25
100
AcDbLine
 10
550.8153098709
 20
773.1732023964
 30
0.0
 11
550.8153098709
 21
773.0210598221
 31
0.0
  0
LINE
  5
B6
330
1F
100
AcDbEntity
  8
0
  6
Continuous
 62
     7
370
    25
100
AcDbLine
 10
556.8153098709
 20
779.4467820322
 30
0.0
 11
556.8153098709
 21
779.5989246064
 31
0.0
  0
LINE
  5
B7
330
1F
100
AcDbEntity
  8
0
  6
Continuous
 62
     7
370
    25
100
AcDbLine
 10
550.8153098709
 20
779.5989246064
 30
0.0
 11
550.8153098709
 21
779.4467820322
 31
0.0
  0
LINE
  5
B8
330
1F
100
AcDbEntity
  8
0
  6
Continuous
 62
     7
370
    25
100
AcDbLine
 10
556.8153098709
 20
785.8725042423
 30
0.0
 11
556.8153098709
 21
786.0246468165
 31
0.0
  0
LINE
  5
B9
330
1F
100
AcDbEntity
  8
0
  6
Continuous
 62
     7
370
    25
100
AcDbLine
 10
550.8153098709
 20
786.0246468165
 30
0.0
 11
550.8153098709
 21
785.8725042423
 31
0.0
  0
LINE
  5
BA
330
1F
100
AcDbEntity
  8
0
  6
Continuous
 62
     7
370
    25
100
AcDbLine
 10
556.8153098709
 20
792.2982264524
 30
0.0
 11
556.8153098709
 21
792.4503690266
 31
0.0
  0
LINE
  5
BB
330
1F
100
AcDbEntity
  8
0
  6
Continuous
 62
     7
370
    25
100
AcDbLine
 10
550.8153098709
 20
792.4503690266
 30
0.0
 11
550.8153098709
 21
792.2982264524
 31
0.0
  0
LINE
  5
BC
330
1F
100
AcDbEntity
  8
0
  6
Continuous
 62
     7
370
    25
100
AcDbLine
 10
476.8817199344
 20
912.2874445473
 30
0.0
 11
476.8817199344
 21
911.2874445473
 31
0.0
  0
LINE
  5
BD
330
1F
100
AcDbEntity
  8
0
  6
Continuous
 62
     7
370
    25
100
AcDbLine
 10
506.9489098709
 20
911.2874445473
 30
0.0
 11
506.9489098709
 21
912.2874445473
 31
0.0
  0
LINE
  5
BE
330
1F
100
AcDbEntity
  8
0
  6
Continuous
 62
     7
370
    25
100
AcDbLine
 10
506.5575241632
 20
931.5692646102
 30
0.0
 11
506.5575241632
 21
912.2927254376
 31
0.0
  0
LINE
  5
BF
330
1F
100
AcDbEntity
  8
0
  6
Continuous
 62
     7
370
    25
100
AcDbLine
 10
506.9489098709
 20
912.2843745606
 30
0.0
 11
506.9489098709
 21
930.1783545787
 31
0.0
  0
LINE
  5
C0
330
1F
100
AcDbEntity
  8
0
  6
Continuous
 62
     7
370
    25
100
AcDbLine
 10
476.8817098709
 20
928.7874445473
 30
0.0
 11
476.8817098709
 21
912.2836677776
 31
0.0
  0
ARC
  5
C1
330
1F
100
AcDbEntity
  8
0
  6
Continuous
 62
     7
370
    25
100
AcDbCircle
 10
424.6653098709
 20
169.4374445473
 30
0.0
 40
1.450000000000017
100
AcDbArc
 50
90.0
 51
180.0
  0
LINE
  5
C2
330
1F
100
AcDbEntity
  8
0
  6
Continuous
 62
     7
370
    25
100
AcDbLine
 10
423.2153098709
 20
169.4374445473
 30
0.0
 11
423.2153098709
 21
164.3374445473
 31
0.0
  0
ARC
  5
C3
330
1F
100
AcDbEntity
  8
0
  6
Continuous
 62
     7
370
    25
100
AcDbCircle
 10
423.4653098709
 20
164.3374445473
 30
0.0
 40
0.2500000000000284
100
AcDbArc
 50
180.0
 51
270.0
  0
SPLINE
  5
C4
330
1F
100
AcDbEntity
  8
0
  6
Continuous
 62
     7
370
    25
100
AcDbSpline
210
0.0
220
0.0
230
1.0
 70
     8
 71
     3
 72
    13
 73
     9
 74
     0
 42
0.000000001
 43
0.00000001
 40
0.0
 40
0.0
 40
0.0
 40
0.0
 40
0.0788320885341171
 40
0.2640258706343421
 40
0.4645543295054531
 40
0.6977808536125353
 40
0.9720566196108409
 40
1.0
 40
1.0
 40
1.0
 40
1.0
 10
426.1413283701149
 20
169.4375472925652
 30
0.0
 10
426.1406846567608
 20
169.4489801525924
 30
0.0
 10
426.1385287202387
 20
169.4872712961946
 30
0.0
 10
426.1625950397416
 20
169.5515203348878
 30
0.0
 10
426.2125601979138
 20
169.6206627160129
 30
0.0
 10
426.290654003454
 20
169.6708224297174
 30
0.0
 10
426.3579973427209
 20
169.6908021162232
 30
0.0
 10
426.3956706311043
 20
169.6866691141287
 30
0.0
 10
426.3991539280442
 20
169.6862869740457
 30
0.0
  0
LINE
  5
C5
330
1F
100
AcDbEntity
  8
0
  6
Continuous
 62
     7
370
    25
100
AcDbLine
 10
426.1383396816
 20
164.3374445473
 30
0.0
 11
426.1383396816
 21
169.4374445473
 31
0.0
  0
ARC
  5
C6
330
1F
100
AcDbEntity
  8
0
  6
Continuous
 62
     7
370
    25
100
AcDbCircle
 10
425.8883396816
 20
164.3374445473
 30
0.0
 40
0.2500000000000284
100
AcDbArc
 50
270.0
 51
0.0
  0
ARC
  5
C7
330
1F
100
AcDbEntity
  8
0
  6
Continuous
 62
     7
370
    25
100
AcDbCircle
 10
442.1653098709
 20
169.4374445473
 30
0.0
 40
1.450000000000017
100
AcDbArc
 50
0.0
 51
90.0
  0
ARC
  5
C8
330
1F
100
AcDbEntity
  8
0
  6
Continuous
 62
     7
370
    25
100
AcDbCircle
 10
442.6577870777
 20
164.3374445473
 30
0.0
 40
0.2500000000001137
100
AcDbArc
 50
180.0
 51
270.0
  0
LINE
  5
C9
330
1F
100
AcDbEntity
  8
0
  6
Continuous
 62
     7
370
    25
100
AcDbLine
 10
442.4077870777
 20
169.4374445473
 30
0.0
 11
442.4077870777
 21
164.3374445473
 31
0.0
  0
ARC
  5
CA
330
1F
100
AcDbEntity
  8
0
  6
Continuous
 62
     7
370
    25
100
AcDbCircle
 10
443.3653098709
 20
164.3374445473
 30
0.0
 40
0.2500000000000284
100
AcDbArc
 50
270.0
 51
0.0
  0
LINE
  5
CB
330
1F
100
AcDbEntity
  8
0
  6
Continuous
 62
     7
370
    25
100
AcDbLine
 10
443.6153098709
 20
164.3374445473
 30
0.0
 11
443.6153098709
 21
169.4374445473
 31
0.0
  0
LINE
  5
CC
330
1F
100
AcDbEntity
  8
0
  6
Continuous
 62
     7
370
    25
100
AcDbLine
 10
440.6922800602
 20
168.4874445473
 30
0.0
 11
440.6922800602
 21
164.3374445473
 31
0.0
  0
ARC
  5
CD
330
1F
100
AcDbEntity
  8
0
  6
Continuous
 62
     7
370
    25
100
AcDbCircle
 10
440.9422800602
 20
164.3374445473
 30
0.0
 40
0.25
100
AcDbArc
 50
180.0
 51
270.0
  0
SPLINE
  5
CE
330
1F
100
AcDbEntity
  8
0
  6
Continuous
 62
     7
370
    25
100
AcDbSpline
210
0.0
220
0.0
230
1.0
 70
     8
 71
     3
 72
    12
 73
     8
 74
     0
 42
0.000000001
 43
0.00000001
 40
0.0
 40
0.0
 40
0.0
 40
0.0
 40
0.3205295901754854
 40
0.6002791883497336
 40
0.8264876552842532
 40
0.9994864209042955
 40
0.9999999999999999
 40
0.9999999999999999
 40
0.9999999999999999
 40
0.9999999999999999
 10
432.1799650166446
 20
169.8778209008544
 30
0.0
 10
432.1775607842301
 20
169.8327917839982
 30
0.0
 10
432.1730582024827
 20
169.7484624660598
 30
0.0
 10
432.157321418016
 20
169.6559279249743
 30
0.0
 10
432.1457106771922
 20
169.608976917751
 30
0.0
 10
432.1376863239417
 20
169.5932271086071
 30
0.0
 10
432.1398297477526
 20
169.5967889649496
 30
0.0
 10
432.1398360920715
 20
169.5967995076863
 30
0.0
  0
SPLINE
  5
CF
330
1F
100
AcDbEntity
  8
0
  6
Continuous
 62
     7
370
    25
100
AcDbSpline
210
0.0
220
0.0
230
1.0
 70
     8
 71
     3
 72
     9
 73
     5
 74
     0
 42
0.000000001
 43
0.00000001
 40
0.0
 40
0.0
 40
0.0
 40
0.0
 40
0.9978379720239707
 40
1.0
 40
1.0
 40
1.0
 40
1.0
 10
432.1797388264719
 20
169.9374236888969
 30
0.0
 10
432.1805115546881
 20
169.9169930234405
 30
0.0
 10
432.1812859571841
 20
169.8965180906065
 30
0.0
 10
432.179967866394
 20
169.8778612374928
 30
0.0
 10
432.1799650166446
 20
169.8778209008544
 30
0.0
  0
ARC
  5
D0
330
1F
100
AcDbEntity
  8
0
  6
Continuous
 62
     7
370
    25
100
AcDbCircle
 10
432.4309304736
 20
175.0374445473
 30
0.0
 40
0.25
100
AcDbArc
 50
90.0
 51
180.0
  0
LINE
  5
D1
330
1F
100
AcDbEntity
  8
0
  6
Continuous
 62
     7
370
    25
100
AcDbLine
 10
432.1809304736
 20
175.0374445473
 30
0.0
 11
432.1809304736
 21
169.9374445473
 31
0.0
  0
ARC
  5
D2
330
1F
100
AcDbEntity
  8
0
  6
Continuous
 62
     7
370
    25
100
AcDbCircle
 10
438.44493254
 20
175.0374445473
 30
0.0
 40
0.25
100
AcDbArc
 50
0.0
 51
90.0
  0
LINE
  5
D3
330
1F
100
AcDbEntity
  8
0
  6
Continuous
 62
     7
370
    25
100
AcDbLine
 10
438.69493254
 20
169.9374445473
 30
0.0
 11
438.69493254
 21
175.0374445473
 31
0.0
  0
ARC
  5
D4
330
1F
100
AcDbEntity
  8
0
  6
Continuous
 62
     7
370
    25
100
AcDbCircle
 10
441.8653098709
 20
168.7374445473
 30
0.0
 40
0.2500000000000568
100
AcDbArc
 50
270.0
 51
0.0
  0
ARC
  5
D5
330
1F
100
AcDbEntity
  8
0
  6
Continuous
 62
     7
370
    25
100
AcDbCircle
 10
441.8653098709
 20
169.4374445473
 30
0.0
 40
0.2500000000000568
100
AcDbArc
 50
0.0
 51
90.0
  0
LINE
  5
D6
330
1F
100
AcDbEntity
  8
0
  6
Continuous
 62
     7
370
    25
100
AcDbLine
 10
442.1153098709
 20
168.7374445473
 30
0.0
 11
442.1153098709
 21
169.4374445473
 31
0.0
  0
LINE
  5
D7
330
1F
100
AcDbEntity
  8
0
  6
Continuous
 62
     7
370
    25
100
AcDbLine
 10
428.1356872018
 20
171.1070732335
 30
0.0
 11
428.1356872018
 21
170.8874445473
 31
0.0
  0
LINE
  5
D8
330
1F
100
AcDbEntity
  8
0
  6
Continuous
 62
     7
370
    25
100
AcDbLine
 10
438.4269114474
 20
168.480746374
 30
0.0
 11
438.4153098709
 21
168.4874445473
 31
0.0
  0
LINE
  5
D9
330
1F
100
AcDbEntity
  8
0
  6
Continuous
 62
     7
370
    25
100
AcDbLine
 10
438.4153098709
 20
163.2874445473
 30
0.0
 11
438.4269114474
 21
163.2941427206
 31
0.0
  0
LINE
  5
DA
330
1F
100
AcDbEntity
  8
0
  6
Continuous
 62
     7
370
    25
100
AcDbLine
 10
428.4153098709
 20
168.4874445473
 30
0.0
 11
428.4037082945
 21
168.480746374
 31
0.0
  0
LINE
  5
DB
330
1F
100
AcDbEntity
  8
0
  6
Continuous
 62
     7
370
    25
100
AcDbLine
 10
428.4037082945
 20
163.2941427206
 30
0.0
 11
428.4153098709
 21
163.2874445473
 31
0.0
  0
LINE
  5
DC
330
1F
100
AcDbEntity
  8
0
  6
Continuous
 62
     7
370
    25
100
AcDbLine
 10
428.4153098709
 20
176.0874445473
 30
0.0
 11
428.2267859446
 21
175.9786002077
 31
0.0
  0
LINE
  5
DD
330
1F
100
AcDbEntity
  8
0
  6
Continuous
 62
     7
370
    25
100
AcDbLine
 10
428.2267859446
 20
170.996288887
 30
0.0
 11
428.4153098709
 21
170.8874445473
 31
0.0
  0
LINE
  5
DE
330
1F
100
AcDbEntity
  8
0
  6
Continuous
 62
     7
370
    25
100
AcDbLine
 10
438.6038337973
 20
175.9786002077
 30
0.0
 11
438.4153098709
 21
176.0874445473
 31
0.0
  0
LINE
  5
DF
330
1F
100
AcDbEntity
  8
0
  6
Continuous
 62
     7
370
    25
100
AcDbLine
 10
438.6651417997
 20
181.393204016
 30
0.0
 11
438.4153098709
 21
181.5374445473
 31
0.0
  0
LINE
  5
E0
330
1F
100
AcDbEntity
  8
0
  6
Continuous
 62
     7
370
    25
100
AcDbLine
 10
438.4153098709
 20
176.3374445473
 30
0.0
 11
438.6651417997
 21
176.4816850786
 31
0.0
  0
LINE
  5
E1
330
1F
100
AcDbEntity
  8
0
  6
Continuous
 62
     7
370
    25
100
AcDbLine
 10
428.4153098709
 20
181.5374445473
 30
0.0
 11
428.1654779422
 21
181.393204016
 31
0.0
  0
LINE
  5
E2
330
1F
100
AcDbEntity
  8
0
  6
Continuous
 62
     7
370
    25
100
AcDbLine
 10
428.1654779422
 20
176.4816850786
 30
0.0
 11
428.4153098709
 21
176.3374445473
 31
0.0
  0
LINE
  5
E3
330
1F
100
AcDbEntity
  8
0
  6
Continuous
 62
     7
370
    25
100
AcDbLine
 10
439.5153098709
 20
181.5374445473
 30
0.0
 11
439.5153098709
 21
182.0874445473
 31
0.0
  0
LINE
  5
E4
330
1F
100
AcDbEntity
  8
0
  6
Continuous
 62
     7
370
    25
100
AcDbLine
 10
427.3153098709
 20
182.0874445473
 30
0.0
 11
427.3153098709
 21
181.5374445473
 31
0.0
  0
LINE
  5
E5
330
1F
100
AcDbEntity
  8
0
  6
Continuous
 62
     7
370
    25
100
AcDbLine
 10
430.4153098709
 20
176.3374445473
 30
0.0
 11
430.4153098709
 21
176.0874445473
 31
0.0
  0
LINE
  5
E6
330
1F
100
AcDbEntity
  8
0
  6
Continuous
 62
     7
370
    25
100
AcDbLine
 10
436.4153098709
 20
176.0874445473
 30
0.0
 11
436.4153098709
 21
176.3374445473
 31
0.0
  0
LINE
  5
E7
330
1F
100
AcDbEntity
  8
0
  6
Continuous
 62
     7
370
    25
100
AcDbLine
 10
357.9922565102
 20
181.5874445473
 30
0.0
 11
357.9922565102
 21
182.0874445473
 31
0.0
  0
LINE
  5
E8
330
1F
100
AcDbEntity
  8
0
  6
Continuous
 62
     7
370
    25
100
AcDbLine
 10
349.9922565102
 20
182.0874445473
 30
0.0
 11
349.9922565102
 21
181.5874445473
 31
0.0
  0
LINE
  5
E9
330
1F
100
AcDbEntity
  8
0
  6
Continuous
 62
     7
370
    25
100
AcDbLine
 10
323.9922565102
 20
181.5874445473
 30
0.0
 11
323.9922565102
 21
182.0874445473
 31
0.0
  0
LINE
  5
EA
330
1F
100
AcDbEntity
  8
0
  6
Continuous
 62
     7
370
    25
100
AcDbLine
 10
383.4153098709
 20
15.2874445473
 30
0.0
 11
383.4153098709
 21
19.2874445473
 31
0.0
  0
LINE
  5
EB
330
1F
100
AcDbEntity
  8
0
  6
Continuous
 62
     7
370
    25
100
AcDbLine
 10
326.4153098709
 20
19.2874445473
 30
0.0
 11
326.4153098709
 21
15.2874445473
 31
0.0
  0
ARC
  5
EC
330
1F
100
AcDbEntity
  8
0
  6
Continuous
 62
     7
370
    25
100
AcDbCircle
 10
381.4153098709
 20
15.2874445473
 30
0.0
 40
2.000000000000004
100
AcDbArc
 50
270.0
 51
0.0
  0
ARC
  5
ED
330
1F
100
AcDbEntity
  8
0
  6
Continuous
 62
     7
370
    25
100
AcDbCircle
 10
328.4153098709
 20
15.2874445473
 30
0.0
 40
2.000000000000004
100
AcDbArc
 50
180.0
 51
270.0
  0
ARC
  5
EE
330
1F
100
AcDbEntity
  8
0
  6
Continuous
 62
     7
370
    25
100
AcDbCircle
 10
655.4153098709
 20
15.2874445473
 30
0.0
 40
2.000000000000004
100
AcDbArc
 50
270.0
 51
0.0
  0
ARC
  5
EF
330
1F
100
AcDbEntity
  8
0
  6
Continuous
 62
     7
370
    25
100
AcDbCircle
 10
602.4153098709
 20
15.2874445473
 30
0.0
 40
2.000000000000004
100
AcDbArc
 50
180.0
 51
270.0
  0
LINE
  5
F0
330
1F
100
AcDbEntity
  8
0
  6
Continuous
 62
     7
370
    25
100
AcDbLine
 10
657.4153098709
 20
15.2874445473
 30
0.0
 11
657.4153098709
 21
19.2874445473
 31
0.0
  0
LINE
  5
F1
330
1F
100
AcDbEntity
  8
0
  6
Continuous
 62
     7
370
    25
100
AcDbLine
 10
600.4153098709
 20
19.2874445473
 30
0.0
 11
600.4153098709
 21
15.2874445473
 31
0.0
  0
LINE
  5
F2
330
1F
100
AcDbEntity
  8
0
  6
Continuous
 62
     7
370
    25
100
AcDbLine
 10
657.2153098709
 20
19.2874445473
 30
0.0
 11
657.2153098709
 21
87.2874445473
 31
0.0
  0
LINE
  5
F3
330
1F
100
AcDbEntity
  8
0
  6
Continuous
 62
     7
370
    25
100
AcDbLine
 10
600.6153098709
 20
87.2874445473
 30
0.0
 11
600.6153098709
 21
19.2874445473
 31
0.0
  0
LINE
  5
F4
330
1F
100
AcDbEntity
  8
0
  6
Continuous
 62
     7
370
    25
100
AcDbLine
 10
383.2153098709
 20
19.2874445473
 30
0.0
 11
383.2153098709
 21
87.2874445473
 31
0.0
  0
LINE
  5
F5
330
1F
100
AcDbEntity
  8
0
  6
Continuous
 62
     7
370
    25
100
AcDbLine
 10
326.6153098709
 20
87.2874445473
 30
0.0
 11
326.6153098709
 21
19.2874445473
 31
0.0
  0
ARC
  5
F6
330
1F
100
AcDbEntity
  8
0
  6
Continuous
 62
     7
370
    25
100
AcDbCircle
 10
388.3153098709
 20
179.7874445473
 30
0.0
 40
1.500000000000057
100
AcDbArc
 50
90.0
 51
180.0
  0
ARC
  5
F7
330
1F
100
AcDbEntity
  8
0
  6
Continuous
 62
     7
370
    25
100
AcDbCircle
 10
382.1153098709
 20
93.320010493
 30
0.0
 40
4.700000000000061
100
AcDbArc
 50
350.5402980318
 51
0.0
  0
ARC
  5
F8
330
1F
100
AcDbEntity
  8
0
  6
Continuous
 62
     7
370
    25
100
AcDbCircle
 10
327.7153098709
 20
93.320010493
 30
0.0
 40
4.700000000000061
100
AcDbArc
 50
180.0
 51
189.4597019682
  0
LINE
  5
F9
330
1F
100
AcDbEntity
  8
0
  6
Continuous
 62
     7
370
    25
100
AcDbLine
 10
386.8153098709
 20
93.320010493
 30
0.0
 11
386.8153098709
 21
179.7874445473
 31
0.0
  0
LINE
  5
FA
330
1F
100
AcDbEntity
  8
0
  6
Continuous
 62
     7
370
    25
100
AcDbLine
 10
323.0153098709
 20
178.5874445473
 30
0.0
 11
323.0153098709
 21
93.320010493
 31
0.0
  0
LINE
  5
FB
330
1F
100
AcDbEntity
  8
0
  6
Continuous
 62
     7
370
    25
100
AcDbLine
 10
323.0792230979
 20
92.5475472685
 30
0.0
 11
323.9556596506
 21
87.2874445473
 31
0.0
  0
LINE
  5
FC
330
1F
100
AcDbEntity
  8
0
  6
Continuous
 62
     7
370
    25
100
AcDbLine
 10
385.8749600913
 20
87.2874445473
 30
0.0
 11
386.7513966439
 21
92.5475472685
 31
0.0
  0
ARC
  5
FD
330
1F
100
AcDbEntity
  8
0
  6
Continuous
 62
     7
370
    25
100
AcDbCircle
 10
662.3153098709
 20
179.7874445473
 30
0.0
 40
1.500000000000057
100
AcDbArc
 50
90.0
 51
180.0
  0
ARC
  5
FE
330
1F
100
AcDbEntity
  8
0
  6
Continuous
 62
     7
370
    25
100
AcDbCircle
 10
595.5153098709
 20
179.7874445473
 30
0.0
 40
1.500000000000057
100
AcDbArc
 50
0.0
 51
90.0
  0
ARC
  5
FF
330
1F
100
AcDbEntity
  8
0
  6
Continuous
 62
     7
370
    25
100
AcDbCircle
 10
656.1153098709
 20
93.320010493
 30
0.0
 40
4.700000000000045
100
AcDbArc
 50
350.5402980318
 51
0.0
  0
ARC
  5
100
330
1F
100
AcDbEntity
  8
0
  6
Continuous
 62
     7
370
    25
100
AcDbCircle
 10
601.7153098709
 20
93.320010493
 30
0.0
 40
4.700000000000116
100
AcDbArc
 50
180.0
 51
189.4597019682
  0
LINE
  5
101
330
1F
100
AcDbEntity
  8
0
  6
Continuous
 62
     7
370
    25
100
AcDbLine
 10
660.8153098709
 20
93.320010493
 30
0.0
 11
660.8153098709
 21
179.7874445473
 31
0.0
  0
LINE
  5
102
330
1F
100
AcDbEntity
  8
0
  6
Continuous
 62
     7
370
    25
100
AcDbLine
 10
597.0153098709
 20
179.7874445473
 30
0.0
 11
597.0153098709
 21
93.320010493
 31
0.0
  0
LINE
  5
103
330
1F
100
AcDbEntity
  8
0
  6
Continuous
 62
     7
370
    25
100
AcDbLine
 10
597.0792230979
 20
92.5475472685
 30
0.0
 11
597.9556596506
 21
87.2874445473
 31
0.0
  0
LINE
  5
104
330
1F
100
AcDbEntity
  8
0
  6
Continuous
 62
     7
370
    25
100
AcDbLine
 10
659.8749600913
 20
87.2874445473
 30
0.0
 11
660.7513966439
 21
92.5475472685
 31
0.0
  0
LINE
  5
105
330
1F
100
AcDbEntity
  8
0
  6
Continuous
 62
     7
370
    25
100
AcDbLine
 10
461.9153098709
 20
661.1062103177
 30
0.0
 11
461.9153098709
 21
661.2474445473
 31
0.0
  0
LINE
  5
106
330
1F
100
AcDbEntity
  8
0
  6
Continuous
 62
     7
370
    25
100
AcDbLine
 10
311.9153098709
 20
661.1062103177
 30
0.0
 11
311.9153098709
 21
661.2474445473
 31
0.0
  0
LINE
  5
107
330
1F
100
AcDbEntity
  8
0
  6
Continuous
 62
     7
370
    25
100
AcDbLine
 10
466.9153098709
 20
661.0312103177
 30
0.0
 11
466.9153098709
 21
661.1062103177
 31
0.0
  0
LINE
  5
108
330
1F
100
AcDbEntity
  8
0
  6
Continuous
 62
     7
370
    25
100
AcDbLine
 10
306.9153098709
 20
661.0312103177
 30
0.0
 11
466.9153098709
 21
661.0312103177
 31
0.0
  0
LINE
  5
109
330
1F
100
AcDbEntity
  8
0
  6
Continuous
 62
     7
370
    25
100
AcDbLine
 10
306.9153098709
 20
661.0312103177
 30
0.0
 11
306.9153098709
 21
661.1062103177
 31
0.0
  0
LINE
  5
10A
330
1F
100
AcDbEntity
  8
0
  6
Continuous
 62
     7
370
    25
100
AcDbLine
 10
306.9153098709
 20
661.1062103177
 30
0.0
 11
466.9153098709
 21
661.1062103177
 31
0.0
  0
ARC
  5
10B
330
1F
100
AcDbEntity
  8
0
  6
Continuous
 62
     7
370
    25
100
AcDbCircle
 10
323.1346538637
 20
722.9885548354
 30
0.0
 40
0.4783089882692574
100
AcDbArc
 50
182.9521409374
 51
272.6753367005
  0
LINE
  5
10C
330
1F
100
AcDbEntity
  8
0
  6
Continuous
 62
     7
370
    25
100
AcDbLine
 10
323.1569796381
 20
722.5107671754
 30
0.0
 11
345.6736401365
 21
722.5107671754
 31
0.0
  0
ARC
  5
10D
330
1F
100
AcDbEntity
  8
0
  6
Continuous
 62
     7
370
    25
100
AcDbCircle
 10
345.6959659109
 20
722.9885548354
 30
0.0
 40
0.4783089882694228
100
AcDbArc
 50
267.3246632995
 51
357.0478590626
  0
ARC
  5
10E
330
1F
100
AcDbEntity
  8
0
  6
Continuous
 62
     7
370
    25
100
AcDbCircle
 10
298.1346538637
 20
722.9885548354
 30
0.0
 40
0.4783089882695954
100
AcDbArc
 50
182.9521409374
 51
272.6753367005
  0
LINE
  5
10F
330
1F
100
AcDbEntity
  8
0
  6
Continuous
 62
     7
370
    25
100
AcDbLine
 10
298.1569796381
 20
722.5107671754
 30
0.0
 11
320.6736401365
 21
722.5107671754
 31
0.0
  0
ARC
  5
110
330
1F
100
AcDbEntity
  8
0
  6
Continuous
 62
     7
370
    25
100
AcDbCircle
 10
320.6959659109
 20
722.9885548354
 30
0.0
 40
0.4783089882694971
100
AcDbArc
 50
267.3246632995
 51
357.0478590626
  0
LINE
  5
111
330
1F
100
AcDbEntity
  8
0
  6
Continuous
 62
     7
370
    25
100
AcDbLine
 10
296.9153098873
 20
720.9127494099
 30
0.0
 11
346.9153098873
 21
720.9127494099
 31
0.0
  0
LINE
  5
112
330
1F
100
AcDbEntity
  8
0
  6
Continuous
 62
     7
370
    25
100
AcDbLine
 10
296.9153098873
 20
742.6641362988
 30
0.0
 11
296.9153098873
 21
720.9127494099
 31
0.0
  0
LINE
  5
113
330
1F
100
AcDbEntity
  8
0
  6
Continuous
 62
     7
370
    25
100
AcDbLine
 10
346.9153098873
 20
742.6641362988
 30
0.0
 11
296.9153098873
 21
742.6641362988
 31
0.0
  0
LINE
  5
114
330
1F
100
AcDbEntity
  8
0
  6
Continuous
 62
     7
370
    25
100
AcDbLine
 10
346.9153098873
 20
720.9127494099
 30
0.0
 11
346.9153098873
 21
742.6641362988
 31
0.0
  0
LINE
  5
115
330
1F
100
AcDbEntity
  8
0
  6
Continuous
 62
     7
370
    25
100
AcDbLine
 10
296.9153098873
 20
720.9127494099
 30
0.0
 11
296.9153098873
 21
720.8704875838
 31
0.0
  0
LINE
  5
116
330
1F
100
AcDbEntity
  8
0
  6
Continuous
 62
     7
370
    25
100
AcDbLine
 10
346.9153098873
 20
720.9127494099
 30
0.0
 11
346.9153098873
 21
720.8704875838
 31
0.0
  0
LINE
  5
117
330
1F
100
AcDbEntity
  8
0
  6
Continuous
 62
     7
370
    25
100
AcDbLine
 10
296.9153098873
 20
720.8704875838
 30
0.0
 11
346.9153098873
 21
720.8704875838
 31
0.0
  0
LINE
  5
118
330
1F
100
AcDbEntity
  8
0
  6
Continuous
 62
     7
370
    25
100
AcDbLine
 10
323.1569796381
 20
722.5530290016
 30
0.0
 11
345.6736401365
 21
722.5530290016
 31
0.0
  0
ARC
  5
119
330
1F
100
AcDbEntity
  8
0
  6
Continuous
 62
     7
370
    25
100
AcDbCircle
 10
345.7105826074
 20
723.0072829947
 30
0.0
 40
0.4557537015283572
100
AcDbArc
 50
265.3506194037
 51
29.6522108544
  0
LINE
  5
11A
330
1F
100
AcDbEntity
  8
0
  6
Continuous
 62
     7
370
    25
100
AcDbLine
 10
325.7550558495
 20
724.3656445757
 30
0.0
 11
343.0755639252
 21
724.3656445757
 31
0.0
  0
LINE
  5
11B
330
1F
100
AcDbEntity
  8
0
  6
Continuous
 62
     7
370
    25
100
AcDbLine
 10
343.0755639252
 20
724.3656445757
 30
0.0
 11
334.4153098873
 21
737.9602613812
 31
0.0
  0
LINE
  5
11C
330
1F
100
AcDbEntity
  8
0
  6
Continuous
 62
     7
370
    25
100
AcDbLine
 10
334.4153098873
 20
737.9602613812
 30
0.0
 11
325.7550558495
 21
724.3656445757
 31
0.0
  0
ARC
  5
11D
330
1F
100
AcDbEntity
  8
0
  6
Continuous
 62
     7
370
    25
100
AcDbCircle
 10
323.1200371672
 20
723.0072829947
 30
0.0
 40
0.4557537015284086
100
AcDbArc
 50
150.3477891456
 51
274.6493805963
  0
LINE
  5
11E
330
1F
100
AcDbEntity
  8
0
  6
Continuous
 62
     7
370
    25
100
AcDbLine
 10
333.9822971854
 20
740.9057616891
 30
0.0
 11
322.7239669362
 21
723.2327598419
 31
0.0
  0
ARC
  5
11F
330
1F
100
AcDbEntity
  8
0
  6
Continuous
 62
     7
370
    25
100
AcDbCircle
 10
334.4153098873
 20
740.6096838414
 30
0.0
 40
0.5245589498639704
100
AcDbArc
 50
34.3628564095
 51
145.6371435905
  0
LINE
  5
120
330
1F
100
AcDbEntity
  8
0
  6
Continuous
 62
     7
370
    25
100
AcDbLine
 10
346.1066528384
 20
723.2327598419
 30
0.0
 11
334.8483225892
 21
740.9057616891
 31
0.0
  0
LINE
  5
121
330
1F
100
AcDbEntity
  8
0
  6
Continuous
 62
     7
370
    25
100
AcDbLine
 10
309.4153098873
 20
737.9602613812
 30
0.0
 11
300.7550558495
 21
724.3656445757
 31
0.0
  0
LINE
  5
122
330
1F
100
AcDbEntity
  8
0
  6
Continuous
 62
     7
370
    25
100
AcDbLine
 10
300.7550558495
 20
724.3656445757
 30
0.0
 11
318.0755639252
 21
724.3656445757
 31
0.0
  0
LINE
  5
123
330
1F
100
AcDbEntity
  8
0
  6
Continuous
 62
     7
370
    25
100
AcDbLine
 10
318.0755639252
 20
724.3656445757
 30
0.0
 11
309.4153098873
 21
737.9602613812
 31
0.0
  0
LINE
  5
124
330
1F
100
AcDbEntity
  8
0
  6
Continuous
 62
     7
370
    25
100
AcDbLine
 10
321.1066528384
 20
723.2327598419
 30
0.0
 11
309.8483225892
 21
740.9057616891
 31
0.0
  0
ARC
  5
125
330
1F
100
AcDbEntity
  8
0
  6
Continuous
 62
     7
370
    25
100
AcDbCircle
 10
320.7105826074
 20
723.0072829947
 30
0.0
 40
0.4557537015284492
100
AcDbArc
 50
265.3506194037
 51
29.6522108543
  0
LINE
  5
126
330
1F
100
AcDbEntity
  8
0
  6
Continuous
 62
     7
370
    25
100
AcDbLine
 10
298.1569796381
 20
722.5530290016
 30
0.0
 11
320.6736401365
 21
722.5530290016
 31
0.0
  0
ARC
  5
127
330
1F
100
AcDbEntity
  8
0
  6
Continuous
 62
     7
370
    25
100
AcDbCircle
 10
298.1200371672
 20
723.0072829947
 30
0.0
 40
0.4557537015287162
100
AcDbArc
 50
150.3477891457
 51
274.6493805962
  0
LINE
  5
128
330
1F
100
AcDbEntity
  8
0
  6
Continuous
 62
     7
370
    25
100
AcDbLine
 10
308.9822971854
 20
740.9057616891
 30
0.0
 11
297.7239669362
 21
723.2327598419
 31
0.0
  0
ARC
  5
129
330
1F
100
AcDbEntity
  8
0
  6
Continuous
 62
     7
370
    25
100
AcDbCircle
 10
309.4153098873
 20
740.6096838414
 30
0.0
 40
0.5245589498640346
100
AcDbArc
 50
34.3628564095
 51
145.6371435905
  0
LINE
  5
12A
330
1F
100
AcDbEntity
  8
0
  6
Continuous
 62
     7
370
    25
100
AcDbLine
 10
334.4153098873
 20
737.9602613812
 30
0.0
 11
334.4153098873
 21
737.917999555
 31
0.0
  0
LINE
  5
12B
330
1F
100
AcDbEntity
  8
0
  6
Continuous
 62
     7
370
    25
100
AcDbLine
 10
343.04864164
 20
724.3656445757
 30
0.0
 11
334.4153098873
 21
737.917999555
 31
0.0
  0
LINE
  5
12C
330
1F
100
AcDbEntity
  8
0
  6
Continuous
 62
     7
370
    25
100
AcDbLine
 10
334.4153098873
 20
737.917999555
 30
0.0
 11
325.7819781347
 21
724.3656445757
 31
0.0
  0
LINE
  5
12D
330
1F
100
AcDbEntity
  8
0
  6
Continuous
 62
     7
370
    25
100
AcDbLine
 10
309.4153098873
 20
737.9602613812
 30
0.0
 11
309.4153098873
 21
737.917999555
 31
0.0
  0
LINE
  5
12E
330
1F
100
AcDbEntity
  8
0
  6
Continuous
 62
     7
370
    25
100
AcDbLine
 10
309.4153098873
 20
737.917999555
 30
0.0
 11
300.7819781347
 21
724.3656445757
 31
0.0
  0
LINE
  5
12F
330
1F
100
AcDbEntity
  8
0
  6
Continuous
 62
     7
370
    25
100
AcDbLine
 10
318.04864164
 20
724.3656445757
 30
0.0
 11
309.4153098873
 21
737.917999555
 31
0.0
  0
LINE
  5
130
330
1F
100
AcDbEntity
  8
0
  6
Continuous
 62
     7
370
    25
100
AcDbLine
 10
333.2230556276
 20
726.995704867
 30
0.0
 11
333.7678996276
 21
725.4319768184
 31
0.0
  0
LINE
  5
131
330
1F
100
AcDbEntity
  8
0
  6
Continuous
 62
     7
370
    25
100
AcDbLine
 10
333.7678996276
 20
725.4319768184
 30
0.0
 11
335.2677746276
 21
726.3491485169
 31
0.0
  0
LINE
  5
132
330
1F
100
AcDbEntity
  8
0
  6
Continuous
 62
     7
370
    25
100
AcDbLine
 10
334.5928497342
 20
726.3983284418
 30
0.0
 11
336.6851446276
 21
731.8499954123
 31
0.0
  0
LINE
  5
133
330
1F
100
AcDbEntity
  8
0
  6
Continuous
 62
     7
370
    25
100
AcDbLine
 10
333.7923977027
 20
730.2435403481
 30
0.0
 11
335.6023216276
 21
734.5486827332
 31
0.0
  0
LINE
  5
134
330
1F
100
AcDbEntity
  8
0
  6
Continuous
 62
     7
370
    25
100
AcDbLine
 10
330.7297646276
 20
727.6792684829
 30
0.0
 11
334.7341250098
 21
729.1443101809
 31
0.0
  0
LINE
  5
135
330
1F
100
AcDbEntity
  8
0
  6
Continuous
 62
     7
370
    25
100
AcDbLine
 10
308.6491470545
 20
726.3970753354
 30
0.0
 11
309.9125911339
 21
726.3970753354
 31
0.0
  0
LINE
  5
136
330
1F
100
AcDbEntity
  8
0
  6
Continuous
 62
     7
370
    25
100
AcDbLine
 10
308.6491470545
 20
728.6872137506
 30
0.0
 11
309.9125911339
 21
728.6872137506
 31
0.0
  0
LINE
  5
137
330
1F
100
AcDbEntity
  8
0
  6
Continuous
 62
     7
370
    25
100
AcDbLine
 10
334.5195356276
 20
734.5909445594
 30
0.0
 11
333.5818166276
 21
735.0816295646
 31
0.0
  0
LINE
  5
138
330
1F
100
AcDbEntity
  8
0
  6
Continuous
 62
     7
370
    25
100
AcDbLine
 10
335.6023216276
 20
734.5909445594
 30
0.0
 11
334.5195356276
 21
734.5909445594
 31
0.0
  0
LINE
  5
139
330
1F
100
AcDbEntity
  8
0
  6
Continuous
 62
     7
370
    25
100
AcDbLine
 10
333.7690316276
 20
730.2302228877
 30
0.0
 11
335.6023216276
 21
734.5909445594
 31
0.0
  0
LINE
  5
13A
330
1F
100
AcDbEntity
  8
0
  6
Continuous
 62
     7
370
    25
100
AcDbLine
 10
336.6851446276
 20
731.8922572385
 30
0.0
 11
333.7690316276
 21
730.2302228877
 31
0.0
  0
LINE
  5
13B
330
1F
100
AcDbEntity
  8
0
  6
Continuous
 62
     7
370
    25
100
AcDbLine
 10
334.5766936276
 20
726.3984940448
 30
0.0
 11
336.6851446276
 21
731.8922572385
 31
0.0
  0
LINE
  5
13C
330
1F
100
AcDbEntity
  8
0
  6
Continuous
 62
     7
370
    25
100
AcDbLine
 10
335.2677746276
 20
726.3914103431
 30
0.0
 11
334.5766936276
 21
726.3984940448
 31
0.0
  0
LINE
  5
13D
330
1F
100
AcDbEntity
  8
0
  6
Continuous
 62
     7
370
    25
100
AcDbLine
 10
333.7678996276
 20
725.4742386446
 30
0.0
 11
335.2677746276
 21
726.3914103431
 31
0.0
  0
LINE
  5
13E
330
1F
100
AcDbEntity
  8
0
  6
Continuous
 62
     7
370
    25
100
AcDbLine
 10
333.2230556276
 20
727.0379666931
 30
0.0
 11
333.7678996276
 21
725.4742386446
 31
0.0
  0
LINE
  5
13F
330
1F
100
AcDbEntity
  8
0
  6
Continuous
 62
     7
370
    25
100
AcDbLine
 10
333.7690316276
 20
726.653849889
 30
0.0
 11
333.2230556276
 21
727.0379666931
 31
0.0
  0
LINE
  5
140
330
1F
100
AcDbEntity
  8
0
  6
Continuous
 62
     7
370
    25
100
AcDbLine
 10
334.7532076276
 20
729.1935536041
 30
0.0
 11
333.7690316276
 21
726.653849889
 31
0.0
  0
LINE
  5
141
330
1F
100
AcDbEntity
  8
0
  6
Continuous
 62
     7
370
    25
100
AcDbLine
 10
330.7297646276
 20
727.7215303091
 30
0.0
 11
334.7532076276
 21
729.1935536041
 31
0.0
  0
LINE
  5
142
330
1F
100
AcDbEntity
  8
0
  6
Continuous
 62
     7
370
    25
100
AcDbLine
 10
333.5818166276
 20
735.0816295646
 30
0.0
 11
330.7297646276
 21
727.7215303091
 31
0.0
  0
LINE
  5
143
330
1F
100
AcDbEntity
  8
0
  6
Continuous
 62
     7
370
    25
100
AcDbLine
 10
333.7678996276
 20
725.4742386446
 30
0.0
 11
333.7678996276
 21
725.4319768184
 31
0.0
  0
LINE
  5
144
330
1F
100
AcDbEntity
  8
0
  6
Continuous
 62
     7
370
    25
100
AcDbLine
 10
335.2677746276
 20
726.3914103431
 30
0.0
 11
335.2677746276
 21
726.3491485169
 31
0.0
  0
LINE
  5
145
330
1F
100
AcDbEntity
  8
0
  6
Continuous
 62
     7
370
    25
100
AcDbLine
 10
333.2230556276
 20
727.0379666931
 30
0.0
 11
333.2230556276
 21
726.995704867
 31
0.0
  0
LINE
  5
146
330
1F
100
AcDbEntity
  8
0
  6
Continuous
 62
     7
370
    25
100
AcDbLine
 10
336.6851446276
 20
731.8922572385
 30
0.0
 11
336.6851446276
 21
731.8499954123
 31
0.0
  0
LINE
  5
147
330
1F
100
AcDbEntity
  8
0
  6
Continuous
 62
     7
370
    25
100
AcDbLine
 10
308.6491470545
 20
726.4393371616
 30
0.0
 11
309.9125911339
 21
726.4393371616
 31
0.0
  0
LINE
  5
148
330
1F
100
AcDbEntity
  8
0
  6
Continuous
 62
     7
370
    25
100
AcDbLine
 10
309.9125911339
 20
727.2981390673
 30
0.0
 11
308.6491470545
 21
727.2981390673
 31
0.0
  0
LINE
  5
149
330
1F
100
AcDbEntity
  8
0
  6
Continuous
 62
     7
370
    25
100
AcDbLine
 10
309.9125911339
 20
726.4393371616
 30
0.0
 11
309.9125911339
 21
727.2981390673
 31
0.0
  0
LINE
  5
14A
330
1F
100
AcDbEntity
  8
0
  6
Continuous
 62
     7
370
    25
100
AcDbLine
 10
308.6491470545
 20
727.2981390673
 30
0.0
 11
308.6491470545
 21
726.4393371616
 31
0.0
  0
LINE
  5
14B
330
1F
100
AcDbEntity
  8
0
  6
Continuous
 62
     7
370
    25
100
AcDbLine
 10
309.9125911339
 20
726.4393371616
 30
0.0
 11
309.9125911339
 21
726.3970753354
 31
0.0
  0
LINE
  5
14C
330
1F
100
AcDbEntity
  8
0
  6
Continuous
 62
     7
370
    25
100
AcDbLine
 10
308.6491470545
 20
726.4393371616
 30
0.0
 11
308.6491470545
 21
726.3970753354
 31
0.0
  0
LINE
  5
14D
330
1F
100
AcDbEntity
  8
0
  6
Continuous
 62
     7
370
    25
100
AcDbLine
 10
330.7297646276
 20
727.7215303091
 30
0.0
 11
330.7297646276
 21
727.6792684829
 31
0.0
  0
LINE
  5
14E
330
1F
100
AcDbEntity
  8
0
  6
Continuous
 62
     7
370
    25
100
AcDbLine
 10
308.6491470545
 20
728.7294755767
 30
0.0
 11
309.9125911339
 21
728.7294755767
 31
0.0
  0
LINE
  5
14F
330
1F
100
AcDbEntity
  8
0
  6
Continuous
 62
     7
370
    25
100
AcDbLine
 10
308.6491470545
 20
734.9319337844
 30
0.0
 11
308.6491470545
 21
728.7294755767
 31
0.0
  0
LINE
  5
150
330
1F
100
AcDbEntity
  8
0
  6
Continuous
 62
     7
370
    25
100
AcDbLine
 10
309.9125911339
 20
734.9319337844
 30
0.0
 11
308.6491470545
 21
734.9319337844
 31
0.0
  0
LINE
  5
151
330
1F
100
AcDbEntity
  8
0
  6
Continuous
 62
     7
370
    25
100
AcDbLine
 10
309.9125911339
 20
728.7294755767
 30
0.0
 11
309.9125911339
 21
734.9319337844
 31
0.0
  0
LINE
  5
152
330
1F
100
AcDbEntity
  8
0
  6
Continuous
 62
     7
370
    25
100
AcDbLine
 10
308.6491470545
 20
728.7294755767
 30
0.0
 11
308.6491470545
 21
728.6872137506
 31
0.0
  0
LINE
  5
153
330
1F
100
AcDbEntity
  8
0
  6
Continuous
 62
     7
370
    25
100
AcDbLine
 10
309.9125911339
 20
728.7294755767
 30
0.0
 11
309.9125911339
 21
728.6872137506
 31
0.0
  0
LINE
  5
154
330
1F
100
AcDbEntity
  8
0
  6
Continuous
 62
     7
370
    25
100
AcDbLine
 10
335.6023216276
 20
734.5909445594
 30
0.0
 11
335.6023216276
 21
734.5486827332
 31
0.0
  0
LINE
  5
155
330
1F
100
AcDbEntity
  8
0
  6
Continuous
 62
     7
370
    25
100
AcDbLine
 10
300.9175691699
 20
660.700842007
 30
0.0
 11
318.5653098709
 21
660.700842007
 31
0.0
  0
LINE
  5
156
330
1F
100
AcDbEntity
  8
0
  6
Continuous
 62
     7
370
    25
100
AcDbLine
 10
300.9175691699
 20
657.700842007
 30
0.0
 11
318.5653098709
 21
657.700842007
 31
0.0
  0
LINE
  5
157
330
1F
100
AcDbEntity
  8
0
  6
Continuous
 62
     7
370
    25
100
AcDbLine
 10
294.6653098709
 20
660.700842007
 30
0.0
 11
294.6653098709
 21
657.700842007
 31
0.0
  0
LINE
  5
158
330
1F
100
AcDbEntity
  8
0
  6
Continuous
 62
     7
370
    25
100
AcDbLine
 10
294.6653098709
 20
660.700842007
 30
0.0
 11
300.9175691699
 21
660.700842007
 31
0.0
  0
LINE
  5
159
330
1F
100
AcDbEntity
  8
0
  6
Continuous
 62
     7
370
    25
100
AcDbLine
 10
294.6653098709
 20
657.700842007
 30
0.0
 11
300.9175691699
 21
657.700842007
 31
0.0
  0
LINE
  5
15A
330
1F
100
AcDbEntity
  8
0
  6
Continuous
 62
     7
370
    25
100
AcDbLine
 10
294.6653098709
 20
657.700842007
 30
0.0
 11
294.6653098709
 21
656.200842007
 31
0.0
  0
LINE
  5
15B
330
1F
100
AcDbEntity
  8
0
  6
Continuous
 62
     7
370
    25
100
AcDbLine
 10
316.6653098709
 20
656.200842007
 30
0.0
 11
316.6653098709
 21
657.700842007
 31
0.0
  0
LINE
  5
15C
330
1F
100
AcDbEntity
  8
0
  6
Continuous
 62
     7
370
    25
100
AcDbLine
 10
294.6653098709
 20
656.200842007
 30
0.0
 11
294.6653098709
 21
652.5874445473
 31
0.0
  0
LINE
  5
15D
330
1F
100
AcDbEntity
  8
0
  6
Continuous
 62
     7
370
    25
100
AcDbLine
 10
316.6653098709
 20
655.0874445473
 30
0.0
 11
316.6653098709
 21
656.200842007
 31
0.0
  0
LINE
  5
15E
330
1F
100
AcDbEntity
  8
0
  6
Continuous
 62
     7
370
    25
100
AcDbLine
 10
315.7429494073
 20
181.5874445473
 30
0.0
 11
301.0653098709
 21
181.5874445473
 31
0.0
  0
LINE
  5
15F
330
1F
100
AcDbEntity
  8
0
  6
Continuous
 62
     7
370
    25
100
AcDbLine
 10
315.7429494073
 20
181.5874445473
 30
0.0
 11
315.7429494073
 21
178.5874445473
 31
0.0
  0
LINE
  5
160
330
1F
100
AcDbEntity
  8
0
  6
Continuous
 62
     7
370
    25
100
AcDbLine
 10
315.7429494073
 20
178.5874445473
 30
0.0
 11
301.0653098709
 21
178.5874445473
 31
0.0
  0
LINE
  5
161
330
1F
100
AcDbEntity
  8
0
  6
Continuous
 62
     7
370
    25
100
AcDbLine
 10
361.1073408581
 20
181.5874445473
 30
0.0
 11
315.7429494073
 21
181.5874445473
 31
0.0
  0
LINE
  5
162
330
1F
100
AcDbEntity
  8
0
  6
Continuous
 62
     7
370
    25
100
AcDbLine
 10
361.1073408581
 20
178.5874445473
 30
0.0
 11
315.7429494073
 21
178.5874445473
 31
0.0
  0
LINE
  5
163
330
1F
100
AcDbEntity
  8
0
  6
Continuous
 62
     7
370
    25
100
AcDbLine
 10
361.9653098709
 20
181.5874445473
 30
0.0
 11
361.9653098709
 21
178.5874445473
 31
0.0
  0
LINE
  5
164
330
1F
100
AcDbEntity
  8
0
  6
Continuous
 62
     7
370
    25
100
AcDbLine
 10
361.1073408581
 20
181.5874445473
 30
0.0
 11
361.9653098709
 21
181.5874445473
 31
0.0
  0
LINE
  5
165
330
1F
100
AcDbEntity
  8
0
  6
Continuous
 62
     7
370
    25
100
AcDbLine
 10
361.9653098709
 20
178.5874445473
 30
0.0
 11
361.1073408581
 21
178.5874445473
 31
0.0
  0
LINE
  5
166
330
1F
100
AcDbEntity
  8
0
  6
Continuous
 62
     7
370
    25
100
AcDbLine
 10
361.9653098709
 20
181.5874445473
 30
0.0
 11
361.9653098709
 21
182.0874445473
 31
0.0
  0
LINE
  5
167
330
1F
100
AcDbEntity
  8
0
  6
Continuous
 62
     7
370
    25
100
AcDbLine
 10
564.7621578008
 20
580.5519183828
 30
0.0
 11
564.7621578008
 21
556.5784017719
 31
0.0
  0
LINE
  5
168
330
1F
100
AcDbEntity
  8
0
  6
Continuous
 62
     7
370
    25
100
AcDbLine
 10
641.7621578008
 20
556.5784017719
 30
0.0
 11
641.7621578008
 21
580.5519183828
 31
0.0
  0
ARC
  5
169
330
1F
100
AcDbEntity
  8
0
  6
Continuous
 62
     7
370
    25
100
AcDbCircle
 10
647.2621578008
 20
585.0260585938
 30
0.0
 40
3.0
100
AcDbArc
 50
0.0
 51
90.0
  0
LINE
  5
16A
330
1F
100
AcDbEntity
  8
0
  6
Continuous
 62
     7
370
    25
100
AcDbLine
 10
650.2621578008
 20
585.0260585938
 30
0.0
 11
650.2621578008
 21
550.0260585938
 31
0.0
  0
ARC
  5
16B
330
1F
100
AcDbEntity
  8
0
  6
Continuous
 62
     7
370
    25
100
AcDbCircle
 10
647.2621578008
 20
550.0260585938
 30
0.0
 40
3.0
100
AcDbArc
 50
270.0
 51
0.0
  0
LINE
  5
16C
330
1F
100
AcDbEntity
  8
0
  6
Continuous
 62
     7
370
    25
100
AcDbLine
 10
559.2621578008
 20
588.0260585938
 30
0.0
 11
647.2621578008
 21
588.0260585938
 31
0.0
  0
LINE
  5
16D
330
1F
100
AcDbEntity
  8
0
  6
Continuous
 62
     7
370
    25
100
AcDbLine
 10
559.2621578008
 20
547.0260585938
 30
0.0
 11
647.2621578008
 21
547.0260585938
 31
0.0
  0
LINE
  5
16E
330
1F
100
AcDbEntity
  8
0
  6
Continuous
 62
     7
370
    25
100
AcDbLine
 10
556.2621578008
 20
585.0260585938
 30
0.0
 11
556.2621578008
 21
550.0260585938
 31
0.0
  0
ARC
  5
16F
330
1F
100
AcDbEntity
  8
0
  6
Continuous
 62
     7
370
    25
100
AcDbCircle
 10
559.2621578008
 20
550.0260585938
 30
0.0
 40
3.0
100
AcDbArc
 50
180.0
 51
270.0
  0
ARC
  5
170
330
1F
100
AcDbEntity
  8
0
  6
Continuous
 62
     7
370
    25
100
AcDbCircle
 10
559.2621578008
 20
585.0260585938
 30
0.0
 40
3.000000000000114
100
AcDbArc
 50
90.0
 51
180.0
  0
LINE
  5
171
330
1F
100
AcDbEntity
  8
0
  6
Continuous
 62
     7
370
    25
100
AcDbLine
 10
304.9162846928
 20
183.5874445473
 30
0.0
 11
318.0653098709
 21
183.5874445473
 31
0.0
  0
LINE
  5
172
330
1F
100
AcDbEntity
  8
0
  6
Continuous
 62
     7
370
    25
100
AcDbLine
 10
301.0653098709
 20
183.5874445473
 30
0.0
 11
304.9162846928
 21
183.5874445473
 31
0.0
  0
LINE
  5
173
330
1F
100
AcDbEntity
  8
0
  6
Continuous
 62
     7
370
    25
100
AcDbLine
 10
304.9162846928
 20
182.0874445473
 30
0.0
 11
318.0653098709
 21
182.0874445473
 31
0.0
  0
LINE
  5
174
330
1F
100
AcDbEntity
  8
0
  6
Continuous
 62
     7
370
    25
100
AcDbLine
 10
301.0653098709
 20
182.0874445473
 30
0.0
 11
304.9162846928
 21
182.0874445473
 31
0.0
  0
LINE
  5
175
330
1F
100
AcDbEntity
  8
0
  6
Continuous
 62
     7
370
    25
100
AcDbLine
 10
318.0653098709
 20
653.0874445473
 30
0.0
 11
301.0653098709
 21
653.0874445473
 31
0.0
  0
LINE
  5
176
330
1F
100
AcDbEntity
  8
0
  6
Continuous
 62
     7
370
    25
100
AcDbLine
 10
318.0653098709
 20
654.5874445473
 30
0.0
 11
301.0653098709
 21
654.5874445473
 31
0.0
  0
LWPOLYLINE
  5
177
330
1F
100
AcDbEntity
  8
0
  6
Continuous
 62
     7
370
    25
100
AcDbPolyline
 90
        3
 70
   128
 43
0.0
 10
301.5678102617
 20
652.5874445473
 10
301.3768553312
 20
652.7783411863
 10
301.3677492581
 20
652.7874445473
  0
LINE
  5
178
330
1F
100
AcDbEntity
  8
0
  6
Continuous
 62
     7
370
    25
100
AcDbLine
 10
301.3653098709
 20
652.7874445473
 30
0.0
 11
301.3677492581
 21
652.7874445473
 31
0.0
  0
LINE
  5
179
330
1F
100
AcDbEntity
  8
0
  6
Continuous
 62
     7
370
    25
100
AcDbLine
 10
317.5653098709
 20
655.0874445473
 30
0.0
 11
301.5653098709
 21
655.0874445473
 31
0.0
  0
LINE
  5
17A
330
1F
100
AcDbEntity
  8
0
  6
Continuous
 62
     7
370
    25
100
AcDbLine
 10
309.8340506465
 20
184.0874445473
 30
0.0
 11
673.6965690953
 21
184.0874445473
 31
0.0
  0
LINE
  5
17B
330
1F
100
AcDbEntity
  8
0
  6
Continuous
 62
     7
370
    25
100
AcDbLine
 10
294.8546076252
 20
184.0874445473
 30
0.0
 11
309.8340506465
 21
184.0874445473
 31
0.0
  0
LINE
  5
17C
330
1F
100
AcDbEntity
  8
0
  6
Continuous
 62
     7
370
    25
100
AcDbLine
 10
309.8340506465
 20
186.3874445473
 30
0.0
 11
309.8340506465
 21
184.0874445473
 31
0.0
  0
LINE
  5
17D
330
1F
100
AcDbEntity
  8
0
  6
Continuous
 62
     7
370
    25
100
AcDbLine
 10
309.8340506465
 20
652.5874445473
 30
0.0
 11
309.8340506465
 21
650.2874445473
 31
0.0
  0
LINE
  5
17E
330
1F
100
AcDbEntity
  8
0
  6
Continuous
 62
     7
370
    25
100
AcDbLine
 10
294.8546076252
 20
652.5874445473
 30
0.0
 11
309.8340506465
 21
652.5874445473
 31
0.0
  0
LINE
  5
17F
330
1F
100
AcDbEntity
  8
0
  6
Continuous
 62
     7
370
    25
100
AcDbLine
 10
673.6965690953
 20
652.5874445473
 30
0.0
 11
309.8340506465
 21
652.5874445473
 31
0.0
  0
LINE
  5
180
330
1F
100
AcDbEntity
  8
0
  6
Continuous
 62
     7
370
    25
100
AcDbLine
 10
673.6965690953
 20
652.5874445473
 30
0.0
 11
673.6965690953
 21
650.2874445473
 31
0.0
  0
LINE
  5
181
330
1F
100
AcDbEntity
  8
0
  6
Continuous
 62
     7
370
    25
100
AcDbLine
 10
673.6965690953
 20
186.3874445473
 30
0.0
 11
673.6965690953
 21
184.0874445473
 31
0.0
  0
LINE
  5
182
330
1F
100
AcDbEntity
  8
0
  6
Continuous
 62
     7
370
    25
100
AcDbLine
 10
673.6965690953
 20
652.5874445473
 30
0.0
 11
688.6760121166
 21
652.5874445473
 31
0.0
  0
LINE
  5
183
330
1F
100
AcDbEntity
  8
0
  6
Continuous
 62
     7
370
    25
100
AcDbLine
 10
673.6965690953
 20
184.0874445473
 30
0.0
 11
688.6760121166
 21
184.0874445473
 31
0.0
  0
LINE
  5
184
330
1F
100
AcDbEntity
  8
0
  6
Continuous
 62
     7
370
    25
100
AcDbLine
 10
293.768461941
 20
652.5874445473
 30
0.0
 11
294.8546076252
 21
652.5874445473
 31
0.0
  0
LINE
  5
185
330
1F
100
AcDbEntity
  8
0
  6
Continuous
 62
     7
370
    25
100
AcDbLine
 10
293.768461941
 20
184.0874445473
 30
0.0
 11
294.8546076252
 21
184.0874445473
 31
0.0
  0
LINE
  5
186
330
1F
100
AcDbEntity
  8
0
  6
Continuous
 62
     7
370
    25
100
AcDbLine
 10
688.6760121166
 20
184.0874445473
 30
0.0
 11
689.7621578008
 21
184.0874445473
 31
0.0
  0
LINE
  5
187
330
1F
100
AcDbEntity
  8
0
  6
Continuous
 62
     7
370
    25
100
AcDbLine
 10
688.6760121166
 20
652.5874445473
 30
0.0
 11
689.7621578008
 21
652.5874445473
 31
0.0
  0
LINE
  5
188
330
1F
100
AcDbEntity
  8
0
  6
Continuous
 62
     7
370
    25
100
AcDbLine
 10
689.7653098709
 20
652.5874445473
 30
0.0
 11
689.7653098709
 21
184.0874445473
 31
0.0
  0
LINE
  5
189
330
1F
100
AcDbEntity
  8
0
  6
Continuous
 62
     7
370
    25
100
AcDbLine
 10
689.7621578008
 20
184.0874445473
 30
0.0
 11
689.7653098709
 21
184.0874445473
 31
0.0
  0
LINE
  5
18A
330
1F
100
AcDbEntity
  8
0
  6
Continuous
 62
     7
370
    25
100
AcDbLine
 10
689.7621578008
 20
652.5874445473
 30
0.0
 11
689.7653098709
 21
652.5874445473
 31
0.0
  0
LINE
  5
18B
330
1F
100
AcDbEntity
  8
0
  6
Continuous
 62
     7
370
    25
100
AcDbLine
 10
293.7653098709
 20
652.5874445473
 30
0.0
 11
293.7653098709
 21
184.0874445473
 31
0.0
  0
LINE
  5
18C
330
1F
100
AcDbEntity
  8
0
  6
Continuous
 62
     7
370
    25
100
AcDbLine
 10
293.7653098709
 20
184.0874445473
 30
0.0
 11
293.768461941
 21
184.0874445473
 31
0.0
  0
LINE
  5
18D
330
1F
100
AcDbEntity
  8
0
  6
Continuous
 62
     7
370
    25
100
AcDbLine
 10
293.7653098709
 20
652.5874445473
 30
0.0
 11
293.768461941
 21
652.5874445473
 31
0.0
  0
LINE
  5
18E
330
1F
100
AcDbEntity
  8
0
  6
Continuous
 62
     7
370
    25
100
AcDbLine
 10
681.9153098709
 20
940.7474445473
 30
0.0
 11
689.4153098709
 21
940.7474445473
 31
0.0
  0
LINE
  5
18F
330
1F
100
AcDbEntity
  8
0
  6
Continuous
 62
     7
370
    25
100
AcDbLine
 10
674.4153098709
 20
940.7474445473
 30
0.0
 11
681.9153098709
 21
940.7474445473
 31
0.0
  0
LINE
  5
190
330
1F
100
AcDbEntity
  8
0
  6
Continuous
 62
     7
370
    25
100
AcDbLine
 10
301.9153098709
 20
940.7474445473
 30
0.0
 11
309.4153098709
 21
940.7474445473
 31
0.0
  0
LINE
  5
191
330
1F
100
AcDbEntity
  8
0
  6
Continuous
 62
     7
370
    25
100
AcDbLine
 10
294.4153098709
 20
940.7474445473
 30
0.0
 11
301.9153098709
 21
940.7474445473
 31
0.0
  0
LINE
  5
192
330
1F
100
AcDbEntity
  8
0
  6
Continuous
 62
     7
370
    25
100
AcDbLine
 10
558.9653098709
 20
784.4244842912
 30
0.0
 11
564.4653098709
 21
784.4244842912
 31
0.0
  0
LINE
  5
193
330
1F
100
AcDbEntity
  8
0
  6
Continuous
 62
     7
370
    25
100
AcDbLine
 10
420.3153098709
 20
737.1947130006
 30
0.0
 11
636.7153098709
 21
737.1947130006
 31
0.0
  0
ARC
  5
194
330
1F
100
AcDbEntity
  8
0
  6
Continuous
 62
     7
370
    25
100
AcDbCircle
 10
420.2706583221
 20
738.1502883206
 30
0.0
 40
0.9566179765387263
100
AcDbArc
 50
182.9521409374
 51
272.6753367005
  0
LINE
  5
195
330
1F
100
AcDbEntity
  8
0
  6
Continuous
 62
     7
370
    25
100
AcDbLine
 10
419.3153098709
 20
817.8561060468
 30
0.0
 11
419.3153098709
 21
738.1010207876
 31
0.0
  0
ARC
  5
196
330
1F
100
AcDbEntity
  8
0
  6
Continuous
 62
     7
370
    25
100
AcDbCircle
 10
420.2706583221
 20
817.8068385139
 30
0.0
 40
0.956617976538556
100
AcDbArc
 50
87.3246632995
 51
177.0478590626
  0
LINE
  5
197
330
1F
100
AcDbEntity
  8
0
  6
Continuous
 62
     7
370
    25
100
AcDbLine
 10
636.7153098709
 20
818.7624138339
 30
0.0
 11
420.3153098709
 21
818.7624138339
 31
0.0
  0
ARC
  5
198
330
1F
100
AcDbEntity
  8
0
  6
Continuous
 62
     7
370
    25
100
AcDbCircle
 10
636.7599614197
 20
817.8068385139
 30
0.0
 40
0.9566179765386069
100
AcDbArc
 50
2.9521409374
 51
92.6753367005
  0
LINE
  5
199
330
1F
100
AcDbEntity
  8
0
  6
Continuous
 62
     7
370
    25
100
AcDbLine
 10
637.7153098709
 20
738.1010207876
 30
0.0
 11
637.7153098709
 21
817.8561060468
 31
0.0
  0
ARC
  5
19A
330
1F
100
AcDbEntity
  8
0
  6
Continuous
 62
     7
370
    25
100
AcDbCircle
 10
636.7599614197
 20
738.1502883206
 30
0.0
 40
0.9566179765388714
100
AcDbArc
 50
267.3246632995
 51
357.0478590626
  0
ARC
  5
19B
330
1F
100
AcDbEntity
  8
0
  6
Continuous
 62
     7
370
    25
100
AcDbCircle
 10
487.2153098709
 20
763.5932508554
 30
0.0
 40
5.014993482985078
100
AcDbArc
 50
184.4316144589
 51
355.5683855411
  0
ARC
  5
19C
330
1F
100
AcDbEntity
  8
0
  6
Continuous
 62
     7
370
    25
100
AcDbCircle
 10
505.0153098709
 20
763.5932508554
 30
0.0
 40
5.014993482985021
100
AcDbArc
 50
184.4316144589
 51
355.5683855411
  0
ARC
  5
19D
330
1F
100
AcDbEntity
  8
0
  6
Continuous
 62
     7
370
    25
100
AcDbCircle
 10
522.8153098709
 20
763.5932508554
 30
0.0
 40
5.014993482985021
100
AcDbArc
 50
184.4316144589
 51
355.5683855411
  0
ARC
  5
19E
330
1F
100
AcDbEntity
  8
0
  6
Continuous
 62
     7
370
    25
100
AcDbCircle
 10
540.6153098709
 20
763.5932508554
 30
0.0
 40
5.014993482985038
100
AcDbArc
 50
184.4316144589
 51
355.5683855411
  0
ARC
  5
19F
330
1F
100
AcDbEntity
  8
0
  6
Continuous
 62
     7
370
    25
100
AcDbCircle
 10
553.8153098709
 20
792.5219387883
 30
0.0
 40
3.008329637731533
100
AcDbArc
 50
184.264697535
 51
355.735302465
  0
ARC
  5
1A0
330
1F
100
AcDbEntity
  8
0
  6
Continuous
 62
     7
370
    25
100
AcDbCircle
 10
553.8153098709
 20
773.2175829245
 30
0.0
 40
3.008329637731541
100
AcDbArc
 50
184.264697535
 51
355.735302465
  0
ARC
  5
1A1
330
1F
100
AcDbEntity
  8
0
  6
Continuous
 62
     7
370
    25
100
AcDbCircle
 10
553.8153098709
 20
779.6523682124
 30
0.0
 40
3.008329637731541
100
AcDbArc
 50
184.264697535
 51
355.735302465
  0
ARC
  5
1A2
330
1F
100
AcDbEntity
  8
0
  6
Continuous
 62
     7
370
    25
100
AcDbCircle
 10
553.8153098709
 20
786.0871535004
 30
0.0
 40
3.008329637731541
100
AcDbArc
 50
184.264697535
 51
355.735302465
  0
ARC
  5
1A3
330
1F
100
AcDbEntity
  8
0
  6
Continuous
 62
     7
370
    25
100
AcDbCircle
 10
561.7153098709
 20
771.3790392533
 30
0.0
 40
0.9021219136048866
100
AcDbArc
 50
183.9305563425
 51
356.0694436575
  0
ARC
  5
1A4
330
1F
100
AcDbEntity
  8
0
  6
Continuous
 62
     7
370
    25
100
AcDbCircle
 10
561.7153098709
 20
779.5940034442
 30
0.0
 40
2.505461996947708
100
AcDbArc
 50
183.7839760297
 51
356.2160239703
  0
ARC
  5
1A5
330
1F
100
AcDbEntity
  8
0
  6
Continuous
 62
     7
370
    25
100
AcDbCircle
 10
560.1976237595
 20
794.4914964801
 30
0.0
 40
0.4726016194469136
100
AcDbArc
 50
94.1082379693
 51
174.7872894888
  0
ARC
  5
1A6
330
1F
100
AcDbEntity
  8
0
  6
Continuous
 62
     7
370
    25
100
AcDbCircle
 10
560.0659326776
 20
794.5149779426
 30
0.0
 40
0.8395015561790968
100
AcDbArc
 50
180.1143072301
 51
213.6959402783
  0
LINE
  5
1A7
330
1F
100
AcDbEntity
  8
0
  6
Continuous
 62
     7
370
    25
100
AcDbLine
 10
559.3674728951
 20
794.0492346709
 30
0.0
 11
560.3403543384
 21
792.5701187885
 31
0.0
  0
LWPOLYLINE
  5
1A8
330
1F
100
AcDbEntity
  8
0
  6
Continuous
 62
     7
370
    25
100
AcDbPolyline
 90
        3
 70
   128
 43
0.0
 10
560.4103304816
 20
792.3592155886
 10
560.3937525013
 20
792.455655886
 10
560.3403543384
 20
792.5701187885
  0
ARC
  5
1A9
330
1F
100
AcDbEntity
  8
0
  6
Continuous
 62
     7
370
    25
100
AcDbCircle
 10
559.9738759827
 20
792.3717318108
 30
0.0
 40
0.9376023420884022
100
AcDbArc
 50
270.5977400143
 51
357.9434150266
  0
ARC
  5
1AA
330
1F
100
AcDbEntity
  8
0
  6
Continuous
 62
     7
370
    25
100
AcDbCircle
 10
561.4738759827
 20
792.3717318108
 30
0.0
 40
0.9376023420915024
100
AcDbArc
 50
270.5977400145
 51
357.9434150264
  0
ARC
  5
1AB
330
1F
100
AcDbEntity
  8
0
  6
Continuous
 62
     7
370
    25
100
AcDbCircle
 10
561.6976237601
 20
794.4914964789
 30
0.0
 40
0.4726016207443653
100
AcDbArc
 50
94.1082380297
 51
174.7872875169
  0
ARC
  5
1AC
330
1F
100
AcDbEntity
  8
0
  6
Continuous
 62
     7
370
    25
100
AcDbCircle
 10
561.5659326776
 20
794.5149779426
 30
0.0
 40
0.8395015561734528
100
AcDbArc
 50
180.11430723
 51
213.6959402784
  0
LINE
  5
1AD
330
1F
100
AcDbEntity
  8
0
  6
Continuous
 62
     7
370
    25
100
AcDbLine
 10
560.8674728951
 20
794.0492346709
 30
0.0
 11
561.8403543384
 21
792.5701187885
 31
0.0
  0
LWPOLYLINE
  5
1AE
330
1F
100
AcDbEntity
  8
0
  6
Continuous
 62
     7
370
    25
100
AcDbPolyline
 90
        3
 70
   128
 43
0.0
 10
561.9103304837
 20
792.3592155492
 10
561.8937525013
 20
792.455655886
 10
561.8403543384
 20
792.5701187885
  0
ARC
  5
1AF
330
1F
100
AcDbEntity
  8
0
  6
Continuous
 62
     7
370
    25
100
AcDbCircle
 10
562.9738759827
 20
792.3717318108
 30
0.0
 40
0.9376023420884022
100
AcDbArc
 50
270.5977400143
 51
357.9434150266
  0
ARC
  5
1B0
330
1F
100
AcDbEntity
  8
0
  6
Continuous
 62
     7
370
    25
100
AcDbCircle
 10
563.1976237623
 20
794.4914964743
 30
0.0
 40
0.4726016254714272
100
AcDbArc
 50
94.1082382497
 51
174.78728033
  0
ARC
  5
1B1
330
1F
100
AcDbEntity
  8
0
  6
Continuous
 62
     7
370
    25
100
AcDbCircle
 10
563.0659326776
 20
794.5149779426
 30
0.0
 40
0.8395015561790968
100
AcDbArc
 50
180.1143072301
 51
213.6959402783
  0
LINE
  5
1B2
330
1F
100
AcDbEntity
  8
0
  6
Continuous
 62
     7
370
    25
100
AcDbLine
 10
562.3674728951
 20
794.0492346709
 30
0.0
 11
563.3403543384
 21
792.5701187885
 31
0.0
  0
LWPOLYLINE
  5
1B3
330
1F
100
AcDbEntity
  8
0
  6
Continuous
 62
     7
370
    25
100
AcDbPolyline
 90
        3
 70
   128
 43
0.0
 10
563.4103304903
 20
792.3592154204
 10
563.3937525013
 20
792.455655886
 10
563.3403543384
 20
792.5701187885
  0
LINE
  5
1B4
330
1F
100
AcDbEntity
  8
0
  6
Continuous
 62
     7
370
    25
100
AcDbLine
 10
559.1153098709
 20
791.0293955505
 30
0.0
 11
564.3153098709
 21
791.0293955505
 31
0.0
  0
SPLINE
  5
1B5
330
1F
100
AcDbEntity
  8
0
  6
Continuous
 62
     7
370
    25
100
AcDbSpline
210
0.0
220
0.0
230
1.0
 70
     8
 71
     3
 72
    12
 73
     8
 74
     0
 42
0.000000001
 43
0.00000001
 40
0.0
 40
0.0
 40
0.0
 40
0.0
 40
0.125473301966353
 40
0.2507360599832731
 40
0.3759944691001403
 40
0.5014447069554264
 40
1.0
 40
1.0
 40
1.0
 40
1.0
 10
563.1003265602701
 20
774.5475289757501
 30
0.0
 10
563.0848217214881
 20
774.5483116982011
 30
0.0
 10
563.0538380610125
 20
774.5498758296967
 30
0.0
 10
563.0098597275347
 20
774.5658180381828
 30
0.0
 10
562.9744011736399
 20
774.5938266587274
 30
0.0
 10
562.9241888000438
 20
774.6655618400614
 30
0.0
 10
562.9215154467124
 20
774.7374648962132
 30
0.0
 10
562.9193795450457
 20
774.7949125428372
 30
0.0
  0
SPLINE
  5
1B6
330
1F
100
AcDbEntity
  8
0
  6
Continuous
 62
     7
370
    25
100
AcDbSpline
210
0.0
220
0.0
230
1.0
 70
     8
 71
     3
 72
    12
 73
     8
 74
     0
 42
0.000000001
 43
0.00000001
 40
0.0
 40
0.0
 40
0.0
 40
0.0
 40
0.4988087824720344
 40
0.6242586352266433
 40
0.7494299575300842
 40
0.874575404876152
 40
1.0
 40
1.0
 40
1.0
 40
1.0
 10
563.2789415108575
 20
774.7994278933821
 30
0.0
 10
563.2766309292067
 20
774.74175015866
 30
0.0
 10
563.2737392388461
 20
774.6695665379502
 30
0.0
 10
563.2258739110252
 20
774.5959426643772
 30
0.0
 10
563.1913580918182
 20
774.5664345719119
 30
0.0
 10
563.1471530515506
 20
774.5498640553911
 30
0.0
 10
563.1159469790813
 20
774.5483079135041
 30
0.0
 10
563.1003265602701
 20
774.5475289757501
 30
0.0
  0
SPLINE
  5
1B7
330
1F
100
AcDbEntity
  8
0
  6
Continuous
 62
     7
370
    25
100
AcDbSpline
210
0.0
220
0.0
230
1.0
 70
     8
 71
     3
 72
    11
 73
     7
 74
     0
 42
0.000000001
 43
0.00000001
 40
0.0
 40
0.0
 40
0.0
 40
0.0
 40
0.2798291760657552
 40
0.5591291317569229
 40
0.7793659331568308
 40
1.0
 40
1.0
 40
1.0
 40
1.0
 10
563.900758365496
 20
774.0120498770484
 30
0.0
 10
563.8388487049837
 20
774.0176358104529
 30
0.0
 10
563.7151464691541
 20
774.0287971129966
 30
0.0
 10
563.5762291320318
 20
774.1312956105397
 30
0.0
 10
563.4990747424184
 20
774.2594552258795
 30
0.0
 10
563.4921063021553
 20
774.3473515562638
 30
0.0
 10
563.4886189424191
 20
774.3913393228191
 30
0.0
  0
SPLINE
  5
1B8
330
1F
100
AcDbEntity
  8
0
  6
Continuous
 62
     7
370
    25
100
AcDbSpline
210
0.0
220
0.0
230
1.0
 70
     8
 71
     3
 72
    11
 73
     7
 74
     0
 42
0.000000001
 43
0.00000001
 40
0.0
 40
0.0
 40
0.0
 40
0.0
 40
0.3400430427519302
 40
0.5599746075348727
 40
0.7799161087527637
 40
1.0
 40
1.0
 40
1.0
 40
1.0
 10
564.2384837260729
 20
774.1493837835147
 30
0.0
 10
564.2066973526443
 20
774.1226278761917
 30
0.0
 10
564.1543523264335
 20
774.0785668991424
 30
0.0
 10
564.0664555982746
 20
774.0353804121903
 30
0.0
 10
563.9847363042544
 20
774.0151996870815
 30
0.0
 10
563.9287570499515
 20
774.0131000402048
 30
0.0
 10
563.9007583654959
 20
774.0120498770485
 30
0.0
  0
SPLINE
  5
1B9
330
1F
100
AcDbEntity
  8
0
  6
Continuous
 62
     7
370
    25
100
AcDbSpline
210
0.0
220
0.0
230
1.0
 70
     8
 71
     3
 72
    11
 73
     7
 74
     0
 42
0.000000001
 43
0.00000001
 40
0.0
 40
0.0
 40
0.0
 40
0.0
 40
0.2795310747417133
 40
0.5591556304596241
 40
0.7794431211429607
 40
1.0
 40
1.0
 40
1.0
 40
1.0
 10
563.8974192729479
 20
774.6392032463472
 30
0.0
 10
563.8574874292729
 20
774.6349984049037
 30
0.0
 10
563.777610387888
 20
774.6265873158306
 30
0.0
 10
563.6902563603776
 20
774.5584369198175
 30
0.0
 10
563.638461445237
 20
774.4768663582074
 30
0.0
 10
563.6335460770537
 20
774.4200520497584
 30
0.0
 10
563.631086891137
 20
774.3916275366838
 30
0.0
  0
SPLINE
  5
1BA
330
1F
100
AcDbEntity
  8
0
  6
Continuous
 62
     7
370
    25
100
AcDbSpline
210
0.0
220
0.0
230
1.0
 70
     8
 71
     3
 72
     9
 73
     5
 74
     0
 42
0.000000001
 43
0.00000001
 40
0.0
 40
0.0
 40
0.0
 40
0.0
 40
0.5600313447650992
 40
1.0
 40
1.0
 40
1.0
 40
1.0
 10
564.1371979187812
 20
774.5345816135092
 30
0.0
 10
564.0988773405028
 20
774.5671025680704
 30
0.0
 10
564.0304515664159
 20
774.6251724508817
 30
0.0
 10
563.9380660183109
 20
774.6349162709395
 30
0.0
 10
563.8974192729479
 20
774.6392032463472
 30
0.0
  0
LINE
  5
1BB
330
1F
100
AcDbEntity
  8
0
  6
Continuous
 62
     7
370
    25
100
AcDbLine
 10
564.2416638142
 20
774.625080767
 30
0.0
 11
564.1371979188
 21
774.5345816135
 31
0.0
  0
LINE
  5
1BC
330
1F
100
AcDbEntity
  8
0
  6
Continuous
 62
     7
370
    25
100
AcDbLine
 10
420.3153098709
 20
737.1524511744
 30
0.0
 11
636.7153098709
 21
737.1524511744
 31
0.0
  0
LINE
  5
1BD
330
1F
100
AcDbEntity
  8
0
  6
Continuous
 62
     7
370
    25
100
AcDbLine
 10
419.3153098709
 20
738.1010207876
 30
0.0
 11
419.3153098709
 21
738.0587589614
 31
0.0
  0
ARC
  5
1BE
330
1F
100
AcDbEntity
  8
0
  6
Continuous
 62
     7
370
    25
100
AcDbCircle
 10
420.2706583221
 20
738.1080264944
 30
0.0
 40
0.956617976538732
100
AcDbArc
 50
182.9521409374
 51
272.6753367005
  0
LINE
  5
1BF
330
1F
100
AcDbEntity
  8
0
  6
Continuous
 62
     7
370
    25
100
AcDbLine
 10
637.7153098709
 20
738.1010207876
 30
0.0
 11
637.7153098709
 21
738.0587589614
 31
0.0
  0
ARC
  5
1C0
330
1F
100
AcDbEntity
  8
0
  6
Continuous
 62
     7
370
    25
100
AcDbCircle
 10
636.7599614197
 20
738.1080264944
 30
0.0
 40
0.9566179765387578
100
AcDbArc
 50
267.3246632995
 51
357.0478590626
  0
LWPOLYLINE
  5
1C1
330
1F
100
AcDbEntity
  8
0
  6
Continuous
 62
     7
370
    25
100
AcDbPolyline
 90
       24
 70
   128
 43
0.0
 10
545.6153098709
 20
763.311401054
 10
545.4298963077
 20
762.0888064809
 10
544.8874068936
 20
760.9568861543
 10
544.028075587
 20
759.9995894266
 10
542.9156350596
 20
759.2879146168
 10
541.6325899362
 20
758.8746433898
 10
540.2740978041
 20
758.790426182
 10
538.9409118101
 20
759.0415089983
 10
537.7319082603
 20
759.6092701749
 10
536.7367534174
 20
760.4516014627
 10
536.0292533634
 20
761.5060310035
 10
535.6618801407
 20
762.6943565819
 10
535.6618801407
 20
763.928445526
 10
536.0292533634
 20
765.1167711044
 10
536.7367534174
 20
766.1712006452
 10
537.7319082603
 20
767.013531933
 10
538.9409118101
 20
767.5812931096
 10
540.2740978041
 20
767.832375926
 10
541.6325899362
 20
767.7481587181
 10
542.9156350596
 20
767.3348874911
 10
544.028075587
 20
766.6232126813
 10
544.8874068936
 20
765.6659159536
 10
545.4298963077
 20
764.533995627
 10
545.6153098709
 20
763.311401054
  0
LWPOLYLINE
  5
1C2
330
1F
100
AcDbEntity
  8
0
  6
Continuous
 62
     7
370
    25
100
AcDbPolyline
 90
       24
 70
   128
 43
0.0
 10
510.0153098709
 20
763.311401054
 10
509.8298963077
 20
762.0888064809
 10
509.2874068936
 20
760.9568861543
 10
508.428075587
 20
759.9995894266
 10
507.3156350596
 20
759.2879146168
 10
506.0325899362
 20
758.8746433898
 10
504.6740978041
 20
758.790426182
 10
503.3409118101
 20
759.0415089983
 10
502.1319082603
 20
759.6092701749
 10
501.1367534174
 20
760.4516014627
 10
500.4292533634
 20
761.5060310035
 10
500.0618801407
 20
762.6943565819
 10
500.0618801407
 20
763.928445526
 10
500.4292533634
 20
765.1167711044
 10
501.1367534174
 20
766.1712006452
 10
502.1319082603
 20
767.013531933
 10
503.3409118101
 20
767.5812931096
 10
504.6740978041
 20
767.832375926
 10
506.0325899362
 20
767.7481587181
 10
507.3156350596
 20
767.3348874911
 10
508.428075587
 20
766.6232126813
 10
509.2874068936
 20
765.6659159536
 10
509.8298963077
 20
764.533995627
 10
510.0153098709
 20
763.311401054
  0
LWPOLYLINE
  5
1C3
330
1F
100
AcDbEntity
  8
0
  6
Continuous
 62
     7
370
    25
100
AcDbPolyline
 90
       24
 70
   128
 43
0.0
 10
527.8153098709
 20
763.311401054
 10
527.6298963077
 20
762.0888064809
 10
527.0874068936
 20
760.9568861543
 10
526.228075587
 20
759.9995894266
 10
525.1156350596
 20
759.2879146168
 10
523.8325899362
 20
758.8746433898
 10
522.4740978041
 20
758.790426182
 10
521.1409118101
 20
759.0415089983
 10
519.9319082603
 20
759.6092701749
 10
518.9367534174
 20
760.4516014627
 10
518.2292533634
 20
761.5060310035
 10
517.8618801407
 20
762.6943565819
 10
517.8618801407
 20
763.928445526
 10
518.2292533634
 20
765.1167711044
 10
518.9367534174
 20
766.1712006452
 10
519.9319082603
 20
767.013531933
 10
521.1409118101
 20
767.5812931096
 10
522.4740978041
 20
767.832375926
 10
523.8325899362
 20
767.7481587181
 10
525.1156350596
 20
767.3348874911
 10
526.228075587
 20
766.6232126813
 10
527.0874068936
 20
765.6659159536
 10
527.6298963077
 20
764.533995627
 10
527.8153098709
 20
763.311401054
  0
LWPOLYLINE
  5
1C4
330
1F
100
AcDbEntity
  8
0
  6
Continuous
 62
     7
370
    25
100
AcDbPolyline
 90
       24
 70
   128
 43
0.0
 10
492.2153098709
 20
763.311401054
 10
492.0298963077
 20
762.0888064809
 10
491.4874068936
 20
760.9568861543
 10
490.628075587
 20
759.9995894266
 10
489.5156350596
 20
759.2879146168
 10
488.2325899362
 20
758.8746433898
 10
486.8740978041
 20
758.790426182
 10
485.5409118101
 20
759.0415089983
 10
484.3319082603
 20
759.6092701749
 10
483.3367534174
 20
760.4516014627
 10
482.6292533634
 20
761.5060310035
 10
482.2618801407
 20
762.6943565819
 10
482.2618801407
 20
763.928445526
 10
482.6292533634
 20
765.1167711044
 10
483.3367534174
 20
766.1712006452
 10
484.3319082603
 20
767.013531933
 10
485.5409118101
 20
767.5812931096
 10
486.8740978041
 20
767.832375926
 10
488.2325899362
 20
767.7481587181
 10
489.5156350596
 20
767.3348874911
 10
490.628075587
 20
766.6232126813
 10
491.4874068936
 20
765.6659159536
 10
492.0298963077
 20
764.533995627
 10
492.2153098709
 20
763.311401054
  0
LINE
  5
1C5
330
1F
100
AcDbEntity
  8
0
  6
Continuous
 62
     7
370
    25
100
AcDbLine
 10
485.5653098709
 20
761.1360183359
 30
0.0
 11
488.8653098709
 21
761.1360183359
 31
0.0
  0
LINE
  5
1C6
330
1F
100
AcDbEntity
  8
0
  6
Continuous
 62
     7
370
    25
100
AcDbLine
 10
519.8153098709
 20
762.0585936158
 30
0.0
 11
525.8153098709
 21
762.0585936158
 31
0.0
  0
LINE
  5
1C7
330
1F
100
AcDbEntity
  8
0
  6
Continuous
 62
     7
370
    25
100
AcDbLine
 10
502.0153098709
 20
765.1981358847
 30
0.0
 11
505.0153098709
 21
760.4888224814
 31
0.0
  0
LINE
  5
1C8
330
1F
100
AcDbEntity
  8
0
  6
Continuous
 62
     7
370
    25
100
AcDbLine
 10
505.0153098709
 20
760.4888224814
 30
0.0
 11
508.0153098709
 21
765.1981358847
 31
0.0
  0
ARC
  5
1C9
330
1F
100
AcDbEntity
  8
0
  6
Continuous
 62
     7
370
    25
100
AcDbCircle
 10
540.6181832009
 20
763.8283875362
 30
0.0
 40
3.009527762127441
100
AcDbArc
 50
183.8108688974
 51
354.4578613897
  0
LINE
  5
1CA
330
1F
100
AcDbEntity
  8
0
  6
Continuous
 62
     7
370
    25
100
AcDbLine
 10
543.613642741
 20
763.5377339716
 30
0.0
 11
544.113642741
 21
763.5377339716
 31
0.0
  0
LINE
  5
1CB
330
1F
100
AcDbEntity
  8
0
  6
Continuous
 62
     7
370
    25
100
AcDbLine
 10
542.6133090703
 20
763.5377339716
 30
0.0
 11
543.11100605
 21
763.5377339716
 31
0.0
  0
ARC
  5
1CC
330
1F
100
AcDbEntity
  8
0
  6
Continuous
 62
     7
370
    25
100
AcDbCircle
 10
540.3317168011
 20
763.5942483064
 30
0.0
 40
2.216669486419326
100
AcDbArc
 50
116.9319998392
 51
179.1181340116
  0
LINE
  5
1CD
330
1F
100
AcDbEntity
  8
0
  6
Continuous
 62
     7
370
    25
100
AcDbLine
 10
502.0153098709
 20
765.2403977109
 30
0.0
 11
502.0153098709
 21
765.1981358847
 31
0.0
  0
LINE
  5
1CE
330
1F
100
AcDbEntity
  8
0
  6
Continuous
 62
     7
370
    25
100
AcDbLine
 10
502.0153098709
 20
765.2403977109
 30
0.0
 11
505.0153098709
 21
760.5310843076
 31
0.0
  0
LINE
  5
1CF
330
1F
100
AcDbEntity
  8
0
  6
Continuous
 62
     7
370
    25
100
AcDbLine
 10
505.0153098709
 20
760.5310843076
 30
0.0
 11
505.0153098709
 21
760.4888224814
 31
0.0
  0
LINE
  5
1D0
330
1F
100
AcDbEntity
  8
0
  6
Continuous
 62
     7
370
    25
100
AcDbLine
 10
505.0153098709
 20
760.5310843076
 30
0.0
 11
508.0153098709
 21
765.2403977109
 31
0.0
  0
LINE
  5
1D1
330
1F
100
AcDbEntity
  8
0
  6
Continuous
 62
     7
370
    25
100
AcDbLine
 10
508.0153098709
 20
765.2403977109
 30
0.0
 11
508.0153098709
 21
765.1981358847
 31
0.0
  0
LINE
  5
1D2
330
1F
100
AcDbEntity
  8
0
  6
Continuous
 62
     7
370
    25
100
AcDbLine
 10
505.0153098709
 20
761.4373920946
 30
0.0
 11
507.1492844671
 21
764.7872438174
 31
0.0
  0
LINE
  5
1D3
330
1F
100
AcDbEntity
  8
0
  6
Continuous
 62
     7
370
    25
100
AcDbLine
 10
507.1492844671
 20
764.7872438174
 30
0.0
 11
502.8813352747
 21
764.7872438174
 31
0.0
  0
LINE
  5
1D4
330
1F
100
AcDbEntity
  8
0
  6
Continuous
 62
     7
370
    25
100
AcDbLine
 10
502.8813352747
 20
764.7872438174
 30
0.0
 11
505.0153098709
 21
761.4373920946
 31
0.0
  0
LINE
  5
1D5
330
1F
100
AcDbEntity
  8
0
  6
Continuous
 62
     7
370
    25
100
AcDbLine
 10
508.0153098709
 20
765.2403977109
 30
0.0
 11
502.0153098709
 21
765.2403977109
 31
0.0
  0
LWPOLYLINE
  5
1D6
330
1F
100
AcDbEntity
  8
0
  6
Continuous
 62
     7
370
    25
100
AcDbPolyline
 90
       13
 70
   128
 43
0.0
 10
539.0701956462
 20
766.0011987747
 10
538.2918840842
 20
765.3906289019
 10
537.7871239438
 20
764.5775524185
 10
537.6153437872
 20
763.6576978942
 10
537.7967683646
 20
762.7393655445
 10
538.310037428
 20
761.9306763693
 10
539.0947206065
 20
761.3268423934
 10
540.0584322512
 20
760.9989567603
 10
541.0877085743
 20
760.9856234921
 10
542.0613664492
 20
761.288412398
 10
542.8647710562
 20
761.8716742497
 10
543.403332556
 20
762.6667379887
 10
543.613642741
 20
763.5799957977
  0
LINE
  5
1D7
330
1F
100
AcDbEntity
  8
0
  6
Continuous
 62
     7
370
    25
100
AcDbLine
 10
543.613642741
 20
763.5799957977
 30
0.0
 11
543.613642741
 21
763.5377339716
 31
0.0
  0
LINE
  5
1D8
330
1F
100
AcDbEntity
  8
0
  6
Continuous
 62
     7
370
    25
100
AcDbLine
 10
542.6133090703
 20
763.5799957977
 30
0.0
 11
543.1133090703
 21
763.5799957977
 31
0.0
  0
LINE
  5
1D9
330
1F
100
AcDbEntity
  8
0
  6
Continuous
 62
     7
370
    25
100
AcDbLine
 10
543.3634759056
 20
764.9926863403
 30
0.0
 11
542.6133090703
 21
763.5799957977
 31
0.0
  0
LINE
  5
1DA
330
1F
100
AcDbEntity
  8
0
  6
Continuous
 62
     7
370
    25
100
AcDbLine
 10
544.113642741
 20
763.5799957977
 30
0.0
 11
543.3634759056
 21
764.9926863403
 31
0.0
  0
LINE
  5
1DB
330
1F
100
AcDbEntity
  8
0
  6
Continuous
 62
     7
370
    25
100
AcDbLine
 10
543.613642741
 20
763.5799957977
 30
0.0
 11
544.113642741
 21
763.5799957977
 31
0.0
  0
LINE
  5
1DC
330
1F
100
AcDbEntity
  8
0
  6
Continuous
 62
     7
370
    25
100
AcDbLine
 10
539.3277146836
 20
765.612770075
 30
0.0
 11
539.0701956462
 21
766.0011987747
 31
0.0
  0
LWPOLYLINE
  5
1DD
330
1F
100
AcDbEntity
  8
0
  6
Continuous
 62
     7
370
    25
100
AcDbPolyline
 90
       11
 70
   128
 43
0.0
 10
543.1133090703
 20
763.5799957977
 10
542.8629984457
 20
762.6786868547
 10
542.2344810955
 20
761.9442863875
 10
541.333514326
 20
761.5003680971
 10
540.3116990732
 20
761.4216277778
 10
539.3409708112
 20
761.7213146484
 10
538.5846688752
 20
762.3490019769
 10
538.1700522111
 20
763.1990721202
 10
538.1668861826
 20
764.1284882498
 10
538.5757035207
 20
764.9808624056
 10
539.3277146836
 20
765.612770075
  0
LINE
  5
1DE
330
1F
100
AcDbEntity
  8
0
  6
Continuous
 62
     7
370
    25
100
AcDbLine
 10
485.5653098709
 20
761.1782801621
 30
0.0
 11
485.5653098709
 21
761.1360183359
 31
0.0
  0
LINE
  5
1DF
330
1F
100
AcDbEntity
  8
0
  6
Continuous
 62
     7
370
    25
100
AcDbLine
 10
485.5653098709
 20
761.1782801621
 30
0.0
 11
488.8653098709
 21
761.1782801621
 31
0.0
  0
LINE
  5
1E0
330
1F
100
AcDbEntity
  8
0
  6
Continuous
 62
     7
370
    25
100
AcDbLine
 10
488.8653098709
 20
761.1782801621
 30
0.0
 11
488.8653098709
 21
761.1360183359
 31
0.0
  0
LINE
  5
1E1
330
1F
100
AcDbEntity
  8
0
  6
Continuous
 62
     7
370
    25
100
AcDbLine
 10
487.7824671584
 20
765.166034425
 30
0.0
 11
488.5824671584
 21
765.166034425
 31
0.0
  0
LINE
  5
1E2
330
1F
100
AcDbEntity
  8
0
  6
Continuous
 62
     7
370
    25
100
AcDbLine
 10
488.5824671584
 20
765.166034425
 30
0.0
 11
487.7824671584
 21
765.8910806547
 31
0.0
  0
LINE
  5
1E3
330
1F
100
AcDbEntity
  8
0
  6
Continuous
 62
     7
370
    25
100
AcDbLine
 10
487.7824671584
 20
765.8910806547
 30
0.0
 11
487.7824671584
 21
765.166034425
 31
0.0
  0
LINE
  5
1E4
330
1F
100
AcDbEntity
  8
0
  6
Continuous
 62
     7
370
    25
100
AcDbLine
 10
487.7653098709
 20
766.1629729908
 30
0.0
 11
485.5653098709
 21
766.1629729908
 31
0.0
  0
LINE
  5
1E5
330
1F
100
AcDbEntity
  8
0
  6
Continuous
 62
     7
370
    25
100
AcDbLine
 10
488.8653098709
 20
765.166034425
 30
0.0
 11
487.7653098709
 21
766.1629729908
 31
0.0
  0
LINE
  5
1E6
330
1F
100
AcDbEntity
  8
0
  6
Continuous
 62
     7
370
    25
100
AcDbLine
 10
485.5653098709
 20
766.1629729908
 30
0.0
 11
485.5653098709
 21
761.1782801621
 31
0.0
  0
LINE
  5
1E7
330
1F
100
AcDbEntity
  8
0
  6
Continuous
 62
     7
370
    25
100
AcDbLine
 10
488.8653098709
 20
761.1782801621
 30
0.0
 11
488.8653098709
 21
765.166034425
 31
0.0
  0
LINE
  5
1E8
330
1F
100
AcDbEntity
  8
0
  6
Continuous
 62
     7
370
    25
100
AcDbLine
 10
539.3277146836
 20
765.612770075
 30
0.0
 11
539.3277146836
 21
765.5705082488
 31
0.0
  0
LINE
  5
1E9
330
1F
100
AcDbEntity
  8
0
  6
Continuous
 62
     7
370
    25
100
AcDbLine
 10
507.1223621819
 20
764.7449819912
 30
0.0
 11
502.9082575599
 21
764.7449819912
 31
0.0
  0
LINE
  5
1EA
330
1F
100
AcDbEntity
  8
0
  6
Continuous
 62
     7
370
    25
100
AcDbLine
 10
520.6813352747
 20
762.5540093355
 30
0.0
 11
524.9492844671
 21
762.5540093355
 31
0.0
  0
LINE
  5
1EB
330
1F
100
AcDbEntity
  8
0
  6
Continuous
 62
     7
370
    25
100
AcDbLine
 10
524.9492844671
 20
762.5540093355
 30
0.0
 11
522.8153098709
 21
765.9038610583
 31
0.0
  0
LINE
  5
1EC
330
1F
100
AcDbEntity
  8
0
  6
Continuous
 62
     7
370
    25
100
AcDbLine
 10
522.8153098709
 20
765.9038610583
 30
0.0
 11
520.6813352747
 21
762.5540093355
 31
0.0
  0
LINE
  5
1ED
330
1F
100
AcDbEntity
  8
0
  6
Continuous
 62
     7
370
    25
100
AcDbLine
 10
519.8153098709
 20
762.100855442
 30
0.0
 11
525.8153098709
 21
762.100855442
 31
0.0
  0
LINE
  5
1EE
330
1F
100
AcDbEntity
  8
0
  6
Continuous
 62
     7
370
    25
100
AcDbLine
 10
522.8153098709
 20
766.8101688453
 30
0.0
 11
519.8153098709
 21
762.100855442
 31
0.0
  0
LINE
  5
1EF
330
1F
100
AcDbEntity
  8
0
  6
Continuous
 62
     7
370
    25
100
AcDbLine
 10
525.8153098709
 20
762.100855442
 30
0.0
 11
522.8153098709
 21
766.8101688453
 31
0.0
  0
LINE
  5
1F0
330
1F
100
AcDbEntity
  8
0
  6
Continuous
 62
     7
370
    25
100
AcDbLine
 10
519.8153098709
 20
762.100855442
 30
0.0
 11
519.8153098709
 21
762.0585936158
 31
0.0
  0
LINE
  5
1F1
330
1F
100
AcDbEntity
  8
0
  6
Continuous
 62
     7
370
    25
100
AcDbLine
 10
525.8153098709
 20
762.100855442
 30
0.0
 11
525.8153098709
 21
762.0585936158
 31
0.0
  0
LINE
  5
1F2
330
1F
100
AcDbEntity
  8
0
  6
Continuous
 62
     7
370
    25
100
AcDbLine
 10
522.8153098709
 20
765.9038610583
 30
0.0
 11
522.8153098709
 21
765.8615992321
 31
0.0
  0
LINE
  5
1F3
330
1F
100
AcDbEntity
  8
0
  6
Continuous
 62
     7
370
    25
100
AcDbLine
 10
524.9223621819
 20
762.5540093355
 30
0.0
 11
522.8153098709
 21
765.8615992321
 31
0.0
  0
LINE
  5
1F4
330
1F
100
AcDbEntity
  8
0
  6
Continuous
 62
     7
370
    25
100
AcDbLine
 10
522.8153098709
 20
765.8615992321
 30
0.0
 11
520.7082575599
 21
762.5540093355
 31
0.0
  0
LINE
  5
1F5
330
1F
100
AcDbEntity
  8
0
  6
Continuous
 62
     7
370
    25
100
AcDbLine
 10
542.6133090703
 20
763.5799957977
 30
0.0
 11
542.6133090703
 21
763.5377339716
 31
0.0
  0
LINE
  5
1F6
330
1F
100
AcDbEntity
  8
0
  6
Continuous
 62
     7
370
    25
100
AcDbLine
 10
544.113642741
 20
763.5799957977
 30
0.0
 11
544.113642741
 21
763.5377339716
 31
0.0
  0
LINE
  5
1F7
330
1F
100
AcDbEntity
  8
0
  6
Continuous
 62
     7
370
    25
100
AcDbLine
 10
488.5358363926
 20
765.166034425
 30
0.0
 11
487.7824671584
 21
765.8488188285
 31
0.0
  0
ARC
  5
1F8
330
1F
100
AcDbEntity
  8
0
  6
Continuous
 62
     7
370
    25
100
AcDbCircle
 10
561.7153098709
 20
774.6731543719
 30
0.0
 40
0.5015694569986348
100
AcDbArc
 50
4.5337765331
 51
175.4662234669
  0
LINE
  5
1F9
330
1F
100
AcDbEntity
  8
0
  6
Continuous
 62
     7
370
    25
100
AcDbLine
 10
562.2153098709
 20
774.7128018207
 30
0.0
 11
562.2153098709
 21
772.0376816539
 31
0.0
  0
LWPOLYLINE
  5
1FA
330
1F
100
AcDbEntity
  8
0
  6
Continuous
 62
     7
370
    25
100
AcDbPolyline
 90
       14
 70
   128
 43
0.0
 10
561.2153098709
 20
772.0376816539
 10
560.9669946884
 20
771.8126390044
 10
560.8326052644
 20
771.5186034756
 10
560.8326014497
 20
771.2003399226
 10
560.9669838251
 20
770.9063017477
 10
561.2152936128
 20
770.6812542088
 10
561.5397273825
 20
770.5594592214
 10
561.8908923593
 20
770.5594592214
 10
562.215326129
 20
770.6812542088
 10
562.4636359167
 20
770.9063017477
 10
562.5980182922
 20
771.2003399226
 10
562.5980144775
 20
771.5186034756
 10
562.4636250534
 20
771.8126390044
 10
562.2153098709
 20
772.0376816539
  0
LINE
  5
1FB
330
1F
100
AcDbEntity
  8
0
  6
Continuous
 62
     7
370
    25
100
AcDbLine
 10
561.2153098709
 20
774.7128018207
 30
0.0
 11
561.2153098709
 21
772.0376816539
 31
0.0
  0
LINE
  5
1FC
330
1F
100
AcDbEntity
  8
0
  6
Continuous
 62
     7
370
    25
100
AcDbLine
 10
561.4153098709
 20
774.7128018207
 30
0.0
 11
561.4153098709
 21
773.5346016976
 31
0.0
  0
LINE
  5
1FD
330
1F
100
AcDbEntity
  8
0
  6
Continuous
 62
     7
370
    25
100
AcDbLine
 10
561.4153098709
 20
773.5346016976
 30
0.0
 11
562.0153098709
 21
773.5346016976
 31
0.0
  0
LINE
  5
1FE
330
1F
100
AcDbEntity
  8
0
  6
Continuous
 62
     7
370
    25
100
AcDbLine
 10
562.0153098709
 20
773.5346016976
 30
0.0
 11
562.0153098709
 21
774.7128018207
 31
0.0
  0
ARC
  5
1FF
330
1F
100
AcDbEntity
  8
0
  6
Continuous
 62
     7
370
    25
100
AcDbCircle
 10
561.7153098709
 20
774.6890133514
 30
0.0
 40
0.300941674199274
100
AcDbArc
 50
4.5337765332
 51
175.4662234668
  0
ARC
  5
200
330
1F
100
AcDbEntity
  8
0
  6
Continuous
 62
     7
370
    25
100
AcDbCircle
 10
561.7153098709
 20
774.6467515253
 30
0.0
 40
0.300941674199265
100
AcDbArc
 50
4.5337765331
 51
175.4662234669
  0
LINE
  5
201
330
1F
100
AcDbEntity
  8
0
  6
Continuous
 62
     7
370
    25
100
AcDbLine
 10
564.2416638142
 20
774.6673425932
 30
0.0
 11
564.1371979188
 21
774.5768434397
 31
0.0
  0
SPLINE
  5
202
330
1F
100
AcDbEntity
  8
0
  6
Continuous
 62
     7
370
    25
100
AcDbSpline
210
0.0
220
0.0
230
1.0
 70
     8
 71
     3
 72
     9
 73
     5
 74
     0
 42
0.000000001
 43
0.00000001
 40
0.0
 40
0.0
 40
0.0
 40
0.0
 40
0.5600313447651316
 40
1.0
 40
1.0
 40
1.0
 40
1.0
 10
564.1371979187811
 20
774.5768434396833
 30
0.0
 10
564.0988773405026
 20
774.6093643942445
 30
0.0
 10
564.0304515664159
 20
774.6674342770558
 30
0.0
 10
563.9380660183107
 20
774.6771780971137
 30
0.0
 10
563.8974192729478
 20
774.6814650725213
 30
0.0
  0
SPLINE
  5
203
330
1F
100
AcDbEntity
  8
0
  6
Continuous
 62
     7
370
    25
100
AcDbSpline
210
0.0
220
0.0
230
1.0
 70
     8
 71
     3
 72
    11
 73
     7
 74
     0
 42
0.000000001
 43
0.00000001
 40
0.0
 40
0.0
 40
0.0
 40
0.0
 40
0.2795310747417133
 40
0.5591556304596241
 40
0.7794431211429607
 40
1.0
 40
1.0
 40
1.0
 40
1.0
 10
563.8974192729479
 20
774.6814650725212
 30
0.0
 10
563.8574874292729
 20
774.6772602310778
 30
0.0
 10
563.777610387888
 20
774.6688491420047
 30
0.0
 10
563.6902563603776
 20
774.6006987459917
 30
0.0
 10
563.638461445237
 20
774.5191281843814
 30
0.0
 10
563.6335460770537
 20
774.4623138759325
 30
0.0
 10
563.631086891137
 20
774.4338893628578
 30
0.0
  0
SPLINE
  5
204
330
1F
100
AcDbEntity
  8
0
  6
Continuous
 62
     7
370
    25
100
AcDbSpline
210
0.0
220
0.0
230
1.0
 70
     8
 71
     3
 72
    11
 73
     7
 74
     0
 42
0.000000001
 43
0.00000001
 40
0.0
 40
0.0
 40
0.0
 40
0.0
 40
0.2800461138057103
 40
0.5592298896853651
 40
0.7795269383225925
 40
0.9999999999999999
 40
0.9999999999999999
 40
0.9999999999999999
 40
0.9999999999999999
 10
563.6310868911371
 20
774.4338893628577
 30
0.0
 10
563.634870557661
 20
774.3971186739896
 30
0.0
 10
563.6424262397735
 20
774.3236905231757
 30
0.0
 10
563.7131109965358
 20
774.23895825124
 30
0.0
 10
563.8048045361712
 20
774.1909584636853
 30
0.0
 10
563.8683412865771
 20
774.185941165448
 30
0.0
 10
563.9001223478678
 20
774.1834315145486
 30
0.0
  0
SPLINE
  5
205
330
1F
100
AcDbEntity
  8
0
  6
Continuous
 62
     7
370
    25
100
AcDbSpline
210
0.0
220
0.0
230
1.0
 70
     8
 71
     3
 72
    11
 73
     7
 74
     0
 42
0.000000001
 43
0.00000001
 40
0.0
 40
0.0
 40
0.0
 40
0.0
 40
0.3394125555246201
 40
0.5593722069057165
 40
0.7796158776812055
 40
1.0
 40
1.0
 40
1.0
 40
1.0
 10
563.9001223478678
 20
774.1834315145486
 30
0.0
 10
563.93107937577
 20
774.1855715521639
 30
0.0
 10
563.9820984106726
 20
774.1890984622448
 30
0.0
 10
564.0464503268227
 20
774.2175112296658
 30
0.0
 10
564.094451036315
 20
774.2500570868665
 30
0.0
 10
564.1229459303457
 20
774.2753851027508
 30
0.0
 10
564.1371979187812
 20
774.2880531473866
 30
0.0
  0
LINE
  5
206
330
1F
100
AcDbEntity
  8
0
  6
Continuous
 62
     7
370
    25
100
AcDbLine
 10
564.1371979188
 20
774.2880531474
 30
0.0
 11
564.2384837261
 21
774.1916456097
 31
0.0
  0
SPLINE
  5
207
330
1F
100
AcDbEntity
  8
0
  6
Continuous
 62
     7
370
    25
100
AcDbSpline
210
0.0
220
0.0
230
1.0
 70
     8
 71
     3
 72
    11
 73
     7
 74
     0
 42
0.000000001
 43
0.00000001
 40
0.0
 40
0.0
 40
0.0
 40
0.0
 40
0.3400430427519346
 40
0.559974607534851
 40
0.7799161087527609
 40
1.0
 40
1.0
 40
1.0
 40
1.0
 10
564.2384837260728
 20
774.1916456096889
 30
0.0
 10
564.2066973526441
 20
774.1648897023659
 30
0.0
 10
564.154352326433
 20
774.1208287253172
 30
0.0
 10
564.0664555982746
 20
774.0776422383642
 30
0.0
 10
563.9847363042542
 20
774.0574615132559
 30
0.0
 10
563.9287570499515
 20
774.0553618663788
 30
0.0
 10
563.9007583654959
 20
774.0543117032225
 30
0.0
  0
SPLINE
  5
208
330
1F
100
AcDbEntity
  8
0
  6
Continuous
 62
     7
370
    25
100
AcDbSpline
210
0.0
220
0.0
230
1.0
 70
     8
 71
     3
 72
    11
 73
     7
 74
     0
 42
0.000000001
 43
0.00000001
 40
0.0
 40
0.0
 40
0.0
 40
0.0
 40
0.2798291760657552
 40
0.5591291317569229
 40
0.7793659331568308
 40
1.0
 40
1.0
 40
1.0
 40
1.0
 10
563.900758365496
 20
774.0543117032224
 30
0.0
 10
563.8388487049837
 20
774.059897636627
 30
0.0
 10
563.7151464691541
 20
774.0710589391706
 30
0.0
 10
563.5762291320318
 20
774.1735574367138
 30
0.0
 10
563.4990747424184
 20
774.3017170520535
 30
0.0
 10
563.4921063021553
 20
774.3896133824378
 30
0.0
 10
563.4886189424191
 20
774.4336011489931
 30
0.0
  0
SPLINE
  5
209
330
1F
100
AcDbEntity
  8
0
  6
Continuous
 62
     7
370
    25
100
AcDbSpline
210
0.0
220
0.0
230
1.0
 70
     8
 71
     3
 72
    11
 73
     7
 74
     0
 42
0.000000001
 43
0.00000001
 40
0.0
 40
0.0
 40
0.0
 40
0.0
 40
0.2798106127093984
 40
0.5590294310138127
 40
0.7795594624871555
 40
1.0
 40
1.0
 40
1.0
 40
1.0
 10
563.4886189424191
 20
774.4336011489931
 30
0.0
 10
563.4949136470909
 20
774.4893987531127
 30
0.0
 10
563.5074897432472
 20
774.6008759504244
 30
0.0
 10
563.6202871323314
 20
774.7252639956167
 30
0.0
 10
563.7586026695891
 20
774.7978360670967
 30
0.0
 10
563.8548636866433
 20
774.8063358532679
 30
0.0
 10
563.9029844271947
 20
774.8105848838474
 30
0.0
  0
SPLINE
  5
20A
330
1F
100
AcDbEntity
  8
0
  6
Continuous
 62
     7
370
    25
100
AcDbSpline
210
0.0
220
0.0
230
1.0
 70
     8
 71
     3
 72
    11
 73
     7
 74
     0
 42
0.000000001
 43
0.00000001
 40
0.0
 40
0.0
 40
0.0
 40
0.0
 40
0.3394606223742588
 40
0.5596662606903602
 40
0.7798302573033299
 40
1.0
 40
1.0
 40
1.0
 40
1.0
 10
563.9029844271947
 20
774.8105848838474
 30
0.0
 10
563.9467309951231
 20
774.8071980097696
 30
0.0
 10
564.0188556436883
 20
774.8016140950957
 30
0.0
 10
564.1114875311001
 20
774.7651761499773
 30
0.0
 10
564.1833252123103
 20
774.7234025567615
 30
0.0
 10
564.2222174444062
 20
774.6860294102574
 30
0.0
 10
564.2416638142139
 20
774.6673425931574
 30
0.0
  0
LINE
  5
20B
330
1F
100
AcDbEntity
  8
0
  6
Continuous
 62
     7
370
    25
100
AcDbLine
 10
563.9007583655
 20
774.0543117032
 30
0.0
 11
563.9007583655
 21
774.012049877
 31
0.0
  0
LINE
  5
20C
330
1F
100
AcDbEntity
  8
0
  6
Continuous
 62
     7
370
    25
100
AcDbLine
 10
564.2384837261
 20
774.1916456097
 30
0.0
 11
564.2384837261
 21
774.1493837835
 31
0.0
  0
LINE
  5
20D
330
1F
100
AcDbEntity
  8
0
  6
Continuous
 62
     7
370
    25
100
AcDbLine
 10
563.4886189424
 20
774.433601149
 30
0.0
 11
563.4886189424
 21
774.3913393228
 31
0.0
  0
LINE
  5
20E
330
1F
100
AcDbEntity
  8
0
  6
Continuous
 62
     7
370
    25
100
AcDbLine
 10
563.8974192729
 20
774.6814650725
 30
0.0
 11
563.8974192729
 21
774.6392032463
 31
0.0
  0
LINE
  5
20F
330
1F
100
AcDbEntity
  8
0
  6
Continuous
 62
     7
370
    25
100
AcDbLine
 10
564.1371979188
 20
774.5768434397
 30
0.0
 11
564.1371979188
 21
774.5345816135
 31
0.0
  0
LINE
  5
210
330
1F
100
AcDbEntity
  8
0
  6
Continuous
 62
     7
370
    25
100
AcDbLine
 10
564.2416638142
 20
774.6673425932
 30
0.0
 11
564.2416638142
 21
774.625080767
 31
0.0
  0
SPLINE
  5
211
330
1F
100
AcDbEntity
  8
0
  6
Continuous
 62
     7
370
    25
100
AcDbSpline
210
0.0
220
0.0
230
1.0
 70
     8
 71
     3
 72
    11
 73
     7
 74
     0
 42
0.000000001
 43
0.00000001
 40
0.0
 40
0.0
 40
0.0
 40
0.0
 40
0.5014091399367413
 40
0.7501510079777766
 40
0.875082896687786
 40
1.0
 40
1.0
 40
1.0
 40
1.0
 10
563.0143581775243
 20
774.8362136561293
 30
0.0
 10
563.014571020509
 20
774.8029747208757
 30
0.0
 10
563.0148894518394
 20
774.7532464275546
 30
0.0
 10
563.0426716682115
 20
774.6993704354692
 30
0.0
 10
563.0725050448301
 20
774.6786703816255
 30
0.0
 10
563.090770407587
 20
774.6768038744847
 30
0.0
 10
563.0999025485179
 20
774.6758706761416
 30
0.0
  0
SPLINE
  5
212
330
1F
100
AcDbEntity
  8
0
  6
Continuous
 62
     7
370
    25
100
AcDbSpline
210
0.0
220
0.0
230
1.0
 70
     8
 71
     3
 72
    10
 73
     6
 74
     0
 42
0.000000001
 43
0.00000001
 40
0.0
 40
0.0
 40
0.0
 40
0.0
 40
0.2802664530876453
 40
0.5604447731139827
 40
1.0
 40
1.0
 40
1.0
 40
1.0
 10
563.0999025485179
 20
774.6758706761416
 30
0.0
 10
563.1066217412423
 20
774.6763591323066
 30
0.0
 10
563.1200580137619
 20
774.6773358910359
 30
0.0
 10
563.1417438292834
 20
774.6880754847396
 30
0.0
 10
563.1517656409789
 20
774.7009564641854
 30
0.0
 10
563.1578861556226
 20
774.7088231279906
 30
0.0
  0
SPLINE
  5
213
330
1F
100
AcDbEntity
  8
0
  6
Continuous
 62
     7
370
    25
100
AcDbSpline
210
0.0
220
0.0
230
1.0
 70
     8
 71
     3
 72
     9
 73
     5
 74
     0
 42
0.000000001
 43
0.00000001
 40
0.0
 40
0.0
 40
0.0
 40
0.0
 40
0.5584174427361395
 40
1.0
 40
1.0
 40
1.0
 40
1.0
 10
563.1578861556227
 20
774.7088231279905
 30
0.0
 10
563.1671610801807
 20
774.7328961268265
 30
0.0
 10
563.1837703832726
 20
774.7760054514886
 30
0.0
 10
563.1839039136803
 20
774.8215694517858
 30
0.0
 10
563.183962878379
 20
774.8416897195561
 30
0.0
  0
SPLINE
  5
214
330
1F
100
AcDbEntity
  8
0
  6
Continuous
 62
     7
370
    25
100
AcDbSpline
210
0.0
220
0.0
230
1.0
 70
     8
 71
     3
 72
    11
 73
     7
 74
     0
 42
0.000000001
 43
0.00000001
 40
0.0
 40
0.0
 40
0.0
 40
0.0
 40
0.5014483264119414
 40
0.7503780223805574
 40
0.8752968351049294
 40
1.0
 40
1.0
 40
1.0
 40
1.0
 10
563.183962878379
 20
774.8416897195561
 30
0.0
 10
563.1837674522874
 20
774.8756454809994
 30
0.0
 10
563.1834750124958
 20
774.9264576101425
 30
0.0
 10
563.157183007218
 20
774.9819804243637
 30
0.0
 10
563.1279586342871
 20
775.0047773384214
 30
0.0
 10
563.109249189426
 20
775.0068550765404
 30
0.0
 10
563.0999025485178
 20
775.0078930481235
 30
0.0
  0
SPLINE
  5
215
330
1F
100
AcDbEntity
  8
0
  6
Continuous
 62
     7
370
    25
100
AcDbSpline
210
0.0
220
0.0
230
1.0
 70
     8
 71
     3
 72
    11
 73
     7
 74
     0
 42
0.000000001
 43
0.00000001
 40
0.0
 40
0.0
 40
0.0
 40
0.0
 40
0.12489717120865
 40
0.2496621546947379
 40
0.4986293911261037
 40
1.0
 40
1.0
 40
1.0
 40
1.0
 10
563.0999025485179
 20
775.0078930481234
 30
0.0
 10
563.0902488472883
 20
775.0068856862971
 30
0.0
 10
563.0709516620402
 20
775.0048720288083
 30
0.0
 10
563.0389064833447
 20
774.9830432933888
 30
0.0
 10
563.0153290601482
 20
774.9232172601909
 30
0.0
 10
563.0147470636189
 20
774.8710628654615
 30
0.0
 10
563.0143581775243
 20
774.8362136561293
 30
0.0
  0
SPLINE
  5
216
330
1F
100
AcDbEntity
  8
0
  6
Continuous
 62
     7
370
    25
100
AcDbSpline
210
0.0
220
0.0
230
1.0
 70
     8
 71
     3
 72
    12
 73
     8
 74
     0
 42
0.000000001
 43
0.00000001
 40
0.0
 40
0.0
 40
0.0
 40
0.0
 40
0.1254137662521177
 40
0.2506426557620922
 40
0.3758476723909684
 40
0.5012859037337378
 40
1.0
 40
1.0
 40
1.0
 40
1.0
 10
563.0975704838812
 20
775.0939729223409
 30
0.0
 10
563.1132754847501
 20
775.0931021988498
 30
0.0
 10
563.1446623352064
 20
775.0913620354314
 30
0.0
 10
563.1886209018896
 20
775.0740891706495
 30
0.0
 10
563.2244394314915
 20
775.0457462440464
 30
0.0
 10
563.2740177465861
 20
774.9723486131775
 30
0.0
 10
563.2767546517649
 20
774.899721049611
 30
0.0
 10
563.2789415108576
 20
774.8416897195561
 30
0.0
  0
SPLINE
  5
217
330
1F
100
AcDbEntity
  8
0
  6
Continuous
 62
     7
370
    25
100
AcDbSpline
210
0.0
220
0.0
230
1.0
 70
     8
 71
     3
 72
    12
 73
     8
 74
     0
 42
0.000000001
 43
0.00000001
 40
0.0
 40
0.0
 40
0.0
 40
0.0
 40
0.4988087824720672
 40
0.6242586352266842
 40
0.7494299575300909
 40
0.8745754048761668
 40
1.0
 40
1.0
 40
1.0
 40
1.0
 10
563.2789415108575
 20
774.8416897195563
 30
0.0
 10
563.2766309292067
 20
774.784011984834
 30
0.0
 10
563.2737392388464
 20
774.7118283641242
 30
0.0
 10
563.2258739110252
 20
774.6382044905512
 30
0.0
 10
563.1913580918181
 20
774.6086963980861
 30
0.0
 10
563.1471530515507
 20
774.5921258815653
 30
0.0
 10
563.1159469790814
 20
774.5905697396782
 30
0.0
 10
563.1003265602701
 20
774.5897908019242
 30
0.0
  0
SPLINE
  5
218
330
1F
100
AcDbEntity
  8
0
  6
Continuous
 62
     7
370
    25
100
AcDbSpline
210
0.0
220
0.0
230
1.0
 70
     8
 71
     3
 72
    12
 73
     8
 74
     0
 42
0.000000001
 43
0.00000001
 40
0.0
 40
0.0
 40
0.0
 40
0.0
 40
0.1254733019663393
 40
0.2507360599832686
 40
0.3759944691001038
 40
0.5014447069554523
 40
1.0
 40
1.0
 40
1.0
 40
1.0
 10
563.1003265602701
 20
774.5897908019242
 30
0.0
 10
563.0848217214881
 20
774.5905735243754
 30
0.0
 10
563.0538380610124
 20
774.5921376558708
 30
0.0
 10
563.0098597275347
 20
774.608079864357
 30
0.0
 10
562.9744011736398
 20
774.6360884849013
 30
0.0
 10
562.9241888000444
 20
774.7078236662352
 30
0.0
 10
562.9215154467126
 20
774.7797267223872
 30
0.0
 10
562.9193795450457
 20
774.8371743690112
 30
0.0
  0
SPLINE
  5
219
330
1F
100
AcDbEntity
  8
0
  6
Continuous
 62
     7
370
    25
100
AcDbSpline
210
0.0
220
0.0
230
1.0
 70
     8
 71
     3
 72
     9
 73
     5
 74
     0
 42
0.000000001
 43
0.00000001
 40
0.0
 40
0.0
 40
0.0
 40
0.0
 40
0.5610959301099748
 40
1.0
 40
1.0
 40
1.0
 40
1.0
 10
562.9193795450457
 20
774.8371743690112
 30
0.0
 10
562.9197200035966
 20
774.8745786757921
 30
0.0
 10
562.9203267778264
 20
774.9412416201723
 30
0.0
 10
562.9498728557776
 20
775.002051023189
 30
0.0
 10
562.9628407496398
 20
775.0287405176605
 30
0.0
  0
SPLINE
  5
21A
330
1F
100
AcDbEntity
  8
0
  6
Continuous
 62
     7
370
    25
100
AcDbSpline
210
0.0
220
0.0
230
1.0
 70
     8
 71
     3
 72
     9
 73
     5
 74
     0
 42
0.000000001
 43
0.00000001
 40
0.0
 40
0.0
 40
0.0
 40
0.0
 40
0.5586890328634075
 40
1.0
 40
1.0
 40
1.0
 40
1.0
 10
562.9628407496398
 20
775.0287405176605
 30
0.0
 10
562.9830959977525
 20
775.0497467355129
 30
0.0
 10
563.0193509569896
 20
775.0873458588482
 30
0.0
 10
563.0736206660774
 20
775.091943800336
 30
0.0
 10
563.0975704838812
 20
775.0939729223409
 30
0.0
  0
LINE
  5
21B
330
1F
100
AcDbEntity
  8
0
  6
Continuous
 62
     7
370
    25
100
AcDbLine
 10
563.1003265603
 20
774.5897908019
 30
0.0
 11
563.1003265603
 21
774.5475289758
 31
0.0
  0
LINE
  5
21C
330
1F
100
AcDbEntity
  8
0
  6
Continuous
 62
     7
370
    25
100
AcDbLine
 10
563.2789415109
 20
774.8416897196
 30
0.0
 11
563.2789415109
 21
774.7994278934
 31
0.0
  0
LINE
  5
21D
330
1F
100
AcDbEntity
  8
0
  6
Continuous
 62
     7
370
    25
100
AcDbLine
 10
562.919379545
 20
774.837174369
 30
0.0
 11
562.919379545
 21
774.7949125428
 31
0.0
  0
LINE
  5
21E
330
1F
100
AcDbEntity
  8
0
  6
Continuous
 62
     7
370
    25
100
AcDbLine
 10
563.0999025485
 20
775.0078930481
 30
0.0
 11
563.0999025485
 21
774.9656312219
 31
0.0
  0
SPLINE
  5
21F
330
1F
100
AcDbEntity
  8
0
  6
Continuous
 62
     7
370
    25
100
AcDbSpline
210
0.0
220
0.0
230
1.0
 70
     8
 71
     3
 72
    11
 73
     7
 74
     0
 42
0.000000001
 43
0.00000001
 40
0.0
 40
0.0
 40
0.0
 40
0.0
 40
0.1248971712086369
 40
0.2496621546949876
 40
0.4986293911259718
 40
1.0
 40
1.0
 40
1.0
 40
1.0
 10
563.0999025485178
 20
774.9656312219494
 30
0.0
 10
563.0902488472883
 20
774.964623860123
 30
0.0
 10
563.0709516620402
 20
774.9626102026344
 30
0.0
 10
563.0389064833447
 20
774.9407814672145
 30
0.0
 10
563.0153290601485
 20
774.8809554340166
 30
0.0
 10
563.014747063619
 20
774.8288010392874
 30
0.0
 10
563.0143581775243
 20
774.7939518299553
 30
0.0
  0
SPLINE
  5
220
330
1F
100
AcDbEntity
  8
0
  6
Continuous
 62
     7
370
    25
100
AcDbSpline
210
0.0
220
0.0
230
1.0
 70
     8
 71
     3
 72
    11
 73
     7
 74
     0
 42
0.000000001
 43
0.00000001
 40
0.0
 40
0.0
 40
0.0
 40
0.0
 40
0.501448326411889
 40
0.7503780223805312
 40
0.8752968351049163
 40
1.0
 40
1.0
 40
1.0
 40
1.0
 10
563.183962878379
 20
774.7994278933821
 30
0.0
 10
563.1837674522875
 20
774.8333836548252
 30
0.0
 10
563.1834750124958
 20
774.8841957839683
 30
0.0
 10
563.157183007218
 20
774.9397185981895
 30
0.0
 10
563.127958634287
 20
774.9625155122474
 30
0.0
 10
563.109249189426
 20
774.9645932503663
 30
0.0
 10
563.0999025485179
 20
774.9656312219493
 30
0.0
  0
LWPOLYLINE
  5
221
330
1F
100
AcDbEntity
  8
0
  6
Continuous
 62
     7
370
    25
100
AcDbPolyline
 90
       17
 70
   128
 43
0.0
 10
564.2153098709
 20
779.4709177027
 10
564.0250087022
 20
780.3379901395
 10
563.4830768239
 20
781.0730586578
 10
562.6720184518
 20
781.5642157391
 10
561.7153098709
 20
781.7366871702
 10
560.75860129
 20
781.5642157391
 10
559.9475429179
 20
781.0730586578
 10
559.4056110396
 20
780.3379901395
 10
559.2153098709
 20
779.4709177027
 10
559.4056110396
 20
778.6038452658
 10
559.9475429179
 20
777.8687767475
 10
560.75860129
 20
777.3776196662
 10
561.7153098709
 20
777.2051482351
 10
562.6720184518
 20
777.3776196662
 10
563.4830768239
 20
777.8687767475
 10
564.0250087022
 20
778.6038452658
 10
564.2153098709
 20
779.4709177027
  0
LINE
  5
222
330
1F
100
AcDbEntity
  8
0
  6
Continuous
 62
     7
370
    25
100
AcDbLine
 10
561.5153098709
 20
779.4709177027
 30
0.0
 11
563.5226865929
 21
778.3340921692
 31
0.0
  0
LINE
  5
223
330
1F
100
AcDbEntity
  8
0
  6
Continuous
 62
     7
370
    25
100
AcDbLine
 10
561.5153098709
 20
781.4565385787
 30
0.0
 11
561.5153098709
 21
779.4709177027
 31
0.0
  0
LWPOLYLINE
  5
224
330
1F
100
AcDbEntity
  8
0
  6
Continuous
 62
     7
370
    25
100
AcDbPolyline
 90
       11
 70
   128
 43
0.0
 10
561.5153098709
 20
781.4565385787
 10
560.6750826502
 20
781.227829262
 10
560.0002738501
 20
780.7197333561
 10
559.5981925311
 20
780.0130489987
 10
559.5327782398
 20
779.2201541472
 10
559.8144332504
 20
778.4671360749
 10
560.3983683801
 20
777.8737407929
 10
561.1917254294
 20
777.5343308676
 10
562.0683436256
 20
777.5028797509
 10
562.8888218891
 20
777.7843888444
 10
563.5226865929
 20
778.3340921692
  0
LINE
  5
225
330
1F
100
AcDbEntity
  8
0
  6
Continuous
 62
     7
370
    25
100
AcDbLine
 10
561.9153098709
 20
781.4565385787
 30
0.0
 11
561.9153098709
 21
779.6718675466
 31
0.0
  0
LINE
  5
226
330
1F
100
AcDbEntity
  8
0
  6
Continuous
 62
     7
370
    25
100
AcDbLine
 10
561.9153098709
 20
779.6718675466
 30
0.0
 11
563.720084086
 21
778.6497806671
 31
0.0
  0
ARC
  5
227
330
1F
100
AcDbEntity
  8
0
  6
Continuous
 62
     7
370
    25
100
AcDbCircle
 10
561.8912325018
 20
779.4574334323
 30
0.0
 40
1.999250135931237
100
AcDbArc
 50
336.1729103873
 51
89.3099587913
  0
ARC
  5
228
330
1F
100
AcDbEntity
  8
0
  6
Continuous
 62
     7
370
    25
100
AcDbCircle
 10
561.5870571493
 20
779.3419578431
 30
0.0
 40
2.073560545138848
100
AcDbArc
 50
91.9828873375
 51
177.6036967512
  0
LINE
  5
229
330
1F
100
AcDbEntity
  8
0
  6
Continuous
 62
     7
370
    25
100
AcDbLine
 10
561.5153098709
 20
779.4286558765
 30
0.0
 11
563.4998106528
 21
778.304785536
 31
0.0
  0
LINE
  5
22A
330
1F
100
AcDbEntity
  8
0
  6
Continuous
 62
     7
370
    25
100
AcDbLine
 10
561.5153098709
 20
779.4709177027
 30
0.0
 11
561.5153098709
 21
779.4286558765
 31
0.0
  0
ARC
  5
22B
330
1F
100
AcDbEntity
  8
0
  6
Continuous
 62
     7
370
    25
100
AcDbCircle
 10
561.8312316465
 20
779.3295376009
 30
0.0
 40
2.086433914080313
100
AcDbArc
 50
2.722922161
 51
87.6904937504
  0
LINE
  5
22C
330
1F
100
AcDbEntity
  8
0
  6
Continuous
 62
     7
370
    25
100
AcDbLine
 10
561.7153098709
 20
788.7836167371
 30
0.0
 11
558.9653098709
 21
784.4667461174
 31
0.0
  0
LINE
  5
22D
330
1F
100
AcDbEntity
  8
0
  6
Continuous
 62
     7
370
    25
100
AcDbLine
 10
564.4653098709
 20
784.4667461174
 30
0.0
 11
561.7153098709
 21
788.7836167371
 31
0.0
  0
LINE
  5
22E
330
1F
100
AcDbEntity
  8
0
  6
Continuous
 62
     7
370
    25
100
AcDbLine
 10
558.9653098709
 20
784.4667461174
 30
0.0
 11
564.4653098709
 21
784.4667461174
 31
0.0
  0
LINE
  5
22F
330
1F
100
AcDbEntity
  8
0
  6
Continuous
 62
     7
370
    25
100
AcDbLine
 10
561.7153098709
 20
788.4210936223
 30
0.0
 11
559.3117200324
 21
784.6480076748
 31
0.0
  0
LINE
  5
230
330
1F
100
AcDbEntity
  8
0
  6
Continuous
 62
     7
370
    25
100
AcDbLine
 10
559.3117200324
 20
784.6480076748
 30
0.0
 11
564.1188997094
 21
784.6480076748
 31
0.0
  0
LINE
  5
231
330
1F
100
AcDbEntity
  8
0
  6
Continuous
 62
     7
370
    25
100
AcDbLine
 10
564.1188997094
 20
784.6480076748
 30
0.0
 11
561.7153098709
 21
788.4210936223
 31
0.0
  0
LINE
  5
232
330
1F
100
AcDbEntity
  8
0
  6
Continuous
 62
     7
370
    25
100
AcDbLine
 10
564.4653098709
 20
784.4667461174
 30
0.0
 11
564.4653098709
 21
784.4244842912
 31
0.0
  0
LINE
  5
233
330
1F
100
AcDbEntity
  8
0
  6
Continuous
 62
     7
370
    25
100
AcDbLine
 10
558.9653098709
 20
784.4667461174
 30
0.0
 11
558.9653098709
 21
784.4244842912
 31
0.0
  0
LINE
  5
234
330
1F
100
AcDbEntity
  8
0
  6
Continuous
 62
     7
370
    25
100
AcDbLine
 10
561.7153098709
 20
788.4210936223
 30
0.0
 11
561.7153098709
 21
788.3788317961
 31
0.0
  0
LINE
  5
235
330
1F
100
AcDbEntity
  8
0
  6
Continuous
 62
     7
370
    25
100
AcDbLine
 10
561.7153098709
 20
788.3788317961
 30
0.0
 11
559.3386423176
 21
784.6480076748
 31
0.0
  0
LINE
  5
236
330
1F
100
AcDbEntity
  8
0
  6
Continuous
 62
     7
370
    25
100
AcDbLine
 10
564.0919774242
 20
784.6480076748
 30
0.0
 11
561.7153098709
 21
788.3788317961
 31
0.0
  0
ARC
  5
237
330
1F
100
AcDbEntity
  8
0
  6
Continuous
 62
     7
370
    25
100
AcDbCircle
 10
561.7153098709
 20
785.1726791803
 30
0.0
 40
0.3507646795726859
100
AcDbArc
 50
183.7839760297
 51
356.2160239703
  0
LINE
  5
238
330
1F
100
AcDbEntity
  8
0
  6
Continuous
 62
     7
370
    25
100
AcDbLine
 10
561.3153098709
 20
786.9621460949
 30
0.0
 11
561.5153098709
 21
785.7839459718
 31
0.0
  0
ARC
  5
239
330
1F
100
AcDbEntity
  8
0
  6
Continuous
 62
     7
370
    25
100
AcDbCircle
 10
561.7153098709
 20
785.7998049513
 30
0.0
 40
0.20062778279951
100
AcDbArc
 50
184.5337765331
 51
355.4662234669
  0
LINE
  5
23A
330
1F
100
AcDbEntity
  8
0
  6
Continuous
 62
     7
370
    25
100
AcDbLine
 10
561.9153098709
 20
785.7839459718
 30
0.0
 11
562.1153098709
 21
786.9621460949
 31
0.0
  0
LWPOLYLINE
  5
23B
330
1F
100
AcDbEntity
  8
0
  6
Continuous
 62
     7
370
    25
100
AcDbPolyline
 90
       17
 70
   128
 43
0.0
 10
562.0653098709
 20
785.191792347
 10
562.0386677073
 20
785.3131824882
 10
561.9627972443
 20
785.4160920807
 10
561.8492490722
 20
785.4848540721
 10
561.7153098709
 20
785.5090000725
 10
561.5813706696
 20
785.4848540721
 10
561.4678224975
 20
785.4160920807
 10
561.3919520345
 20
785.3131824882
 10
561.3653098709
 20
785.191792347
 10
561.3919520345
 20
785.0704022059
 10
561.4678224975
 20
784.9674926133
 10
561.5813706696
 20
784.8987306219
 10
561.7153098709
 20
784.8745846215
 10
561.8492490722
 20
784.8987306219
 10
561.9627972443
 20
784.9674926133
 10
562.0386677073
 20
785.0704022059
 10
562.0653098709
 20
785.191792347
  0
LINE
  5
23C
330
1F
100
AcDbEntity
  8
0
  6
Continuous
 62
     7
370
    25
100
AcDbLine
 10
561.5153098709
 20
785.8262077979
 30
0.0
 11
561.5153098709
 21
785.7839459718
 31
0.0
  0
ARC
  5
23D
330
1F
100
AcDbEntity
  8
0
  6
Continuous
 62
     7
370
    25
100
AcDbCircle
 10
561.7153098709
 20
785.8420667774
 30
0.0
 40
0.20062778279951
100
AcDbArc
 50
184.5337765331
 51
355.4662234669
  0
LINE
  5
23E
330
1F
100
AcDbEntity
  8
0
  6
Continuous
 62
     7
370
    25
100
AcDbLine
 10
561.9153098709
 20
785.8262077979
 30
0.0
 11
561.9153098709
 21
785.7839459718
 31
0.0
  0
LINE
  5
23F
330
1F
100
AcDbEntity
  8
0
  6
Continuous
 62
     7
370
    25
100
AcDbLine
 10
561.3153098709
 20
787.0044079211
 30
0.0
 11
561.5153098709
 21
785.8262077979
 31
0.0
  0
ARC
  5
240
330
1F
100
AcDbEntity
  8
0
  6
Continuous
 62
     7
370
    25
100
AcDbCircle
 10
561.7153098709
 20
786.9726899621
 30
0.0
 40
0.4012555655990201
100
AcDbArc
 50
4.5337765331
 51
175.4662234669
  0
LINE
  5
241
330
1F
100
AcDbEntity
  8
0
  6
Continuous
 62
     7
370
    25
100
AcDbLine
 10
561.9153098709
 20
785.8262077979
 30
0.0
 11
562.1153098709
 21
787.0044079211
 31
0.0
  0
LINE
  5
242
330
1F
100
AcDbEntity
  8
0
  6
Continuous
 62
     7
370
    25
100
AcDbLine
 10
562.1153098709
 20
787.0044079211
 30
0.0
 11
562.1153098709
 21
786.9621460949
 31
0.0
  0
LINE
  5
243
330
1F
100
AcDbEntity
  8
0
  6
Continuous
 62
     7
370
    25
100
AcDbLine
 10
561.3153098709
 20
787.0044079211
 30
0.0
 11
561.3153098709
 21
786.9621460949
 31
0.0
  0
LINE
  5
244
330
1F
100
AcDbEntity
  8
0
  6
Continuous
 62
     7
370
    25
100
AcDbLine
 10
559.1153098709
 20
791.0716573767
 30
0.0
 11
564.3153098709
 21
791.0716573767
 31
0.0
  0
LINE
  5
245
330
1F
100
AcDbEntity
  8
0
  6
Continuous
 62
     7
370
    25
100
AcDbLine
 10
559.1153098709
 20
791.4341804915
 30
0.0
 11
559.1153098709
 21
791.0716573767
 31
0.0
  0
LINE
  5
246
330
1F
100
AcDbEntity
  8
0
  6
Continuous
 62
     7
370
    25
100
AcDbLine
 10
559.1153098709
 20
791.4341804915
 30
0.0
 11
564.3153098709
 21
791.4341804915
 31
0.0
  0
LINE
  5
247
330
1F
100
AcDbEntity
  8
0
  6
Continuous
 62
     7
370
    25
100
AcDbLine
 10
564.3153098709
 20
791.4341804915
 30
0.0
 11
564.3153098709
 21
791.0716573767
 31
0.0
  0
LINE
  5
248
330
1F
100
AcDbEntity
  8
0
  6
Continuous
 62
     7
370
    25
100
AcDbLine
 10
559.1153098709
 20
791.0716573767
 30
0.0
 11
559.1153098709
 21
791.0293955505
 31
0.0
  0
LINE
  5
249
330
1F
100
AcDbEntity
  8
0
  6
Continuous
 62
     7
370
    25
100
AcDbLine
 10
564.3153098709
 20
791.0716573767
 30
0.0
 11
564.3153098709
 21
791.0293955505
 31
0.0
  0
LINE
  5
24A
330
1F
100
AcDbEntity
  8
0
  6
Continuous
 62
     7
370
    25
100
AcDbLine
 10
560.8674728951
 20
794.091496497
 30
0.0
 11
561.8403543384
 21
792.6123806147
 31
0.0
  0
ARC
  5
24B
330
1F
100
AcDbEntity
  8
0
  6
Continuous
 62
     7
370
    25
100
AcDbCircle
 10
561.6370313216
 20
794.5563727252
 30
0.0
 40
0.8990717875726085
100
AcDbArc
 50
92.2904587206
 51
211.1354094604
  0
LINE
  5
24C
330
1F
100
AcDbEntity
  8
0
  6
Continuous
 62
     7
370
    25
100
AcDbLine
 10
561.6010995585
 20
795.4547262122
 30
0.0
 11
561.6637661753
 21
795.0051455725
 31
0.0
  0
ARC
  5
24D
330
1F
100
AcDbEntity
  8
0
  6
Continuous
 62
     7
370
    25
100
AcDbCircle
 10
561.6817320568
 20
794.555968829
 30
0.0
 40
0.4495358937860658
100
AcDbArc
 50
92.2904587205
 51
211.1354094604
  0
LINE
  5
24E
330
1F
100
AcDbEntity
  8
0
  6
Continuous
 62
     7
370
    25
100
AcDbLine
 10
561.2969528436
 20
794.3235307149
 30
0.0
 11
562.2698342869
 21
792.8444148325
 31
0.0
  0
ARC
  5
24F
330
1F
100
AcDbEntity
  8
0
  6
Continuous
 62
     7
370
    25
100
AcDbCircle
 10
561.4744194231
 20
792.3837672611
 30
0.0
 40
0.9191740806601005
100
AcDbArc
 50
260.2339381484
 51
30.0763633402
  0
LINE
  5
250
330
1F
100
AcDbEntity
  8
0
  6
Continuous
 62
     7
370
    25
100
AcDbLine
 10
561.3646890962
 20
791.929129873
 30
0.0
 11
561.3185038025
 21
791.4779133491
 31
0.0
  0
ARC
  5
251
330
1F
100
AcDbEntity
  8
0
  6
Continuous
 62
     7
370
    25
100
AcDbCircle
 10
561.4426469065
 20
792.3820568289
 30
0.0
 40
0.459587040329955
100
AcDbArc
 50
260.2339381483
 51
30.0763633403
  0
ARC
  5
252
330
1F
100
AcDbEntity
  8
0
  6
Continuous
 62
     7
370
    25
100
AcDbCircle
 10
559.9426469065
 20
792.3820568289
 30
0.0
 40
0.4595870403298566
100
AcDbArc
 50
260.2339381483
 51
30.0763633403
  0
LINE
  5
253
330
1F
100
AcDbEntity
  8
0
  6
Continuous
 62
     7
370
    25
100
AcDbLine
 10
559.3674728951
 20
794.091496497
 30
0.0
 11
560.3403543384
 21
792.6123806147
 31
0.0
  0
ARC
  5
254
330
1F
100
AcDbEntity
  8
0
  6
Continuous
 62
     7
370
    25
100
AcDbCircle
 10
560.1370313216
 20
794.5563727252
 30
0.0
 40
0.8990717875726366
100
AcDbArc
 50
92.2904587206
 51
211.1354094604
  0
LINE
  5
255
330
1F
100
AcDbEntity
  8
0
  6
Continuous
 62
     7
370
    25
100
AcDbLine
 10
560.1010995585
 20
795.4547262122
 30
0.0
 11
560.1637661753
 21
795.0051455725
 31
0.0
  0
ARC
  5
256
330
1F
100
AcDbEntity
  8
0
  6
Continuous
 62
     7
370
    25
100
AcDbCircle
 10
560.1817320568
 20
794.555968829
 30
0.0
 40
0.4495358937862605
100
AcDbArc
 50
92.2904587205
 51
211.1354094604
  0
LINE
  5
257
330
1F
100
AcDbEntity
  8
0
  6
Continuous
 62
     7
370
    25
100
AcDbLine
 10
559.7969528436
 20
794.3235307149
 30
0.0
 11
560.7698342869
 21
792.8444148325
 31
0.0
  0
ARC
  5
258
330
1F
100
AcDbEntity
  8
0
  6
Continuous
 62
     7
370
    25
100
AcDbCircle
 10
559.9744194231
 20
792.3837672611
 30
0.0
 40
0.9191740806601005
100
AcDbArc
 50
260.2339381484
 51
30.0763633402
  0
LINE
  5
259
330
1F
100
AcDbEntity
  8
0
  6
Continuous
 62
     7
370
    25
100
AcDbLine
 10
559.8646890962
 20
791.929129873
 30
0.0
 11
559.8185038025
 21
791.4779133491
 31
0.0
  0
LINE
  5
25A
330
1F
100
AcDbEntity
  8
0
  6
Continuous
 62
     7
370
    25
100
AcDbLine
 10
562.8185038025
 20
791.4779133491
 30
0.0
 11
562.8185038025
 21
791.4356515229
 31
0.0
  0
ARC
  5
25B
330
1F
100
AcDbEntity
  8
0
  6
Continuous
 62
     7
370
    25
100
AcDbCircle
 10
562.9744194231
 20
792.3837672611
 30
0.0
 40
0.9191740806601005
100
AcDbArc
 50
260.2339381484
 51
30.0763633402
  0
LINE
  5
25C
330
1F
100
AcDbEntity
  8
0
  6
Continuous
 62
     7
370
    25
100
AcDbLine
 10
561.3185038025
 20
791.4779133491
 30
0.0
 11
561.3185038025
 21
791.4356515229
 31
0.0
  0
LINE
  5
25D
330
1F
100
AcDbEntity
  8
0
  6
Continuous
 62
     7
370
    25
100
AcDbLine
 10
559.8185038025
 20
791.4779133491
 30
0.0
 11
559.8185038025
 21
791.4356515229
 31
0.0
  0
LINE
  5
25E
330
1F
100
AcDbEntity
  8
0
  6
Continuous
 62
     7
370
    25
100
AcDbLine
 10
562.3674728951
 20
794.091496497
 30
0.0
 11
563.3403543384
 21
792.6123806147
 31
0.0
  0
ARC
  5
25F
330
1F
100
AcDbEntity
  8
0
  6
Continuous
 62
     7
370
    25
100
AcDbCircle
 10
563.1370313216
 20
794.5563727252
 30
0.0
 40
0.8990717875726366
100
AcDbArc
 50
92.2904587206
 51
211.1354094604
  0
LINE
  5
260
330
1F
100
AcDbEntity
  8
0
  6
Continuous
 62
     7
370
    25
100
AcDbLine
 10
563.1010995585
 20
795.4547262122
 30
0.0
 11
563.1637661753
 21
795.0051455725
 31
0.0
  0
ARC
  5
261
330
1F
100
AcDbEntity
  8
0
  6
Continuous
 62
     7
370
    25
100
AcDbCircle
 10
563.1817320568
 20
794.555968829
 30
0.0
 40
0.4495358937862605
100
AcDbArc
 50
92.2904587205
 51
211.1354094604
  0
LINE
  5
262
330
1F
100
AcDbEntity
  8
0
  6
Continuous
 62
     7
370
    25
100
AcDbLine
 10
562.7969528436
 20
794.3235307149
 30
0.0
 11
563.7698342869
 21
792.8444148325
 31
0.0
  0
LINE
  5
263
330
1F
100
AcDbEntity
  8
0
  6
Continuous
 62
     7
370
    25
100
AcDbLine
 10
562.8646890962
 20
791.929129873
 30
0.0
 11
562.8185038025
 21
791.4779133491
 31
0.0
  0
ARC
  5
264
330
1F
100
AcDbEntity
  8
0
  6
Continuous
 62
     7
370
    25
100
AcDbCircle
 10
562.9426469065
 20
792.3820568289
 30
0.0
 40
0.4595870403300792
100
AcDbArc
 50
260.2339381483
 51
30.0763633402
  0
LINE
  5
265
330
1F
100
AcDbEntity
  8
0
  6
Continuous
 62
     7
370
    25
100
AcDbLine
 10
560.1637661753
 20
795.0051455725
 30
0.0
 11
560.1637661753
 21
794.9628837463
 31
0.0
  0
LINE
  5
266
330
1F
100
AcDbEntity
  8
0
  6
Continuous
 62
     7
370
    25
100
AcDbLine
 10
561.6637661753
 20
795.0051455725
 30
0.0
 11
561.6637661753
 21
794.9628837463
 31
0.0
  0
LINE
  5
267
330
1F
100
AcDbEntity
  8
0
  6
Continuous
 62
     7
370
    25
100
AcDbLine
 10
563.1637661753
 20
795.0051455725
 30
0.0
 11
563.1637661753
 21
794.9628837463
 31
0.0
  0
ELLIPSE
  5
268
330
1F
100
AcDbEntity
  8
0
  6
Continuous
 62
     7
370
    25
100
AcDbEllipse
 10
333.6653098709
 20
758.7321552437
 30
0.0
 11
0.9762960071199132
 21
0.9762960071200268
 31
0.0
210
0.0
220
0.0
230
1.0
 40
0.2216946626
 41
1.352630170295543
 42
2.923426497090328
  0
ELLIPSE
  5
269
330
1F
100
AcDbEntity
  8
0
  6
Continuous
 62
     7
370
    25
100
AcDbEllipse
 10
359.6653098709
 20
758.7321552437
 30
0.0
 11
0.9762960071199132
 21
-0.9762960071200268
 31
0.0
210
0.0
220
0.0
230
1.0
 40
0.2216946626
 41
0.2181661564994647
 42
1.78896248329425
  0
LINE
  5
26A
330
1F
100
AcDbEntity
  8
0
  6
Continuous
 62
     7
370
    25
100
AcDbLine
 10
332.6653098709
 20
804.0475445955
 30
0.0
 11
332.6653098709
 21
757.8258474566
 31
0.0
  0
ELLIPSE
  5
26B
330
1F
100
AcDbEntity
  8
0
  6
Continuous
 62
     7
370
    25
100
AcDbEllipse
 10
333.6653098709
 20
803.1412368085
 30
0.0
 11
-0.9762960071199132
 21
0.9762960071199132
 31
0.0
210
0.0
220
0.0
230
1.0
 40
0.2216946626
 41
4.930555136883982
 42
6.501351463679113
  0
ELLIPSE
  5
26C
330
1F
100
AcDbEntity
  8
0
  6
Continuous
 62
     7
370
    25
100
AcDbEllipse
 10
359.6653098709
 20
803.1412368085
 30
0.0
 11
0.9762960071199132
 21
0.9762960071199132
 31
0.0
210
0.0
220
0.0
230
1.0
 40
0.2216946626
 41
6.065019150680174
 42
7.635815477475141
  0
LINE
  5
26D
330
1F
100
AcDbEntity
  8
0
  6
Continuous
 62
     7
370
    25
100
AcDbLine
 10
360.6653098709
 20
757.8258474566
 30
0.0
 11
360.6653098709
 21
804.0475445955
 31
0.0
  0
LINE
  5
26E
330
1F
100
AcDbEntity
  8
0
  6
Continuous
 62
     7
370
    25
100
AcDbLine
 10
338.6653098709
 20
778.7086840503
 30
0.0
 11
338.6653098709
 21
778.0400949522
 31
0.0
  0
LINE
  5
26F
330
1F
100
AcDbEntity
  8
0
  6
Continuous
 62
     7
370
    25
100
AcDbLine
 10
338.6653098709
 20
778.0400949522
 30
0.0
 11
338.6653098709
 21
768.2178513758
 31
0.0
  0
LINE
  5
270
330
1F
100
AcDbEntity
  8
0
  6
Continuous
 62
     7
370
    25
100
AcDbLine
 10
338.6653098709
 20
768.2178513758
 30
0.0
 11
354.6653098709
 21
768.2178513758
 31
0.0
  0
LINE
  5
271
330
1F
100
AcDbEntity
  8
0
  6
Continuous
 62
     7
370
    25
100
AcDbLine
 10
354.6653098709
 20
768.2178513758
 30
0.0
 11
354.6653098709
 21
778.0400949522
 31
0.0
  0
LINE
  5
272
330
1F
100
AcDbEntity
  8
0
  6
Continuous
 62
     7
370
    25
100
AcDbLine
 10
354.6653098709
 20
778.0400949522
 30
0.0
 11
354.6653098709
 21
778.7086840503
 31
0.0
  0
LINE
  5
273
330
1F
100
AcDbEntity
  8
0
  6
Continuous
 62
     7
370
    25
100
AcDbLine
 10
354.6653098709
 20
782.9311094331
 30
0.0
 11
354.6653098709
 21
791.9765666883
 31
0.0
  0
LINE
  5
274
330
1F
100
AcDbEntity
  8
0
  6
Continuous
 62
     7
370
    25
100
AcDbLine
 10
338.6653098709
 20
791.9765666883
 30
0.0
 11
338.6653098709
 21
782.9311094331
 31
0.0
  0
LINE
  5
275
330
1F
100
AcDbEntity
  8
0
  6
Continuous
 62
     7
370
    25
100
AcDbLine
 10
346.0414831561
 20
789.9791171752
 30
0.0
 11
346.0414831561
 21
783.7813703281
 31
0.0
  0
LINE
  5
276
330
1F
100
AcDbEntity
  8
0
  6
Continuous
 62
     7
370
    25
100
AcDbLine
 10
346.0414831561
 20
783.7813703281
 30
0.0
 11
347.2891365857
 21
783.7813703281
 31
0.0
  0
LINE
  5
277
330
1F
100
AcDbEntity
  8
0
  6
Continuous
 62
     7
370
    25
100
AcDbLine
 10
347.2891365857
 20
783.7813703281
 30
0.0
 11
347.2891365857
 21
789.9791171752
 31
0.0
  0
LINE
  5
278
330
1F
100
AcDbEntity
  8
0
  6
Continuous
 62
     7
370
    25
100
AcDbLine
 10
347.2891365857
 20
789.9791171752
 30
0.0
 11
346.0414831561
 21
789.9791171752
 31
0.0
  0
LINE
  5
279
330
1F
100
AcDbEntity
  8
0
  6
Continuous
 62
     7
370
    25
100
AcDbLine
 10
360.6653098709
 20
757.8258474566
 30
0.0
 11
360.6653098709
 21
756.9806109332
 31
0.0
  0
LINE
  5
27A
330
1F
100
AcDbEntity
  8
0
  6
Continuous
 62
     7
370
    25
100
AcDbLine
 10
332.575489592
 20
756.9806109332
 30
0.0
 11
360.6653098709
 21
756.9806109332
 31
0.0
  0
ARC
  5
27B
330
1F
100
AcDbEntity
  8
0
  6
Continuous
 62
     7
370
    25
100
AcDbCircle
 10
332.4214931461
 20
757.1701969654
 30
0.0
 40
0.2442493991151606
100
AcDbArc
 50
309.086174987
 51
356.5891267333
  0
LINE
  5
27C
330
1F
100
AcDbEntity
  8
0
  6
Continuous
 62
     7
370
    25
100
AcDbLine
 10
332.6653098709
 20
757.1556651489
 30
0.0
 11
332.6653098709
 21
757.8258474566
 31
0.0
  0
LINE
  5
27D
330
1F
100
AcDbEntity
  8
0
  6
Continuous
 62
     7
370
    25
100
AcDbLine
 10
360.6653098709
 20
756.9806109332
 30
0.0
 11
363.6653098709
 21
752.9938327868
 31
0.0
  0
LINE
  5
27E
330
1F
100
AcDbEntity
  8
0
  6
Continuous
 62
     7
370
    25
100
AcDbLine
 10
329.6653098709
 20
752.9938327868
 30
0.0
 11
363.6653098709
 21
752.9938327868
 31
0.0
  0
LINE
  5
27F
330
1F
100
AcDbEntity
  8
0
  6
Continuous
 62
     7
370
    25
100
AcDbLine
 10
332.3724166521
 20
756.5913775052
 30
0.0
 11
329.6653098709
 21
752.9938327868
 31
0.0
  0
ELLIPSE
  5
280
330
1F
100
AcDbEntity
  8
0
  6
Continuous
 62
     7
370
    25
100
AcDbEllipse
 10
331.6653098709
 20
757.531070126
 30
0.0
 11
0.0
 21
1.328926048777362
 31
0.0
210
0.0
220
0.0
230
1.0
 40
0.7524873193
 41
3.926990816987281
 42
4.285310393992225
  0
LINE
  5
281
330
1F
100
AcDbEntity
  8
0
  6
Continuous
 62
     7
370
    25
100
AcDbLine
 10
363.6653098709
 20
804.6533766479
 30
0.0
 11
360.6653098709
 21
803.202308072
 31
0.0
  0
LINE
  5
282
330
1F
100
AcDbEntity
  8
0
  6
Continuous
 62
     7
370
    25
100
AcDbLine
 10
363.6653098709
 20
752.9938327868
 30
0.0
 11
363.6653098709
 21
804.6533766479
 31
0.0
  0
LINE
  5
283
330
1F
100
AcDbEntity
  8
0
  6
Continuous
 62
     7
370
    25
100
AcDbLine
 10
329.6653098709
 20
804.6533766479
 30
0.0
 11
329.6653098709
 21
752.9938327868
 31
0.0
  0
LINE
  5
284
330
1F
100
AcDbEntity
  8
0
  6
Continuous
 62
     7
370
    25
100
AcDbLine
 10
332.3724166521
 20
803.343977454
 30
0.0
 11
329.6653098709
 21
804.6533766479
 31
0.0
  0
ELLIPSE
  5
285
330
1F
100
AcDbEntity
  8
0
  6
Continuous
 62
     7
370
    25
100
AcDbEllipse
 10
331.6653098709
 20
803.0019573107
 30
0.0
 11
1.0
 21
0.0
 31
0.0
210
0.0
220
0.0
230
1.0
 40
0.4836895253
 41
0.4270785863923107
 42
0.7853981633973884
  0
ARC
  5
286
330
1F
100
AcDbEntity
  8
0
  6
Continuous
 62
     7
370
    25
100
AcDbCircle
 10
332.4214931461
 20
803.3918941043
 30
0.0
 40
0.2442493991148328
100
AcDbArc
 50
309.0861749869
 51
356.5891267333
  0
LINE
  5
287
330
1F
100
AcDbEntity
  8
0
  6
Continuous
 62
     7
370
    25
100
AcDbLine
 10
346.0414831561
 20
783.8815790319
 30
0.0
 11
347.2891365857
 21
783.8815790319
 31
0.0
  0
LINE
  5
288
330
1F
100
AcDbEntity
  8
0
  6
Continuous
 62
     7
370
    25
100
AcDbLine
 10
354.6653098709
 20
791.9765666883
 30
0.0
 11
354.6653098709
 21
792.24397637
 31
0.0
  0
LINE
  5
289
330
1F
100
AcDbEntity
  8
0
  6
Continuous
 62
     7
370
    25
100
AcDbLine
 10
338.6653098709
 20
792.24397637
 30
0.0
 11
338.6653098709
 21
791.9765666883
 31
0.0
  0
SPLINE
  5
28A
330
1F
100
AcDbEntity
  8
0
  6
Continuous
 62
     7
370
    25
100
AcDbSpline
210
0.0
220
0.0
230
1.0
 70
    24
 71
     3
 72
    10
 73
     6
 74
     0
 42
0.000000001
 43
0.00000001
 40
0.0
 40
0.0
 40
0.0
 40
0.0
 40
0.2107449904732335
 40
0.610601661435063
 40
1.0
 40
1.0
 40
1.0
 40
1.0
 10
338.6653098709122
 20
794.5170796779056
 30
0.0
 10
338.6653098709122
 20
794.5328404747482
 30
0.0
 10
338.6653098709124
 20
794.5785049942984
 30
0.0
 10
338.6653098709119
 20
793.8511029945786
 30
0.0
 10
338.6653098709122
 20
792.7749318358346
 30
0.0
 10
338.665309870912
 20
792.2439763700243
 30
0.0
  0
SPLINE
  5
28B
330
1F
100
AcDbEntity
  8
0
  6
Continuous
 62
     7
370
    25
100
AcDbSpline
210
0.0
220
0.0
230
1.0
 70
    24
 71
     3
 72
    10
 73
     6
 74
     0
 42
0.000000001
 43
0.00000001
 40
0.0
 40
0.0
 40
0.0
 40
0.0
 40
0.3893983385649407
 40
0.7892550095267744
 40
1.0
 40
1.0
 40
1.0
 40
1.0
 10
354.6653098709122
 20
792.2439763700241
 30
0.0
 10
354.6653098709122
 20
792.7749318358344
 30
0.0
 10
354.6653098709122
 20
793.8511029945786
 30
0.0
 10
354.665309870912
 20
794.5785049942987
 30
0.0
 10
354.665309870912
 20
794.5328404747482
 30
0.0
 10
354.6653098709122
 20
794.5170796779056
 30
0.0
  0
ELLIPSE
  5
28C
330
1F
100
AcDbEntity
  8
0
  6
Continuous
 62
     7
370
    25
100
AcDbEllipse
 10
353.8669633149
 20
768.9196731411
 30
0.0
 11
0.781036805695976
 21
-0.781036805695976
 31
0.0
210
0.0
220
0.0
230
1.0
 40
0.2216946626
 41
0.2824703918428234
 42
1.788962483294177
  0
ELLIPSE
  5
28D
330
1F
100
AcDbEntity
  8
0
  6
Continuous
 62
     7
370
    25
100
AcDbEllipse
 10
339.4636564269
 20
768.9196731411
 30
0.0
 11
0.781036805695976
 21
0.781036805695976
 31
0.0
210
0.0
220
0.0
230
1.0
 40
0.2216946626
 41
1.352630170295547
 42
2.859122261747058
  0
LINE
  5
28E
330
1F
100
AcDbEntity
  8
0
  6
Continuous
 62
     7
370
    25
100
AcDbLine
 10
363.6653098709
 20
752.1485962633
 30
0.0
 11
329.6653098709
 21
752.1485962633
 31
0.0
  0
LINE
  5
28F
330
1F
100
AcDbEntity
  8
0
  6
Continuous
 62
     7
370
    25
100
AcDbLine
 10
329.6653098709
 20
752.9938327868
 30
0.0
 11
329.6653098709
 21
752.1485962633
 31
0.0
  0
LINE
  5
290
330
1F
100
AcDbEntity
  8
0
  6
Continuous
 62
     7
370
    25
100
AcDbLine
 10
363.6653098709
 20
752.9938327868
 30
0.0
 11
363.6653098709
 21
752.1485962633
 31
0.0
  0
SPLINE
  5
291
330
1F
100
AcDbEntity
  8
0
  6
Continuous
 62
     7
370
    25
100
AcDbSpline
210
0.0
220
0.0
230
1.0
 70
    24
 71
     3
 72
    11
 73
     7
 74
     0
 42
0.000000001
 43
0.00000001
 40
0.0
 40
0.0
 40
0.0
 40
0.0
 40
0.2473419918816851
 40
0.500000000000011
 40
0.7526580081183243
 40
1.0
 40
1.0
 40
1.0
 40
1.0
 10
354.6653098709122
 20
778.7086840503456
 30
0.0
 10
354.665309870912
 20
779.0596525838146
 30
0.0
 10
354.665309870912
 20
779.7691328681751
 30
0.0
 10
354.665309870912
 20
780.8739905419272
 30
0.0
 10
354.6653098709122
 20
781.9562478508813
 30
0.0
 10
354.6653098709122
 20
782.6084670442419
 30
0.0
 10
354.6653098709122
 20
782.9311094331003
 30
0.0
  0
SPLINE
  5
292
330
1F
100
AcDbEntity
  8
0
  6
Continuous
 62
     7
370
    25
100
AcDbSpline
210
0.0
220
0.0
230
1.0
 70
    24
 71
     3
 72
    11
 73
     7
 74
     0
 42
0.000000001
 43
0.00000001
 40
0.0
 40
0.0
 40
0.0
 40
0.0
 40
0.247341991881675
 40
0.4999999999999905
 40
0.7526580081183156
 40
1.0
 40
1.0
 40
1.0
 40
1.0
 10
338.665309870912
 20
782.9311094331005
 30
0.0
 10
338.6653098709123
 20
782.6084670442419
 30
0.0
 10
338.6653098709123
 20
781.9562478508811
 30
0.0
 10
338.665309870912
 20
780.8739905419272
 30
0.0
 10
338.6653098709122
 20
779.769132868175
 30
0.0
 10
338.6653098709122
 20
779.0596525838145
 30
0.0
 10
338.6653098709122
 20
778.7086840503456
 30
0.0
  0
LINE
  5
293
330
1F
100
AcDbEntity
  8
0
  6
Continuous
 62
     7
370
    25
100
AcDbLine
 10
363.6653098709
 20
804.6533766479
 30
0.0
 11
329.6653098709
 21
804.6533766479
 31
0.0
  0
LWPOLYLINE
  5
294
330
1F
100
AcDbEntity
  8
0
  6
Continuous
 62
     7
370
    25
100
AcDbPolyline
 90
       19
 70
   128
 43
0.0
 10
550.8153098709
 20
773.1732023964
 10
550.9962320086
 20
774.103128954
 10
551.5171765416
 20
774.9208926446
 10
552.3153098709
 20
775.527859098
 10
553.2943653379
 20
775.8508192022
 10
554.3362544039
 20
775.8508192022
 10
555.3153098709
 20
775.527859098
 10
556.1134432003
 20
774.9208926446
 10
556.6343877333
 20
774.103128954
 10
556.8153098709
 20
773.1732023964
 10
556.6343877333
 20
772.2432758387
 10
556.1134432003
 20
771.4255121481
 10
555.3153098709
 20
770.8185456947
 10
554.3362544039
 20
770.4955855905
 10
553.2943653379
 20
770.4955855905
 10
552.3153098709
 20
770.8185456947
 10
551.5171765416
 20
771.4255121481
 10
550.9962320086
 20
772.2432758387
 10
550.8153098709
 20
773.1732023964
  0
LINE
  5
295
330
1F
100
AcDbEntity
  8
0
  6
Continuous
 62
     7
370
    25
100
AcDbLine
 10
494.9153098709
 20
776.6534242986
 30
0.0
 11
532.9153098709
 21
776.6534242986
 31
0.0
  0
LINE
  5
296
330
1F
100
AcDbEntity
  8
0
  6
Continuous
 62
     7
370
    25
100
AcDbLine
 10
532.9153098709
 20
776.6534242986
 30
0.0
 11
532.9153098709
 21
776.5012817244
 31
0.0
  0
LINE
  5
297
330
1F
100
AcDbEntity
  8
0
  6
Continuous
 62
     7
370
    25
100
AcDbLine
 10
494.9153098709
 20
776.5012817244
 30
0.0
 11
494.9153098709
 21
776.6534242986
 31
0.0
  0
LINE
  5
298
330
1F
100
AcDbEntity
  8
0
  6
Continuous
 62
     7
370
    25
100
AcDbLine
 10
532.9153098709
 20
796.5921956134
 30
0.0
 11
494.9153098709
 21
796.5921956134
 31
0.0
  0
LINE
  5
299
330
1F
100
AcDbEntity
  8
0
  6
Continuous
 62
     7
370
    25
100
AcDbLine
 10
532.9153098709
 20
776.6534242986
 30
0.0
 11
532.9153098709
 21
796.5921956134
 31
0.0
  0
LINE
  5
29A
330
1F
100
AcDbEntity
  8
0
  6
Continuous
 62
     7
370
    25
100
AcDbLine
 10
494.9153098709
 20
796.5921956134
 30
0.0
 11
494.9153098709
 21
776.6534242986
 31
0.0
  0
LWPOLYLINE
  5
29B
330
1F
100
AcDbEntity
  8
0
  6
Continuous
 62
     7
370
    25
100
AcDbPolyline
 90
       19
 70
   128
 43
0.0
 10
550.8153098709
 20
779.5989246064
 10
550.9962320086
 20
780.5288511641
 10
551.5171765416
 20
781.3466148547
 10
552.3153098709
 20
781.9535813081
 10
553.2943653379
 20
782.2765414123
 10
554.3362544039
 20
782.2765414123
 10
555.3153098709
 20
781.9535813081
 10
556.1134432003
 20
781.3466148547
 10
556.6343877333
 20
780.5288511641
 10
556.8153098709
 20
779.5989246064
 10
556.6343877333
 20
778.6689980488
 10
556.1134432003
 20
777.8512343582
 10
555.3153098709
 20
777.2442679048
 10
554.3362544039
 20
776.9213078006
 10
553.2943653379
 20
776.9213078006
 10
552.3153098709
 20
777.2442679048
 10
551.5171765416
 20
777.8512343582
 10
550.9962320086
 20
778.6689980488
 10
550.8153098709
 20
779.5989246064
  0
LWPOLYLINE
  5
29C
330
1F
100
AcDbEntity
  8
0
  6
Continuous
 62
     7
370
    25
100
AcDbPolyline
 90
       19
 70
   128
 43
0.0
 10
550.8153098709
 20
786.0246468165
 10
550.9962320086
 20
786.9545733742
 10
551.5171765416
 20
787.7723370647
 10
552.3153098709
 20
788.3793035182
 10
553.2943653379
 20
788.7022636224
 10
554.3362544039
 20
788.7022636224
 10
555.3153098709
 20
788.3793035182
 10
556.1134432003
 20
787.7723370647
 10
556.6343877333
 20
786.9545733742
 10
556.8153098709
 20
786.0246468165
 10
556.6343877333
 20
785.0947202589
 10
556.1134432003
 20
784.2769565683
 10
555.3153098709
 20
783.6699901149
 10
554.3362544039
 20
783.3470300107
 10
553.2943653379
 20
783.3470300107
 10
552.3153098709
 20
783.6699901149
 10
551.5171765416
 20
784.2769565683
 10
550.9962320086
 20
785.0947202589
 10
550.8153098709
 20
786.0246468165
  0
LWPOLYLINE
  5
29D
330
1F
100
AcDbEntity
  8
0
  6
Continuous
 62
     7
370
    25
100
AcDbPolyline
 90
       19
 70
   128
 43
0.0
 10
550.8153098709
 20
792.4503690266
 10
550.9962320086
 20
793.3802955843
 10
551.5171765416
 20
794.1980592748
 10
552.3153098709
 20
794.8050257283
 10
553.2943653379
 20
795.1279858325
 10
554.3362544039
 20
795.1279858325
 10
555.3153098709
 20
794.8050257283
 10
556.1134432003
 20
794.1980592748
 10
556.6343877333
 20
793.3802955843
 10
556.8153098709
 20
792.4503690266
 10
556.6343877333
 20
791.520442469
 10
556.1134432003
 20
790.7026787784
 10
555.3153098709
 20
790.095712325
 10
554.3362544039
 20
789.7727522208
 10
553.2943653379
 20
789.7727522208
 10
552.3153098709
 20
790.095712325
 10
551.5171765416
 20
790.7026787784
 10
550.9962320086
 20
791.520442469
 10
550.8153098709
 20
792.4503690266
  0
LINE
  5
29E
330
1F
100
AcDbEntity
  8
0
  6
Continuous
 62
     7
370
    25
100
AcDbLine
 10
291.9153098709
 20
711.6831673205
 30
0.0
 11
291.9153098709
 21
720.8117217741
 31
0.0
  0
LINE
  5
29F
330
1F
100
AcDbEntity
  8
0
  6
Continuous
 62
     7
370
    25
100
AcDbLine
 10
691.9153098709
 20
711.6831673205
 30
0.0
 11
691.9153098709
 21
720.8117217741
 31
0.0
  0
LINE
  5
2A0
330
1F
100
AcDbEntity
  8
0
  6
Continuous
 62
     7
370
    25
100
AcDbLine
 10
691.9153098709
 20
667.4831673205
 30
0.0
 11
691.9153098709
 21
711.6831673205
 31
0.0
  0
LINE
  5
2A1
330
1F
100
AcDbEntity
  8
0
  6
Continuous
 62
     7
370
    25
100
AcDbLine
 10
291.9153098709
 20
667.4831673205
 30
0.0
 11
291.9153098709
 21
711.6831673205
 31
0.0
  0
LWPOLYLINE
  5
2A2
330
1F
100
AcDbEntity
  8
0
  6
Continuous
 62
     7
370
    25
100
AcDbPolyline
 90
       24
 70
   128
 43
0.0
 10
487.2153098709
 20
758.5141257149
 10
488.5642937267
 20
758.6821674711
 10
489.8132296211
 20
759.1738298514
 10
490.8694896923
 20
759.9526485062
 10
491.6547359629
 20
760.9608620188
 10
492.1107303093
 20
762.1236958053
 10
492.2036537169
 20
763.3549078032
 10
491.9266144815
 20
764.5631846512
 10
491.300159336
 20
765.6589139829
 10
490.3707495925
 20
766.5608305663
 10
489.2073153201
 20
767.2020433746
 10
487.8961431164
 20
767.534996587
 10
486.5344766254
 20
767.534996587
 10
485.2233044217
 20
767.2020433746
 10
484.0598701493
 20
766.5608305663
 10
483.1304604059
 20
765.6589139829
 10
482.5040052603
 20
764.5631846512
 10
482.226966025
 20
763.3549078032
 10
482.3198894325
 20
762.1236958053
 10
482.7758837789
 20
760.9608620188
 10
483.5611300495
 20
759.9526485062
 10
484.6173901207
 20
759.1738298514
 10
485.8663260151
 20
758.6821674711
 10
487.2153098709
 20
758.5141257149
  0
LWPOLYLINE
  5
2A3
330
1F
100
AcDbEntity
  8
0
  6
Continuous
 62
     7
370
    25
100
AcDbPolyline
 90
       24
 70
   128
 43
0.0
 10
505.0153098709
 20
758.5141257149
 10
506.3642937267
 20
758.6821674711
 10
507.6132296211
 20
759.1738298514
 10
508.6694896923
 20
759.9526485062
 10
509.4547359629
 20
760.9608620188
 10
509.9107303093
 20
762.1236958053
 10
510.0036537169
 20
763.3549078032
 10
509.7266144815
 20
764.5631846512
 10
509.100159336
 20
765.6589139829
 10
508.1707495925
 20
766.5608305663
 10
507.0073153201
 20
767.2020433746
 10
505.6961431164
 20
767.534996587
 10
504.3344766254
 20
767.534996587
 10
503.0233044217
 20
767.2020433746
 10
501.8598701493
 20
766.5608305663
 10
500.9304604059
 20
765.6589139829
 10
500.3040052603
 20
764.5631846512
 10
500.026966025
 20
763.3549078032
 10
500.1198894325
 20
762.1236958053
 10
500.5758837789
 20
760.9608620188
 10
501.3611300495
 20
759.9526485062
 10
502.4173901207
 20
759.1738298514
 10
503.6663260151
 20
758.6821674711
 10
505.0153098709
 20
758.5141257149
  0
LWPOLYLINE
  5
2A4
330
1F
100
AcDbEntity
  8
0
  6
Continuous
 62
     7
370
    25
100
AcDbPolyline
 90
       24
 70
   128
 43
0.0
 10
522.8153098709
 20
758.5141257149
 10
524.1642937267
 20
758.6821674711
 10
525.4132296211
 20
759.1738298514
 10
526.4694896923
 20
759.9526485062
 10
527.2547359629
 20
760.9608620188
 10
527.7107303093
 20
762.1236958053
 10
527.8036537169
 20
763.3549078032
 10
527.5266144815
 20
764.5631846512
 10
526.900159336
 20
765.6589139829
 10
525.9707495925
 20
766.5608305663
 10
524.8073153201
 20
767.2020433746
 10
523.4961431164
 20
767.534996587
 10
522.1344766254
 20
767.534996587
 10
520.8233044217
 20
767.2020433746
 10
519.6598701493
 20
766.5608305663
 10
518.7304604059
 20
765.6589139829
 10
518.1040052603
 20
764.5631846512
 10
517.826966025
 20
763.3549078032
 10
517.9198894325
 20
762.1236958053
 10
518.3758837789
 20
760.9608620188
 10
519.1611300495
 20
759.9526485062
 10
520.2173901207
 20
759.1738298514
 10
521.4663260151
 20
758.6821674711
 10
522.8153098709
 20
758.5141257149
  0
LWPOLYLINE
  5
2A5
330
1F
100
AcDbEntity
  8
0
  6
Continuous
 62
     7
370
    25
100
AcDbPolyline
 90
       24
 70
   128
 43
0.0
 10
540.6153098709
 20
758.5141257149
 10
541.9642937267
 20
758.6821674711
 10
543.2132296211
 20
759.1738298514
 10
544.2694896923
 20
759.9526485062
 10
545.0547359629
 20
760.9608620188
 10
545.5107303093
 20
762.1236958053
 10
545.6036537169
 20
763.3549078032
 10
545.3266144815
 20
764.5631846512
 10
544.700159336
 20
765.6589139829
 10
543.7707495925
 20
766.5608305663
 10
542.6073153201
 20
767.2020433746
 10
541.2961431164
 20
767.534996587
 10
539.9344766254
 20
767.534996587
 10
538.6233044217
 20
767.2020433746
 10
537.4598701493
 20
766.5608305663
 10
536.5304604059
 20
765.6589139829
 10
535.9040052603
 20
764.5631846512
 10
535.626966025
 20
763.3549078032
 10
535.7198894325
 20
762.1236958053
 10
536.1758837789
 20
760.9608620188
 10
536.9611300495
 20
759.9526485062
 10
538.0173901207
 20
759.1738298514
 10
539.2663260151
 20
758.6821674711
 10
540.6153098709
 20
758.5141257149
  0
LINE
  5
2A6
330
1F
100
AcDbEntity
  8
0
  6
Continuous
 62
     7
370
    25
100
AcDbLine
 10
691.9153098709
 20
720.8117217741
 30
0.0
 11
691.9153098709
 21
840.7043905914
 31
0.0
  0
LINE
  5
2A7
330
1F
100
AcDbEntity
  8
0
  6
Continuous
 62
     7
370
    25
100
AcDbLine
 10
291.9153098709
 20
720.8117217741
 30
0.0
 11
291.9153098709
 21
840.7043905914
 31
0.0
  0
LINE
  5
2A8
330
1F
100
AcDbEntity
  8
0
  6
Continuous
 62
     7
370
    25
100
AcDbLine
 10
691.9153098709
 20
661.2474445473
 30
0.0
 11
691.9153098709
 21
667.4831673205
 31
0.0
  0
LINE
  5
2A9
330
1F
100
AcDbEntity
  8
0
  6
Continuous
 62
     7
370
    25
100
AcDbLine
 10
691.9153098709
 20
661.2474445473
 30
0.0
 11
291.9153098709
 21
661.2474445473
 31
0.0
  0
LINE
  5
2AA
330
1F
100
AcDbEntity
  8
0
  6
Continuous
 62
     7
370
    25
100
AcDbLine
 10
291.9153098709
 20
661.2474445473
 30
0.0
 11
291.9153098709
 21
667.4831673205
 31
0.0
  0
LINE
  5
2AB
330
1F
100
AcDbEntity
  8
0
  6
Continuous
 62
     7
370
    25
100
AcDbLine
 10
691.8965160657
 20
849.1017204965
 30
0.0
 11
691.9153098709
 21
848.9861191333
 31
0.0
  0
LINE
  5
2AC
330
1F
100
AcDbEntity
  8
0
  6
Continuous
 62
     7
370
    25
100
AcDbLine
 10
691.9153098709
 20
848.9861191333
 30
0.0
 11
691.9153098709
 21
848.2610729036
 31
0.0
  0
ARC
  5
2AD
330
1F
100
AcDbEntity
  8
0
  6
Continuous
 62
     7
370
    25
100
AcDbCircle
 10
691.2604119644
 20
848.1483590438
 30
0.0
 40
0.6645266602329013
100
AcDbArc
 50
9.7654500105
 51
62.7532552999
  0
LINE
  5
2AE
330
1F
100
AcDbEntity
  8
0
  6
Continuous
 62
     7
370
    25
100
AcDbLine
 10
291.9153098709
 20
848.2610729036
 30
0.0
 11
291.9153098709
 21
848.9861191333
 31
0.0
  0
LINE
  5
2AF
330
1F
100
AcDbEntity
  8
0
  6
Continuous
 62
     7
370
    25
100
AcDbLine
 10
291.9153098709
 20
848.9861191333
 30
0.0
 11
291.9340565501
 21
849.1015761519
 31
0.0
  0
ARC
  5
2B0
330
1F
100
AcDbEntity
  8
0
  6
Continuous
 62
     7
370
    25
100
AcDbCircle
 10
292.5702064593
 20
848.1483596846
 30
0.0
 40
0.6645252524776063
100
AcDbArc
 50
117.2469321389
 51
170.2345851653
  0
LINE
  5
2B1
330
1F
100
AcDbEntity
  8
0
  6
Continuous
 62
     7
370
    25
100
AcDbLine
 10
691.9153098709
 20
842.3655481524
 30
0.0
 11
691.9153098709
 21
848.2610729036
 31
0.0
  0
LINE
  5
2B2
330
1F
100
AcDbEntity
  8
0
  6
Continuous
 62
     7
370
    25
100
AcDbLine
 10
291.9153098709
 20
842.3655481524
 30
0.0
 11
291.9153098709
 21
848.2610729036
 31
0.0
  0
LWPOLYLINE
  5
2B3
330
1F
100
AcDbEntity
  8
0
  6
Continuous
 62
     7
370
    25
100
AcDbPolyline
 90
       20
 70
   128
 43
0.0
 10
302.9153098709
 20
845.197090506
 10
303.9705831458
 20
845.2715110312
 10
304.9115011872
 20
845.486707988
 10
305.6361009253
 20
845.8193614472
 10
306.0658607352
 20
846.2334232446
 10
306.1542094732
 20
846.6840233599
 10
305.8915731825
 20
847.1223322786
 10
305.3064125806
 20
847.5008524283
 10
304.4621388983
 20
847.7785652776
 10
303.4502422893
 20
847.92537633
 10
302.3803774525
 20
847.92537633
 10
301.3684808435
 20
847.7785652776
 10
300.5242071612
 20
847.5008524283
 10
299.9390465593
 20
847.1223322786
 10
299.6764102686
 20
846.6840233599
 10
299.7647590066
 20
846.2334232446
 10
300.1945188166
 20
845.8193614472
 10
300.9191185547
 20
845.486707988
 10
301.860036596
 20
845.2715110312
 10
302.9153098709
 20
845.197090506
  0
LWPOLYLINE
  5
2B4
330
1F
100
AcDbEntity
  8
0
  6
Continuous
 62
     7
370
    25
100
AcDbPolyline
 90
       20
 70
   128
 43
0.0
 10
680.9153098709
 20
847.9441092073
 10
679.860036596
 20
847.8696886822
 10
678.9191185547
 20
847.6544917253
 10
678.1945188166
 20
847.3218382662
 10
677.7647590066
 20
846.9077764687
 10
677.6764102686
 20
846.4571763535
 10
677.9390465593
 20
846.0188674348
 10
678.5242071612
 20
845.640347285
 10
679.3684808435
 20
845.3626344357
 10
680.3803774525
 20
845.2158233833
 10
681.4502422893
 20
845.2158233833
 10
682.4621388983
 20
845.3626344357
 10
683.3064125806
 20
845.640347285
 10
683.8915731825
 20
846.0188674348
 10
684.1542094732
 20
846.4571763535
 10
684.0658607352
 20
846.9077764687
 10
683.6361009253
 20
847.3218382662
 10
682.9115011872
 20
847.6544917253
 10
681.9705831458
 20
847.8696886822
 10
680.9153098709
 20
847.9441092073
  0
ARC
  5
2B5
330
1F
100
AcDbEntity
  8
0
  6
Continuous
 62
     7
370
    25
100
AcDbCircle
 10
303.3602163081
 20
849.9080585983
 30
0.0
 40
4.010675109353065
100
AcDbArc
 50
263.6310389373
 51
312.1189272774
  0
ARC
  5
2B6
330
1F
100
AcDbEntity
  8
0
  6
Continuous
 62
     7
370
    25
100
AcDbCircle
 10
302.4704034337
 20
849.9080585983
 30
0.0
 40
4.010675109353295
100
AcDbArc
 50
227.8810727226
 51
276.3689610627
  0
LWPOLYLINE
  5
2B7
330
1F
100
AcDbEntity
  8
0
  6
Continuous
 62
     7
370
    25
100
AcDbPolyline
 90
       10
 70
   128
 43
0.0
 10
677.7805571836
 20
846.9331229714
 10
677.9390465593
 20
846.7439136644
 10
678.5242071612
 20
846.3653935147
 10
679.3684808435
 20
846.0876806654
 10
680.3803774525
 20
845.940869613
 10
681.4502422893
 20
845.940869613
 10
682.4621388983
 20
846.0876806654
 10
683.3064125806
 20
846.3653935147
 10
683.8915731825
 20
846.7439136644
 10
684.0500625582
 20
846.9331229714
  0
LINE
  5
2B8
330
1F
100
AcDbEntity
  8
0
  6
Continuous
 62
     7
370
    25
100
AcDbLine
 10
691.9153098709
 20
840.7043905914
 30
0.0
 11
691.9153098709
 21
842.3655481524
 31
0.0
  0
LINE
  5
2B9
330
1F
100
AcDbEntity
  8
0
  6
Continuous
 62
     7
370
    25
100
AcDbLine
 10
291.9153098709
 20
840.7043905914
 30
0.0
 11
291.9153098709
 21
842.3655481524
 31
0.0
  0
SPLINE
  5
2BA
330
1F
100
AcDbEntity
  8
0
  6
Continuous
 62
     7
370
    25
100
AcDbSpline
210
0.0
220
0.0
230
1.0
 70
     8
 71
     3
 72
    11
 73
     7
 74
     0
 42
0.000000001
 43
0.00000001
 40
0.0
 40
0.0
 40
0.0
 40
0.0
 40
0.2832771686238338
 40
0.5580022489004978
 40
0.7754022428539378
 40
1.0
 40
1.0
 40
1.0
 40
1.0
 10
646.4176336665257
 20
727.6090301769008
 30
0.0
 10
646.1205180545277
 20
727.6437271121204
 30
0.0
 10
645.5352566990722
 20
727.7120734881325
 30
0.0
 10
644.885067713157
 20
728.1950799512507
 30
0.0
 10
644.4885297528065
 20
728.7845646769455
 30
0.0
 10
644.439980036025
 20
729.2033766921892
 30
0.0
 10
644.4153098709121
 20
729.4161927960166
 30
0.0
  0
SPLINE
  5
2BB
330
1F
100
AcDbEntity
  8
0
  6
Continuous
 62
     7
370
    25
100
AcDbSpline
210
0.0
220
0.0
230
1.0
 70
     8
 71
     3
 72
    11
 73
     7
 74
     0
 42
0.000000001
 43
0.00000001
 40
0.0
 40
0.0
 40
0.0
 40
0.0
 40
0.2832771686238276
 40
0.55800224890051
 40
0.7754022428539109
 40
1.0
 40
1.0
 40
1.0
 40
1.0
 10
646.4176336665257
 20
728.2852193956859
 30
0.0
 10
646.1205180545278
 20
728.3199163309054
 30
0.0
 10
645.5352566990722
 20
728.3882627069175
 30
0.0
 10
644.8850677131571
 20
728.8712691700359
 30
0.0
 10
644.4885297528064
 20
729.4607538957306
 30
0.0
 10
644.439980036025
 20
729.8795659109743
 30
0.0
 10
644.4153098709121
 20
730.0923820148018
 30
0.0
  0
SPLINE
  5
2BC
330
1F
100
AcDbEntity
  8
0
  6
Continuous
 62
     7
370
    25
100
AcDbSpline
210
0.0
220
0.0
230
1.0
 70
     8
 71
     3
 72
    11
 73
     7
 74
     0
 42
0.000000001
 43
0.00000001
 40
0.0
 40
0.0
 40
0.0
 40
0.0
 40
0.283304803162633
 40
0.5580362635661849
 40
0.7754301448953573
 40
1.0
 40
1.0
 40
1.0
 40
1.0
 10
682.41695512267
 20
782.6636866178847
 30
0.0
 10
682.7140744066289
 20
782.6283888133287
 30
0.0
 10
683.299321579296
 20
782.5588613829894
 30
0.0
 10
683.94845741468
 20
782.0744112414824
 30
0.0
 10
684.3436024135625
 20
781.4840385367069
 30
0.0
 10
684.3911500483443
 20
781.065083871904
 30
0.0
 10
684.4153098709121
 20
780.8522053467801
 30
0.0
  0
LINE
  5
2BD
330
1F
100
AcDbEntity
  8
0
  6
Continuous
 62
     7
370
    25
100
AcDbLine
 10
684.4153098709
 20
780.8522053468
 30
0.0
 11
684.4153098709
 21
730.0963438653
 31
0.0
  0
SPLINE
  5
2BE
330
1F
100
AcDbEntity
  8
0
  6
Continuous
 62
     7
370
    25
100
AcDbSpline
210
0.0
220
0.0
230
1.0
 70
     8
 71
     3
 72
    11
 73
     7
 74
     0
 42
0.000000001
 43
0.00000001
 40
0.0
 40
0.0
 40
0.0
 40
0.0
 40
0.2833229682742814
 40
0.5580462786215533
 40
0.7754268978867238
 40
1.0
 40
1.0
 40
1.0
 40
1.0
 10
684.4153098709121
 20
730.0963438652794
 30
0.0
 10
684.3763846095131
 20
729.8270674119927
 30
0.0
 10
684.2997155791116
 20
729.2966878116644
 30
0.0
 10
683.7653566139769
 20
728.7083361834169
 30
0.0
 10
683.1140437522904
 20
728.3501994922085
 30
0.0
 10
682.6518254241855
 20
728.3071131610039
 30
0.0
 10
682.41695512267
 20
728.2852193956859
 30
0.0
  0
LINE
  5
2BF
330
1F
100
AcDbEntity
  8
0
  6
Continuous
 62
     7
370
    25
100
AcDbLine
 10
682.4169551227
 20
728.2852193957
 30
0.0
 11
646.4176336665
 21
728.2852193957
 31
0.0
  0
LINE
  5
2C0
330
1F
100
AcDbEntity
  8
0
  6
Continuous
 62
     7
370
    25
100
AcDbLine
 10
644.4153098709
 20
730.0923820148
 30
0.0
 11
644.4153098709
 21
780.8561664152
 31
0.0
  0
SPLINE
  5
2C1
330
1F
100
AcDbEntity
  8
0
  6
Continuous
 62
     7
370
    25
100
AcDbSpline
210
0.0
220
0.0
230
1.0
 70
     8
 71
     3
 72
    11
 73
     7
 74
     0
 42
0.000000001
 43
0.00000001
 40
0.0
 40
0.0
 40
0.0
 40
0.0
 40
0.2833534124411323
 40
0.558111699096286
 40
0.7754835424211728
 40
1.0
 40
1.0
 40
1.0
 40
1.0
 10
644.4153098709121
 20
780.8561664151948
 30
0.0
 10
644.4548879929464
 20
781.1253838516702
 30
0.0
 10
644.5328436905514
 20
781.6556523937116
 30
0.0
 10
645.0685099109228
 20
782.2430393254863
 30
0.0
 10
645.7205358870956
 20
782.6000388587764
 30
0.0
 10
646.1827765139745
 20
782.6422432394783
 30
0.0
 10
646.4176336665257
 20
782.6636866178847
 30
0.0
  0
LINE
  5
2C2
330
1F
100
AcDbEntity
  8
0
  6
Continuous
 62
     7
370
    25
100
AcDbLine
 10
682.4169551227
 20
727.6090301769
 30
0.0
 11
646.4176336665
 21
727.6090301769
 31
0.0
  0
SPLINE
  5
2C3
330
1F
100
AcDbEntity
  8
0
  6
Continuous
 62
     7
370
    25
100
AcDbSpline
210
0.0
220
0.0
230
1.0
 70
     8
 71
     3
 72
    11
 73
     7
 74
     0
 42
0.000000001
 43
0.00000001
 40
0.0
 40
0.0
 40
0.0
 40
0.0
 40
0.2833229682742884
 40
0.558046278621554
 40
0.7754268978867241
 40
1.0
 40
1.0
 40
1.0
 40
1.0
 10
684.4153098709121
 20
729.4201546464943
 30
0.0
 10
684.3763846095131
 20
729.1508781932076
 30
0.0
 10
684.2997155791115
 20
728.6204985928795
 30
0.0
 10
683.7653566139771
 20
728.0321469646316
 30
0.0
 10
683.1140437522902
 20
727.6740102734236
 30
0.0
 10
682.6518254241856
 20
727.6309239422187
 30
0.0
 10
682.41695512267
 20
727.6090301769008
 30
0.0
  0
LINE
  5
2C4
330
1F
100
AcDbEntity
  8
0
  6
Continuous
 62
     7
370
    25
100
AcDbLine
 10
646.4176336665
 20
782.7224523883
 30
0.0
 11
682.4169551226
 21
782.7224523883
 31
0.0
  0
SPLINE
  5
2C5
330
1F
100
AcDbEntity
  8
0
  6
Continuous
 62
     7
370
    25
100
AcDbSpline
210
0.0
220
0.0
230
1.0
 70
     8
 71
     3
 72
    11
 73
     7
 74
     0
 42
0.000000001
 43
0.00000001
 40
0.0
 40
0.0
 40
0.0
 40
0.0
 40
0.283304803162633
 40
0.5580362635661849
 40
0.7754301448953573
 40
1.0
 40
1.0
 40
1.0
 40
1.0
 10
682.416955122647
 20
782.7224523882885
 30
0.0
 10
682.7140744066058
 20
782.6871545837324
 30
0.0
 10
683.2993215792729
 20
782.6176271533933
 30
0.0
 10
683.948457414657
 20
782.1331770118862
 30
0.0
 10
684.3436024135395
 20
781.5428043071107
 30
0.0
 10
684.3911500483215
 20
781.1238496423078
 30
0.0
 10
684.4153098708891
 20
780.910971117184
 30
0.0
  0
LINE
  5
2C6
330
1F
100
AcDbEntity
  8
0
  6
Continuous
 62
     7
370
    25
100
AcDbLine
 10
684.4153098709
 20
780.9109711172
 30
0.0
 11
684.4153098709
 21
780.8542053468
 31
0.0
  0
SPLINE
  5
2C7
330
1F
100
AcDbEntity
  8
0
  6
Continuous
 62
     7
370
    25
100
AcDbSpline
210
0.0
220
0.0
230
1.0
 70
     8
 71
     3
 72
    11
 73
     7
 74
     0
 42
0.000000001
 43
0.00000001
 40
0.0
 40
0.0
 40
0.0
 40
0.0
 40
0.2833229682742814
 40
0.5580462786215533
 40
0.7754268978867238
 40
1.0
 40
1.0
 40
1.0
 40
1.0
 10
684.4153098708891
 20
730.1551096356833
 30
0.0
 10
684.3763846094902
 20
729.8858331823965
 30
0.0
 10
684.2997155790887
 20
729.3554535820682
 30
0.0
 10
683.7653566139537
 20
728.7671019538209
 30
0.0
 10
683.1140437522673
 20
728.4089652626122
 30
0.0
 10
682.6518254241626
 20
728.3658789314078
 30
0.0
 10
682.416955122647
 20
728.3439851660897
 30
0.0
  0
SPLINE
  5
2C8
330
1F
100
AcDbEntity
  8
0
  6
Continuous
 62
     7
370
    25
100
AcDbSpline
210
0.0
220
0.0
230
1.0
 70
     8
 71
     3
 72
    11
 73
     7
 74
     0
 42
0.000000001
 43
0.00000001
 40
0.0
 40
0.0
 40
0.0
 40
0.0
 40
0.2832771686238276
 40
0.55800224890051
 40
0.7754022428539109
 40
1.0
 40
1.0
 40
1.0
 40
1.0
 10
646.4176336665028
 20
728.3439851660897
 30
0.0
 10
646.1205180545046
 20
728.3786821013092
 30
0.0
 10
645.5352566990491
 20
728.4470284773215
 30
0.0
 10
644.8850677131342
 20
728.9300349404398
 30
0.0
 10
644.4885297527833
 20
729.5195196661344
 30
0.0
 10
644.4399800360021
 20
729.9383316813781
 30
0.0
 10
644.4153098708891
 20
730.1511477852057
 30
0.0
  0
LINE
  5
2C9
330
1F
100
AcDbEntity
  8
0
  6
Continuous
 62
     7
370
    25
100
AcDbLine
 10
644.4153098709
 20
780.8581664152
 30
0.0
 11
644.4153098709
 21
780.9149321856
 31
0.0
  0
SPLINE
  5
2CA
330
1F
100
AcDbEntity
  8
0
  6
Continuous
 62
     7
370
    25
100
AcDbSpline
210
0.0
220
0.0
230
1.0
 70
     8
 71
     3
 72
    11
 73
     7
 74
     0
 42
0.000000001
 43
0.00000001
 40
0.0
 40
0.0
 40
0.0
 40
0.0
 40
0.2833534124411323
 40
0.558111699096286
 40
0.7754835424211728
 40
1.0
 40
1.0
 40
1.0
 40
1.0
 10
644.4153098708891
 20
780.9149321855987
 30
0.0
 10
644.4548879929234
 20
781.1841496220742
 30
0.0
 10
644.5328436905285
 20
781.7144181641156
 30
0.0
 10
645.0685099108998
 20
782.30180509589
 30
0.0
 10
645.7205358870725
 20
782.6588046291803
 30
0.0
 10
646.1827765139517
 20
782.7010090098821
 30
0.0
 10
646.4176336665028
 20
782.7224523882885
 30
0.0
  0
SPLINE
  5
2CB
330
1F
100
AcDbEntity
  8
0
  6
Continuous
 62
     7
370
    25
100
AcDbSpline
210
0.0
220
0.0
230
1.0
 70
     8
 71
     3
 72
    11
 73
     7
 74
     0
 42
0.000000001
 43
0.00000001
 40
0.0
 40
0.0
 40
0.0
 40
0.0
 40
0.2832771686238338
 40
0.5580022489004978
 40
0.7754022428539378
 40
1.0
 40
1.0
 40
1.0
 40
1.0
 10
646.4176336665028
 20
727.6677959473047
 30
0.0
 10
646.1205180545046
 20
727.7024928825242
 30
0.0
 10
645.5352566990491
 20
727.7708392585364
 30
0.0
 10
644.8850677131342
 20
728.2538457216546
 30
0.0
 10
644.4885297527834
 20
728.8433304473494
 30
0.0
 10
644.439980036002
 20
729.262142462593
 30
0.0
 10
644.4153098708891
 20
729.4749585664206
 30
0.0
  0
SPLINE
  5
2CC
330
1F
100
AcDbEntity
  8
0
  6
Continuous
 62
     7
370
    25
100
AcDbSpline
210
0.0
220
0.0
230
1.0
 70
     8
 71
     3
 72
    11
 73
     7
 74
     0
 42
0.000000001
 43
0.00000001
 40
0.0
 40
0.0
 40
0.0
 40
0.0
 40
0.2833229682742884
 40
0.558046278621554
 40
0.7754268978867241
 40
1.0
 40
1.0
 40
1.0
 40
1.0
 10
684.4153098708891
 20
729.4789204168982
 30
0.0
 10
684.3763846094902
 20
729.2096439636115
 30
0.0
 10
684.2997155790886
 20
728.6792643632833
 30
0.0
 10
683.7653566139539
 20
728.0909127350354
 30
0.0
 10
683.1140437522672
 20
727.7327760438275
 30
0.0
 10
682.6518254241626
 20
727.6896897126227
 30
0.0
 10
682.416955122647
 20
727.6677959473047
 30
0.0
  0
SPLINE
  5
2CD
330
1F
100
AcDbEntity
  8
0
  6
Continuous
 62
     7
370
    25
100
AcDbSpline
210
0.0
220
0.0
230
1.0
 70
     8
 71
     3
 72
    13
 73
     9
 74
     0
 42
0.000000001
 43
0.00000001
 40
0.0
 40
0.0
 40
0.0
 40
0.0
 40
0.1275872441294443
 40
0.2546759233236836
 40
0.5000487292309092
 40
0.7453982611490191
 40
0.87253975654249
 40
1.0
 40
1.0
 40
1.0
 40
1.0
 10
644.4153098709121
 20
730.0923820148018
 30
0.0
 10
644.4231550423955
 20
729.9716876460247
 30
0.0
 10
644.4388147292614
 20
729.7307705385347
 30
0.0
 10
644.601401074452
 20
729.2778488110371
 30
0.0
 10
644.9693767621968
 20
728.7817328694236
 30
0.0
 10
645.518375756339
 20
728.450248280243
 30
0.0
 10
646.0187631398137
 20
728.3050030877962
 30
0.0
 10
646.2845659005692
 20
728.2918194614597
 30
0.0
 10
646.4176336665257
 20
728.2852193956859
 30
0.0
  0
SPLINE
  5
2CE
330
1F
100
AcDbEntity
  8
0
  6
Continuous
 62
     7
370
    25
100
AcDbSpline
210
0.0
220
0.0
230
1.0
 70
     8
 71
     3
 72
    13
 73
     9
 74
     0
 42
0.000000001
 43
0.00000001
 40
0.0
 40
0.0
 40
0.0
 40
0.0
 40
0.1275744813590721
 40
0.2546483440425838
 40
0.5000017710081993
 40
0.7453551979738279
 40
0.8725131741728279
 40
1.0
 40
1.0
 40
1.0
 40
1.0
 10
682.41695512267
 20
728.2852193956859
 30
0.0
 10
682.5501448706395
 20
728.2920658825648
 30
0.0
 10
682.8160017128749
 20
728.3057319898273
 30
0.0
 10
683.3161065407213
 20
728.4521029679804
 30
0.0
 10
683.8643321157942
 20
728.7845646819582
 30
0.0
 10
684.2312698160571
 20
729.2814930133732
 30
0.0
 10
684.3926117167704
 20
729.7347828569721
 30
0.0
 10
684.4077373084423
 20
729.9757198134287
 30
0.0
 10
684.4153098709121
 20
730.0963438652794
 30
0.0
  0
SPLINE
  5
2CF
330
1F
100
AcDbEntity
  8
0
  6
Continuous
 62
     7
370
    25
100
AcDbSpline
210
0.0
220
0.0
230
1.0
 70
     8
 71
     3
 72
    13
 73
     9
 74
     0
 42
0.000000001
 43
0.00000001
 40
0.0
 40
0.0
 40
0.0
 40
0.0
 40
0.1275360740474236
 40
0.2545887198592432
 40
0.4999418984797991
 40
0.7453299828649674
 40
0.8725055605771157
 40
0.9999999999999999
 40
0.9999999999999999
 40
0.9999999999999999
 40
0.9999999999999999
 10
646.4176336665257
 20
782.6636866178847
 30
0.0
 10
646.2844711431164
 20
782.657100258174
 30
0.0
 10
646.0186508517114
 20
782.6439525044907
 30
0.0
 10
645.5182946730862
 20
782.4984981481741
 30
0.0
 10
644.9693748087344
 20
782.1669894247494
 30
0.0
 10
644.6013115782441
 20
781.670717947109
 30
0.0
 10
644.4388814112064
 20
781.2177027332403
 30
0.0
 10
644.4231736067059
 20
780.9767790713676
 30
0.0
 10
644.4153098709121
 20
780.8561664151948
 30
0.0
  0
SPLINE
  5
2D0
330
1F
100
AcDbEntity
  8
0
  6
Continuous
 62
     7
370
    25
100
AcDbSpline
210
0.0
220
0.0
230
1.0
 70
     8
 71
     3
 72
    13
 73
     9
 74
     0
 42
0.000000001
 43
0.00000001
 40
0.0
 40
0.0
 40
0.0
 40
0.0
 40
0.1275693177285146
 40
0.254645982916575
 40
0.5000146894810343
 40
0.7453717616663876
 40
0.8725249485133827
 40
0.9999999999999999
 40
0.9999999999999999
 40
0.9999999999999999
 40
0.9999999999999999
 10
684.4153098709121
 20
780.8522053467801
 30
0.0
 10
684.4077550816709
 20
780.972921406861
 30
0.0
 10
684.3926746785899
 20
781.2138873406805
 30
0.0
 10
684.23116781808
 20
781.66718843422
 30
0.0
 10
683.8643562449397
 20
782.1641378799497
 30
0.0
 10
683.3160614338864
 20
782.4968169327467
 30
0.0
 10
682.815897859497
 20
782.6431057014883
 30
0.0
 10
682.5500480513941
 20
782.656820533642
 30
0.0
 10
682.41695512267
 20
782.6636866178847
 30
0.0
  0
SPLINE
  5
2D1
330
1F
100
AcDbEntity
  8
0
  6
Continuous
 62
     7
370
    25
100
AcDbSpline
210
0.0
220
0.0
230
1.0
 70
     8
 71
     3
 72
    13
 73
     9
 74
     0
 42
0.000000001
 43
0.00000001
 40
0.0
 40
0.0
 40
0.0
 40
0.0
 40
0.1275872441294443
 40
0.2546759233236836
 40
0.5000487292309092
 40
0.7453982611490191
 40
0.87253975654249
 40
1.0
 40
1.0
 40
1.0
 40
1.0
 10
644.4153098708891
 20
730.1511477852057
 30
0.0
 10
644.4231550423724
 20
730.0304534164287
 30
0.0
 10
644.4388147292384
 20
729.7895363089385
 30
0.0
 10
644.6014010744292
 20
729.336614581441
 30
0.0
 10
644.9693767621739
 20
728.8404986398275
 30
0.0
 10
645.518375756316
 20
728.5090140506469
 30
0.0
 10
646.0187631397906
 20
728.3637688582
 30
0.0
 10
646.2845659005461
 20
728.3505852318634
 30
0.0
 10
646.4176336665028
 20
728.3439851660897
 30
0.0
  0
SPLINE
  5
2D2
330
1F
100
AcDbEntity
  8
0
  6
Continuous
 62
     7
370
    25
100
AcDbSpline
210
0.0
220
0.0
230
1.0
 70
     8
 71
     3
 72
    13
 73
     9
 74
     0
 42
0.000000001
 43
0.00000001
 40
0.0
 40
0.0
 40
0.0
 40
0.0
 40
0.1275744813590721
 40
0.2546483440425838
 40
0.5000017710081993
 40
0.7453551979738279
 40
0.8725131741728279
 40
1.0
 40
1.0
 40
1.0
 40
1.0
 10
682.416955122647
 20
728.3439851660897
 30
0.0
 10
682.5501448706166
 20
728.3508316529686
 30
0.0
 10
682.8160017128519
 20
728.3644977602312
 30
0.0
 10
683.3161065406986
 20
728.5108687383844
 30
0.0
 10
683.8643321157713
 20
728.843330452362
 30
0.0
 10
684.2312698160341
 20
729.340258783777
 30
0.0
 10
684.3926117167475
 20
729.7935486273759
 30
0.0
 10
684.4077373084192
 20
730.0344855838325
 30
0.0
 10
684.4153098708891
 20
730.1551096356833
 30
0.0
  0
LINE
  5
2D3
330
1F
100
AcDbEntity
  8
0
  6
Continuous
 62
     7
370
    25
100
AcDbLine
 10
646.953025379
 20
781.0141666285
 30
0.0
 11
646.953025379
 21
731.2356020588
 31
0.0
  0
SPLINE
  5
2D4
330
1F
100
AcDbEntity
  8
0
  6
Continuous
 62
     7
370
    25
100
AcDbSpline
210
0.0
220
0.0
230
1.0
 70
     8
 71
     3
 72
    13
 73
     9
 74
     0
 42
0.000000001
 43
0.00000001
 40
0.0
 40
0.0
 40
0.0
 40
0.0
 40
0.1275693177285146
 40
0.254645982916575
 40
0.5000146894810343
 40
0.7453717616663876
 40
0.8725249485133827
 40
0.9999999999999999
 40
0.9999999999999999
 40
0.9999999999999999
 40
0.9999999999999999
 10
684.4153098708891
 20
780.910971117184
 30
0.0
 10
684.4077550816478
 20
781.031687177265
 30
0.0
 10
684.392674678567
 20
781.2726531110843
 30
0.0
 10
684.2311678180571
 20
781.725954204624
 30
0.0
 10
683.8643562449167
 20
782.2229036503536
 30
0.0
 10
683.3160614338633
 20
782.5555827031505
 30
0.0
 10
682.8158978594741
 20
782.7018714718921
 30
0.0
 10
682.550048051371
 20
782.7155863040458
 30
0.0
 10
682.416955122647
 20
782.7224523882885
 30
0.0
  0
SPLINE
  5
2D5
330
1F
100
AcDbEntity
  8
0
  6
Continuous
 62
     7
370
    25
100
AcDbSpline
210
0.0
220
0.0
230
1.0
 70
     8
 71
     3
 72
    13
 73
     9
 74
     0
 42
0.000000001
 43
0.00000001
 40
0.0
 40
0.0
 40
0.0
 40
0.0
 40
0.1275360740474236
 40
0.2545887198592432
 40
0.4999418984797991
 40
0.7453299828649674
 40
0.8725055605771157
 40
0.9999999999999999
 40
0.9999999999999999
 40
0.9999999999999999
 40
0.9999999999999999
 10
646.4176336665028
 20
782.7224523882885
 30
0.0
 10
646.2844711430935
 20
782.7158660285778
 30
0.0
 10
646.0186508516884
 20
782.7027182748947
 30
0.0
 10
645.5182946730632
 20
782.5572639185781
 30
0.0
 10
644.9693748087114
 20
782.2257551951532
 30
0.0
 10
644.6013115782212
 20
781.7294837175127
 30
0.0
 10
644.4388814111833
 20
781.2764685036442
 30
0.0
 10
644.4231736066829
 20
781.0355448417714
 30
0.0
 10
644.4153098708891
 20
780.9149321855987
 30
0.0
  0
LINE
  5
2D6
330
1F
100
AcDbEntity
  8
0
  6
Continuous
 62
     7
370
    25
100
AcDbLine
 10
506.5579662365
 20
912.2874445473
 30
0.0
 11
506.9486923977
 21
912.2874445473
 31
0.0
  0
SPLINE
  5
2D7
330
1F
100
AcDbEntity
  8
0
  6
Continuous
 62
     7
370
    25
100
AcDbSpline
210
0.0
220
0.0
230
1.0
 70
    24
 71
     3
 72
    22
 73
    18
 74
     0
 42
0.000000001
 43
0.00000001
 40
0.0
 40
0.0
 40
0.0
 40
0.0
 40
0.0045664473792461
 40
0.0459430118515825
 40
0.091063576521357
 40
0.1631391946334443
 40
0.2407847977737212
 40
0.3232293980211332
 40
0.4090144622916451
 40
0.4961867088481411
 40
0.5826660782784499
 40
0.6664118023936481
 40
0.7457896589328292
 40
0.8197392458642673
 40
0.8881936175073336
 40
0.9521859887904836
 40
1.0
 40
1.0
 40
1.0
 40
1.0
 10
506.5575241632199
 20
912.2874445473287
 30
0.0
 10
506.5377403324283
 20
912.2874445473287
 30
0.0
 10
506.3386952768206
 20
912.2874445473286
 30
0.0
 10
505.8148839023639
 20
912.2874445473286
 30
0.0
 10
504.6473806899364
 20
912.2874445473288
 30
0.0
 10
502.8038066482417
 20
912.2874445473291
 30
0.0
 10
500.2509053672557
 20
912.2874445473284
 30
0.0
 10
497.3077570542031
 20
912.2874445473291
 30
0.0
 10
494.1122079912427
 20
912.2874445473288
 30
0.0
 10
490.8139197711919
 20
912.2874445473286
 30
0.0
 10
487.567409215794
 20
912.2874445473286
 30
0.0
 10
484.5237549791444
 20
912.2874445473287
 30
0.0
 10
481.8271257683377
 20
912.2874445473286
 30
0.0
 10
479.5960781896803
 20
912.2874445473286
 30
0.0
 10
477.9715952215217
 20
912.2874445473288
 30
0.0
 10
477.0093167969852
 20
912.2874445473284
 30
0.0
 10
476.9650055758996
 20
912.2874445473286
 30
0.0
 10
476.9460558775509
 20
912.2874445473287
 30
0.0
  0
SPLINE
  5
2D8
330
1F
100
AcDbEntity
  8
0
  6
Continuous
 62
     7
370
    25
100
AcDbSpline
210
0.0
220
0.0
230
1.0
 70
     8
 71
     3
 72
     9
 73
     5
 74
     0
 42
0.000000001
 43
0.00000001
 40
0.0
 40
0.0
 40
0.0
 40
0.0
 40
0.8267022067244493
 40
1.0
 40
1.0
 40
1.0
 40
1.0
 10
506.7282203391135
 20
930.8168079017718
 30
0.0
 10
506.5801000460713
 20
931.0287243276596
 30
0.0
 10
506.4009299751106
 20
931.2850638222976
 30
0.0
 10
506.5343987860372
 20
931.5272741908174
 30
0.0
 10
506.5575286364418
 20
931.5692487131906
 30
0.0
  0
SPLINE
  5
2D9
330
1F
100
AcDbEntity
  8
0
  6
Continuous
 62
     7
370
    25
100
AcDbSpline
210
0.0
220
0.0
230
1.0
 70
     8
 71
     3
 72
    22
 73
    18
 74
     0
 42
0.000000001
 43
0.00000001
 40
0.0
 40
0.0
 40
0.0
 40
0.0
 40
0.0127765905917058
 40
0.071321914037356
 40
0.1329922482646881
 40
0.1994303940734297
 40
0.2711150974811215
 40
0.3475368889369453
 40
0.4274376149598731
 40
0.5090710609567517
 40
0.590488106245504
 40
0.6697489756880945
 40
0.7452107250695251
 40
0.8157357676335146
 40
0.8810385279351789
 40
0.9418322949627645
 40
1.0
 40
1.0
 40
1.0
 40
1.0
 10
476.944987867668
 20
928.7818056456047
 30
0.0
 10
476.9256594059179
 20
928.6098579625453
 30
0.0
 10
476.8177634161768
 20
927.6500058187318
 30
0.0
 10
477.3716805685817
 20
925.8658568671713
 30
0.0
 10
478.5964704058413
 20
923.6584862561825
 30
0.0
 10
480.5272781717578
 20
921.7210567511964
 30
0.0
 10
482.973259275617
 20
920.1388452872769
 30
0.0
 10
485.8421228293036
 20
918.9721235794625
 30
0.0
 10
488.9940534393463
 20
918.2770820365521
 30
0.0
 10
492.2827620136996
 20
918.0774936803001
 30
0.0
 10
495.5539895602806
 20
918.3892818574336
 30
0.0
 10
498.6557486068981
 20
919.192646917591
 30
0.0
 10
501.4406709871658
 20
920.4559565981067
 30
0.0
 10
503.7852311702894
 20
922.1242210088827
 30
0.0
 10
505.5545864360159
 20
924.1279920323188
 30
0.0
 10
506.7236363194921
 20
926.3866764494443
 30
0.0
 10
506.8749319655997
 20
927.9990528612989
 30
0.0
 10
506.948909870912
 20
928.7874445473286
 30
0.0
  0
LINE
  5
2DA
330
1F
100
AcDbEntity
  8
0
  6
Continuous
 62
     7
370
    25
100
AcDbLine
 10
672.4153098709
 20
652.5874445473
 30
0.0
 11
672.4153098709
 21
661.2474445473
 31
0.0
  0
LINE
  5
2DB
330
1F
100
AcDbEntity
  8
0
  6
Continuous
 62
     7
370
    25
100
AcDbLine
 10
311.4153098709
 20
661.2474445473
 30
0.0
 11
311.4153098709
 21
661.1062103177
 31
0.0
  0
LINE
  5
2DC
330
1F
100
AcDbEntity
  8
0
  6
Continuous
 62
     7
370
    25
100
AcDbLine
 10
311.4153098709
 20
661.0312103177
 30
0.0
 11
311.4153098709
 21
660.700842007
 31
0.0
  0
LINE
  5
2DD
330
1F
100
AcDbEntity
  8
0
  6
Continuous
 62
     7
370
    25
100
AcDbLine
 10
291.9153098709
 20
911.2874445473
 30
0.0
 11
691.9153098709
 21
911.2874445473
 31
0.0
  0
LINE
  5
2DE
330
1F
100
AcDbEntity
  8
0
  6
Continuous
 62
     7
370
    25
100
AcDbLine
 10
291.9153098709
 20
911.2874445473
 30
0.0
 11
291.9153098709
 21
894.2160254064
 31
0.0
  0
LINE
  5
2DF
330
1F
100
AcDbEntity
  8
0
  6
Continuous
 62
     7
370
    25
100
AcDbLine
 10
691.9153098709
 20
911.2874445473
 30
0.0
 11
691.9153098709
 21
894.2160254064
 31
0.0
  0
LINE
  5
2E0
330
1F
100
AcDbEntity
  8
0
  6
Continuous
 62
     7
370
    25
100
AcDbLine
 10
291.9153098709
 20
894.2160254064
 30
0.0
 11
291.9153098709
 21
863.2202990898
 31
0.0
  0
LINE
  5
2E1
330
1F
100
AcDbEntity
  8
0
  6
Continuous
 62
     7
370
    25
100
AcDbLine
 10
691.9153098709
 20
894.2160254064
 30
0.0
 11
691.9153098709
 21
863.2202990898
 31
0.0
  0
LINE
  5
2E2
330
1F
100
AcDbEntity
  8
0
  6
Continuous
 62
     7
370
    25
100
AcDbLine
 10
691.9153098709
 20
863.2202990898
 30
0.0
 11
691.9153098709
 21
857.4160247862
 31
0.0
  0
LINE
  5
2E3
330
1F
100
AcDbEntity
  8
0
  6
Continuous
 62
     7
370
    25
100
AcDbLine
 10
291.9153098709
 20
863.2202990898
 30
0.0
 11
291.9153098709
 21
857.4160247862
 31
0.0
  0
LINE
  5
2E4
330
1F
100
AcDbEntity
  8
0
  6
Continuous
 62
     7
370
    25
100
AcDbLine
 10
691.9153098709
 20
857.4160247862
 30
0.0
 11
691.9153098709
 21
849.2172305085
 31
0.0
  0
LWPOLYLINE
  5
2E5
330
1F
100
AcDbEntity
  8
0
  6
Continuous
 62
     7
370
    25
100
AcDbPolyline
 90
        9
 70
   128
 43
0.0
 10
689.9153098709
 20
848.371993985
 10
690.3054905149
 20
848.3882349678
 10
690.6806767356
 20
848.4363337843
 10
691.026450337
 20
848.514442024
 10
691.3295234333
 20
848.619558031
 10
691.5782490955
 20
848.7476422562
 10
691.7630689359
 20
848.8937724945
 10
691.8768804317
 20
849.0523330429
 10
691.9153098709
 20
849.2172305085
  0
LINE
  5
2E6
330
1F
100
AcDbEntity
  8
0
  6
Continuous
 62
     7
370
    25
100
AcDbLine
 10
293.9153098709
 20
848.371993985
 30
0.0
 11
689.9153098709
 21
848.371993985
 31
0.0
  0
LWPOLYLINE
  5
2E7
330
1F
100
AcDbEntity
  8
0
  6
Continuous
 62
     7
370
    25
100
AcDbPolyline
 90
        9
 70
   128
 43
0.0
 10
291.9153098709
 20
849.2172305085
 10
291.9537393101
 20
849.0523330429
 10
292.0675508059
 20
848.8937724945
 10
292.2523706463
 20
848.7476422562
 10
292.5010963085
 20
848.619558031
 10
292.8041694049
 20
848.514442024
 10
293.1499430062
 20
848.4363337843
 10
293.5251292269
 20
848.3882349678
 10
293.9153098709
 20
848.371993985
  0
LINE
  5
2E8
330
1F
100
AcDbEntity
  8
0
  6
Continuous
 62
     7
370
    25
100
AcDbLine
 10
291.9153098709
 20
857.4160247862
 30
0.0
 11
291.9153098709
 21
849.2172305085
 31
0.0
  0
LINE
  5
2E9
330
1F
100
AcDbEntity
  8
0
  6
Continuous
 62
     7
370
    25
100
AcDbLine
 10
291.9153098709
 20
913.5374445473
 30
0.0
 11
291.9153098709
 21
911.2874445473
 31
0.0
  0
LINE
  5
2EA
330
1F
100
AcDbEntity
  8
0
  6
Continuous
 62
     7
370
    25
100
AcDbLine
 10
691.9153098709
 20
913.5374445473
 30
0.0
 11
691.9153098709
 21
911.2874445473
 31
0.0
  0
LINE
  5
2EB
330
1F
100
AcDbEntity
  8
0
  6
Continuous
 62
     7
370
    25
100
AcDbLine
 10
291.9153098709
 20
929.2874445473
 30
0.0
 11
291.9153098709
 21
925.0374445473
 31
0.0
  0
LINE
  5
2EC
330
1F
100
AcDbEntity
  8
0
  6
Continuous
 62
     7
370
    25
100
AcDbLine
 10
291.9153098709
 20
929.2874445473
 30
0.0
 11
476.9890962139
 21
929.2874445473
 31
0.0
  0
LINE
  5
2ED
330
1F
100
AcDbEntity
  8
0
  6
Continuous
 62
     7
370
    25
100
AcDbLine
 10
506.9489098709
 20
929.2874445473
 30
0.0
 11
691.9153098709
 21
929.2874445473
 31
0.0
  0
LINE
  5
2EE
330
1F
100
AcDbEntity
  8
0
  6
Continuous
 62
     7
370
    25
100
AcDbLine
 10
691.9153098709
 20
929.2874445473
 30
0.0
 11
691.9153098709
 21
925.0374445473
 31
0.0
  0
LINE
  5
2EF
330
1F
100
AcDbEntity
  8
0
  6
Continuous
 62
     7
370
    25
100
AcDbLine
 10
291.9153098709
 20
925.0374445473
 30
0.0
 11
291.9153098709
 21
913.5374445473
 31
0.0
  0
LINE
  5
2F0
330
1F
100
AcDbEntity
  8
0
  6
Continuous
 62
     7
370
    25
100
AcDbLine
 10
691.9153098709
 20
925.0374445473
 30
0.0
 11
691.9153098709
 21
913.5374445473
 31
0.0
  0
LINE
  5
2F1
330
1F
100
AcDbEntity
  8
0
  6
Continuous
 62
     7
370
    25
100
AcDbLine
 10
677.4472793045
 20
182.0545156151
 30
0.0
 11
689.1153098709
 21
182.0545156151
 31
0.0
  0
LINE
  5
2F2
330
1F
100
AcDbEntity
  8
0
  6
Continuous
 62
     7
370
    25
100
AcDbLine
 10
681.8210241566
 20
652.5874445473
 30
0.0
 11
689.1153098709
 21
661.0974445473
 31
0.0
  0
LINE
  5
2F3
330
1F
100
AcDbEntity
  8
0
  6
Continuous
 62
     7
370
    25
100
AcDbLine
 10
675.6153098709
 20
184.0474445473
 30
0.0
 11
675.6153098709
 21
184.0874445473
 31
0.0
  0
ARC
  5
2F4
330
1F
100
AcDbEntity
  8
0
  6
Continuous
 62
     7
370
    25
100
AcDbCircle
 10
677.6153098709
 20
184.0474445473
 30
0.0
 40
2.000000000000021
100
AcDbArc
 50
180.0
 51
265.180597798
  0
SPLINE
  5
2F5
330
1F
100
AcDbEntity
  8
0
  6
Continuous
 62
     7
370
    25
100
AcDbSpline
210
0.0
220
0.0
230
1.0
 70
     8
 71
     3
 72
    12
 73
     8
 74
     0
 42
0.000000001
 43
0.00000001
 40
0.0
 40
0.0
 40
0.0
 40
0.0
 40
0.2096821001528686
 40
0.4420453733186038
 40
0.6744332966681272
 40
0.9068208701180743
 40
1.0
 40
1.0
 40
1.0
 40
1.0
 10
691.4153098709122
 20
183.547444547329
 30
0.0
 10
691.3909699007437
 20
183.4431593394015
 30
0.0
 10
691.3396571220567
 20
183.2233084621147
 30
0.0
 10
690.9187265351281
 20
182.8873403322318
 30
0.0
 10
690.2669370572327
 20
182.540435063815
 30
0.0
 10
689.6174960181299
 20
182.2620584015822
 30
0.0
 10
689.2270561010238
 20
182.1006979403605
 30
0.0
 10
689.1153098709123
 20
182.0545156151408
 30
0.0
  0
LINE
  5
2F6
330
1F
100
AcDbEntity
  8
0
  6
Continuous
 62
     7
370
    25
100
AcDbLine
 10
689.1153098709
 20
661.0974445473
 30
0.0
 11
689.2806679427
 21
661.2474445473
 31
0.0
  0
LINE
  5
2F7
330
1F
100
AcDbEntity
  8
0
  6
Continuous
 62
     7
370
    25
100
AcDbLine
 10
691.4153098709
 20
661.2474445473
 30
0.0
 11
691.4153098709
 21
183.5474445473
 31
0.0
  0
LINE
  5
2F8
330
1F
100
AcDbEntity
  8
0
  6
Continuous
 62
     7
370
    25
100
AcDbLine
 10
689.1153098709
 20
661.0974445473
 30
0.0
 11
689.2226043555
 21
661.2474445473
 31
0.0
  0
LINE
  5
2F9
330
1F
100
AcDbEntity
  8
0
  6
Continuous
 62
     7
370
    25
100
AcDbLine
 10
689.1153098709
 20
181.2474445473
 30
0.0
 11
689.1153098709
 21
182.0474445473
 31
0.0
  0
SPLINE
  5
2FA
330
1F
100
AcDbEntity
  8
0
  6
Continuous
 62
     7
370
    25
100
AcDbSpline
210
0.0
220
0.0
230
1.0
 70
     8
 71
     3
 72
    10
 73
     6
 74
     0
 42
0.000000001
 43
0.00000001
 40
0.0
 40
0.0
 40
0.0
 40
0.0
 40
0.4887914049971341
 40
0.9780136746376011
 40
1.0
 40
1.0
 40
1.0
 40
1.0
 10
689.1153098709121
 20
182.047444547329
 30
0.0
 10
689.3108358738011
 20
182.0736850176355
 30
0.0
 10
689.7020602337584
 20
182.1261890889556
 30
0.0
 10
690.0894794068291
 20
182.3412482897662
 30
0.0
 10
690.200474604347
 20
182.5167659821274
 30
0.0
 10
690.2052483435803
 20
182.5243147384058
 30
0.0
  0
SPLINE
  5
2FB
330
1F
100
AcDbEntity
  8
0
  6
Continuous
 62
     7
370
    25
100
AcDbSpline
210
0.0
220
0.0
230
1.0
 70
     8
 71
     3
 72
    12
 73
     8
 74
     0
 42
0.000000001
 43
0.00000001
 40
0.0
 40
0.0
 40
0.0
 40
0.0
 40
0.2096821001528719
 40
0.4420453733186177
 40
0.6744332966681417
 40
0.906820870118069
 40
1.0
 40
1.0
 40
1.0
 40
1.0
 10
689.1153098709121
 20
181.2474445473291
 30
0.0
 10
689.3676408288875
 20
181.2717845174977
 30
0.0
 10
689.8995972163747
 20
181.3230972961845
 30
0.0
 10
690.6209786461897
 20
181.7440278831132
 30
0.0
 10
691.164337580176
 20
182.3958173610087
 30
0.0
 10
691.3929594203194
 20
183.0452584001113
 30
0.0
 10
691.4103364589437
 20
183.4356983172176
 30
0.0
 10
691.4153098709122
 20
183.547444547329
 30
0.0
  0
LINE
  5
2FC
330
1F
100
AcDbEntity
  8
0
  6
Continuous
 62
     7
370
    25
100
AcDbLine
 10
675.6153098709
 20
181.2474445473
 30
0.0
 11
677.4472793045
 21
181.2474445473
 31
0.0
  0
LINE
  5
2FD
330
1F
100
AcDbEntity
  8
0
  6
Continuous
 62
     7
370
    25
100
AcDbLine
 10
675.6153098709
 20
181.2474445473
 30
0.0
 11
675.6153098709
 21
182.0474445473
 31
0.0
  0
LINE
  5
2FE
330
1F
100
AcDbEntity
  8
0
  6
Continuous
 62
     7
370
    25
100
AcDbLine
 10
677.4472793045
 20
182.0474445473
 30
0.0
 11
677.4472793045
 21
181.2474445473
 31
0.0
  0
LINE
  5
2FF
330
1F
100
AcDbEntity
  8
0
  6
Continuous
 62
     7
370
    25
100
AcDbLine
 10
675.6619254545
 20
182.0474445473
 30
0.0
 11
677.4472793045
 21
182.0474445473
 31
0.0
  0
LINE
  5
300
330
1F
100
AcDbEntity
  8
0
  6
Continuous
 62
     7
370
    25
100
AcDbLine
 10
677.4472793045
 20
181.2474445473
 30
0.0
 11
689.1153098709
 21
181.2474445473
 31
0.0
  0
LINE
  5
301
330
1F
100
AcDbEntity
  8
0
  6
Continuous
 62
     7
370
    25
100
AcDbLine
 10
689.1153098709
 20
182.0474445473
 30
0.0
 11
677.4472793045
 21
182.0474445473
 31
0.0
  0
LINE
  5
302
330
1F
100
AcDbEntity
  8
0
  6
Continuous
 62
     7
370
    25
100
AcDbLine
 10
680.9153098709
 20
846.2364283948
 30
0.0
 11
683.7653098709
 21
846.9318248812
 31
0.0
  0
LINE
  5
303
330
1F
100
AcDbEntity
  8
0
  6
Continuous
 62
     7
370
    25
100
AcDbLine
 10
683.7653098709
 20
846.9318248812
 30
0.0
 11
683.7653098709
 21
847.230750685
 31
0.0
  0
LINE
  5
304
330
1F
100
AcDbEntity
  8
0
  6
Continuous
 62
     7
370
    25
100
AcDbLine
 10
678.0653098709
 20
847.230750685
 30
0.0
 11
678.0653098709
 21
846.9318248812
 31
0.0
  0
LINE
  5
305
330
1F
100
AcDbEntity
  8
0
  6
Continuous
 62
     7
370
    25
100
AcDbLine
 10
678.0653098709
 20
846.9318248812
 30
0.0
 11
680.9153098709
 21
846.2364283948
 31
0.0
  0
LINE
  5
306
330
1F
100
AcDbEntity
  8
0
  6
Continuous
 62
     7
370
    25
100
AcDbLine
 10
681.2056227529
 20
847.9386183967
 30
0.0
 11
680.9153098709
 21
847.8677824114
 31
0.0
  0
LINE
  5
307
330
1F
100
AcDbEntity
  8
0
  6
Continuous
 62
     7
370
    25
100
AcDbLine
 10
680.9153098709
 20
847.8677824114
 30
0.0
 11
680.6249969889
 21
847.9386183967
 31
0.0
  0
LINE
  5
308
330
1F
100
AcDbEntity
  8
0
  6
Continuous
 62
     7
370
    25
100
AcDbLine
 10
680.9153098709
 20
847.8677824114
 30
0.0
 11
680.9153098709
 21
846.2364283948
 31
0.0
  0
LINE
  5
309
330
1F
100
AcDbEntity
  8
0
  6
Continuous
 62
     7
370
    25
100
AcDbLine
 10
302.9153098709
 20
846.2764283948
 30
0.0
 11
305.7653098709
 21
846.9718248812
 31
0.0
  0
LINE
  5
30A
330
1F
100
AcDbEntity
  8
0
  6
Continuous
 62
     7
370
    25
100
AcDbLine
 10
305.7653098709
 20
846.9718248812
 30
0.0
 11
305.7653098709
 21
847.230750685
 31
0.0
  0
LINE
  5
30B
330
1F
100
AcDbEntity
  8
0
  6
Continuous
 62
     7
370
    25
100
AcDbLine
 10
300.0653098709
 20
847.230750685
 30
0.0
 11
300.0653098709
 21
846.9718248812
 31
0.0
  0
LINE
  5
30C
330
1F
100
AcDbEntity
  8
0
  6
Continuous
 62
     7
370
    25
100
AcDbLine
 10
300.0653098709
 20
846.9718248812
 30
0.0
 11
302.9153098709
 21
846.2764283948
 31
0.0
  0
LINE
  5
30D
330
1F
100
AcDbEntity
  8
0
  6
Continuous
 62
     7
370
    25
100
AcDbLine
 10
303.0587087889
 20
847.9427715706
 30
0.0
 11
302.9153098709
 21
847.9077824114
 31
0.0
  0
LINE
  5
30E
330
1F
100
AcDbEntity
  8
0
  6
Continuous
 62
     7
370
    25
100
AcDbLine
 10
302.9153098709
 20
847.9077824114
 30
0.0
 11
302.7719109529
 21
847.9427715706
 31
0.0
  0
LINE
  5
30F
330
1F
100
AcDbEntity
  8
0
  6
Continuous
 62
     7
370
    25
100
AcDbLine
 10
302.9153098709
 20
847.9077824114
 30
0.0
 11
302.9153098709
 21
846.2764283948
 31
0.0
  0
LINE
  5
310
330
1F
100
AcDbEntity
  8
0
  6
Continuous
 62
     7
370
    25
100
AcDbLine
 10
295.0895406198
 20
660.700842007
 30
0.0
 11
294.7153098709
 21
661.1374445473
 31
0.0
  0
LINE
  5
311
330
1F
100
AcDbEntity
  8
0
  6
Continuous
 62
     7
370
    25
100
AcDbLine
 10
294.7153098709
 20
182.0945156151
 30
0.0
 11
301.0653098709
 21
182.0945156151
 31
0.0
  0
SPLINE
  5
312
330
1F
100
AcDbEntity
  8
0
  6
Continuous
 62
     7
370
    25
100
AcDbSpline
210
0.0
220
0.0
230
1.0
 70
     8
 71
     3
 72
    12
 73
     8
 74
     0
 42
0.000000001
 43
0.00000001
 40
0.0
 40
0.0
 40
0.0
 40
0.0
 40
0.209682100152865
 40
0.4420453733185837
 40
0.6744332966681138
 40
0.9068208701180468
 40
1.0
 40
1.0
 40
1.0
 40
1.0
 10
294.7153098709118
 20
182.0945156151394
 30
0.0
 10
294.4629789129364
 20
182.198800823067
 30
0.0
 10
293.9310225254491
 20
182.4186517003537
 30
0.0
 10
293.2096410956349
 20
182.7546198302367
 30
0.0
 10
292.666282161648
 20
183.1015250986534
 30
0.0
 10
292.4376603215049
 20
183.3799017608862
 30
0.0
 10
292.4202832828804
 20
183.5412622221079
 30
0.0
 10
292.4153098709119
 20
183.5874445473276
 30
0.0
  0
LINE
  5
313
330
1F
100
AcDbEntity
  8
0
  6
Continuous
 62
     7
370
    25
100
AcDbLine
 10
292.4153098709
 20
183.5874445473
 30
0.0
 11
292.4153098709
 21
661.2474445473
 31
0.0
  0
SPLINE
  5
314
330
1F
100
AcDbEntity
  8
0
  6
Continuous
 62
     7
370
    25
100
AcDbSpline
210
0.0
220
0.0
230
1.0
 70
     8
 71
     3
 72
    12
 73
     8
 74
     0
 42
0.000000001
 43
0.00000001
 40
0.0
 40
0.0
 40
0.0
 40
0.0
 40
0.2096821001528717
 40
0.4420453733186016
 40
0.6744332966681297
 40
0.9068208701180783
 40
1.0
 40
1.0
 40
1.0
 40
1.0
 10
292.4153098709118
 20
183.5874445473276
 30
0.0
 10
292.4396498410804
 20
183.3351135893523
 30
0.0
 10
292.4909626197672
 20
182.8031572018651
 30
0.0
 10
292.9118932066955
 20
182.0817757720503
 30
0.0
 10
293.5636826845915
 20
181.5384168380639
 30
0.0
 10
294.2131237236943
 20
181.3097949979205
 30
0.0
 10
294.6035636408003
 20
181.2924179592962
 30
0.0
 10
294.7153098709118
 20
181.2874445473276
 30
0.0
  0
SPLINE
  5
315
330
1F
100
AcDbEntity
  8
0
  6
Continuous
 62
     7
370
    25
100
AcDbSpline
210
0.0
220
0.0
230
1.0
 70
     8
 71
     3
 72
    10
 73
     6
 74
     0
 42
0.000000001
 43
0.00000001
 40
0.0
 40
0.0
 40
0.0
 40
0.0
 40
0.0479363193171926
 40
0.5413754333036904
 40
1.0
 40
1.0
 40
1.0
 40
1.0
 10
293.6369938119191
 20
182.5597808081392
 30
0.0
 10
293.647648288377
 20
182.5436634821371
 30
0.0
 10
293.767976087659
 20
182.3616402381259
 30
0.0
 10
294.1546510408165
 20
182.1572315003599
 30
0.0
 10
294.5330357834268
 20
182.1101327714302
 30
0.0
 10
294.7153098709119
 20
182.0874445473276
 30
0.0
  0
LINE
  5
316
330
1F
100
AcDbEntity
  8
0
  6
Continuous
 62
     7
370
    25
100
AcDbLine
 10
294.7153098709
 20
181.2874445473
 30
0.0
 11
294.7153098709
 21
182.0874445473
 31
0.0
  0
LINE
  5
317
330
1F
100
AcDbEntity
  8
0
  6
Continuous
 62
     7
370
    25
100
AcDbLine
 10
294.7153098709
 20
182.0874445473
 30
0.0
 11
301.0653098709
 21
182.0874445473
 31
0.0
  0
LINE
  5
318
330
1F
100
AcDbEntity
  8
0
  6
Continuous
 62
     7
370
    25
100
AcDbLine
 10
301.0653098709
 20
181.2874445473
 30
0.0
 11
294.7153098709
 21
181.2874445473
 31
0.0
  0
LINE
  5
319
330
1F
100
AcDbEntity
  8
0
  6
Continuous
 62
     7
370
    25
100
AcDbLine
 10
673.1153098709
 20
652.5874445473
 30
0.0
 11
673.1153098709
 21
661.2474445473
 31
0.0
  0
LINE
  5
31A
330
1F
100
AcDbEntity
  8
0
  6
Continuous
 62
     7
370
    25
100
AcDbLine
 10
310.7153098709
 20
660.700842007
 30
0.0
 11
310.7153098709
 21
661.0312103177
 31
0.0
  0
LINE
  5
31B
330
1F
100
AcDbEntity
  8
0
  6
Continuous
 62
     7
370
    25
100
AcDbLine
 10
310.7153098709
 20
661.1062103177
 30
0.0
 11
310.7153098709
 21
661.2474445473
 31
0.0
  0
SPLINE
  5
31C
330
1F
100
AcDbEntity
  8
0
  6
Continuous
 62
     7
370
    25
100
AcDbSpline
210
0.0
220
0.0
230
1.0
 70
     8
 71
     3
 72
    13
 73
     9
 74
     0
 42
0.000000001
 43
0.00000001
 40
0.0
 40
0.0
 40
0.0
 40
0.0
 40
0.1695411050602371
 40
0.3386458383075445
 40
0.5184804584264122
 40
0.7277236211482244
 40
0.9924537768849105
 40
1.0
 40
1.0
 40
1.0
 40
1.0
 10
442.0778080876721
 20
169.93744454733
 30
0.0
 10
442.0758062912509
 20
169.9128334000434
 30
0.0
 10
442.0718078507142
 20
169.863674450645
 30
0.0
 10
442.0413968734036
 20
169.7975386572644
 30
0.0
 10
441.9953494226171
 20
169.7418670541601
 30
0.0
 10
441.9288198156487
 20
169.699148274888
 30
0.0
 10
441.8743258842945
 20
169.6875626152756
 30
0.0
 10
441.8436659301488
 20
169.6874477313725
 30
0.0
 10
441.8428161801422
 20
169.68744454733
 30
0.0
  0
LINE
  5
31D
330
1F
100
AcDbEntity
  8
0
  6
Continuous
 62
     7
370
    25
100
AcDbLine
 10
441.8428161801
 20
169.6874445473
 30
0.0
 11
438.5944263469
 21
169.6874445473
 31
0.0
  0
LINE
  5
31E
330
1F
100
AcDbEntity
  8
0
  6
Continuous
 62
     7
370
    25
100
AcDbLine
 10
432.1545280104
 20
169.6874445473
 30
0.0
 11
426.7033105791
 21
169.6874445473
 31
0.0
  0
SPLINE
  5
31F
330
1F
100
AcDbEntity
  8
0
  6
Continuous
 62
     7
370
    25
100
AcDbSpline
210
0.0
220
0.0
230
1.0
 70
     8
 71
     3
 72
    13
 73
     9
 74
     0
 42
0.000000001
 43
0.00000001
 40
0.0
 40
0.0
 40
0.0
 40
0.0
 40
0.1695411050600581
 40
0.3386458383077615
 40
0.5184804584270788
 40
0.7277236211487879
 40
0.9924537768853761
 40
1.0
 40
1.0
 40
1.0
 40
1.0
 10
426.6112775896898
 20
169.93744454733
 30
0.0
 10
426.6120521709753
 20
169.9128334000433
 30
0.0
 10
426.6135993398972
 20
169.8636744506448
 30
0.0
 10
426.6253899534603
 20
169.7975386572644
 30
0.0
 10
426.6433117377711
 20
169.7418670541602
 30
0.0
 10
426.6693428072149
 20
169.6991482748876
 30
0.0
 10
426.6908280436833
 20
169.6875626152757
 30
0.0
 10
426.7029739515498
 20
169.6874477313725
 30
0.0
 10
426.7033105791012
 20
169.68744454733
 30
0.0
  0
LINE
  5
320
330
1F
100
AcDbEntity
  8
0
  6
Continuous
 62
     7
370
    25
100
AcDbLine
 10
426.7033105791
 20
170.8874445473
 30
0.0
 11
432.1809304736
 21
170.8874445473
 31
0.0
  0
LINE
  5
321
330
1F
100
AcDbEntity
  8
0
  6
Continuous
 62
     7
370
    25
100
AcDbLine
 10
438.69493254
 20
170.8874445473
 30
0.0
 11
441.8428161801
 21
170.8874445473
 31
0.0
  0
SPLINE
  5
322
330
1F
100
AcDbEntity
  8
0
  6
Continuous
 62
     7
370
    25
100
AcDbSpline
210
0.0
220
0.0
230
1.0
 70
     8
 71
     3
 72
    13
 73
     9
 74
     0
 42
0.000000001
 43
0.00000001
 40
0.0
 40
0.0
 40
0.0
 40
0.0
 40
0.0075462231154503
 40
0.2722763788513755
 40
0.4815195415733523
 40
0.6613541616922377
 40
0.8304588949397953
 40
1.0
 40
1.0
 40
1.0
 40
1.0
 10
441.8428161801422
 20
170.8874445473299
 30
0.0
 10
441.8436659301488
 20
170.8874413632875
 30
0.0
 10
441.874325884297
 20
170.8873264793844
 30
0.0
 10
441.9288198156481
 20
170.8757408197719
 30
0.0
 10
441.9953494226173
 20
170.8330220404999
 30
0.0
 10
442.0413968734035
 20
170.7773504373955
 30
0.0
 10
442.0718078507143
 20
170.7112146440151
 30
0.0
 10
442.0758062912511
 20
170.6620556946167
 30
0.0
 10
442.0778080876721
 20
170.63744454733
 30
0.0
  0
SPLINE
  5
323
330
1F
100
AcDbEntity
  8
0
  6
Continuous
 62
     7
370
    25
100
AcDbSpline
210
0.0
220
0.0
230
1.0
 70
     8
 71
     3
 72
    13
 73
     9
 74
     0
 42
0.000000001
 43
0.00000001
 40
0.0
 40
0.0
 40
0.0
 40
0.0
 40
0.0075462231145476
 40
0.2722763788513507
 40
0.4815195415730677
 40
0.6613541616925371
 40
0.8304588949399195
 40
1.0
 40
1.0
 40
1.0
 40
1.0
 10
426.7033105791012
 20
170.8874445473299
 30
0.0
 10
426.7029739515499
 20
170.8874413632874
 30
0.0
 10
426.6908280436781
 20
170.8873264793843
 30
0.0
 10
426.6693428072169
 20
170.8757408197721
 30
0.0
 10
426.6433117377707
 20
170.8330220404995
 30
0.0
 10
426.6253899534606
 20
170.7773504373955
 30
0.0
 10
426.6135993398974
 20
170.711214644015
 30
0.0
 10
426.6120521709753
 20
170.6620556946166
 30
0.0
 10
426.6112775896898
 20
170.63744454733
 30
0.0
  0
LINE
  5
324
330
1F
100
AcDbEntity
  8
0
  6
Continuous
 62
     7
370
    25
100
AcDbLine
 10
442.0778080877
 20
169.9374445473
 30
0.0
 11
442.0778080877
 21
170.6374445473
 31
0.0
  0
LINE
  5
325
330
1F
100
AcDbEntity
  8
0
  6
Continuous
 62
     7
370
    25
100
AcDbLine
 10
426.6112775897
 20
169.9374445473
 30
0.0
 11
426.6112775897
 21
170.6374445473
 31
0.0
  0
SPLINE
  5
326
330
1F
100
AcDbEntity
  8
0
  6
Continuous
 62
     7
370
    25
100
AcDbSpline
210
0.0
220
0.0
230
1.0
 70
     8
 71
     3
 72
    12
 73
     8
 74
     0
 42
0.000000001
 43
0.00000001
 40
0.0
 40
0.0
 40
0.0
 40
0.0
 40
0.2028202020467314
 40
0.4049472449426715
 40
0.60983120307404
 40
0.8226939241827718
 40
0.9999999999999999
 40
0.9999999999999999
 40
0.9999999999999999
 40
0.9999999999999999
 10
424.9752766092705
 20
169.4374445473299
 30
0.0
 10
424.9898743989148
 20
169.5945853878653
 30
0.0
 10
425.0190200887376
 20
169.9083300237579
 30
0.0
 10
425.2452626430479
 20
170.3287262742273
 30
0.0
 10
425.5809298342096
 20
170.655804809667
 30
0.0
 10
425.9837101216418
 20
170.854014075933
 30
0.0
 10
426.2675649269378
 20
170.8769992818551
 30
0.0
 10
426.3965582806489
 20
170.8874445473299
 30
0.0
  0
LINE
  5
327
330
1F
100
AcDbEntity
  8
0
  6
Continuous
 62
     7
370
    25
100
AcDbLine
 10
424.6653098709
 20
170.8874445473
 30
0.0
 11
426.3965582806
 21
170.8874445473
 31
0.0
  0
LINE
  5
328
330
1F
100
AcDbEntity
  8
0
  6
Continuous
 62
     7
370
    25
100
AcDbLine
 10
425.1821401696
 20
164.0874445473
 30
0.0
 11
423.4666331522
 21
164.0874445473
 31
0.0
  0
LINE
  5
329
330
1F
100
AcDbEntity
  8
0
  6
Continuous
 62
     7
370
    25
100
AcDbLine
 10
425.8883396816
 20
164.0874445473
 30
0.0
 11
425.1821401696
 21
164.0874445473
 31
0.0
  0
LINE
  5
32A
330
1F
100
AcDbEntity
  8
0
  6
Continuous
 62
     7
370
    25
100
AcDbLine
 10
426.7033105791
 20
169.6874445473
 30
0.0
 11
426.3965582806
 21
169.6874445473
 31
0.0
  0
LINE
  5
32B
330
1F
100
AcDbEntity
  8
0
  6
Continuous
 62
     7
370
    25
100
AcDbLine
 10
426.3965582806
 20
170.8874445473
 30
0.0
 11
426.7033105791
 21
170.8874445473
 31
0.0
  0
LINE
  5
32C
330
1F
100
AcDbEntity
  8
0
  6
Continuous
 62
     7
370
    25
100
AcDbLine
 10
442.1495684786
 20
169.6874445473
 30
0.0
 11
441.8428161801
 21
169.6874445473
 31
0.0
  0
LINE
  5
32D
330
1F
100
AcDbEntity
  8
0
  6
Continuous
 62
     7
370
    25
100
AcDbLine
 10
441.8428161801
 20
170.8874445473
 30
0.0
 11
442.1495684786
 21
170.8874445473
 31
0.0
  0
SPLINE
  5
32E
330
1F
100
AcDbEntity
  8
0
  6
Continuous
 62
     7
370
    25
100
AcDbSpline
210
0.0
220
0.0
230
1.0
 70
     8
 71
     3
 72
    12
 73
     8
 74
     0
 42
0.000000001
 43
0.00000001
 40
0.0
 40
0.0
 40
0.0
 40
0.0
 40
0.2476950353253406
 40
0.4874512254425605
 40
0.7077624525225681
 40
0.9064888091634983
 40
1.0
 40
1.0
 40
1.0
 40
1.0
 10
442.1495684785946
 20
169.6874445473302
 30
0.0
 10
442.1799717850854
 20
169.6845266709677
 30
0.0
 10
442.2398039451728
 20
169.6787844387638
 30
0.0
 10
442.3200677799964
 20
169.6325076668232
 30
0.0
 10
442.3786587326204
 20
169.5639483956021
 30
0.0
 10
442.4051517919325
 20
169.4934687819672
 30
0.0
 10
442.4073022767545
 20
169.4510256491623
 30
0.0
 10
442.4079903963964
 20
169.4374445473303
 30
0.0
  0
LINE
  5
32F
330
1F
100
AcDbEntity
  8
0
  6
Continuous
 62
     7
370
    25
100
AcDbLine
 10
442.1495684786
 20
170.8874445473
 30
0.0
 11
442.1653098709
 21
170.8874445473
 31
0.0
  0
LINE
  5
330
330
1F
100
AcDbEntity
  8
0
  6
Continuous
 62
     7
370
    25
100
AcDbLine
 10
443.3639865896
 20
164.0874445473
 30
0.0
 11
442.6577870777
 21
164.0874445473
 31
0.0
  0
LINE
  5
331
330
1F
100
AcDbEntity
  8
0
  6
Continuous
 62
     7
370
    25
100
AcDbLine
 10
442.6577870777
 20
164.0874445473
 30
0.0
 11
440.9422800602
 21
164.0874445473
 31
0.0
  0
SPLINE
  5
332
330
1F
100
AcDbEntity
  8
0
  6
Continuous
 62
     7
370
    25
100
AcDbSpline
210
0.0
220
0.0
230
1.0
 70
     8
 71
     3
 72
    12
 73
     8
 74
     0
 42
0.000000001
 43
0.00000001
 40
0.0
 40
0.0
 40
0.0
 40
0.0
 40
0.2289440738515748
 40
0.4594214300241355
 40
0.6825355698157649
 40
0.894717523162879
 40
0.9999999999999999
 40
0.9999999999999999
 40
0.9999999999999999
 40
0.9999999999999999
 10
438.1638203889776
 20
168.4874445473302
 30
0.0
 10
438.212611640435
 20
168.5047790319078
 30
0.0
 10
438.3105209077081
 20
168.5395640934269
 30
0.0
 10
438.4367824037494
 20
168.8134339392391
 30
0.0
 10
438.5267075650533
 20
169.2104704737222
 30
0.0
 10
438.5667685767827
 20
169.6113464630749
 30
0.0
 10
438.5701752087571
 20
169.8562318561619
 30
0.0
 10
438.5713049688745
 20
169.9374445473301
 30
0.0
  0
LINE
  5
333
330
1F
100
AcDbEntity
  8
0
  6
Continuous
 62
     7
370
    25
100
AcDbLine
 10
438.163820389
 20
168.4874445473
 30
0.0
 11
432.3132885987
 21
168.4874445473
 31
0.0
  0
LINE
  5
334
330
1F
100
AcDbEntity
  8
0
  6
Continuous
 62
     7
370
    25
100
AcDbLine
 10
432.5944007497
 20
175.2874445473
 30
0.0
 11
438.44493254
 21
175.2874445473
 31
0.0
  0
LINE
  5
335
330
1F
100
AcDbEntity
  8
0
  6
Continuous
 62
     7
370
    25
100
AcDbLine
 10
432.0363594399
 20
169.4374445473
 30
0.0
 11
432.0363594399
 21
168.7374445473
 31
0.0
  0
LINE
  5
336
330
1F
100
AcDbEntity
  8
0
  6
Continuous
 62
     7
370
    25
100
AcDbLine
 10
432.4309304736
 20
175.2874445473
 30
0.0
 11
432.5944007497
 21
175.2874445473
 31
0.0
  0
SPLINE
  5
337
330
1F
100
AcDbEntity
  8
0
  6
Continuous
 62
     7
370
    25
100
AcDbSpline
210
0.0
220
0.0
230
1.0
 70
     8
 71
     3
 72
    13
 73
     9
 74
     0
 42
0.000000001
 43
0.00000001
 40
0.0
 40
0.0
 40
0.0
 40
0.0
 40
0.1695411050600681
 40
0.3386458383076291
 40
0.5184804584264907
 40
0.7277236211485066
 40
0.9924537768853294
 40
0.9999999999999999
 40
0.9999999999999999
 40
0.9999999999999999
 40
0.9999999999999999
 10
432.0363594398945
 20
168.7374445473301
 30
0.0
 10
432.0381307388093
 20
168.7128334000435
 30
0.0
 10
432.0416687775975
 20
168.6636744506451
 30
0.0
 10
432.0685356522959
 20
168.5975386572646
 30
0.0
 10
432.1090915018257
 20
168.5418670541602
 30
0.0
 10
432.1674362933385
 20
168.4991482748881
 30
0.0
 10
432.2149286125416
 20
168.4875626152758
 30
0.0
 10
432.2415442577201
 20
168.4874477313726
 30
0.0
 10
432.2422819184667
 20
168.4874445473302
 30
0.0
  0
LINE
  5
338
330
1F
100
AcDbEntity
  8
0
  6
Continuous
 62
     7
370
    25
100
AcDbLine
 10
432.2422819185
 20
168.4874445473
 30
0.0
 11
426.1383396816
 21
168.4874445473
 31
0.0
  0
SPLINE
  5
339
330
1F
100
AcDbEntity
  8
0
  6
Continuous
 62
     7
370
    25
100
AcDbSpline
210
0.0
220
0.0
230
1.0
 70
     8
 71
     3
 72
    11
 73
     7
 74
     0
 42
0.000000001
 43
0.00000001
 40
0.0
 40
0.0
 40
0.0
 40
0.0
 40
0.2661752362170525
 40
0.520701892880684
 40
0.7600421397755939
 40
1.0
 40
1.0
 40
1.0
 40
1.0
 10
432.1577835603734
 20
169.6641452724331
 30
0.0
 10
432.1406954091444
 20
169.6532596557117
 30
0.0
 10
432.1072669324113
 20
169.6319648075788
 30
0.0
 10
432.0686054467258
 20
169.5770928078404
 30
0.0
 10
432.0416517271141
 20
169.511277581823
 30
0.0
 10
432.0381250504345
 20
169.4620766919006
 30
0.0
 10
432.0363594398945
 20
169.4374445473302
 30
0.0
  0
LINE
  5
33A
330
1F
100
AcDbEntity
  8
0
  6
Continuous
 62
     7
370
    25
100
AcDbLine
 10
426.3005419902
 20
169.6874445473
 30
0.0
 11
426.3965582806
 21
169.6874445473
 31
0.0
  0
LINE
  5
33B
330
1F
100
AcDbEntity
  8
0
  6
Continuous
 62
     7
370
    25
100
AcDbLine
 10
426.6713648147
 20
169.6874445473
 30
0.0
 11
432.2422819185
 21
169.6874445473
 31
0.0
  0
LINE
  5
33C
330
1F
100
AcDbEntity
  8
0
  6
Continuous
 62
     7
370
    25
100
AcDbLine
 10
438.5713049689
 20
169.9374445473
 30
0.0
 11
438.69493254
 21
169.9374445473
 31
0.0
  0
LINE
  5
33D
330
1F
100
AcDbEntity
  8
0
  6
Continuous
 62
     7
370
    25
100
AcDbLine
 10
432.3132885987
 20
168.4874445473
 30
0.0
 11
432.2422819185
 21
168.4874445473
 31
0.0
  0
LINE
  5
33E
330
1F
100
AcDbEntity
  8
0
  6
Continuous
 62
     7
370
    25
100
AcDbLine
 10
441.8653098709
 20
168.4874445473
 30
0.0
 11
438.0928137088
 21
168.4874445473
 31
0.0
  0
LINE
  5
33F
330
1F
100
AcDbEntity
  8
0
  6
Continuous
 62
     7
370
    25
100
AcDbLine
 10
438.6429067343
 20
169.6874445473
 30
0.0
 11
441.8428161801
 21
169.6874445473
 31
0.0
  0
LINE
  5
340
330
1F
100
AcDbEntity
  8
0
  6
Continuous
 62
     7
370
    25
100
AcDbLine
 10
428.6231949062
 20
168.0408625599
 30
0.0
 11
431.2155627044
 21
168.4874445473
 31
0.0
  0
SPLINE
  5
341
330
1F
100
AcDbEntity
  8
0
  6
Continuous
 62
     7
370
    25
100
AcDbSpline
210
0.0
220
0.0
230
1.0
 70
     8
 71
     3
 72
     9
 73
     5
 74
     0
 42
0.000000001
 43
0.00000001
 40
0.0
 40
0.0
 40
0.0
 40
0.0
 40
0.0702005767034241
 40
1.0
 40
1.0
 40
1.0
 40
1.0
 10
431.215562704427
 20
168.4874445473302
 30
0.0
 10
431.2770171601241
 20
168.4869984310626
 30
0.0
 10
432.1524295653045
 20
168.4806435506822
 30
0.0
 10
433.0102912256123
 20
168.2527540687867
 30
0.0
 10
433.8079305026342
 20
168.0408625599449
 30
0.0
  0
LINE
  5
342
330
1F
100
AcDbEntity
  8
0
  6
Continuous
 62
     7
370
    25
100
AcDbLine
 10
433.8079305026
 20
168.0408625599
 30
0.0
 11
433.8079305026
 21
163.7340265347
 31
0.0
  0
SPLINE
  5
343
330
1F
100
AcDbEntity
  8
0
  6
Continuous
 62
     7
370
    25
100
AcDbSpline
210
0.0
220
0.0
230
1.0
 70
     8
 71
     3
 72
     9
 73
     5
 74
     0
 42
0.000000001
 43
0.00000001
 40
0.0
 40
0.0
 40
0.0
 40
0.0
 40
0.0702005767034242
 40
1.0
 40
1.0
 40
1.0
 40
1.0
 10
431.215562704427
 20
163.2874445473302
 30
0.0
 10
431.2770171601241
 20
163.2878906635978
 30
0.0
 10
432.1524295653041
 20
163.2942455439782
 30
0.0
 10
433.0102912256119
 20
163.5221350258736
 30
0.0
 10
433.8079305026341
 20
163.7340265347154
 30
0.0
  0
LINE
  5
344
330
1F
100
AcDbEntity
  8
0
  6
Continuous
 62
     7
370
    25
100
AcDbLine
 10
428.6231949062
 20
163.7340265347
 30
0.0
 11
431.2155627044
 21
163.2874445473
 31
0.0
  0
LINE
  5
345
330
1F
100
AcDbEntity
  8
0
  6
Continuous
 62
     7
370
    25
100
AcDbLine
 10
428.6231949062
 20
168.0408625599
 30
0.0
 11
428.6231949062
 21
163.7340265347
 31
0.0
  0
LINE
  5
346
330
1F
100
AcDbEntity
  8
0
  6
Continuous
 62
     7
370
    25
100
AcDbLine
 10
433.8079305026
 20
168.0408625599
 30
0.0
 11
436.203987985
 21
168.4874445473
 31
0.0
  0
LINE
  5
347
330
1F
100
AcDbEntity
  8
0
  6
Continuous
 62
     7
370
    25
100
AcDbLine
 10
433.8079305026
 20
163.7340265347
 30
0.0
 11
436.203987985
 21
163.2874445473
 31
0.0
  0
LINE
  5
348
330
1F
100
AcDbEntity
  8
0
  6
Continuous
 62
     7
370
    25
100
AcDbLine
 10
436.203987985
 20
163.2874445473
 30
0.0
 11
431.2155627044
 21
163.2874445473
 31
0.0
  0
SPLINE
  5
349
330
1F
100
AcDbEntity
  8
0
  6
Continuous
 62
     7
370
    25
100
AcDbSpline
210
0.0
220
0.0
230
1.0
 70
     8
 71
     3
 72
     9
 73
     5
 74
     0
 42
0.000000001
 43
0.00000001
 40
0.0
 40
0.0
 40
0.0
 40
0.0
 40
0.0702005767034539
 40
1.0
 40
1.0
 40
1.0
 40
1.0
 10
436.20398798498
 20
168.4874445473302
 30
0.0
 10
436.260788724635
 20
168.4869984310626
 30
0.0
 10
437.069909423103
 20
168.4806435506822
 30
0.0
 10
437.8628084289537
 20
168.2527540687868
 30
0.0
 10
438.6000454673258
 20
168.040862559945
 30
0.0
  0
LINE
  5
34A
330
1F
100
AcDbEntity
  8
0
  6
Continuous
 62
     7
370
    25
100
AcDbLine
 10
438.6000454673
 20
168.0408625599
 30
0.0
 11
438.6000454673
 21
163.7340265347
 31
0.0
  0
SPLINE
  5
34B
330
1F
100
AcDbEntity
  8
0
  6
Continuous
 62
     7
370
    25
100
AcDbSpline
210
0.0
220
0.0
230
1.0
 70
     8
 71
     3
 72
     9
 73
     5
 74
     0
 42
0.000000001
 43
0.00000001
 40
0.0
 40
0.0
 40
0.0
 40
0.0
 40
0.0702005767034432
 40
1.0
 40
1.0
 40
1.0
 40
1.0
 10
436.20398798498
 20
163.2874445473302
 30
0.0
 10
436.2607887246351
 20
163.2878906635978
 30
0.0
 10
437.0699094231028
 20
163.2942455439781
 30
0.0
 10
437.8628084289537
 20
163.5221350258736
 30
0.0
 10
438.6000454673258
 20
163.7340265347154
 30
0.0
  0
SPLINE
  5
34C
330
1F
100
AcDbEntity
  8
0
  6
Continuous
 62
     7
370
    25
100
AcDbSpline
210
0.0
220
0.0
230
1.0
 70
     8
 71
     3
 72
     9
 73
     5
 74
     0
 42
0.000000001
 43
0.00000001
 40
0.0
 40
0.0
 40
0.0
 40
0.0
 40
0.2686336050555586
 40
1.0
 40
1.0
 40
1.0
 40
1.0
 10
428.4268845903587
 20
168.4874445473302
 30
0.0
 10
428.4447346911942
 20
168.4808155947457
 30
0.0
 10
428.5111824494031
 20
168.4561390373094
 30
0.0
 10
428.5758784358471
 20
168.2162842737094
 30
0.0
 10
428.62319490622
 20
168.040862559945
 30
0.0
  0
SPLINE
  5
34D
330
1F
100
AcDbEntity
  8
0
  6
Continuous
 62
     7
370
    25
100
AcDbSpline
210
0.0
220
0.0
230
1.0
 70
     8
 71
     3
 72
     9
 73
     5
 74
     0
 42
0.000000001
 43
0.00000001
 40
0.0
 40
0.0
 40
0.0
 40
0.0
 40
0.2686336050555591
 40
1.0
 40
1.0
 40
1.0
 40
1.0
 10
428.4268845903587
 20
163.2874445473302
 30
0.0
 10
428.4447346911942
 20
163.2940734999147
 30
0.0
 10
428.5111824494031
 20
163.318750057351
 30
0.0
 10
428.575878435847
 20
163.558604820951
 30
0.0
 10
428.62319490622
 20
163.7340265347154
 30
0.0
  0
LINE
  5
34E
330
1F
100
AcDbEntity
  8
0
  6
Continuous
 62
     7
370
    25
100
AcDbLine
 10
431.2155627044
 20
163.2874445473
 30
0.0
 11
428.4268845904
 21
163.2874445473
 31
0.0
  0
SPLINE
  5
34F
330
1F
100
AcDbEntity
  8
0
  6
Continuous
 62
     7
370
    25
100
AcDbSpline
210
0.0
220
0.0
230
1.0
 70
     8
 71
     3
 72
     9
 73
     5
 74
     0
 42
0.000000001
 43
0.00000001
 40
0.0
 40
0.0
 40
0.0
 40
0.0
 40
0.1722831922544294
 40
1.0
 40
1.0
 40
1.0
 40
1.0
 10
438.4268849360089
 20
168.4720984313647
 30
0.0
 10
438.4369916179376
 20
168.4672899279167
 30
0.0
 10
438.4956548096079
 20
168.4393794661642
 30
0.0
 10
438.5527701445852
 20
168.2213386271621
 30
0.0
 10
438.6000454673258
 20
168.040862559945
 30
0.0
  0
SPLINE
  5
350
330
1F
100
AcDbEntity
  8
0
  6
Continuous
 62
     7
370
    25
100
AcDbSpline
210
0.0
220
0.0
230
1.0
 70
     8
 71
     3
 72
     9
 73
     5
 74
     0
 42
0.000000001
 43
0.00000001
 40
0.0
 40
0.0
 40
0.0
 40
0.0
 40
0.2686336050555589
 40
1.0
 40
1.0
 40
1.0
 40
1.0
 10
438.4037351514644
 20
163.2874445473302
 30
0.0
 10
438.4215852522999
 20
163.2940734999147
 30
0.0
 10
438.4880330105093
 20
163.318750057351
 30
0.0
 10
438.552728996953
 20
163.558604820951
 30
0.0
 10
438.6000454673257
 20
163.7340265347154
 30
0.0
  0
LINE
  5
351
330
1F
100
AcDbEntity
  8
0
  6
Continuous
 62
     7
370
    25
100
AcDbLine
 10
436.203987985
 20
163.2874445473
 30
0.0
 11
438.4054399246
 21
163.2874445473
 31
0.0
  0
SPLINE
  5
352
330
1F
100
AcDbEntity
  8
0
  6
Continuous
 62
     7
370
    25
100
AcDbSpline
210
0.0
220
0.0
230
1.0
 70
     8
 71
     3
 72
     9
 73
     5
 74
     0
 42
0.000000001
 43
0.00000001
 40
0.0
 40
0.0
 40
0.0
 40
0.0
 40
0.2911436932904034
 40
1.0
 40
1.0
 40
1.0
 40
1.0
 10
428.2305742744974
 20
168.0408625599451
 30
0.0
 10
428.2470476806694
 20
168.1088383328017
 30
0.0
 10
428.3036293843145
 20
168.3423167643228
 30
0.0
 10
428.3624153126005
 20
168.4038508398101
 30
0.0
 10
428.4040860886117
 20
168.4474696572968
 30
0.0
  0
SPLINE
  5
353
330
1F
100
AcDbEntity
  8
0
  6
Continuous
 62
     7
370
    25
100
AcDbSpline
210
0.0
220
0.0
230
1.0
 70
     8
 71
     3
 72
     9
 73
     5
 74
     0
 42
0.000000001
 43
0.00000001
 40
0.0
 40
0.0
 40
0.0
 40
0.0
 40
0.2575513451038023
 40
1.0
 40
1.0
 40
1.0
 40
1.0
 10
428.2305742744974
 20
163.7340265347154
 30
0.0
 10
428.2470548665889
 20
163.6666113119406
 30
0.0
 10
428.3110444065574
 20
163.4048568149966
 30
0.0
 10
428.3775256675553
 20
163.3374733272041
 30
0.0
 10
428.4268845903587
 20
163.2874445473302
 30
0.0
  0
LINE
  5
354
330
1F
100
AcDbEntity
  8
0
  6
Continuous
 62
     7
370
    25
100
AcDbLine
 10
428.2305742745
 20
168.0408625599
 30
0.0
 11
428.2305742745
 21
163.7340265347
 31
0.0
  0
LINE
  5
355
330
1F
100
AcDbEntity
  8
0
  6
Continuous
 62
     7
370
    25
100
AcDbLine
 10
431.8731321607
 20
175.6408625599
 30
0.0
 11
434.6678396137
 21
176.0874445473
 31
0.0
  0
SPLINE
  5
356
330
1F
100
AcDbEntity
  8
0
  6
Continuous
 62
     7
370
    25
100
AcDbSpline
210
0.0
220
0.0
230
1.0
 70
     8
 71
     3
 72
     9
 73
     5
 74
     0
 42
0.000000001
 43
0.00000001
 40
0.0
 40
0.0
 40
0.0
 40
0.0
 40
0.0702005767034002
 40
0.9999999999999999
 40
0.9999999999999999
 40
0.9999999999999999
 40
0.9999999999999999
 10
434.6678396137168
 20
176.0874445473302
 30
0.0
 10
434.7340907164632
 20
176.0869984310626
 30
0.0
 10
435.6778308658696
 20
176.0806435506822
 30
0.0
 10
436.6026503985588
 20
175.8527540687868
 30
0.0
 10
437.4625470667065
 20
175.640862559945
 30
0.0
  0
LINE
  5
357
330
1F
100
AcDbEntity
  8
0
  6
Continuous
 62
     7
370
    25
100
AcDbLine
 10
437.4625470667
 20
175.6408625599
 30
0.0
 11
437.4625470667
 21
175.2874445473
 31
0.0
  0
LINE
  5
358
330
1F
100
AcDbEntity
  8
0
  6
Continuous
 62
     7
370
    25
100
AcDbLine
 10
431.8731321607
 20
171.3340265347
 30
0.0
 11
432.1809304736
 21
171.284841715
 31
0.0
  0
LINE
  5
359
330
1F
100
AcDbEntity
  8
0
  6
Continuous
 62
     7
370
    25
100
AcDbLine
 10
431.8731321607
 20
175.6408625599
 30
0.0
 11
431.8731321607
 21
171.3340265347
 31
0.0
  0
LINE
  5
35A
330
1F
100
AcDbEntity
  8
0
  6
Continuous
 62
     7
370
    25
100
AcDbLine
 10
429.8495135628
 20
176.0874445473
 30
0.0
 11
434.6678396137
 21
176.0874445473
 31
0.0
  0
SPLINE
  5
35B
330
1F
100
AcDbEntity
  8
0
  6
Continuous
 62
     7
370
    25
100
AcDbSpline
210
0.0
220
0.0
230
1.0
 70
     8
 71
     3
 72
     9
 73
     5
 74
     0
 42
0.000000001
 43
0.00000001
 40
0.0
 40
0.0
 40
0.0
 40
0.0
 40
0.0702005767034291
 40
1.0
 40
1.0
 40
1.0
 40
1.0
 10
429.8495135628297
 20
176.0874445473302
 30
0.0
 10
429.8974852972254
 20
176.0869984310626
 30
0.0
 10
430.5808377232119
 20
176.0806435506822
 30
0.0
 10
431.2504899274329
 20
175.8527540687868
 30
0.0
 10
431.873132160727
 20
175.640862559945
 30
0.0
  0
SPLINE
  5
35C
330
1F
100
AcDbEntity
  8
0
  6
Continuous
 62
     7
370
    25
100
AcDbSpline
210
0.0
220
0.0
230
1.0
 70
     8
 71
     3
 72
     9
 73
     5
 74
     0
 42
0.000000001
 43
0.00000001
 40
0.0
 40
0.0
 40
0.0
 40
0.0
 40
0.0702005767034293
 40
1.0
 40
1.0
 40
1.0
 40
1.0
 10
429.8495135628297
 20
170.8874445473302
 30
0.0
 10
429.8974852972255
 20
170.8878906635978
 30
0.0
 10
430.5808377232112
 20
170.8942455439782
 30
0.0
 10
431.2504899274326
 20
171.1221350258736
 30
0.0
 10
431.8731321607271
 20
171.3340265347153
 30
0.0
  0
LINE
  5
35D
330
1F
100
AcDbEntity
  8
0
  6
Continuous
 62
     7
370
    25
100
AcDbLine
 10
427.8258949649
 20
175.6408625599
 30
0.0
 11
429.8495135628
 21
176.0874445473
 31
0.0
  0
LINE
  5
35E
330
1F
100
AcDbEntity
  8
0
  6
Continuous
 62
     7
370
    25
100
AcDbLine
 10
427.8258949649
 20
171.3340265347
 30
0.0
 11
429.8495135628
 21
170.8874445473
 31
0.0
  0
LINE
  5
35F
330
1F
100
AcDbEntity
  8
0
  6
Continuous
 62
     7
370
    25
100
AcDbLine
 10
427.8258949649
 20
175.6408625599
 30
0.0
 11
427.8258949649
 21
171.3340265347
 31
0.0
  0
SPLINE
  5
360
330
1F
100
AcDbEntity
  8
0
  6
Continuous
 62
     7
370
    25
100
AcDbSpline
210
0.0
220
0.0
230
1.0
 70
     8
 71
     3
 72
     9
 73
     5
 74
     0
 42
0.000000001
 43
0.00000001
 40
0.0
 40
0.0
 40
0.0
 40
0.0
 40
0.2686336050555567
 40
1.0
 40
1.0
 40
1.0
 40
1.0
 10
438.2336359217987
 20
176.0874445473302
 30
0.0
 10
438.1635223683863
 20
176.0808155947458
 30
0.0
 10
437.9025216890485
 20
176.0561390373094
 30
0.0
 10
437.6484018079957
 20
175.8162842737094
 30
0.0
 10
437.4625470667065
 20
175.640862559945
 30
0.0
  0
LINE
  5
361
330
1F
100
AcDbEntity
  8
0
  6
Continuous
 62
     7
370
    25
100
AcDbLine
 10
438.2336359218
 20
176.0874445473
 30
0.0
 11
434.6678396137
 21
176.0874445473
 31
0.0
  0
SPLINE
  5
362
330
1F
100
AcDbEntity
  8
0
  6
Continuous
 62
     7
370
    25
100
AcDbSpline
210
0.0
220
0.0
230
1.0
 70
     8
 71
     3
 72
     9
 73
     5
 74
     0
 42
0.000000001
 43
0.00000001
 40
0.0
 40
0.0
 40
0.0
 40
0.0
 40
0.2575513451038144
 40
1.0
 40
1.0
 40
1.0
 40
1.0
 10
439.004724776891
 20
175.640862559945
 30
0.0
 10
438.9399905277951
 20
175.7082777827199
 30
0.0
 10
438.6886455034859
 20
175.9700322796638
 30
0.0
 10
438.4275132282773
 20
176.0374157674564
 30
0.0
 10
438.2336359217987
 20
176.0874445473302
 30
0.0
  0
LINE
  5
363
330
1F
100
AcDbEntity
  8
0
  6
Continuous
 62
     7
370
    25
100
AcDbLine
 10
439.0047247769
 20
175.6408625599
 30
0.0
 11
439.0047247769
 21
171.3340265347
 31
0.0
  0
SPLINE
  5
364
330
1F
100
AcDbEntity
  8
0
  6
Continuous
 62
     7
370
    25
100
AcDbSpline
210
0.0
220
0.0
230
1.0
 70
     8
 71
     3
 72
     9
 73
     5
 74
     0
 42
0.000000001
 43
0.00000001
 40
0.0
 40
0.0
 40
0.0
 40
0.0
 40
0.4836155560001638
 40
1.0
 40
1.0
 40
1.0
 40
1.0
 10
439.004724776891
 20
171.3340265347154
 30
0.0
 10
438.9401804759599
 20
171.2628390150112
 30
0.0
 10
438.8067184726596
 20
171.1156404420518
 30
0.0
 10
438.6680442308307
 20
171.0719549059147
 30
0.0
 10
438.5964350095669
 20
171.0493963746257
 30
0.0
  0
LINE
  5
365
330
1F
100
AcDbEntity
  8
0
  6
Continuous
 62
     7
370
    25
100
AcDbLine
 10
428.2357333678
 20
175.9411095235
 30
0.0
 11
427.8258949649
 21
175.6408625599
 31
0.0
  0
LINE
  5
366
330
1F
100
AcDbEntity
  8
0
  6
Continuous
 62
     7
370
    25
100
AcDbLine
 10
428.4153098709
 20
176.0874445473
 30
0.0
 11
429.8495135628
 21
176.0874445473
 31
0.0
  0
LINE
  5
367
330
1F
100
AcDbEntity
  8
0
  6
Continuous
 62
     7
370
    25
100
AcDbLine
 10
428.2357333678
 20
171.0337795711
 30
0.0
 11
427.8258949649
 21
171.3340265347
 31
0.0
  0
LINE
  5
368
330
1F
100
AcDbEntity
  8
0
  6
Continuous
 62
     7
370
    25
100
AcDbLine
 10
438.2336359218
 20
176.0874445473
 30
0.0
 11
438.4153098709
 21
176.0874445473
 31
0.0
  0
LINE
  5
369
330
1F
100
AcDbEntity
  8
0
  6
Continuous
 62
     7
370
    25
100
AcDbLine
 10
429.4118084623
 20
181.0908625599
 30
0.0
 11
432.2140015511
 21
181.5374445473
 31
0.0
  0
SPLINE
  5
36A
330
1F
100
AcDbEntity
  8
0
  6
Continuous
 62
     7
370
    25
100
AcDbSpline
210
0.0
220
0.0
230
1.0
 70
     8
 71
     3
 72
     9
 73
     5
 74
     0
 42
0.000000001
 43
0.00000001
 40
0.0
 40
0.0
 40
0.0
 40
0.0
 40
0.0702005767034196
 40
1.0
 40
1.0
 40
1.0
 40
1.0
 10
432.2140015511008
 20
181.5374445473302
 30
0.0
 10
432.2804301077081
 20
181.5369984310626
 30
0.0
 10
433.2266980691224
 20
181.5306435506822
 30
0.0
 10
434.1539947348666
 20
181.3027540687867
 30
0.0
 10
435.0161946399006
 20
181.090862559945
 30
0.0
  0
LINE
  5
36B
330
1F
100
AcDbEntity
  8
0
  6
Continuous
 62
     7
370
    25
100
AcDbLine
 10
435.0161946399
 20
181.0908625599
 30
0.0
 11
435.0161946399
 21
176.7840265347
 31
0.0
  0
SPLINE
  5
36C
330
1F
100
AcDbEntity
  8
0
  6
Continuous
 62
     7
370
    25
100
AcDbSpline
210
0.0
220
0.0
230
1.0
 70
     8
 71
     3
 72
     9
 73
     5
 74
     0
 42
0.000000001
 43
0.00000001
 40
0.0
 40
0.0
 40
0.0
 40
0.0
 40
0.0702005767034197
 40
1.0
 40
1.0
 40
1.0
 40
1.0
 10
432.2140015511008
 20
176.3374445473302
 30
0.0
 10
432.280430107708
 20
176.3378906635978
 30
0.0
 10
433.2266980691215
 20
176.3442455439782
 30
0.0
 10
434.1539947348663
 20
176.5721350258736
 30
0.0
 10
435.0161946399006
 20
176.7840265347154
 30
0.0
  0
LINE
  5
36D
330
1F
100
AcDbEntity
  8
0
  6
Continuous
 62
     7
370
    25
100
AcDbLine
 10
429.4118084623
 20
176.7840265347
 30
0.0
 11
432.2140015511
 21
176.3374445473
 31
0.0
  0
LINE
  5
36E
330
1F
100
AcDbEntity
  8
0
  6
Continuous
 62
     7
370
    25
100
AcDbLine
 10
429.4118084623
 20
181.0908625599
 30
0.0
 11
429.4118084623
 21
176.7840265347
 31
0.0
  0
SPLINE
  5
36F
330
1F
100
AcDbEntity
  8
0
  6
Continuous
 62
     7
370
    25
100
AcDbSpline
210
0.0
220
0.0
230
1.0
 70
     8
 71
     3
 72
     9
 73
     5
 74
     0
 42
0.000000001
 43
0.00000001
 40
0.0
 40
0.0
 40
0.0
 40
0.0
 40
0.2686336050555788
 40
1.0
 40
1.0
 40
1.0
 40
1.0
 10
437.017945344206
 20
176.3374445473302
 30
0.0
 10
436.8359301925177
 20
176.3440734999147
 30
0.0
 10
436.1583710626736
 20
176.368750057351
 30
0.0
 10
435.4986745211974
 20
176.608604820951
 30
0.0
 10
435.0161946399006
 20
176.7840265347154
 30
0.0
  0
LINE
  5
370
330
1F
100
AcDbEntity
  8
0
  6
Continuous
 62
     7
370
    25
100
AcDbLine
 10
437.0179453442
 20
176.3374445473
 30
0.0
 11
432.2140015511
 21
176.3374445473
 31
0.0
  0
SPLINE
  5
371
330
1F
100
AcDbEntity
  8
0
  6
Continuous
 62
     7
370
    25
100
AcDbSpline
210
0.0
220
0.0
230
1.0
 70
     8
 71
     3
 72
     9
 73
     5
 74
     0
 42
0.000000001
 43
0.00000001
 40
0.0
 40
0.0
 40
0.0
 40
0.0
 40
0.2686336050555785
 40
1.0
 40
1.0
 40
1.0
 40
1.0
 10
437.017945344206
 20
181.5374445473302
 30
0.0
 10
436.8359301925178
 20
181.5308155947457
 30
0.0
 10
436.1583710626734
 20
181.5061390373094
 30
0.0
 10
435.4986745211974
 20
181.2662842737094
 30
0.0
 10
435.0161946399006
 20
181.090862559945
 30
0.0
  0
SPLINE
  5
372
330
1F
100
AcDbEntity
  8
0
  6
Continuous
 62
     7
370
    25
100
AcDbSpline
210
0.0
220
0.0
230
1.0
 70
     8
 71
     3
 72
     9
 73
     5
 74
     0
 42
0.000000001
 43
0.00000001
 40
0.0
 40
0.0
 40
0.0
 40
0.0
 40
0.0702005767034244
 40
1.0
 40
1.0
 40
1.0
 40
1.0
 10
428.6113660778063
 20
181.5374445473302
 30
0.0
 10
428.6303412984869
 20
181.5369984310626
 30
0.0
 10
428.9006413668272
 20
181.5306435506822
 30
0.0
 10
429.1655223121228
 20
181.3027540687867
 30
0.0
 10
429.4118084623008
 20
181.090862559945
 30
0.0
  0
SPLINE
  5
373
330
1F
100
AcDbEntity
  8
0
  6
Continuous
 62
     7
370
    25
100
AcDbSpline
210
0.0
220
0.0
230
1.0
 70
     8
 71
     3
 72
     9
 73
     5
 74
     0
 42
0.000000001
 43
0.00000001
 40
0.0
 40
0.0
 40
0.0
 40
0.0
 40
0.0702005767034233
 40
1.0
 40
1.0
 40
1.0
 40
1.0
 10
428.6113660778063
 20
176.3374445473302
 30
0.0
 10
428.6303412984869
 20
176.3378906635978
 30
0.0
 10
428.900641366827
 20
176.3442455439782
 30
0.0
 10
429.1655223121229
 20
176.5721350258736
 30
0.0
 10
429.4118084623009
 20
176.7840265347154
 30
0.0
  0
LINE
  5
374
330
1F
100
AcDbEntity
  8
0
  6
Continuous
 62
     7
370
    25
100
AcDbLine
 10
432.2140015511
 20
176.3374445473
 30
0.0
 11
428.6113660778
 21
176.3374445473
 31
0.0
  0
SPLINE
  5
375
330
1F
100
AcDbEntity
  8
0
  6
Continuous
 62
     7
370
    25
100
AcDbSpline
210
0.0
220
0.0
230
1.0
 70
     8
 71
     3
 72
     9
 73
     5
 74
     0
 42
0.000000001
 43
0.00000001
 40
0.0
 40
0.0
 40
0.0
 40
0.0
 40
0.257551345103797
 40
1.0
 40
1.0
 40
1.0
 40
1.0
 10
439.0196960485112
 20
181.090862559945
 30
0.0
 10
438.8516455989883
 20
181.1582777827199
 30
0.0
 10
438.1991526001447
 20
181.4200322796638
 30
0.0
 10
437.521251846731
 20
181.4874157674564
 30
0.0
 10
437.017945344206
 20
181.5374445473302
 30
0.0
  0
LINE
  5
376
330
1F
100
AcDbEntity
  8
0
  6
Continuous
 62
     7
370
    25
100
AcDbLine
 10
439.0196960485
 20
181.0908625599
 30
0.0
 11
439.0196960485
 21
176.7840265347
 31
0.0
  0
SPLINE
  5
377
330
1F
100
AcDbEntity
  8
0
  6
Continuous
 62
     7
370
    25
100
AcDbSpline
210
0.0
220
0.0
230
1.0
 70
     8
 71
     3
 72
     9
 73
     5
 74
     0
 42
0.000000001
 43
0.00000001
 40
0.0
 40
0.0
 40
0.0
 40
0.0
 40
0.2575513451038107
 40
1.0
 40
1.0
 40
1.0
 40
1.0
 10
439.0196960485113
 20
176.7840265347154
 30
0.0
 10
438.8516455989884
 20
176.7166113119405
 30
0.0
 10
438.1991526001447
 20
176.4548568149966
 30
0.0
 10
437.521251846731
 20
176.387473327204
 30
0.0
 10
437.017945344206
 20
176.3374445473302
 30
0.0
  0
LINE
  5
378
330
1F
100
AcDbEntity
  8
0
  6
Continuous
 62
     7
370
    25
100
AcDbLine
 10
427.8109236933
 20
181.0908625599
 30
0.0
 11
428.2111243596
 21
181.3141421018
 31
0.0
  0
LINE
  5
379
330
1F
100
AcDbEntity
  8
0
  6
Continuous
 62
     7
370
    25
100
AcDbLine
 10
427.8109236933
 20
176.7840265347
 30
0.0
 11
428.6113660778
 21
176.3374445473
 31
0.0
  0
LINE
  5
37A
330
1F
100
AcDbEntity
  8
0
  6
Continuous
 62
     7
370
    25
100
AcDbLine
 10
427.8109236933
 20
181.0908625599
 30
0.0
 11
427.8109236933
 21
176.7840265347
 31
0.0
  0
LINE
  5
37B
330
1F
100
AcDbEntity
  8
0
  6
Continuous
 62
     7
370
    25
100
AcDbLine
 10
439.0196960485
 20
181.0908625599
 30
0.0
 11
438.6194953822
 21
181.3141421018
 31
0.0
  0
LINE
  5
37C
330
1F
100
AcDbEntity
  8
0
  6
Continuous
 62
     7
370
    25
100
AcDbLine
 10
439.0196960485
 20
176.7840265347
 30
0.0
 11
438.6194953822
 21
176.5607469928
 31
0.0
  0
LINE
  5
37D
330
1F
100
AcDbEntity
  8
0
  6
Continuous
 62
     7
370
    25
100
AcDbLine
 10
438.4153098709
 20
176.3374445473
 30
0.0
 11
437.0179453442
 21
176.3374445473
 31
0.0
  0
LINE
  5
37E
330
1F
100
AcDbEntity
  8
0
  6
Continuous
 62
     7
370
    25
100
AcDbLine
 10
428.6113660778
 20
176.3374445473
 30
0.0
 11
428.4153098709
 21
176.3374445473
 31
0.0
  0
LINE
  5
37F
330
1F
100
AcDbEntity
  8
0
  6
Continuous
 62
     7
370
    25
100
AcDbLine
 10
427.3153098709
 20
181.5374445473
 30
0.0
 11
439.5153098709
 21
181.5374445473
 31
0.0
  0
LINE
  5
380
330
1F
100
AcDbEntity
  8
0
  6
Continuous
 62
     7
370
    25
100
AcDbLine
 10
675.3445991928
 20
183.7874445473
 30
0.0
 11
675.6322818832
 21
183.7874445473
 31
0.0
  0
LINE
  5
381
330
1F
100
AcDbEntity
  8
0
  6
Continuous
 62
     7
370
    25
100
AcDbLine
 10
675.3445991928
 20
184.0874445473
 30
0.0
 11
675.3445991928
 21
182.0874445473
 31
0.0
  0
LINE
  5
382
330
1F
100
AcDbEntity
  8
0
  6
Continuous
 62
     7
370
    25
100
AcDbLine
 10
318.0653098709
 20
182.0874445473
 30
0.0
 11
675.3445991928
 21
182.0874445473
 31
0.0
  0
LINE
  5
383
330
1F
100
AcDbEntity
  8
0
  6
Continuous
 62
     7
370
    25
100
AcDbLine
 10
675.6153098709
 20
182.0474445473
 30
0.0
 11
675.6153098709
 21
183.5474445473
 31
0.0
  0
LINE
  5
384
330
1F
100
AcDbEntity
  8
0
  6
Continuous
 62
     7
370
    25
100
AcDbLine
 10
675.6153098709
 20
183.5474445473
 30
0.0
 11
675.6788181978
 21
183.5474445473
 31
0.0
  0
LINE
  5
385
330
1F
100
AcDbEntity
  8
0
  6
Continuous
 62
     7
370
    25
100
AcDbLine
 10
675.6153098709
 20
182.0474445473
 30
0.0
 11
675.6619254545
 21
182.0474445473
 31
0.0
  0
LINE
  5
386
330
1F
100
AcDbEntity
  8
0
  6
Continuous
 62
     7
370
    25
100
AcDbLine
 10
687.1653098709
 20
182.0474445473
 30
0.0
 11
687.3795805893
 21
182.0545156151
 31
0.0
  0
LINE
  5
387
330
1F
100
AcDbEntity
  8
0
  6
Continuous
 62
     7
370
    25
100
AcDbLine
 10
296.4510391525
 20
182.0945156151
 30
0.0
 11
296.6653098709
 21
182.0874445473
 31
0.0
  0
LINE
  5
388
330
1F
100
AcDbEntity
  8
0
  6
Continuous
 62
     7
370
    25
100
AcDbLine
 10
383.4153098709
 20
19.2874445473
 30
0.0
 11
326.4153098709
 21
19.2874445473
 31
0.0
  0
LINE
  5
389
330
1F
100
AcDbEntity
  8
0
  6
Continuous
 62
     7
370
    25
100
AcDbLine
 10
381.4153098709
 20
13.2874445473
 30
0.0
 11
328.4153098709
 21
13.2874445473
 31
0.0
  0
LINE
  5
38A
330
1F
100
AcDbEntity
  8
0
  6
Continuous
 62
     7
370
    25
100
AcDbLine
 10
655.4153098709
 20
13.2874445473
 30
0.0
 11
602.4153098709
 21
13.2874445473
 31
0.0
  0
LINE
  5
38B
330
1F
100
AcDbEntity
  8
0
  6
Continuous
 62
     7
370
    25
100
AcDbLine
 10
657.4153098709
 20
19.2874445473
 30
0.0
 11
600.4153098709
 21
19.2874445473
 31
0.0
  0
LINE
  5
38C
330
1F
100
AcDbEntity
  8
0
  6
Continuous
 62
     7
370
    25
100
AcDbLine
 10
389.9153098709
 20
181.2874445473
 30
0.0
 11
389.9153098709
 21
182.0874445473
 31
0.0
  0
LINE
  5
38D
330
1F
100
AcDbEntity
  8
0
  6
Continuous
 62
     7
370
    25
100
AcDbLine
 10
361.9653098709
 20
181.2874445473
 30
0.0
 11
389.9153098709
 21
181.2874445473
 31
0.0
  0
LINE
  5
38E
330
1F
100
AcDbEntity
  8
0
  6
Continuous
 62
     7
370
    25
100
AcDbLine
 10
385.8749600913
 20
87.2874445473
 30
0.0
 11
323.9556596506
 21
87.2874445473
 31
0.0
  0
LINE
  5
38F
330
1F
100
AcDbEntity
  8
0
  6
Continuous
 62
     7
370
    25
100
AcDbLine
 10
663.9153098709
 20
181.2874445473
 30
0.0
 11
663.9153098709
 21
182.0874445473
 31
0.0
  0
LINE
  5
390
330
1F
100
AcDbEntity
  8
0
  6
Continuous
 62
     7
370
    25
100
AcDbLine
 10
593.9153098709
 20
181.2874445473
 30
0.0
 11
663.9153098709
 21
181.2874445473
 31
0.0
  0
LINE
  5
391
330
1F
100
AcDbEntity
  8
0
  6
Continuous
 62
     7
370
    25
100
AcDbLine
 10
593.9153098709
 20
181.2874445473
 30
0.0
 11
593.9153098709
 21
182.0874445473
 31
0.0
  0
LINE
  5
392
330
1F
100
AcDbEntity
  8
0
  6
Continuous
 62
     7
370
    25
100
AcDbLine
 10
659.8749600913
 20
87.2874445473
 30
0.0
 11
597.9556596506
 21
87.2874445473
 31
0.0
  0
ENDSEC
  0
SECTION
  2
OBJECTS
  0
DICTIONARY
  5
C
330
0
100
AcDbDictionary
281
     1
  3
ACAD_GROUP
350
D
  3
ACAD_LAYOUT
350
1A
  3
ACAD_MLINESTYLE
350
17
  3
ACAD_PLOTSETTINGS
350
19
  3
ACAD_PLOTSTYLENAME
350
E
  3
ACAD_SCALELIST
350
47
  0
DICTIONARY
  5
D
102
{ACAD_REACTORS
330
C
102
}
330
C
100
AcDbDictionary
281
     1
  0
DICTIONARY
  5
1A
102
{ACAD_REACTORS
330
C
102
}
330
C
100
AcDbDictionary
281
     1
  3
Layout1
350
1E
  3
Layout2
350
26
  3
Model
350
22
  0
DICTIONARY
  5
17
102
{ACAD_REACTORS
330
C
102
}
330
C
100
AcDbDictionary
281
     1
  3
Standard
350
18
  0
DICTIONARY
  5
19
102
{ACAD_REACTORS
330
C
102
}
330
C
100
AcDbDictionary
281
     1
  0
ACDBDICTIONARYWDFLT
  5
E
102
{ACAD_REACTORS
330
C
102
}
330
C
100
AcDbDictionary
281
     1
  3
Normal
350
F
100
AcDbDictionaryWithDefault
340
F
  0
DICTIONARY
  5
47
102
{ACAD_REACTORS
330
C
102
}
330
C
100
AcDbDictionary
281
     1
  3
A0
350
48
  3
A1
350
49
  3
A2
350
4A
  3
A3
350
4B
  3
A4
350
4C
  3
A5
350
4D
  3
A6
350
4E
  3
A7
350
4F
  3
A8
350
50
  3
A9
350
51
  3
B0
350
52
  3
B1
350
53
  3
B2
350
54
  3
B3
350
55
  3
B4
350
56
  3
B5
350
57
  3
B6
350
58
  3
B7
350
59
  3
B8
350
5A
  3
B9
350
5B
  3
C0
350
5C
  3
C1
350
5D
  3
C2
350
5E
  3
C3
350
5F
  3
C4
350
60
  3
C5
350
61
  3
C6
350
62
  3
C7
350
63
  3
C8
350
64
  3
C9
350
65
  3
D0
350
66
  3
D1
350
67
  3
D2
350
68
  0
LAYOUT
  5
1E
102
{ACAD_REACTORS
330
1A
102
}
330
1A
100
AcDbPlotSettings
  1

  2
none_device
  4

  6

 40
0.0
 41
0.0
 42
0.0
 43
0.0
 44
0.0
 45
0.0
 46
0.0
 47
0.0
 48
0.0
 49
0.0
140
0.0
141
0.0
142
1.0
143
1.0
 70
   688
 72
     1
 73
     0
 74
     5
  7

 75
    16
147
1.0
148
0.0
149
0.0
100
AcDbLayout
  1
Layout1
 70
     1
 71
     1
 10
0.0
 20
0.0
 11
420.0
 21
297.0
 12
0.0
 22
0.0
 32
0.0
 14
1.0000000000E+20
 24
1.0000000000E+20
 34
1.0000000000E+20
 15
-1.0000000000E+20
 25
-1.0000000000E+20
 35
-1.0000000000E+20
146
0.0
 13
0.0
 23
0.0
 33
0.0
 16
1.0
 26
0.0
 36
0.0
 17
0.0
 27
1.0
 37
0.0
 76
     0
330
1B
  0
LAYOUT
  5
26
102
{ACAD_REACTORS
330
1A
102
}
330
1A
100
AcDbPlotSettings
  1

  2
none_device
  4

  6

 40
0.0
 41
0.0
 42
0.0
 43
0.0
 44
0.0
 45
0.0
 46
0.0
 47
0.0
 48
0.0
 49
0.0
140
0.0
141
0.0
142
1.0
143
1.0
 70
   688
 72
     1
 73
     0
 74
     5
  7

 75
    16
147
1.0
148
0.0
149
0.0
100
AcDbLayout
  1
Layout2
 70
     1
 71
     2
 10
0.0
 20
0.0
 11
0.0
 21
0.0
 12
0.0
 22
0.0
 32
0.0
 14
0.0
 24
0.0
 34
0.0
 15
0.0
 25
0.0
 35
0.0
146
0.0
 13
0.0
 23
0.0
 33
0.0
 16
1.0
 26
0.0
 36
0.0
 17
0.0
 27
1.0
 37
0.0
 76
     0
330
23
  0
LAYOUT
  5
22
102
{ACAD_REACTORS
330
1A
102
}
330
1A
100
AcDbPlotSettings
  1

  2
none_device
  4
Letter_(8.50_x_11.00_Inches)
  6

 40
6.35
 41
6.35
 42
6.35000508
 43
6.35000508
 44
215.9
 45
279.4
 46
0.0
 47
0.0
 48
0.0
 49
0.0
140
0.0
141
0.0
142
1.0
143
1.0
 70
  1712
 72
     1
 73
     0
 74
     0
  7

 75
     0
147
1.0
148
0.0
149
0.0
100
AcDbLayout
  1
Model
 70
     1
 71
     0
 10
0.0
 20
0.0
 11
950.0
 21
950.0
 12
0.0
 22
0.0
 32
0.0
 14
0.0
 24
0.0
 34
0.0
 15
950.0
 25
950.0
 35
0.0
146
0.0
 13
0.0
 23
0.0
 33
0.0
 16
1.0
 26
0.0
 36
0.0
 17
0.0
 27
1.0
 37
0.0
 76
     0
330
1F
331
29
  0
MLINESTYLE
  5
18
102
{ACAD_REACTORS
330
17
102
}
330
17
100
AcDbMlineStyle
  2
Standard
 70
     0
  3

 62
   256
 51
90.0
 52
90.0
 71
     2
 49
0.5
 62
   256
  6
BYLAYER
 49
-0.5
 62
   256
  6
BYLAYER
  0
ACDBPLACEHOLDER
  5
F
102
{ACAD_REACTORS
330
E
102
}
330
E
  0
SCALE
  5
48
102
{ACAD_REACTORS
330
47
102
}
330
47
100
AcDbScale
 70
     0
300
1:1
140
1.0
141
1.0
290
     1
  0
SCALE
  5
49
102
{ACAD_REACTORS
330
47
102
}
330
47
100
AcDbScale
 70
     0
300
1:2
140
1.0
141
2.0
290
     0
  0
SCALE
  5
4A
102
{ACAD_REACTORS
330
47
102
}
330
47
100
AcDbScale
 70
     0
300
1:4
140
1.0
141
4.0
290
     0
  0
SCALE
  5
4B
102
{ACAD_REACTORS
330
47
102
}
330
47
100
AcDbScale
 70
     0
300
1:5
140
1.0
141
5.0
290
     0
  0
SCALE
  5
4C
102
{ACAD_REACTORS
330
47
102
}
330
47
100
AcDbScale
 70
     0
300
1:8
140
1.0
141
8.0
290
     0
  0
SCALE
  5
4D
102
{ACAD_REACTORS
330
47
102
}
330
47
100
AcDbScale
 70
     0
300
1:10
140
1.0
141
10.0
290
     0
  0
SCALE
  5
4E
102
{ACAD_REACTORS
330
47
102
}
330
47
100
AcDbScale
 70
     0
300
1:16
140
1.0
141
16.0
290
     0
  0
SCALE
  5
4F
102
{ACAD_REACTORS
330
47
102
}
330
47
100
AcDbScale
 70
     0
300
1:20
140
1.0
141
20.0
290
     0
  0
SCALE
  5
50
102
{ACAD_REACTORS
330
47
102
}
330
47
100
AcDbScale
 70
     0
300
1:30
140
1.0
141
30.0
290
     0
  0
SCALE
  5
51
102
{ACAD_REACTORS
330
47
102
}
330
47
100
AcDbScale
 70
     0
300
1:40
140
1.0
141
40.0
290
     0
  0
SCALE
  5
52
102
{ACAD_REACTORS
330
47
102
}
330
47
100
AcDbScale
 70
     0
300
1:50
140
1.0
141
50.0
290
     0
  0
SCALE
  5
53
102
{ACAD_REACTORS
330
47
102
}
330
47
100
AcDbScale
 70
     0
300
1:100
140
1.0
141
100.0
290
     0
  0
SCALE
  5
54
102
{ACAD_REACTORS
330
47
102
}
330
47
100
AcDbScale
 70
     0
300
2:1
140
2.0
141
1.0
290
     0
  0
SCALE
  5
55
102
{ACAD_REACTORS
330
47
102
}
330
47
100
AcDbScale
 70
     0
300
4:1
140
4.0
141
1.0
290
     0
  0
SCALE
  5
56
102
{ACAD_REACTORS
330
47
102
}
330
47
100
AcDbScale
 70
     0
300
8:1
140
8.0
141
1.0
290
     0
  0
SCALE
  5
57
102
{ACAD_REACTORS
330
47
102
}
330
47
100
AcDbScale
 70
     0
300
10:1
140
10.0
141
1.0
290
     0
  0
SCALE
  5
58
102
{ACAD_REACTORS
330
47
102
}
330
47
100
AcDbScale
 70
     0
300
100:1
140
100.0
141
1.0
290
     0
  0
SCALE
  5
59
102
{ACAD_REACTORS
330
47
102
}
330
47
100
AcDbScale
 70
     0
300
1/128" = 1'-0"
140
0.0078125
141
12.0
290
     0
  0
SCALE
  5
5A
102
{ACAD_REACTORS
330
47
102
}
330
47
100
AcDbScale
 70
     0
300
1/64" = 1'-0"
140
0.015625
141
12.0
290
     0
  0
SCALE
  5
5B
102
{ACAD_REACTORS
330
47
102
}
330
47
100
AcDbScale
 70
     0
300
1/32" = 1'-0"
140
0.03125
141
12.0
290
     0
  0
SCALE
  5
5C
102
{ACAD_REACTORS
330
47
102
}
330
47
100
AcDbScale
 70
     0
300
1/16" = 1'-0"
140
0.0625
141
12.0
290
     0
  0
SCALE
  5
5D
102
{ACAD_REACTORS
330
47
102
}
330
47
100
AcDbScale
 70
     0
300
3/32" = 1'-0"
140
0.09375
141
12.0
290
     0
  0
SCALE
  5
5E
102
{ACAD_REACTORS
330
47
102
}
330
47
100
AcDbScale
 70
     0
300
1/8" = 1'-0"
140
0.125
141
12.0
290
     0
  0
SCALE
  5
5F
102
{ACAD_REACTORS
330
47
102
}
330
47
100
AcDbScale
 70
     0
300
3/16" = 1'-0"
140
0.1875
141
12.0
290
     0
  0
SCALE
  5
60
102
{ACAD_REACTORS
330
47
102
}
330
47
100
AcDbScale
 70
     0
300
1/4" = 1'-0"
140
0.25
141
12.0
290
     0
  0
SCALE
  5
61
102
{ACAD_REACTORS
330
47
102
}
330
47
100
AcDbScale
 70
     0
300
3/8" = 1'-0"
140
0.375
141
12.0
290
     0
  0
SCALE
  5
62
102
{ACAD_REACTORS
330
47
102
}
330
47
100
AcDbScale
 70
     0
300
1/2" = 1'-0"
140
0.5
141
12.0
290
     0
  0
SCALE
  5
63
102
{ACAD_REACTORS
330
47
102
}
330
47
100
AcDbScale
 70
     0
300
3/4" = 1'-0"
140
0.75
141
12.0
290
     0
  0
SCALE
  5
64
102
{ACAD_REACTORS
330
47
102
}
330
47
100
AcDbScale
 70
     0
300
1" = 1'-0"
140
1.0
141
12.0
290
     0
  0
SCALE
  5
65
102
{ACAD_REACTORS
330
47
102
}
330
47
100
AcDbScale
 70
     0
300
1-1/2" = 1'-0"
140
1.5
141
12.0
290
     0
  0
SCALE
  5
66
102
{ACAD_REACTORS
330
47
102
}
330
47
100
AcDbScale
 70
     0
300
3" = 1'-0"
140
3.0
141
12.0
290
     0
  0
SCALE
  5
67
102
{ACAD_REACTORS
330
47
102
}
330
47
100
AcDbScale
 70
     0
300
6" = 1'-0"
140
6.0
141
12.0
290
     0
  0
SCALE
  5
68
102
{ACAD_REACTORS
330
47
102
}
330
47
100
AcDbScale
 70
     0
300
1'-0" = 1'-0"
140
12.0
141
12.0
290
     0
  0
ENDSEC
  0
EOF
