  0
SECTION
  2
HEADER
  9
$ACADVER
  1
AC1015
  9
$ACADMAINTVER
 70
     6
  9
$DWGCODEPAGE
  3
ANSI_1252
  9
$INSBASE
 10
0.0
 20
0.0
 30
0.0
  9
$EXTMIN
 10
0.0
 20
0.0
 30
0.0
  9
$EXTMAX
 10
950.0
 20
950.0
 30
0.0
  9
$LIMMIN
 10
0.0
 20
0.0
  9
$LIMMAX
 10
950.0
 20
950.0
  9
$ORTHOMODE
 70
     0
  9
$REGENMODE
 70
     1
  9
$FILLMODE
 70
     1
  9
$QTEXTMODE
 70
     0
  9
$MIRRTEXT
 70
     1
  9
$LTSCALE
 40
1.0
  9
$ATTMODE
 70
     1
  9
$TEXTSIZE
 40
3.5
  9
$TRACEWID
 40
1.0
  9
$TEXTSTYLE
  7
Standard
  9
$CLAYER
  8
0
  9
$CELTYPE
  6
ByLayer
  9
$CECOLOR
 62
   256
  9
$CELTSCALE
 40
1.0
  9
$DISPSILH
 70
     0
  9
$DIMSCALE
 40
1.0
  9
$DIMASZ
 40
3.302
  9
$DIMEXO
 40
1.0
  9
$DIMDLI
 40
3.75
  9
$DIMRND
 40
0.0
  9
$DIMDLE
 40
0.0
  9
$DIMEXE
 40
1.0
  9
$DIMTP
 40
0.0
  9
$DIMTM
 40
0.0
  9
$DIMTXT
 40
3.5
  9
$DIMCEN
 40
2.5
  9
$DIMTSZ
 40
0.0
  9
$DIMTOL
 70
     0
  9
$DIMLIM
 70
     0
  9
$DIMTIH
 70
     1
  9
$DIMTOH
 70
     1
  9
$DIMSE1
 70
     0
  9
$DIMSE2
 70
     0
  9
$DIMTAD
 70
     1
  9
$DIMZIN
 70
     0
  9
$DIMBLK
  1

  9
$DIMASO
 70
     1
  9
$DIMSHO
 70
     1
  9
$DIMPOST
  1

  9
$DIMAPOST
  1

  9
$DIMALT
 70
     0
  9
$DIMALTD
 70
     3
  9
$DIMALTF
 40
0.0393700787
  9
$DIMLFAC
 40
1.0
  9
$DIMTOFL
 70
     1
  9
$DIMTVP
 40
0.0
  9
$DIMTIX
 70
     0
  9
$DIMSOXD
 70
     0
  9
$DIMSAH
 70
     0
  9
$DIMBLK1
  1

  9
$DIMBLK2
  1

  9
$DIMSTYLE
  2
ISO-25
  9
$DIMCLRD
 70
     0
  9
$DIMCLRE
 70
     0
  9
$DIMCLRT
 70
     0
  9
$DIMTFAC
 40
1.0
  9
$DIMGAP
 40
5.0
  9
$DIMJUST
 70
     0
  9
$DIMSD1
 70
     0
  9
$DIMSD2
 70
     0
  9
$DIMTOLJ
 70
     0
  9
$DIMTZIN
 70
     0
  9
$DIMALTZ
 70
     0
  9
$DIMALTTZ
 70
     0
  9
$DIMUPT
 70
     0
  9
$DIMDEC
 70
     1
  9
$DIMTDEC
 70
     1
  9
$DIMALTU
 70
     2
  9
$DIMALTTD
 70
     3
  9
$DIMTXSTY
  7
Standard
  9
$DIMAUNIT
 70
     0
  9
$DIMADEC
 70
     1
  9
$DIMALTRND
 40
0.0
  9
$DIMAZIN
 70
     0
  9
$DIMDSEP
 70
    44
  9
$DIMATFIT
 70
     3
  9
$DIMFRAC
 70
     0
  9
$DIMLDRBLK
  1

  9
$DIMLUNIT
 70
     2
  9
$DIMLWD
 70
    -2
  9
$DIMLWE
 70
    -2
  9
$DIMTMOVE
 70
     0
  9
$LUNITS
 70
     2
  9
$LUPREC
 70
     1
  9
$SKETCHINC
 40
1.0
  9
$FILLETRAD
 40
10.0
  9
$AUNITS
 70
     0
  9
$AUPREC
 70
     1
  9
$MENU
  1
.
  9
$ELEVATION
 40
0.0
  9
$PELEVATION
 40
0.0
  9
$THICKNESS
 40
0.0
  9
$LIMCHECK
 70
     0
  9
$CHAMFERA
 40
0.0
  9
$CHAMFERB
 40
0.0
  9
$CHAMFERC
 40
0.0
  9
$CHAMFERD
 40
0.0
  9
$SKPOLY
 70
     0
  9
$TDCREATE
 40
2457905.355174039
  9
$TDUCREATE
 40
2457905.313507373
  9
$TDUPDATE
 40
2457905.355175463
  9
$TDUUPDATE
 40
2457905.313508797
  9
$TDINDWG
 40
0.0000000116
  9
$TDUSRTIMER
 40
0.0000000116
  9
$USRTIMER
 70
     1
  9
$ANGBASE
 50
0.0
  9
$ANGDIR
 70
     0
  9
$PDMODE
 70
     0
  9
$PDSIZE
 40
-1.0
  9
$PLINEWID
 40
0.0
  9
$SPLFRAME
 70
     0
  9
$SPLINETYPE
 70
     6
  9
$SPLINESEGS
 70
     8
  9
$HANDSEED
  5
2E0
  9
$SURFTAB1
 70
     6
  9
$SURFTAB2
 70
     6
  9
$SURFTYPE
 70
     6
  9
$SURFU
 70
     6
  9
$SURFV
 70
     6
  9
$UCSBASE
  2

  9
$UCSNAME
  2

  9
$UCSORG
 10
0.0
 20
0.0
 30
0.0
  9
$UCSXDIR
 10
1.0
 20
0.0
 30
0.0
  9
$UCSYDIR
 10
0.0
 20
1.0
 30
0.0
  9
$UCSORTHOREF
  2

  9
$UCSORTHOVIEW
 70
     0
  9
$UCSORGTOP
 10
0.0
 20
0.0
 30
0.0
  9
$UCSORGBOTTOM
 10
0.0
 20
0.0
 30
0.0
  9
$UCSORGLEFT
 10
0.0
 20
0.0
 30
0.0
  9
$UCSORGRIGHT
 10
0.0
 20
0.0
 30
0.0
  9
$UCSORGFRONT
 10
0.0
 20
0.0
 30
0.0
  9
$UCSORGBACK
 10
0.0
 20
0.0
 30
0.0
  9
$PUCSBASE
  2

  9
$PUCSNAME
  2

  9
$PUCSORG
 10
0.0
 20
0.0
 30
0.0
  9
$PUCSXDIR
 10
1.0
 20
0.0
 30
0.0
  9
$PUCSYDIR
 10
0.0
 20
1.0
 30
0.0
  9
$PUCSORTHOREF
  2

  9
$PUCSORTHOVIEW
 70
     0
  9
$PUCSORGTOP
 10
0.0
 20
0.0
 30
0.0
  9
$PUCSORGBOTTOM
 10
0.0
 20
0.0
 30
0.0
  9
$PUCSORGLEFT
 10
0.0
 20
0.0
 30
0.0
  9
$PUCSORGRIGHT
 10
0.0
 20
0.0
 30
0.0
  9
$PUCSORGFRONT
 10
0.0
 20
0.0
 30
0.0
  9
$PUCSORGBACK
 10
0.0
 20
0.0
 30
0.0
  9
$USERI1
 70
     0
  9
$USERI2
 70
     0
  9
$USERI3
 70
     0
  9
$USERI4
 70
     0
  9
$USERI5
 70
     0
  9
$USERR1
 40
0.0
  9
$USERR2
 40
0.0
  9
$USERR3
 40
0.0
  9
$USERR4
 40
0.0
  9
$USERR5
 40
0.0
  9
$WORLDVIEW
 70
     1
  9
$SHADEDGE
 70
     3
  9
$SHADEDIF
 70
    70
  9
$TILEMODE
 70
     1
  9
$MAXACTVP
 70
    64
  9
$PINSBASE
 10
0.0
 20
0.0
 30
0.0
  9
$PLIMCHECK
 70
     0
  9
$PEXTMIN
 10
1.0000000000E+20
 20
1.0000000000E+20
 30
1.0000000000E+20
  9
$PEXTMAX
 10
-1.0000000000E+20
 20
-1.0000000000E+20
 30
-1.0000000000E+20
  9
$PLIMMIN
 10
0.0
 20
0.0
  9
$PLIMMAX
 10
420.0
 20
297.0
  9
$UNITMODE
 70
     0
  9
$VISRETAIN
 70
     1
  9
$PLINEGEN
 70
     0
  9
$PSLTSCALE
 70
     1
  9
$TREEDEPTH
 70
  3020
  9
$CMLSTYLE
  2
Standard
  9
$CMLJUST
 70
     0
  9
$CMLSCALE
 40
20.0
  9
$PROXYGRAPHICS
 70
     1
  9
$MEASUREMENT
 70
     1
  9
$CELWEIGHT
370
    -1
  9
$ENDCAPS
280
     0
  9
$JOINSTYLE
280
     0
  9
$LWDISPLAY
290
     1
  9
$INSUNITS
 70
     4
  9
$HYPERLINKBASE
  1

  9
$STYLESHEET
  1

  9
$XEDIT
290
     1
  9
$CEPSNTYPE
380
     0
  9
$PSTYLEMODE
290
     1
  9
$FINGERPRINTGUID
  2
{3C43B75F-5EA0-4A31-92F1-64ED06429626}
  9
$VERSIONGUID
  2
{FAEB1C32-E019-11D5-929B-00C0DF256EC4}
  9
$EXTNAMES
290
     1
  9
$PSVPSCALE
 40
0.0
  9
$OLESTARTUP
290
     0
  0
ENDSEC
  0
SECTION
  2
CLASSES
  0
CLASS
  1
ACDBDICTIONARYWDFLT
  2
AcDbDictionaryWithDefault
  3
ObjectDBX Classes
 90
        0
280
     0
281
     0
  0
CLASS
  1
VISUALSTYLE
  2
AcDbVisualStyle
  3
ObjectDBX Classes
 90
     4095
280
     0
281
     0
  0
CLASS
  1
MATERIAL
  2
AcDbMaterial
  3
ObjectDBX Classes
 90
     1153
280
     0
281
     0
  0
CLASS
  1
SCALE
  2
AcDbScale
  3
ObjectDBX Classes
 90
     1153
280
     0
281
     0
  0
CLASS
  1
TABLESTYLE
  2
AcDbTableStyle
  3
ObjectDBX Classes
 90
     4095
280
     0
281
     0
  0
CLASS
  1
MLEADERSTYLE
  2
AcDbMLeaderStyle
  3
ACDB_MLEADERSTYLE_CLASS
 90
     4095
280
     0
281
     0
  0
CLASS
  1
SUN
  2
AcDbSun
  3
SCENEOE
 90
     1153
280
     0
281
     0
  0
CLASS
  1
ACDBPLACEHOLDER
  2
AcDbPlaceHolder
  3
ObjectDBX Classes
 90
        0
280
     0
281
     0
  0
CLASS
  1
LAYOUT
  2
AcDbLayout
  3
ObjectDBX Classes
 90
        0
280
     0
281
     0
  0
ENDSEC
  0
SECTION
  2
TABLES
  0
TABLE
  2
VPORT
  5
8
330
0
100
AcDbSymbolTable
 70
     1
  0
VPORT
  5
29
330
8
100
AcDbSymbolTableRecord
100
AcDbViewportTableRecord
  2
*Active
 70
     0
 10
0.0
 20
0.0
 11
1.0
 21
1.0
 12
475.0
 22
475.0
 13
0.0
 23
0.0
 14
10.0
 24
10.0
 15
10.0
 25
10.0
 16
0.0
 26
0.0
 36
1.0
 17
0.0
 27
0.0
 37
0.0
 40
950.0
 41
1.0
 42
50.0
 43
0.0
 44
0.0
 50
0.0
 51
0.0
 71
     0
 72
  2000
 73
     1
 74
     3
 75
     0
 76
     0
 77
     0
 78
     0
281
     0
 65
     1
110
0.0
120
0.0
130
0.0
111
1.0
121
0.0
131
0.0
112
0.0
122
1.0
132
0.0
 79
     0
146
0.0
  0
ENDTAB
  0
TABLE
  2
LTYPE
  5
5
330
0
100
AcDbSymbolTable
 70
     6
  0
LTYPE
  5
14
330
5
100
AcDbSymbolTableRecord
100
AcDbLinetypeTableRecord
  2
ByBlock
 70
     0
  3

 72
    65
 73
     0
 40
0.0
  0
LTYPE
  5
15
330
5
100
AcDbSymbolTableRecord
100
AcDbLinetypeTableRecord
  2
ByLayer
 70
     0
  3

 72
    65
 73
     0
 40
0.0
  0
LTYPE
  5
16
330
5
100
AcDbSymbolTableRecord
100
AcDbLinetypeTableRecord
  2
Continuous
 70
     0
  3
Solid line
 72
    65
 73
     0
 40
0.0
  0
LTYPE
  5
6E
330
5
100
AcDbSymbolTableRecord
100
AcDbLinetypeTableRecord
  2
HIDDEN
 70
     0
  3
Hidden __ __ __ __ __ __ __ __ __ __ __ __ __ __
 72
    65
 73
     2
 40
1.905
 49
1.27
 74
     0
 49
-0.635
 74
     0
  0
LTYPE
  5
6F
330
5
100
AcDbSymbolTableRecord
100
AcDbLinetypeTableRecord
  2
PHANTOM
 70
     0
  3
Phantom ______  __  __  ______  __  __  ______
 72
    65
 73
     6
 40
12.7
 49
6.35
 74
     0
 49
-1.27
 74
     0
 49
1.27
 74
     0
 49
-1.27
 74
     0
 49
1.27
 74
     0
 49
-1.27
 74
     0
  0
LTYPE
  5
70
330
5
100
AcDbSymbolTableRecord
100
AcDbLinetypeTableRecord
  2
CENTER
 70
     0
  3
Center ____ _ ____ _ ____ _ ____ _ ____ _ ____
 72
    65
 73
     4
 40
10.16
 49
6.35
 74
     0
 49
-1.27
 74
     0
 49
1.27
 74
     0
 49
-1.27
 74
     0
  0
LTYPE
  5
71
330
5
100
AcDbSymbolTableRecord
100
AcDbLinetypeTableRecord
  2
CENTERX2
 70
     0
  3
Center (2x) ________  __  ________  __  _____
 72
    65
 73
     4
 40
20.32
 49
12.7
 74
     0
 49
-2.54
 74
     0
 49
2.54
 74
     0
 49
-2.54
 74
     0
  0
LTYPE
  5
72
330
5
100
AcDbSymbolTableRecord
100
AcDbLinetypeTableRecord
  2
DOT2
 70
     0
  3
Dot (.5x) ........................................
 72
    65
 73
     2
 40
0.635
 49
0.0
 74
     0
 49
-0.635
 74
     0
  0
ENDTAB
  0
TABLE
  2
LAYER
  5
2
330
0
100
AcDbSymbolTable
 70
     4
  0
LAYER
  5
10
330
2
100
AcDbSymbolTableRecord
100
AcDbLayerTableRecord
  2
0
 70
     0
 62
     7
  6
Continuous
370
    -3
390
F
  0
LAYER
  5
73
330
2
100
AcDbSymbolTableRecord
100
AcDbLayerTableRecord
  2
FORMAT
 70
     0
 62
     7
  6
Continuous
370
    -3
390
F
  0
LAYER
  5
74
330
2
100
AcDbSymbolTableRecord
100
AcDbLayerTableRecord
  2
SLD-0
 70
     0
 62
     1
  6
Continuous
370
    -3
390
F
  0
LAYER
  5
75
330
2
100
AcDbSymbolTableRecord
100
AcDbLayerTableRecord
  2
WATERMARK
 70
     0
 62
     1
  6
Continuous
370
    -3
390
F
  0
ENDTAB
  0
TABLE
  2
STYLE
  5
3
330
0
100
AcDbSymbolTable
 70
     1
  0
STYLE
  5
11
330
3
100
AcDbSymbolTableRecord
100
AcDbTextStyleTableRecord
  2
Standard
 70
     0
 40
0.0
 41
1.0
 50
0.0
 71
     0
 42
3.5
  3
txt
  4

  0
ENDTAB
  0
TABLE
  2
VIEW
  5
6
330
0
100
AcDbSymbolTable
 70
     0
  0
ENDTAB
  0
TABLE
  2
UCS
  5
7
330
0
100
AcDbSymbolTable
 70
     0
  0
ENDTAB
  0
TABLE
  2
APPID
  5
9
330
0
100
AcDbSymbolTable
 70
     1
  0
APPID
  5
12
330
9
100
AcDbSymbolTableRecord
100
AcDbRegAppTableRecord
  2
ACAD
 70
     0
  0
ENDTAB
  0
TABLE
  2
DIMSTYLE
  5
A
330
0
100
AcDbSymbolTable
 70
     1
100
AcDbDimStyleTable
  0
DIMSTYLE
105
27
330
A
100
AcDbSymbolTableRecord
100
AcDbDimStyleTableRecord
  2
ISO-25
 70
     0
 41
2.5
 42
0.625
 43
3.75
 44
1.25
 73
     0
 74
     0
 77
     1
 78
     8
140
2.5
141
2.5
143
0.0393700787
147
0.625
171
     3
172
     1
178
     0
271
     2
272
     2
274
     3
278
    44
283
     0
284
     8
340
11
  0
ENDTAB
  0
TABLE
  2
BLOCK_RECORD
  5
1
330
0
100
AcDbSymbolTable
 70
     1
  0
BLOCK_RECORD
  5
1F
330
1
100
AcDbSymbolTableRecord
100
AcDbBlockTableRecord
  2
*Model_Space
340
22
  0
BLOCK_RECORD
  5
1B
330
1
100
AcDbSymbolTableRecord
100
AcDbBlockTableRecord
  2
*Paper_Space
340
1E
  0
BLOCK_RECORD
  5
23
330
1
100
AcDbSymbolTableRecord
100
AcDbBlockTableRecord
  2
*Paper_Space0
340
26
  0
ENDTAB
  0
ENDSEC
  0
SECTION
  2
BLOCKS
  0
BLOCK
  5
20
330
1F
100
AcDbEntity
  8
0
100
AcDbBlockBegin
  2
*Model_Space
 70
     0
 10
0.0
 20
0.0
 30
0.0
  3
*Model_Space
  1

  0
ENDBLK
  5
21
330
1F
100
AcDbEntity
  8
0
100
AcDbBlockEnd
  0
BLOCK
  5
1C
330
1B
100
AcDbEntity
 67
     1
  8
0
100
AcDbBlockBegin
  2
*Paper_Space
 70
     0
 10
0.0
 20
0.0
 30
0.0
  3
*Paper_Space
  1

  0
ENDBLK
  5
1D
330
1B
100
AcDbEntity
 67
     1
  8
0
100
AcDbBlockEnd
  0
BLOCK
  5
24
330
23
100
AcDbEntity
  8
0
100
AcDbBlockBegin
  2
*Paper_Space0
 70
     0
 10
0.0
 20
0.0
 30
0.0
  3
*Paper_Space0
  1

  0
ENDBLK
  5
25
330
23
100
AcDbEntity
  8
0
100
AcDbBlockEnd
  0
ENDSEC
  0
SECTION
  2
ENTITIES
  0
LINE
  5
76
330
1F
100
AcDbEntity
  8
0
  6
Continuous
 62
     7
370
    25
100
AcDbLine
 10
922.9393623988
 20
741.1323386358
 30
0.0
 11
922.8487316201
 21
741.0900768097
 31
0.0
  0
LINE
  5
77
330
1F
100
AcDbEntity
  8
0
  6
Continuous
 62
     7
370
    25
100
AcDbLine
 10
892.2914074679
 20
657.700842007
 30
0.0
 11
892.2914074679
 21
660.700842007
 31
0.0
  0
LINE
  5
78
330
1F
100
AcDbEntity
  8
0
  6
Continuous
 62
     7
370
    25
100
AcDbLine
 10
878.2914074679
 20
657.700842007
 30
0.0
 11
878.2914074679
 21
655.0874445473
 31
0.0
  0
LINE
  5
79
330
1F
100
AcDbEntity
  8
0
  6
Continuous
 62
     7
370
    25
100
AcDbLine
 10
888.2914074679
 20
655.0874445473
 30
0.0
 11
888.2914074679
 21
657.700842007
 31
0.0
  0
LINE
  5
7A
330
1F
100
AcDbEntity
  8
0
  6
Continuous
 62
     7
370
    25
100
AcDbLine
 10
891.7914074679
 20
178.5874445473
 30
0.0
 11
891.7914074679
 21
181.5874445473
 31
0.0
  0
LINE
  5
7B
330
1F
100
AcDbEntity
  8
0
  6
Continuous
 62
     7
370
    25
100
AcDbLine
 10
846.8914074679
 20
442.9874445473
 30
0.0
 11
840.2914074679
 21
442.9874445473
 31
0.0
  0
LINE
  5
7C
330
1F
100
AcDbEntity
  8
0
  6
Continuous
 62
     7
370
    25
100
AcDbLine
 10
840.2914074679
 20
422.9874445473
 30
0.0
 11
846.8914074679
 21
422.9874445473
 31
0.0
  0
LINE
  5
7D
330
1F
100
AcDbEntity
  8
0
  6
Continuous
 62
     7
370
    25
100
AcDbLine
 10
891.7914074679
 20
654.5874445473
 30
0.0
 11
891.2914074679
 21
655.0874445473
 31
0.0
  0
LINE
  5
7E
330
1F
100
AcDbEntity
  8
0
  6
Continuous
 62
     7
370
    25
100
AcDbLine
 10
875.2914074679
 20
655.0874445473
 30
0.0
 11
874.7914074679
 21
654.5874445473
 31
0.0
  0
LINE
  5
7F
330
1F
100
AcDbEntity
  8
0
  6
Continuous
 62
     7
370
    25
100
AcDbLine
 10
891.7914074679
 20
653.0874445473
 30
0.0
 11
891.7914074679
 21
654.5874445473
 31
0.0
  0
LINE
  5
80
330
1F
100
AcDbEntity
  8
0
  6
Continuous
 62
     7
370
    25
100
AcDbLine
 10
874.7914074679
 20
654.5874445473
 30
0.0
 11
874.7914074679
 21
653.0874445473
 31
0.0
  0
LINE
  5
81
330
1F
100
AcDbEntity
  8
0
  6
Continuous
 62
     7
370
    25
100
AcDbLine
 10
874.7914074679
 20
653.0874445473
 30
0.0
 11
875.2914074679
 21
652.5874445473
 31
0.0
  0
LINE
  5
82
330
1F
100
AcDbEntity
  8
0
  6
Continuous
 62
     7
370
    25
100
AcDbLine
 10
891.2914074679
 20
652.5874445473
 30
0.0
 11
891.7914074679
 21
653.0874445473
 31
0.0
  0
LINE
  5
83
330
1F
100
AcDbEntity
  8
0
  6
Continuous
 62
     7
370
    25
100
AcDbLine
 10
874.7914074679
 20
183.5874445473
 30
0.0
 11
874.7914074679
 21
182.0874445473
 31
0.0
  0
LINE
  5
84
330
1F
100
AcDbEntity
  8
0
  6
Continuous
 62
     7
370
    25
100
AcDbLine
 10
891.7914074679
 20
182.0874445473
 30
0.0
 11
891.7914074679
 21
183.5874445473
 31
0.0
  0
LINE
  5
85
330
1F
100
AcDbEntity
  8
0
  6
Continuous
 62
     7
370
    25
100
AcDbLine
 10
891.7914074679
 20
183.5874445473
 30
0.0
 11
891.2914074679
 21
184.0874445473
 31
0.0
  0
LINE
  5
86
330
1F
100
AcDbEntity
  8
0
  6
Continuous
 62
     7
370
    25
100
AcDbLine
 10
875.2914074679
 20
184.0874445473
 30
0.0
 11
874.7914074679
 21
183.5874445473
 31
0.0
  0
LINE
  5
87
330
1F
100
AcDbEntity
  8
0
  6
Continuous
 62
     7
370
    25
100
AcDbLine
 10
874.7914074679
 20
182.0874445473
 30
0.0
 11
875.2914074679
 21
181.5874445473
 31
0.0
  0
LINE
  5
88
330
1F
100
AcDbEntity
  8
0
  6
Continuous
 62
     7
370
    25
100
AcDbLine
 10
891.2914074679
 20
181.5874445473
 30
0.0
 11
891.7914074679
 21
182.0874445473
 31
0.0
  0
LINE
  5
89
330
1F
100
AcDbEntity
  8
0
  6
Continuous
 62
     7
370
    25
100
AcDbLine
 10
80.1503001584
 20
929.2874445473
 30
0.0
 11
80.1503001584
 21
938.7474445473
 31
0.0
  0
LINE
  5
8A
330
1F
100
AcDbEntity
  8
0
  6
Continuous
 62
     7
370
    25
100
AcDbLine
 10
61.1503001584
 20
938.7474445473
 30
0.0
 11
61.1503001584
 21
929.2874445473
 31
0.0
  0
ARC
  5
8B
330
1F
100
AcDbEntity
  8
0
  6
Continuous
 62
     7
370
    25
100
AcDbCircle
 10
63.1503001584
 20
938.7474445473
 30
0.0
 40
2.000000000000007
100
AcDbArc
 50
90.0
 51
180.0
  0
ARC
  5
8C
330
1F
100
AcDbEntity
  8
0
  6
Continuous
 62
     7
370
    25
100
AcDbCircle
 10
78.1503001584
 20
938.7474445473
 30
0.0
 40
2.0
100
AcDbArc
 50
0.0
 51
90.0
  0
LINE
  5
8D
330
1F
100
AcDbEntity
  8
0
  6
Continuous
 62
     7
370
    25
100
AcDbLine
 10
385.5417583945
 20
912.2874445473
 30
0.0
 11
385.5417583945
 21
911.2874445473
 31
0.0
  0
LINE
  5
8E
330
1F
100
AcDbEntity
  8
0
  6
Continuous
 62
     7
370
    25
100
AcDbLine
 10
406.7961319724
 20
911.2874445473
 30
0.0
 11
406.7961319724
 21
912.2874445473
 31
0.0
  0
LINE
  5
8F
330
1F
100
AcDbEntity
  8
0
  6
Continuous
 62
     7
370
    25
100
AcDbLine
 10
502.5417583945
 20
912.2874445473
 30
0.0
 11
502.5417583945
 21
911.2874445473
 31
0.0
  0
LINE
  5
90
330
1F
100
AcDbEntity
  8
0
  6
Continuous
 62
     7
370
    25
100
AcDbLine
 10
523.7961319724
 20
911.2874445473
 30
0.0
 11
523.7961319724
 21
912.2874445473
 31
0.0
  0
LINE
  5
91
330
1F
100
AcDbEntity
  8
0
  6
Continuous
 62
     7
370
    25
100
AcDbLine
 10
412.6689524648
 20
918.160250477
 30
0.0
 11
496.6689524648
 21
918.160250477
 31
0.0
  0
LINE
  5
92
330
1F
100
AcDbEntity
  8
0
  6
Continuous
 62
     7
370
    25
100
AcDbLine
 10
496.6689524648
 20
939.4146240549
 30
0.0
 11
412.6689524648
 21
939.4146240549
 31
0.0
  0
SPLINE
  5
93
330
1F
100
AcDbEntity
  8
0
  6
Continuous
 62
     7
370
    25
100
AcDbSpline
210
0.0
220
0.0
230
1.0
 70
     8
 71
     3
 72
    21
 73
    17
 74
     0
 42
0.000000001
 43
0.00000001
 40
0.0
 40
0.0
 40
0.0
 40
0.0
 40
0.0826732126052337
 40
0.1577083902754866
 40
0.225102825917381
 40
0.2848540881073179
 40
0.3526154551086897
 40
0.4067876420020222
 40
0.4520065684787872
 40
0.5086863578420422
 40
0.5792268828887365
 40
0.6636197732442244
 40
0.7360292948136489
 40
0.8162312292402892
 40
0.904222565469961
 40
1.0
 40
1.0
 40
1.0
 40
1.0
 10
412.6689524647712
 20
939.4146386176349
 30
0.0
 10
411.4945082848333
 20
939.3708674719176
 30
0.0
 10
409.2541247887805
 20
939.2873691208307
 30
0.0
 10
406.1082372116051
 20
938.6635243659568
 30
0.0
 10
403.3617594435075
 20
937.8170435084053
 30
0.0
 10
400.8103623803232
 20
936.7355877886823
 30
0.0
 10
398.5432624470617
 20
935.4955097037384
 30
0.0
 10
396.5777808006853
 20
934.161104787004
 30
0.0
 10
394.8459405574911
 20
932.7765477746248
 30
0.0
 10
393.0599141503331
 20
931.0978351948341
 30
0.0
 10
391.0830180129289
 20
928.8279511631522
 30
0.0
 10
389.2696715944848
 20
926.1466102506333
 30
0.0
 10
387.7363293358093
 20
923.1433256633269
 30
0.0
 10
386.5635560559115
 20
919.9283938461515
 30
0.0
 10
385.713559203038
 20
916.2596112555924
 30
0.0
 10
385.6006203657022
 20
913.6483785526732
 30
0.0
 10
385.5417583944647
 20
912.2874445473324
 30
0.0
  0
SPLINE
  5
94
330
1F
100
AcDbEntity
  8
0
  6
Continuous
 62
     7
370
    25
100
AcDbSpline
210
0.0
220
0.0
230
1.0
 70
     8
 71
     3
 72
    11
 73
     7
 74
     0
 42
0.000000001
 43
0.00000001
 40
0.0
 40
0.0
 40
0.0
 40
0.0
 40
0.2499999999999994
 40
0.5000000000000052
 40
0.7500000000000019
 40
1.0
 40
1.0
 40
1.0
 40
1.0
 10
406.7961319723545
 20
912.2874445473286
 30
0.0
 10
406.8844097010532
 20
913.0570015834596
 30
0.0
 10
407.0609651584506
 20
914.5961156557217
 30
0.0
 10
408.419050276131
 20
916.5373467359685
 30
0.0
 10
410.3602813563783
 20
917.895431853649
 30
0.0
 10
411.8993954286402
 20
918.0719873110467
 30
0.0
 10
412.6689524647712
 20
918.1602650397451
 30
0.0
  0
SPLINE
  5
95
330
1F
100
AcDbEntity
  8
0
  6
Continuous
 62
     7
370
    25
100
AcDbSpline
210
0.0
220
0.0
230
1.0
 70
     8
 71
     3
 72
    11
 73
     7
 74
     0
 42
0.000000001
 43
0.00000001
 40
0.0
 40
0.0
 40
0.0
 40
0.0
 40
0.2499999999999989
 40
0.5000000000000014
 40
0.7499999999999981
 40
1.0
 40
1.0
 40
1.0
 40
1.0
 10
496.6689524647712
 20
918.1602504770226
 30
0.0
 10
497.438507592646
 20
918.0719729672246
 30
0.0
 10
498.9776178483958
 20
917.8954179476284
 30
0.0
 10
500.9188441150088
 20
916.5373361975661
 30
0.0
 10
502.276925865071
 20
914.5961099309529
 30
0.0
 10
502.4534808846671
 20
913.0569996752032
 30
0.0
 10
502.5417583944651
 20
912.2874445473284
 30
0.0
  0
SPLINE
  5
96
330
1F
100
AcDbEntity
  8
0
  6
Continuous
 62
     7
370
    25
100
AcDbSpline
210
0.0
220
0.0
230
1.0
 70
     8
 71
     3
 72
    21
 73
    17
 74
     0
 42
0.000000001
 43
0.00000001
 40
0.0
 40
0.0
 40
0.0
 40
0.0
 40
0.0826738138080392
 40
0.1577094454913807
 40
0.2251041614626365
 40
0.2848555297092477
 40
0.3526168016985082
 40
0.4067887130537265
 40
0.4520073201365488
 40
0.5086867765586741
 40
0.5792270144767234
 40
0.6636197110936574
 40
0.7360291650826128
 40
0.816231099079848
 40
0.904222488809173
 40
1.0
 40
1.0
 40
1.0
 40
1.0
 10
523.7961319723546
 20
912.28744454733
 30
0.0
 10
523.7523680384519
 20
913.4618884765532
 30
0.0
 10
523.6688834932205
 20
915.7022701924443
 30
0.0
 10
523.0450405929197
 20
918.8481591397797
 30
0.0
 10
522.1985537618898
 20
921.5946352922675
 30
0.0
 10
521.1170879609383
 20
924.1460265863974
 30
0.0
 10
519.8769998912835
 20
926.413118476324
 30
0.0
 10
518.5425871154591
 20
928.378594605385
 30
0.0
 10
517.1580302209485
 20
930.1104362964626
 30
0.0
 10
515.4793242793805
 20
931.8964662508881
 30
0.0
 10
513.2094487943907
 20
933.8733695999389
 30
0.0
 10
510.5281152601253
 20
935.6867241760061
 30
0.0
 10
507.5248344855817
 20
937.2200730493256
 30
0.0
 10
504.3099029535369
 20
938.3928487421755
 30
0.0
 10
500.6411185552975
 20
939.2428413515636
 30
0.0
 10
498.0298863408825
 20
939.3557682832779
 30
0.0
 10
496.6689524647712
 20
939.414624054912
 30
0.0
  0
LINE
  5
97
330
1F
100
AcDbEntity
  8
0
  6
Continuous
 62
     7
370
    25
100
AcDbLine
 10
67.6503001584
 20
927.2874445473
 30
0.0
 11
67.6503001584
 21
926.9874445473
 31
0.0
  0
LINE
  5
98
330
1F
100
AcDbEntity
  8
0
  6
Continuous
 62
     7
370
    25
100
AcDbLine
 10
73.6503001584
 20
926.9874445473
 30
0.0
 11
73.6503001584
 21
927.2874445473
 31
0.0
  0
LINE
  5
99
330
1F
100
AcDbEntity
  8
0
  6
Continuous
 62
     7
370
    25
100
AcDbLine
 10
840.7914074679
 20
230.4508420069
 30
0.0
 11
840.2914074679
 21
230.4508420069
 31
0.0
  0
LINE
  5
9A
330
1F
100
AcDbEntity
  8
0
  6
Continuous
 62
     7
370
    25
100
AcDbLine
 10
840.2914074679
 20
221.9508420069
 30
0.0
 11
840.7914074679
 21
221.9508420069
 31
0.0
  0
LINE
  5
9B
330
1F
100
AcDbEntity
  8
0
  6
Continuous
 62
     7
370
    25
100
AcDbLine
 10
840.7914074679
 20
205.6240470877
 30
0.0
 11
840.2914074679
 21
205.6240470877
 31
0.0
  0
LINE
  5
9C
330
1F
100
AcDbEntity
  8
0
  6
Continuous
 62
     7
370
    25
100
AcDbLine
 10
840.2914074679
 20
197.1240470877
 30
0.0
 11
840.7914074679
 21
197.1240470877
 31
0.0
  0
LINE
  5
9D
330
1F
100
AcDbEntity
  8
0
  6
Continuous
 62
     7
370
    25
100
AcDbLine
 10
840.7914074679
 20
605.6240470877
 30
0.0
 11
840.2914074679
 21
605.6240470877
 31
0.0
  0
LINE
  5
9E
330
1F
100
AcDbEntity
  8
0
  6
Continuous
 62
     7
370
    25
100
AcDbLine
 10
840.2914074679
 20
597.1240470877
 30
0.0
 11
840.7914074679
 21
597.1240470877
 31
0.0
  0
LINE
  5
9F
330
1F
100
AcDbEntity
  8
0
  6
Continuous
 62
     7
370
    25
100
AcDbLine
 10
840.7914074679
 20
630.450842007
 30
0.0
 11
840.2914074679
 21
630.450842007
 31
0.0
  0
LINE
  5
A0
330
1F
100
AcDbEntity
  8
0
  6
Continuous
 62
     7
370
    25
100
AcDbLine
 10
840.2914074679
 20
621.950842007
 30
0.0
 11
840.7914074679
 21
621.950842007
 31
0.0
  0
LINE
  5
A1
330
1F
100
AcDbEntity
  8
0
  6
Continuous
 62
     7
370
    25
100
AcDbLine
 10
62.9914074679
 20
652.8374445473
 30
0.0
 11
62.9914074679
 21
650.4374445473
 31
0.0
  0
LINE
  5
A2
330
1F
100
AcDbEntity
  8
0
  6
Continuous
 62
     7
370
    25
100
AcDbLine
 10
84.7914074679
 20
650.4374445473
 30
0.0
 11
84.7914074679
 21
652.8374445473
 31
0.0
  0
ARC
  5
A3
330
1F
100
AcDbEntity
  8
0
  6
Continuous
 62
     7
370
    25
100
AcDbCircle
 10
82.7914074679
 20
639.7288725793
 30
0.0
 40
2.000000000000018
100
AcDbArc
 50
288.9655749888
 51
331.4768285037
  0
LWPOLYLINE
  5
A4
330
1F
100
AcDbEntity
  8
0
  6
Continuous
 62
     7
370
    25
100
AcDbPolyline
 90
        3
 70
   128
 43
0.0
 10
84.7527294955
 20
639.3374445473
 10
84.7674388422
 20
639.4201655855
 10
84.7914074679
 20
639.7288725793
  0
LWPOLYLINE
  5
A5
330
1F
100
AcDbEntity
  8
0
  6
Continuous
 62
     7
370
    25
100
AcDbPolyline
 90
        3
 70
   128
 43
0.0
 10
62.9914074679
 20
639.7288725793
 10
63.0153760937
 20
639.4201655855
 10
63.0300854404
 20
639.3374445473
  0
ARC
  5
A6
330
1F
100
AcDbEntity
  8
0
  6
Continuous
 62
     7
370
    25
100
AcDbCircle
 10
64.9914074679
 20
639.7288725793
 30
0.0
 40
1.999999999999963
100
AcDbArc
 50
208.5231723225
 51
251.0344250112
  0
LINE
  5
A7
330
1F
100
AcDbEntity
  8
0
  6
Continuous
 62
     7
370
    25
100
AcDbLine
 10
62.9914074679
 20
646.5374445473
 30
0.0
 11
62.9914074679
 21
639.7288725793
 31
0.0
  0
LINE
  5
A8
330
1F
100
AcDbEntity
  8
0
  6
Continuous
 62
     7
370
    25
100
AcDbLine
 10
84.7914074679
 20
639.7288725793
 30
0.0
 11
84.7914074679
 21
646.5374445473
 31
0.0
  0
LINE
  5
A9
330
1F
100
AcDbEntity
  8
0
  6
Continuous
 62
     7
370
    25
100
AcDbLine
 10
84.0414074679
 20
652.8374445473
 30
0.0
 11
84.0414074679
 21
658.0374445473
 31
0.0
  0
LINE
  5
AA
330
1F
100
AcDbEntity
  8
0
  6
Continuous
 62
     7
370
    25
100
AcDbLine
 10
63.7414074679
 20
658.0374445473
 30
0.0
 11
63.7414074679
 21
652.8374445473
 31
0.0
  0
LINE
  5
AB
330
1F
100
AcDbEntity
  8
0
  6
Continuous
 62
     7
370
    25
100
AcDbLine
 10
83.3164074679
 20
658.0374445473
 30
0.0
 11
83.3164074679
 21
659.3374445473
 31
0.0
  0
LINE
  5
AC
330
1F
100
AcDbEntity
  8
0
  6
Continuous
 62
     7
370
    25
100
AcDbLine
 10
64.4664074679
 20
659.3374445473
 30
0.0
 11
64.4664074679
 21
658.0374445473
 31
0.0
  0
LWPOLYLINE
  5
AD
330
1F
100
AcDbEntity
  8
0
  6
Continuous
 62
     7
370
    25
100
AcDbPolyline
 90
        3
 70
   128
 43
0.0
 10
62.9914074679
 20
639.3374445473
 10
63.0996433761
 20
639.0265926138
 10
63.2341593452
 20
638.7738442916
  0
LWPOLYLINE
  5
AE
330
1F
100
AcDbEntity
  8
0
  6
Continuous
 62
     7
370
    25
100
AcDbPolyline
 90
        3
 70
   128
 43
0.0
 10
84.548655606
 20
638.773844316
 10
84.6831715597
 20
639.0265926138
 10
84.7914074679
 20
639.3374445473
  0
ARC
  5
AF
330
1F
100
AcDbEntity
  8
0
  6
Continuous
 62
     7
370
    25
100
AcDbCircle
 10
96.9414074679
 20
169.9374445473
 30
0.0
 40
1.449999999999989
100
AcDbArc
 50
180.0
 51
270.0
  0
ARC
  5
B0
330
1F
100
AcDbEntity
  8
0
  6
Continuous
 62
     7
370
    25
100
AcDbCircle
 10
95.7414074679
 20
175.0374445473
 30
0.0
 40
0.2500000000000284
100
AcDbArc
 50
90.0
 51
180.0
  0
LINE
  5
B1
330
1F
100
AcDbEntity
  8
0
  6
Continuous
 62
     7
370
    25
100
AcDbLine
 10
95.4914074679
 20
175.0374445473
 30
0.0
 11
95.4914074679
 21
169.9374445473
 31
0.0
  0
SPLINE
  5
B2
330
1F
100
AcDbEntity
  8
0
  6
Continuous
 62
     7
370
    25
100
AcDbSpline
210
0.0
220
0.0
230
1.0
 70
     8
 71
     3
 72
    12
 73
     8
 74
     0
 42
0.000000001
 43
0.00000001
 40
0.0
 40
0.0
 40
0.0
 40
0.0
 40
0.1499327746634331
 40
0.4430130871963491
 40
0.6706989492822417
 40
0.8669300093604384
 40
1.0
 40
1.0
 40
1.0
 40
1.0
 10
98.3396591921753
 20
169.6924551235461
 30
0.0
 10
98.32016511187891
 20
169.6918433516248
 30
0.0
 10
98.26256507937403
 20
169.690035721718
 30
0.0
 10
98.17989601700222
 20
169.7309082583211
 30
0.0
 10
98.11270386406167
 20
169.8003490986106
 30
0.0
 10
98.07842369901864
 20
169.8724638369868
 30
0.0
 10
98.07765750877562
 20
169.9191108687028
 30
0.0
 10
98.07734789261052
 20
169.9379608543322
 30
0.0
  0
ARC
  5
B3
330
1F
100
AcDbEntity
  8
0
  6
Continuous
 62
     7
370
    25
100
AcDbCircle
 10
97.8248287397
 20
175.0374445473
 30
0.0
 40
0.2499999999999716
100
AcDbArc
 50
0.0
 51
90.0
  0
LINE
  5
B4
330
1F
100
AcDbEntity
  8
0
  6
Continuous
 62
     7
370
    25
100
AcDbLine
 10
98.0748287397
 20
169.9374445473
 30
0.0
 11
98.0748287397
 21
175.0374445473
 31
0.0
  0
ARC
  5
B5
330
1F
100
AcDbEntity
  8
0
  6
Continuous
 62
     7
370
    25
100
AcDbCircle
 10
114.8888797947
 20
175.0374445473
 30
0.0
 40
0.2500000000000284
100
AcDbArc
 50
90.0
 51
180.0
  0
LINE
  5
B6
330
1F
100
AcDbEntity
  8
0
  6
Continuous
 62
     7
370
    25
100
AcDbLine
 10
114.6388797947
 20
175.0374445473
 30
0.0
 11
114.6388797947
 21
169.9374445473
 31
0.0
  0
ARC
  5
B7
330
1F
100
AcDbEntity
  8
0
  6
Continuous
 62
     7
370
    25
100
AcDbCircle
 10
114.4414074679
 20
169.9374445473
 30
0.0
 40
1.450000000000017
100
AcDbArc
 50
270.0
 51
360.0
  0
ARC
  5
B8
330
1F
100
AcDbEntity
  8
0
  6
Continuous
 62
     7
370
    25
100
AcDbCircle
 10
115.6414074679
 20
175.0374445473
 30
0.0
 40
0.2500000000000284
100
AcDbArc
 50
0.0
 51
90.0
  0
LINE
  5
B9
330
1F
100
AcDbEntity
  8
0
  6
Continuous
 62
     7
370
    25
100
AcDbLine
 10
115.8914074679
 20
169.9374445473
 30
0.0
 11
115.8914074679
 21
175.0374445473
 31
0.0
  0
ARC
  5
BA
330
1F
100
AcDbEntity
  8
0
  6
Continuous
 62
     7
370
    25
100
AcDbCircle
 10
113.5579861962
 20
175.0374445473
 30
0.0
 40
0.2499999999999716
100
AcDbArc
 50
90.0
 51
180.0
  0
LINE
  5
BB
330
1F
100
AcDbEntity
  8
0
  6
Continuous
 62
     7
370
    25
100
AcDbLine
 10
113.3079861962
 20
175.0374445473
 30
0.0
 11
113.3079861962
 21
170.8874445473
 31
0.0
  0
SPLINE
  5
BC
330
1F
100
AcDbEntity
  8
0
  6
Continuous
 62
     7
370
    25
100
AcDbSpline
210
0.0
220
0.0
230
1.0
 70
     8
 71
     3
 72
    13
 73
     9
 74
     0
 42
0.000000001
 43
0.00000001
 40
0.0
 40
0.0
 40
0.0
 40
0.0
 40
0.0762166043734128
 40
0.2251793228110314
 40
0.4232670052971864
 40
0.6449026935267705
 40
0.905130548123786
 40
0.9999999999999999
 40
0.9999999999999999
 40
0.9999999999999999
 40
0.9999999999999999
 10
105.0222234657217
 20
169.7528278612419
 30
0.0
 10
105.0220057185302
 20
169.7531961313174
 30
0.0
 10
105.0213623919806
 20
169.7542841725246
 30
0.0
 10
105.0314642544319
 20
169.7321581862778
 30
0.0
 10
105.0457796365709
 20
169.6813106673336
 30
0.0
 10
105.0604702876628
 20
169.5951031186167
 30
0.0
 10
105.068625762505
 20
169.507577084308
 30
0.0
 10
105.0676076181009
 20
169.4522500045111
 30
0.0
 10
105.0673356058953
 20
169.4374685639353
 30
0.0
  0
ARC
  5
BD
330
1F
100
AcDbEntity
  8
0
  6
Continuous
 62
     7
370
    25
100
AcDbCircle
 10
105.3184261242
 20
164.3374445473
 30
0.0
 40
0.2500000000000284
100
AcDbArc
 50
180.0
 51
270.0
  0
LINE
  5
BE
330
1F
100
AcDbEntity
  8
0
  6
Continuous
 62
     7
370
    25
100
AcDbLine
 10
105.0684261242
 20
169.4374445473
 30
0.0
 11
105.0684261242
 21
164.3374445473
 31
0.0
  0
ARC
  5
BF
330
1F
100
AcDbEntity
  8
0
  6
Continuous
 62
     7
370
    25
100
AcDbCircle
 10
111.2786623099
 20
164.3374445473
 30
0.0
 40
0.2500000000000284
100
AcDbArc
 50
270.0
 51
0.0
  0
LINE
  5
C0
330
1F
100
AcDbEntity
  8
0
  6
Continuous
 62
     7
370
    25
100
AcDbLine
 10
111.5286623099
 20
164.3374445473
 30
0.0
 11
111.5286623099
 21
169.4374445473
 31
0.0
  0
ARC
  5
C1
330
1F
100
AcDbEntity
  8
0
  6
Continuous
 62
     7
370
    25
100
AcDbCircle
 10
114.1414074679
 20
169.9374445473
 30
0.0
 40
0.2500000000000284
100
AcDbArc
 50
270.0
 51
0.0
  0
ARC
  5
C2
330
1F
100
AcDbEntity
  8
0
  6
Continuous
 62
     7
370
    25
100
AcDbCircle
 10
114.1414074679
 20
170.6374445473
 30
0.0
 40
0.2500000000000284
100
AcDbArc
 50
0.0
 51
90.0
  0
LINE
  5
C3
330
1F
100
AcDbEntity
  8
0
  6
Continuous
 62
     7
370
    25
100
AcDbLine
 10
114.3914074679
 20
169.9374445473
 30
0.0
 11
114.3914074679
 21
170.6374445473
 31
0.0
  0
LINE
  5
C4
330
1F
100
AcDbEntity
  8
0
  6
Continuous
 62
     7
370
    25
100
AcDbLine
 10
99.8541526259
 20
168.4874445473
 30
0.0
 11
99.8541526259
 21
164.3374445473
 31
0.0
  0
ARC
  5
C5
330
1F
100
AcDbEntity
  8
0
  6
Continuous
 62
     7
370
    25
100
AcDbCircle
 10
100.1041526259
 20
164.3374445473
 30
0.0
 40
0.2500000000000284
100
AcDbArc
 50
180.0
 51
226.2486512233
  0
LINE
  5
C6
330
1F
100
AcDbEntity
  8
0
  6
Continuous
 62
     7
370
    25
100
AcDbLine
 10
100.5036201374
 20
176.4458636131
 30
0.0
 11
100.6914074679
 21
176.3374445473
 31
0.0
  0
LINE
  5
C7
330
1F
100
AcDbEntity
  8
0
  6
Continuous
 62
     7
370
    25
100
AcDbLine
 10
110.6914074679
 20
176.3374445473
 30
0.0
 11
110.8791947984
 21
176.4458636131
 31
0.0
  0
LINE
  5
C8
330
1F
100
AcDbEntity
  8
0
  6
Continuous
 62
     7
370
    25
100
AcDbLine
 10
110.6914074679
 20
170.8874445473
 30
0.0
 11
110.9013651476
 21
171.0086636702
 31
0.0
  0
LINE
  5
C9
330
1F
100
AcDbEntity
  8
0
  6
Continuous
 62
     7
370
    25
100
AcDbLine
 10
110.9013651476
 20
175.9662254245
 30
0.0
 11
110.6914074679
 21
176.0874445473
 31
0.0
  0
LINE
  5
CA
330
1F
100
AcDbEntity
  8
0
  6
Continuous
 62
     7
370
    25
100
AcDbLine
 10
100.4814497883
 20
171.0086636702
 30
0.0
 11
100.6914074679
 21
170.8874445473
 31
0.0
  0
LINE
  5
CB
330
1F
100
AcDbEntity
  8
0
  6
Continuous
 62
     7
370
    25
100
AcDbLine
 10
100.6914074679
 20
176.0874445473
 30
0.0
 11
100.4814497883
 21
175.9662254245
 31
0.0
  0
LINE
  5
CC
330
1F
100
AcDbEntity
  8
0
  6
Continuous
 62
     7
370
    25
100
AcDbLine
 10
100.6914074679
 20
168.4874445473
 30
0.0
 11
100.1020277098
 21
168.1471659853
 31
0.0
  0
LINE
  5
CD
330
1F
100
AcDbEntity
  8
0
  6
Continuous
 62
     7
370
    25
100
AcDbLine
 10
100.1020277098
 20
163.6277231094
 30
0.0
 11
100.6914074679
 21
163.2874445473
 31
0.0
  0
LINE
  5
CE
330
1F
100
AcDbEntity
  8
0
  6
Continuous
 62
     7
370
    25
100
AcDbLine
 10
110.6914074679
 20
163.2874445473
 30
0.0
 11
111.2807872261
 21
163.6277231094
 31
0.0
  0
LINE
  5
CF
330
1F
100
AcDbEntity
  8
0
  6
Continuous
 62
     7
370
    25
100
AcDbLine
 10
102.6914074679
 20
176.3374445473
 30
0.0
 11
102.6914074679
 21
176.0874445473
 31
0.0
  0
LINE
  5
D0
330
1F
100
AcDbEntity
  8
0
  6
Continuous
 62
     7
370
    25
100
AcDbLine
 10
108.6914074679
 20
176.0874445473
 30
0.0
 11
108.6914074679
 21
176.3374445473
 31
0.0
  0
ARC
  5
D1
330
1F
100
AcDbEntity
  8
0
  6
Continuous
 62
     7
370
    25
100
AcDbCircle
 10
779.2914074679
 20
15.2874445473
 30
0.0
 40
2.000000000000004
100
AcDbArc
 50
270.0
 51
0.0
  0
ARC
  5
D2
330
1F
100
AcDbEntity
  8
0
  6
Continuous
 62
     7
370
    25
100
AcDbCircle
 10
726.2914074679
 20
15.2874445473
 30
0.0
 40
2.000000000000004
100
AcDbArc
 50
180.0
 51
270.0
  0
LINE
  5
D3
330
1F
100
AcDbEntity
  8
0
  6
Continuous
 62
     7
370
    25
100
AcDbLine
 10
781.2914074679
 20
15.2874445473
 30
0.0
 11
781.2914074679
 21
19.2874445473
 31
0.0
  0
LINE
  5
D4
330
1F
100
AcDbEntity
  8
0
  6
Continuous
 62
     7
370
    25
100
AcDbLine
 10
724.2914074679
 20
19.2874445473
 30
0.0
 11
724.2914074679
 21
15.2874445473
 31
0.0
  0
LINE
  5
D5
330
1F
100
AcDbEntity
  8
0
  6
Continuous
 62
     7
370
    25
100
AcDbLine
 10
202.2914074679
 20
15.2874445473
 30
0.0
 11
202.2914074679
 21
19.2874445473
 31
0.0
  0
LINE
  5
D6
330
1F
100
AcDbEntity
  8
0
  6
Continuous
 62
     7
370
    25
100
AcDbLine
 10
145.2914074679
 20
19.2874445473
 30
0.0
 11
145.2914074679
 21
15.2874445473
 31
0.0
  0
ARC
  5
D7
330
1F
100
AcDbEntity
  8
0
  6
Continuous
 62
     7
370
    25
100
AcDbCircle
 10
200.2914074679
 20
15.2874445473
 30
0.0
 40
2.000000000000004
100
AcDbArc
 50
270.0
 51
0.0
  0
ARC
  5
D8
330
1F
100
AcDbEntity
  8
0
  6
Continuous
 62
     7
370
    25
100
AcDbCircle
 10
147.2914074679
 20
15.2874445473
 30
0.0
 40
2.000000000000004
100
AcDbArc
 50
180.0
 51
270.0
  0
LINE
  5
D9
330
1F
100
AcDbEntity
  8
0
  6
Continuous
 62
     7
370
    25
100
AcDbLine
 10
781.0914074679
 20
19.2874445473
 30
0.0
 11
781.0914074679
 21
87.2874445473
 31
0.0
  0
LINE
  5
DA
330
1F
100
AcDbEntity
  8
0
  6
Continuous
 62
     7
370
    25
100
AcDbLine
 10
724.4914074679
 20
87.2874445473
 30
0.0
 11
724.4914074679
 21
19.2874445473
 31
0.0
  0
LINE
  5
DB
330
1F
100
AcDbEntity
  8
0
  6
Continuous
 62
     7
370
    25
100
AcDbLine
 10
202.0914074679
 20
19.2874445473
 30
0.0
 11
202.0914074679
 21
87.2874445473
 31
0.0
  0
LINE
  5
DC
330
1F
100
AcDbEntity
  8
0
  6
Continuous
 62
     7
370
    25
100
AcDbLine
 10
145.4914074679
 20
87.2874445473
 30
0.0
 11
145.4914074679
 21
19.2874445473
 31
0.0
  0
ARC
  5
DD
330
1F
100
AcDbEntity
  8
0
  6
Continuous
 62
     7
370
    25
100
AcDbCircle
 10
786.1914074679
 20
179.7874445473
 30
0.0
 40
1.500000000000114
100
AcDbArc
 50
90.0
 51
180.0
  0
ARC
  5
DE
330
1F
100
AcDbEntity
  8
0
  6
Continuous
 62
     7
370
    25
100
AcDbCircle
 10
719.3914074679
 20
179.7874445473
 30
0.0
 40
1.500000000000057
100
AcDbArc
 50
0.0
 51
90.0
  0
ARC
  5
DF
330
1F
100
AcDbEntity
  8
0
  6
Continuous
 62
     7
370
    25
100
AcDbCircle
 10
779.9914074679
 20
93.320010493
 30
0.0
 40
4.700000000000117
100
AcDbArc
 50
350.5402980318
 51
0.0
  0
ARC
  5
E0
330
1F
100
AcDbEntity
  8
0
  6
Continuous
 62
     7
370
    25
100
AcDbCircle
 10
725.5914074679
 20
93.320010493
 30
0.0
 40
4.700000000000045
100
AcDbArc
 50
180.0
 51
189.4597019682
  0
LINE
  5
E1
330
1F
100
AcDbEntity
  8
0
  6
Continuous
 62
     7
370
    25
100
AcDbLine
 10
784.6914074679
 20
93.320010493
 30
0.0
 11
784.6914074679
 21
179.7874445473
 31
0.0
  0
LINE
  5
E2
330
1F
100
AcDbEntity
  8
0
  6
Continuous
 62
     7
370
    25
100
AcDbLine
 10
720.8914074679
 20
179.7874445473
 30
0.0
 11
720.8914074679
 21
93.320010493
 31
0.0
  0
LINE
  5
E3
330
1F
100
AcDbEntity
  8
0
  6
Continuous
 62
     7
370
    25
100
AcDbLine
 10
720.9553206949
 20
92.5475472685
 30
0.0
 11
721.8317572476
 21
87.2874445473
 31
0.0
  0
LINE
  5
E4
330
1F
100
AcDbEntity
  8
0
  6
Continuous
 62
     7
370
    25
100
AcDbLine
 10
783.7510576883
 20
87.2874445473
 30
0.0
 11
784.6274942409
 21
92.5475472685
 31
0.0
  0
ARC
  5
E5
330
1F
100
AcDbEntity
  8
0
  6
Continuous
 62
     7
370
    25
100
AcDbCircle
 10
207.1914074679
 20
179.7874445473
 30
0.0
 40
1.500000000000057
100
AcDbArc
 50
90.0
 51
180.0
  0
ARC
  5
E6
330
1F
100
AcDbEntity
  8
0
  6
Continuous
 62
     7
370
    25
100
AcDbCircle
 10
140.3914074679
 20
179.7874445473
 30
0.0
 40
1.500000000000057
100
AcDbArc
 50
0.0
 51
90.0
  0
LINE
  5
E7
330
1F
100
AcDbEntity
  8
0
  6
Continuous
 62
     7
370
    25
100
AcDbLine
 10
205.6914074679
 20
93.320010493
 30
0.0
 11
205.6914074679
 21
179.7874445473
 31
0.0
  0
LINE
  5
E8
330
1F
100
AcDbEntity
  8
0
  6
Continuous
 62
     7
370
    25
100
AcDbLine
 10
141.8914074679
 20
179.7874445473
 30
0.0
 11
141.8914074679
 21
93.320010493
 31
0.0
  0
ARC
  5
E9
330
1F
100
AcDbEntity
  8
0
  6
Continuous
 62
     7
370
    25
100
AcDbCircle
 10
200.9914074679
 20
93.320010493
 30
0.0
 40
4.699999999999977
100
AcDbArc
 50
350.5402980318
 51
0.0
  0
ARC
  5
EA
330
1F
100
AcDbEntity
  8
0
  6
Continuous
 62
     7
370
    25
100
AcDbCircle
 10
146.5914074679
 20
93.320010493
 30
0.0
 40
4.700000000000006
100
AcDbArc
 50
180.0
 51
189.4597019682
  0
LINE
  5
EB
330
1F
100
AcDbEntity
  8
0
  6
Continuous
 62
     7
370
    25
100
AcDbLine
 10
141.9553206949
 20
92.5475472685
 30
0.0
 11
142.8317572476
 21
87.2874445473
 31
0.0
  0
LINE
  5
EC
330
1F
100
AcDbEntity
  8
0
  6
Continuous
 62
     7
370
    25
100
AcDbLine
 10
204.7510576883
 20
87.2874445473
 30
0.0
 11
205.6274942409
 21
92.5475472685
 31
0.0
  0
LINE
  5
ED
330
1F
100
AcDbEntity
  8
0
  6
Continuous
 62
     7
370
    25
100
AcDbLine
 10
898.7680205569
 20
661.1062103177
 30
0.0
 11
898.7680205569
 21
661.2474445473
 31
0.0
  0
LINE
  5
EE
330
1F
100
AcDbEntity
  8
0
  6
Continuous
 62
     7
370
    25
100
AcDbLine
 10
844.7680205569
 20
661.1062103177
 30
0.0
 11
844.7680205569
 21
661.2474445473
 31
0.0
  0
LINE
  5
EF
330
1F
100
AcDbEntity
  8
0
  6
Continuous
 62
     7
370
    25
100
AcDbLine
 10
901.7680205569
 20
661.0312103177
 30
0.0
 11
901.7680205569
 21
661.1062103177
 31
0.0
  0
LINE
  5
F0
330
1F
100
AcDbEntity
  8
0
  6
Continuous
 62
     7
370
    25
100
AcDbLine
 10
840.2914074679
 20
661.1062103177
 30
0.0
 11
901.7680205569
 21
661.1062103177
 31
0.0
  0
LINE
  5
F1
330
1F
100
AcDbEntity
  8
0
  6
Continuous
 62
     7
370
    25
100
AcDbLine
 10
840.2914074679
 20
661.0312103177
 30
0.0
 11
901.7680205569
 21
661.0312103177
 31
0.0
  0
LINE
  5
F2
330
1F
100
AcDbEntity
  8
0
  6
Continuous
 62
     7
370
    25
100
AcDbLine
 10
922.1147356259
 20
742.6641362988
 30
0.0
 11
922.0241048472
 21
742.6218744726
 31
0.0
  0
LINE
  5
F3
330
1F
100
AcDbEntity
  8
0
  6
Continuous
 62
     7
370
    25
100
AcDbLine
 10
922.1147356259
 20
742.6641362988
 30
0.0
 11
932.2575739077
 21
720.9127494099
 31
0.0
  0
LINE
  5
F4
330
1F
100
AcDbEntity
  8
0
  6
Continuous
 62
     7
370
    25
100
AcDbLine
 10
932.2575739077
 20
720.9127494099
 30
0.0
 11
932.166943129
 21
720.8704875838
 31
0.0
  0
LINE
  5
F5
330
1F
100
AcDbEntity
  8
0
  6
Continuous
 62
     7
370
    25
100
AcDbLine
 10
931.2860730682
 20
723.2327598419
 30
0.0
 11
931.6030367645
 21
722.5530290016
 31
0.0
  0
LINE
  5
F6
330
1F
100
AcDbEntity
  8
0
  6
Continuous
 62
     7
370
    25
100
AcDbLine
 10
931.6030367645
 20
722.5530290016
 30
0.0
 11
931.5124059858
 21
722.5107671754
 31
0.0
  0
LINE
  5
F7
330
1F
100
AcDbEntity
  8
0
  6
Continuous
 62
     7
370
    25
100
AcDbLine
 10
923.0450169642
 20
740.9057616891
 30
0.0
 11
931.2860730682
 21
723.2327598419
 31
0.0
  0
LINE
  5
F8
330
1F
100
AcDbEntity
  8
0
  6
Continuous
 62
     7
370
    25
100
AcDbLine
 10
922.9393623988
 20
741.1323386358
 30
0.0
 11
923.0450169642
 21
740.9057616891
 31
0.0
  0
LINE
  5
F9
330
1F
100
AcDbEntity
  8
0
  6
Continuous
 62
     7
370
    25
100
AcDbLine
 10
864.0994937962
 20
660.700842007
 30
0.0
 11
864.0994937962
 21
657.700842007
 31
0.0
  0
LINE
  5
FA
330
1F
100
AcDbEntity
  8
0
  6
Continuous
 62
     7
370
    25
100
AcDbLine
 10
864.0994937962
 20
660.700842007
 30
0.0
 11
885.784714663
 21
660.700842007
 31
0.0
  0
LINE
  5
FB
330
1F
100
AcDbEntity
  8
0
  6
Continuous
 62
     7
370
    25
100
AcDbLine
 10
864.0994937962
 20
657.700842007
 30
0.0
 11
885.784714663
 21
657.700842007
 31
0.0
  0
ARC
  5
FC
330
1F
100
AcDbEntity
  8
0
  6
Continuous
 62
     7
370
    25
100
AcDbCircle
 10
845.2914074679
 20
656.200842007
 30
0.0
 40
4.5
100
AcDbArc
 50
90.0
 51
180.0
  0
ARC
  5
FD
330
1F
100
AcDbEntity
  8
0
  6
Continuous
 62
     7
370
    25
100
AcDbCircle
 10
845.2914074679
 20
656.200842007
 30
0.0
 40
1.500000000000114
100
AcDbArc
 50
90.0
 51
180.0
  0
LINE
  5
FE
330
1F
100
AcDbEntity
  8
0
  6
Continuous
 62
     7
370
    25
100
AcDbLine
 10
843.7914074679
 20
594.700842007
 30
0.0
 11
843.7914074679
 21
592.700842007
 31
0.0
  0
LINE
  5
FF
330
1F
100
AcDbEntity
  8
0
  6
Continuous
 62
     7
370
    25
100
AcDbLine
 10
843.7914074679
 20
592.700842007
 30
0.0
 11
840.7914074679
 21
592.700842007
 31
0.0
  0
LINE
  5
100
330
1F
100
AcDbEntity
  8
0
  6
Continuous
 62
     7
370
    25
100
AcDbLine
 10
840.7914074679
 20
592.700842007
 30
0.0
 11
840.7914074679
 21
594.700842007
 31
0.0
  0
LINE
  5
101
330
1F
100
AcDbEntity
  8
0
  6
Continuous
 62
     7
370
    25
100
AcDbLine
 10
845.2914074679
 20
660.700842007
 30
0.0
 11
864.0994937962
 21
660.700842007
 31
0.0
  0
LINE
  5
102
330
1F
100
AcDbEntity
  8
0
  6
Continuous
 62
     7
370
    25
100
AcDbLine
 10
845.2914074679
 20
657.700842007
 30
0.0
 11
864.0994937962
 21
657.700842007
 31
0.0
  0
LINE
  5
103
330
1F
100
AcDbEntity
  8
0
  6
Continuous
 62
     7
370
    25
100
AcDbLine
 10
843.7914074679
 20
656.200842007
 30
0.0
 11
843.7914074679
 21
594.700842007
 31
0.0
  0
LINE
  5
104
330
1F
100
AcDbEntity
  8
0
  6
Continuous
 62
     7
370
    25
100
AcDbLine
 10
840.7914074679
 20
656.200842007
 30
0.0
 11
840.7914074679
 21
594.700842007
 31
0.0
  0
LINE
  5
105
330
1F
100
AcDbEntity
  8
0
  6
Continuous
 62
     7
370
    25
100
AcDbLine
 10
885.784714663
 20
660.700842007
 30
0.0
 11
892.2914074679
 21
660.700842007
 31
0.0
  0
LINE
  5
106
330
1F
100
AcDbEntity
  8
0
  6
Continuous
 62
     7
370
    25
100
AcDbLine
 10
885.784714663
 20
657.700842007
 30
0.0
 11
892.2914074679
 21
657.700842007
 31
0.0
  0
LINE
  5
107
330
1F
100
AcDbEntity
  8
0
  6
Continuous
 62
     7
370
    25
100
AcDbLine
 10
881.6262152376
 20
181.5874445473
 30
0.0
 11
881.6262152376
 21
178.5874445473
 31
0.0
  0
LINE
  5
108
330
1F
100
AcDbEntity
  8
0
  6
Continuous
 62
     7
370
    25
100
AcDbLine
 10
891.7914074679
 20
181.5874445473
 30
0.0
 11
881.6262152376
 21
181.5874445473
 31
0.0
  0
LINE
  5
109
330
1F
100
AcDbEntity
  8
0
  6
Continuous
 62
     7
370
    25
100
AcDbLine
 10
891.7914074679
 20
178.5874445473
 30
0.0
 11
881.6262152376
 21
178.5874445473
 31
0.0
  0
LINE
  5
10A
330
1F
100
AcDbEntity
  8
0
  6
Continuous
 62
     7
370
    25
100
AcDbLine
 10
881.6262152376
 20
181.5874445473
 30
0.0
 11
842.3766201873
 21
181.5874445473
 31
0.0
  0
LINE
  5
10B
330
1F
100
AcDbEntity
  8
0
  6
Continuous
 62
     7
370
    25
100
AcDbLine
 10
881.6262152376
 20
178.5874445473
 30
0.0
 11
842.3766201873
 21
178.5874445473
 31
0.0
  0
LINE
  5
10C
330
1F
100
AcDbEntity
  8
0
  6
Continuous
 62
     7
370
    25
100
AcDbLine
 10
841.5923147184
 20
181.5874445473
 30
0.0
 11
842.3766201873
 21
181.5874445473
 31
0.0
  0
LINE
  5
10D
330
1F
100
AcDbEntity
  8
0
  6
Continuous
 62
     7
370
    25
100
AcDbLine
 10
842.3766201873
 20
178.5874445473
 30
0.0
 11
841.5923147184
 21
178.5874445473
 31
0.0
  0
ARC
  5
10E
330
1F
100
AcDbEntity
  8
0
  6
Continuous
 62
     7
370
    25
100
AcDbCircle
 10
825.9914074679
 20
185.5874445473
 30
0.0
 40
6.999999999999943
100
AcDbArc
 50
217.9000373353
 51
270.0
  0
LINE
  5
10F
330
1F
100
AcDbEntity
  8
0
  6
Continuous
 62
     7
370
    25
100
AcDbLine
 10
841.5923147184
 20
181.5874445473
 30
0.0
 11
839.4843364001
 21
181.5874445473
 31
0.0
  0
LINE
  5
110
330
1F
100
AcDbEntity
  8
0
  6
Continuous
 62
     7
370
    25
100
AcDbLine
 10
841.5923147184
 20
178.5874445473
 30
0.0
 11
825.9914074679
 21
178.5874445473
 31
0.0
  0
ARC
  5
111
330
1F
100
AcDbEntity
  8
0
  6
Continuous
 62
     7
370
    25
100
AcDbCircle
 10
897.6704272826
 20
547.5256182317
 30
0.0
 40
0.500000000000041
100
AcDbArc
 50
272.4048581936
 51
330.0
  0
ARC
  5
112
330
1F
100
AcDbEntity
  8
0
  6
Continuous
 62
     7
370
    25
100
AcDbCircle
 10
897.6704272826
 20
587.5264989559
 30
0.0
 40
0.4999999999999273
100
AcDbArc
 50
30.0
 51
87.5951418064
  0
SPLINE
  5
113
330
1F
100
AcDbEntity
  8
0
  6
Continuous
 62
     7
370
    25
100
AcDbSpline
210
0.0
220
0.0
230
1.0
 70
     8
 71
     3
 72
     9
 73
     5
 74
     0
 42
0.000000001
 43
0.00000001
 40
0.0
 40
0.0
 40
0.0
 40
0.0
 40
0.4999928052376551
 40
1.0
 40
1.0
 40
1.0
 40
1.0
 10
899.6244201698165
 20
549.9100331900415
 30
0.0
 10
899.6323589499631
 20
549.9270787324151
 30
0.0
 10
899.6482367387301
 20
549.9611703077235
 30
0.0
 10
899.6323591022782
 20
550.0044289576347
 30
0.0
 10
899.6244201698165
 20
550.0260585938261
 30
0.0
  0
LINE
  5
114
330
1F
100
AcDbEntity
  8
0
  6
Continuous
 62
     7
370
    25
100
AcDbLine
 10
899.6244201698
 20
549.91003319
 30
0.0
 11
898.1034399845
 21
547.2756182317
 31
0.0
  0
LINE
  5
115
330
1F
100
AcDbEntity
  8
0
  6
Continuous
 62
     7
370
    25
100
AcDbLine
 10
899.6244201698
 20
585.1420839976
 30
0.0
 11
898.1034399845
 21
587.7764989559
 31
0.0
  0
SPLINE
  5
116
330
1F
100
AcDbEntity
  8
0
  6
Continuous
 62
     7
370
    25
100
AcDbSpline
210
0.0
220
0.0
230
1.0
 70
     8
 71
     3
 72
     9
 73
     5
 74
     0
 42
0.000000001
 43
0.00000001
 40
0.0
 40
0.0
 40
0.0
 40
0.0
 40
0.4999928052373022
 40
0.9999999999999999
 40
0.9999999999999999
 40
0.9999999999999999
 40
0.9999999999999999
 10
899.6244201698165
 20
585.0260585938261
 30
0.0
 10
899.6323589499631
 20
585.0476875930541
 30
0.0
 10
899.6482367387301
 20
585.0909462139813
 30
0.0
 10
899.6323591022783
 20
585.125037906213
 30
0.0
 10
899.6244201698165
 20
585.1420839976105
 30
0.0
  0
LINE
  5
117
330
1F
100
AcDbEntity
  8
0
  6
Continuous
 62
     7
370
    25
100
AcDbLine
 10
899.6914074679
 20
584.8920839976
 30
0.0
 11
899.6914074679
 21
550.16003319
 31
0.0
  0
SPLINE
  5
118
330
1F
100
AcDbEntity
  8
0
  6
Continuous
 62
     7
370
    25
100
AcDbSpline
210
0.0
220
0.0
230
1.0
 70
     8
 71
     3
 72
    12
 73
     8
 74
     0
 42
0.000000001
 43
0.00000001
 40
0.0
 40
0.0
 40
0.0
 40
0.0
 40
0.1571577297864081
 40
0.2505951270623622
 40
0.5008887538710982
 40
0.7473664047632611
 40
1.0
 40
1.0
 40
1.0
 40
1.0
 10
899.6914074679244
 20
550.1600331900415
 30
0.0
 10
899.6911633979931
 20
550.1498545958345
 30
0.0
 10
899.6907742174199
 20
550.1336243657843
 30
0.0
 10
899.6870531404231
 20
550.1014297886633
 30
0.0
 10
899.6789433089773
 20
550.0656485484811
 30
0.0
 10
899.6594519071373
 20
550.0308154292966
 30
0.0
 10
899.6361930390931
 20
550.0276571900262
 30
0.0
 10
899.6244201698165
 20
550.0260585938261
 30
0.0
  0
SPLINE
  5
119
330
1F
100
AcDbEntity
  8
0
  6
Continuous
 62
     7
370
    25
100
AcDbSpline
210
0.0
220
0.0
230
1.0
 70
     8
 71
     3
 72
    12
 73
     8
 74
     0
 42
0.000000001
 43
0.00000001
 40
0.0
 40
0.0
 40
0.0
 40
0.0
 40
0.1571230726073548
 40
0.2505951320311862
 40
0.5008887571804727
 40
0.7473664064384591
 40
1.0
 40
1.0
 40
1.0
 40
1.0
 10
899.6914074679244
 20
584.8920839976104
 30
0.0
 10
899.6911634935612
 20
584.9022603135738
 30
0.0
 10
899.6907743795585
 20
584.91849049034
 30
0.0
 10
899.6870536138077
 20
584.9506853260982
 30
0.0
 10
899.6789433100116
 20
584.9864686290056
 30
0.0
 10
899.6594519068728
 20
585.0213017609544
 30
0.0
 10
899.6361930390042
 20
585.0244599984995
 30
0.0
 10
899.6244201698165
 20
585.0260585938261
 30
0.0
  0
SPLINE
  5
11A
330
1F
100
AcDbEntity
  8
0
  6
Continuous
 62
     7
370
    25
100
AcDbSpline
210
0.0
220
0.0
230
1.0
 70
     8
 71
     3
 72
    12
 73
     8
 74
     0
 42
0.000000001
 43
0.00000001
 40
0.0
 40
0.0
 40
0.0
 40
0.0
 40
0.2526335935620001
 40
0.4991112428197428
 40
0.7494048679689314
 40
0.8428769273823158
 40
1.0
 40
1.0
 40
1.0
 40
1.0
 10
899.6244201698165
 20
549.9100331900415
 30
0.0
 10
899.6361930390042
 20
549.9327806357188
 30
0.0
 10
899.6594519068726
 20
549.9777212381258
 30
0.0
 10
899.6789433100118
 20
550.0437591324181
 30
0.0
 10
899.6870536138073
 20
550.0902524227598
 30
0.0
 10
899.6907743795588
 20
550.128748860276
 30
0.0
 10
899.6911634935614
 20
550.1479770935478
 30
0.0
 10
899.6914074679244
 20
550.1600331900415
 30
0.0
  0
SPLINE
  5
11B
330
1F
100
AcDbEntity
  8
0
  6
Continuous
 62
     7
370
    25
100
AcDbSpline
210
0.0
220
0.0
230
1.0
 70
     8
 71
     3
 72
    12
 73
     8
 74
     0
 42
0.000000001
 43
0.00000001
 40
0.0
 40
0.0
 40
0.0
 40
0.0
 40
0.157157728089366
 40
0.2505951270625458
 40
0.5008887538714414
 40
0.7473664047633987
 40
1.0
 40
1.0
 40
1.0
 40
1.0
 10
899.6914074679244
 20
584.8920839976104
 30
0.0
 10
899.691163397998
 20
584.9041427272508
 30
0.0
 10
899.6907742174283
 20
584.9233709187193
 30
0.0
 10
899.687053140446
 20
584.9618675220706
 30
0.0
 10
899.6789433089775
 20
585.0083580456355
 30
0.0
 10
899.6594519071372
 20
585.0743959519799
 30
0.0
 10
899.6361930390931
 20
585.1193365527579
 30
0.0
 10
899.6244201698165
 20
585.1420839976105
 30
0.0
  0
LWPOLYLINE
  5
11C
330
1F
100
AcDbEntity
  8
0
  6
Continuous
 62
     7
370
    25
100
AcDbPolyline
 90
        3
 70
   128
 43
0.0
 10
852.0414074679
 20
218.0874445473
 10
852.1670062393
 20
217.4560168839
 10
852.3149726304
 20
217.1775395314
  0
LWPOLYLINE
  5
11D
330
1F
100
AcDbEntity
  8
0
  6
Continuous
 62
     7
370
    25
100
AcDbPolyline
 90
        3
 70
   128
 43
0.0
 10
855.0678434329
 20
217.1775412369
 10
855.2158086966
 20
217.4560168839
 10
855.3414074679
 20
218.0874445473
  0
LINE
  5
11E
330
1F
100
AcDbEntity
  8
0
  6
Continuous
 62
     7
370
    25
100
AcDbLine
 10
855.3414074679
 20
218.0874445473
 30
0.0
 11
855.3414074679
 21
218.5874445473
 31
0.0
  0
LWPOLYLINE
  5
11F
330
1F
100
AcDbEntity
  8
0
  6
Continuous
 62
     7
370
    25
100
AcDbPolyline
 90
        3
 70
   128
 43
0.0
 10
855.3414074679
 20
218.5874445473
 10
855.2158086966
 20
219.2188722107
 10
855.0678168952
 20
219.4973880008
  0
LWPOLYLINE
  5
120
330
1F
100
AcDbEntity
  8
0
  6
Continuous
 62
     7
370
    25
100
AcDbPolyline
 90
        3
 70
   128
 43
0.0
 10
852.3149987
 20
219.4973889982
 10
852.1670062393
 20
219.2188722107
 10
852.0414074679
 20
218.5874445473
  0
LINE
  5
121
330
1F
100
AcDbEntity
  8
0
  6
Continuous
 62
     7
370
    25
100
AcDbLine
 10
852.0414074679
 20
218.5874445473
 30
0.0
 11
852.0414074679
 21
218.0874445473
 31
0.0
  0
LWPOLYLINE
  5
122
330
1F
100
AcDbEntity
  8
0
  6
Continuous
 62
     7
370
    25
100
AcDbPolyline
 90
        3
 70
   128
 43
0.0
 10
852.0414074679
 20
418.0874445473
 10
852.1670062393
 20
417.4560168839
 10
852.3150249272
 20
417.1774604257
  0
LWPOLYLINE
  5
123
330
1F
100
AcDbEntity
  8
0
  6
Continuous
 62
     7
370
    25
100
AcDbPolyline
 90
        3
 70
   128
 43
0.0
 10
855.0677901972
 20
417.1774607108
 10
855.2158086966
 20
417.4560168839
 10
855.3414074679
 20
418.0874445473
  0
LINE
  5
124
330
1F
100
AcDbEntity
  8
0
  6
Continuous
 62
     7
370
    25
100
AcDbLine
 10
855.3414074679
 20
418.0874445473
 30
0.0
 11
855.3414074679
 21
418.5874445473
 31
0.0
  0
LWPOLYLINE
  5
125
330
1F
100
AcDbEntity
  8
0
  6
Continuous
 62
     7
370
    25
100
AcDbPolyline
 90
        3
 70
   128
 43
0.0
 10
855.3414074679
 20
418.5874445473
 10
855.2158086966
 20
419.2188722107
 10
855.0678124966
 20
419.4973946543
  0
LWPOLYLINE
  5
126
330
1F
100
AcDbEntity
  8
0
  6
Continuous
 62
     7
370
    25
100
AcDbPolyline
 90
        3
 70
   128
 43
0.0
 10
852.3150030211
 20
419.4973955343
 10
852.1670062393
 20
419.2188722107
 10
852.0414074679
 20
418.5874445473
  0
LINE
  5
127
330
1F
100
AcDbEntity
  8
0
  6
Continuous
 62
     7
370
    25
100
AcDbLine
 10
852.0414074679
 20
418.5874445473
 30
0.0
 11
852.0414074679
 21
418.0874445473
 31
0.0
  0
LWPOLYLINE
  5
128
330
1F
100
AcDbEntity
  8
0
  6
Continuous
 62
     7
370
    25
100
AcDbPolyline
 90
        3
 70
   128
 43
0.0
 10
852.0414074679
 20
618.0874445473
 10
852.1670062393
 20
617.4560168839
 10
852.315021276
 20
617.1774659483
  0
LWPOLYLINE
  5
129
330
1F
100
AcDbEntity
  8
0
  6
Continuous
 62
     7
370
    25
100
AcDbPolyline
 90
        3
 70
   128
 43
0.0
 10
855.0677939139
 20
617.1774663326
 10
855.2158086966
 20
617.4560168839
 10
855.3414074679
 20
618.0874445473
  0
LINE
  5
12A
330
1F
100
AcDbEntity
  8
0
  6
Continuous
 62
     7
370
    25
100
AcDbLine
 10
855.3414074679
 20
618.0874445473
 30
0.0
 11
855.3414074679
 21
618.5874445473
 31
0.0
  0
LWPOLYLINE
  5
12B
330
1F
100
AcDbEntity
  8
0
  6
Continuous
 62
     7
370
    25
100
AcDbPolyline
 90
        3
 70
   128
 43
0.0
 10
855.3414074679
 20
618.5874445473
 10
855.2158086966
 20
619.2188722107
 10
855.0677686258
 20
619.4974610103
  0
LWPOLYLINE
  5
12C
330
1F
100
AcDbEntity
  8
0
  6
Continuous
 62
     7
370
    25
100
AcDbPolyline
 90
        3
 70
   128
 43
0.0
 10
852.315046118
 20
619.49746072
 10
852.1670062393
 20
619.2188722107
 10
852.0414074679
 20
618.5874445473
  0
LINE
  5
12D
330
1F
100
AcDbEntity
  8
0
  6
Continuous
 62
     7
370
    25
100
AcDbLine
 10
852.0414074679
 20
618.5874445473
 30
0.0
 11
852.0414074679
 21
618.0874445473
 31
0.0
  0
SPLINE
  5
12E
330
1F
100
AcDbEntity
  8
0
  6
Continuous
 62
     7
370
    25
100
AcDbSpline
210
0.0
220
0.0
230
1.0
 70
     8
 71
     3
 72
    10
 73
     6
 74
     0
 42
0.000000001
 43
0.00000001
 40
0.0
 40
0.0
 40
0.0
 40
0.0
 40
0.475985596741538
 40
0.824699454553069
 40
1.0
 40
1.0
 40
1.0
 40
1.0
 10
846.8914074679228
 20
649.3874445473267
 30
0.0
 10
846.9256896853846
 20
649.5832425404815
 30
0.0
 10
846.9850875458134
 20
649.9224849445852
 30
0.0
 10
847.3310484470262
 20
650.298310644617
 30
0.0
 10
847.6010745885296
 20
650.4350294284644
 30
0.0
 10
847.691407467924
 20
650.4807664868968
 30
0.0
  0
SPLINE
  5
12F
330
1F
100
AcDbEntity
  8
0
  6
Continuous
 62
     7
370
    25
100
AcDbSpline
210
0.0
220
0.0
230
1.0
 70
     8
 71
     3
 72
    10
 73
     6
 74
     0
 42
0.000000001
 43
0.00000001
 40
0.0
 40
0.0
 40
0.0
 40
0.0
 40
0.2264882363963658
 40
0.6636051155246394
 40
1.0
 40
1.0
 40
1.0
 40
1.0
 10
847.691407467924
 20
186.2024650656351
 30
0.0
 10
847.5736594735164
 20
186.2639649907785
 30
0.0
 10
847.2286606661834
 20
186.4441583005014
 30
0.0
 10
846.9520597331189
 20
186.8435092966825
 30
0.0
 10
846.9097901956766
 20
187.1528949006393
 30
0.0
 10
846.8914074679228
 20
187.2874445473267
 30
0.0
  0
LINE
  5
130
330
1F
100
AcDbEntity
  8
0
  6
Continuous
 62
     7
370
    25
100
AcDbLine
 10
846.8914074679
 20
187.2874445473
 30
0.0
 11
846.8914074679
 21
649.3874445473
 31
0.0
  0
SPLINE
  5
131
330
1F
100
AcDbEntity
  8
0
  6
Continuous
 62
     7
370
    25
100
AcDbSpline
210
0.0
220
0.0
230
1.0
 70
     8
 71
     3
 72
    10
 73
     6
 74
     0
 42
0.000000001
 43
0.00000001
 40
0.0
 40
0.0
 40
0.0
 40
0.0
 40
0.2264871144924381
 40
0.6636037789126247
 40
0.9999999999999999
 40
0.9999999999999999
 40
0.9999999999999999
 40
0.9999999999999999
 10
847.691407467924
 20
651.1017812236479
 30
0.0
 10
847.5736599757162
 20
650.9964075751362
 30
0.0
 10
847.2286616257583
 20
650.6876643978176
 30
0.0
 10
846.9520601002989
 20
650.0823223755804
 30
0.0
 10
846.909790339285
 20
649.5980512304805
 30
0.0
 10
846.8914074679228
 20
649.3874445473267
 30
0.0
  0
SPLINE
  5
132
330
1F
100
AcDbEntity
  8
0
  6
Continuous
 62
     7
370
    25
100
AcDbSpline
210
0.0
220
0.0
230
1.0
 70
     8
 71
     3
 72
    10
 73
     6
 74
     0
 42
0.000000001
 43
0.00000001
 40
0.0
 40
0.0
 40
0.0
 40
0.0
 40
0.4759789056020995
 40
0.8247119578827552
 40
0.9999999999999999
 40
0.9999999999999999
 40
0.9999999999999999
 40
0.9999999999999999
 10
846.8914074679227
 20
187.2874445473264
 30
0.0
 10
846.9256928797417
 20
186.9869380898882
 30
0.0
 10
846.9850980104634
 20
186.4662610893881
 30
0.0
 10
847.3310536820193
 20
185.8861381293232
 30
0.0
 10
847.6010815929961
 20
185.6329384842381
 30
0.0
 10
847.691407467924
 20
185.548241760144
 30
0.0
  0
LINE
  5
133
330
1F
100
AcDbEntity
  8
0
  6
Continuous
 62
     7
370
    25
100
AcDbLine
 10
891.7914074679
 20
654.5874445473
 30
0.0
 11
874.7914074679
 21
654.5874445473
 31
0.0
  0
LINE
  5
134
330
1F
100
AcDbEntity
  8
0
  6
Continuous
 62
     7
370
    25
100
AcDbLine
 10
891.2914074679
 20
655.0874445473
 30
0.0
 11
875.2914074679
 21
655.0874445473
 31
0.0
  0
LINE
  5
135
330
1F
100
AcDbEntity
  8
0
  6
Continuous
 62
     7
370
    25
100
AcDbLine
 10
891.7914074679
 20
653.0874445473
 30
0.0
 11
874.7914074679
 21
653.0874445473
 31
0.0
  0
LINE
  5
136
330
1F
100
AcDbEntity
  8
0
  6
Continuous
 62
     7
370
    25
100
AcDbLine
 10
883.4914074679
 20
652.5874445473
 30
0.0
 11
883.4914074679
 21
652.7874445473
 31
0.0
  0
LINE
  5
137
330
1F
100
AcDbEntity
  8
0
  6
Continuous
 62
     7
370
    25
100
AcDbLine
 10
883.0914074679
 20
652.7874445473
 30
0.0
 11
883.4914074679
 21
652.7874445473
 31
0.0
  0
LINE
  5
138
330
1F
100
AcDbEntity
  8
0
  6
Continuous
 62
     7
370
    25
100
AcDbLine
 10
883.0914074679
 20
652.7874445473
 30
0.0
 11
883.0914074679
 21
652.5874445473
 31
0.0
  0
LINE
  5
139
330
1F
100
AcDbEntity
  8
0
  6
Continuous
 62
     7
370
    25
100
AcDbLine
 10
890.4073448547
 20
183.5874445473
 30
0.0
 11
891.7914074679
 21
183.5874445473
 31
0.0
  0
LINE
  5
13A
330
1F
100
AcDbEntity
  8
0
  6
Continuous
 62
     7
370
    25
100
AcDbLine
 10
874.7914074679
 20
183.5874445473
 30
0.0
 11
890.4073448547
 21
183.5874445473
 31
0.0
  0
LINE
  5
13B
330
1F
100
AcDbEntity
  8
0
  6
Continuous
 62
     7
370
    25
100
AcDbLine
 10
890.4073448547
 20
182.0874445473
 30
0.0
 11
891.7914074679
 21
182.0874445473
 31
0.0
  0
LINE
  5
13C
330
1F
100
AcDbEntity
  8
0
  6
Continuous
 62
     7
370
    25
100
AcDbLine
 10
874.7914074679
 20
182.0874445473
 30
0.0
 11
890.4073448547
 21
182.0874445473
 31
0.0
  0
LWPOLYLINE
  5
13D
330
1F
100
AcDbEntity
  8
0
  6
Continuous
 62
     7
370
    25
100
AcDbPolyline
 90
        3
 70
   128
 43
0.0
 10
878.7497881123
 20
184.0874445473
 10
878.6453464323
 20
183.8965479084
 10
878.6403659191
 20
183.8874445473
  0
LINE
  5
13E
330
1F
100
AcDbEntity
  8
0
  6
Continuous
 62
     7
370
    25
100
AcDbLine
 10
878.9752335608
 20
183.8874445473
 30
0.0
 11
878.6403659191
 21
183.8874445473
 31
0.0
  0
LWPOLYLINE
  5
13F
330
1F
100
AcDbEntity
  8
0
  6
Continuous
 62
     7
370
    25
100
AcDbPolyline
 90
        3
 70
   128
 43
0.0
 10
878.9752335608
 20
183.8874445473
 10
878.9802140741
 20
183.8965479084
 10
879.084655754
 20
184.0874445473
  0
LINE
  5
140
330
1F
100
AcDbEntity
  8
0
  6
Continuous
 62
     7
370
    25
100
AcDbLine
 10
878.7497881123
 20
183.8874445473
 30
0.0
 11
878.7497881123
 21
184.0874445473
 31
0.0
  0
ARC
  5
141
330
1F
100
AcDbEntity
  8
0
  6
Continuous
 62
     7
370
    25
100
AcDbCircle
 10
848.1914074679
 20
652.0874445473
 30
0.0
 40
0.5000000000001137
100
AcDbArc
 50
90.0
 51
180.0
  0
LINE
  5
142
330
1F
100
AcDbEntity
  8
0
  6
Continuous
 62
     7
370
    25
100
AcDbLine
 10
848.1914074679
 20
184.0874445473
 30
0.0
 11
862.6311798483
 21
184.0874445473
 31
0.0
  0
ARC
  5
143
330
1F
100
AcDbEntity
  8
0
  6
Continuous
 62
     7
370
    25
100
AcDbCircle
 10
848.1914074679
 20
184.5874445473
 30
0.0
 40
0.5000000000001137
100
AcDbArc
 50
180.0
 51
270.0
  0
LINE
  5
144
330
1F
100
AcDbEntity
  8
0
  6
Continuous
 62
     7
370
    25
100
AcDbLine
 10
847.6914074679
 20
652.0874445473
 30
0.0
 11
847.6914074679
 21
184.5874445473
 31
0.0
  0
CIRCLE
  5
145
330
1F
100
AcDbEntity
  8
0
  6
Continuous
 62
     7
370
    25
100
AcDbCircle
 10
853.6914074679
 20
618.3374445473
 30
0.0
 40
1.799999999999955
  0
CIRCLE
  5
146
330
1F
100
AcDbEntity
  8
0
  6
Continuous
 62
     7
370
    25
100
AcDbCircle
 10
853.6914074679
 20
218.3374445473
 30
0.0
 40
1.799999999999955
  0
CIRCLE
  5
147
330
1F
100
AcDbEntity
  8
0
  6
Continuous
 62
     7
370
    25
100
AcDbCircle
 10
853.6914074679
 20
418.3374445473
 30
0.0
 40
1.799999999999841
  0
LINE
  5
148
330
1F
100
AcDbEntity
  8
0
  6
Continuous
 62
     7
370
    25
100
AcDbLine
 10
848.1914074679
 20
652.5874445473
 30
0.0
 11
862.6311798483
 21
652.5874445473
 31
0.0
  0
LINE
  5
149
330
1F
100
AcDbEntity
  8
0
  6
Continuous
 62
     7
370
    25
100
AcDbLine
 10
862.6311798483
 20
184.0874445473
 30
0.0
 11
862.7515525477
 21
184.0874445473
 31
0.0
  0
LINE
  5
14A
330
1F
100
AcDbEntity
  8
0
  6
Continuous
 62
     7
370
    25
100
AcDbLine
 10
862.6311798483
 20
652.5874445473
 30
0.0
 11
862.7515525477
 21
652.5874445473
 31
0.0
  0
LINE
  5
14B
330
1F
100
AcDbEntity
  8
0
  6
Continuous
 62
     7
370
    25
100
AcDbLine
 10
862.7515525477
 20
652.5874445473
 30
0.0
 11
883.4764468116
 21
652.5874445473
 31
0.0
  0
LINE
  5
14C
330
1F
100
AcDbEntity
  8
0
  6
Continuous
 62
     7
370
    25
100
AcDbLine
 10
862.7515525477
 20
184.0874445473
 30
0.0
 11
883.4764468116
 21
184.0874445473
 31
0.0
  0
LINE
  5
14D
330
1F
100
AcDbEntity
  8
0
  6
Continuous
 62
     7
370
    25
100
AcDbLine
 10
847.6914074679
 20
184.0874445473
 30
0.0
 11
847.6914074679
 21
184.5874445473
 31
0.0
  0
LINE
  5
14E
330
1F
100
AcDbEntity
  8
0
  6
Continuous
 62
     7
370
    25
100
AcDbLine
 10
848.1914074679
 20
184.0874445473
 30
0.0
 11
847.6914074679
 21
184.0874445473
 31
0.0
  0
LINE
  5
14F
330
1F
100
AcDbEntity
  8
0
  6
Continuous
 62
     7
370
    25
100
AcDbLine
 10
847.6914074679
 20
652.0874445473
 30
0.0
 11
847.6914074679
 21
652.5874445473
 31
0.0
  0
LINE
  5
150
330
1F
100
AcDbEntity
  8
0
  6
Continuous
 62
     7
370
    25
100
AcDbLine
 10
847.6914074679
 20
652.5874445473
 30
0.0
 11
848.1914074679
 21
652.5874445473
 31
0.0
  0
LINE
  5
151
330
1F
100
AcDbEntity
  8
0
  6
Continuous
 62
     7
370
    25
100
AcDbLine
 10
897.6914074679
 20
652.5874445473
 30
0.0
 11
897.6914074679
 21
650.2874445473
 31
0.0
  0
LINE
  5
152
330
1F
100
AcDbEntity
  8
0
  6
Continuous
 62
     7
370
    25
100
AcDbLine
 10
897.6914074679
 20
650.2874445473
 30
0.0
 11
897.6914074679
 21
186.3874445473
 31
0.0
  0
LINE
  5
153
330
1F
100
AcDbEntity
  8
0
  6
Continuous
 62
     7
370
    25
100
AcDbLine
 10
897.6914074679
 20
186.3874445473
 30
0.0
 11
897.6914074679
 21
184.0874445473
 31
0.0
  0
LINE
  5
154
330
1F
100
AcDbEntity
  8
0
  6
Continuous
 62
     7
370
    25
100
AcDbLine
 10
883.4764468116
 20
184.0874445473
 30
0.0
 11
897.6914074679
 21
184.0874445473
 31
0.0
  0
LINE
  5
155
330
1F
100
AcDbEntity
  8
0
  6
Continuous
 62
     7
370
    25
100
AcDbLine
 10
883.4764468116
 20
652.5874445473
 30
0.0
 11
897.6914074679
 21
652.5874445473
 31
0.0
  0
LINE
  5
156
330
1F
100
AcDbEntity
  8
0
  6
Continuous
 62
     7
370
    25
100
AcDbLine
 10
48.2503001575
 20
911.3474445473
 30
0.0
 11
37.2483001586
 21
911.3474445473
 31
0.0
  0
ARC
  5
157
330
1F
100
AcDbEntity
  8
0
  6
Continuous
 62
     7
370
    25
100
AcDbCircle
 10
37.2483001586
 20
913.3454445473
 30
0.0
 40
1.998000000000027
100
AcDbArc
 50
180.0
 51
216.5323956158
  0
ARC
  5
158
330
1F
100
AcDbEntity
  8
0
  6
Continuous
 62
     7
370
    25
100
AcDbCircle
 10
37.2483001586
 20
913.3454445473
 30
0.0
 40
1.998000000000055
100
AcDbArc
 50
240.2054105812
 51
270.0
  0
LINE
  5
159
330
1F
100
AcDbEntity
  8
0
  6
Continuous
 62
     7
370
    25
100
AcDbLine
 10
48.250300157
 20
911.5874445473
 30
0.0
 11
48.250300157
 21
911.3874445473
 31
0.0
  0
LINE
  5
15A
330
1F
100
AcDbEntity
  8
0
  6
Continuous
 62
     7
370
    25
100
AcDbLine
 10
48.250300157
 20
911.3874445473
 30
0.0
 11
37.2503001582
 21
911.3874445473
 31
0.0
  0
ARC
  5
15B
330
1F
100
AcDbEntity
  8
0
  6
Continuous
 62
     7
370
    25
100
AcDbCircle
 10
37.2503001582
 20
913.3874445473
 30
0.0
 40
2.000000000000007
100
AcDbArc
 50
180.0
 51
270.0
  0
LINE
  5
15C
330
1F
100
AcDbEntity
  8
0
  6
Continuous
 62
     7
370
    25
100
AcDbLine
 10
35.2503001582
 20
913.3874445473
 30
0.0
 11
35.2503001582
 21
924.1894445473
 31
0.0
  0
ARC
  5
15D
330
1F
100
AcDbEntity
  8
0
  6
Continuous
 62
     7
370
    25
100
AcDbCircle
 10
37.2483001582
 20
924.1894445473
 30
0.0
 40
1.998000000000062
100
AcDbArc
 50
90.0
 51
180.0
  0
LINE
  5
15E
330
1F
100
AcDbEntity
  8
0
  6
Continuous
 62
     7
370
    25
100
AcDbLine
 10
37.2483001582
 20
926.1874445473
 30
0.0
 11
37.2503001582
 21
926.1874445473
 31
0.0
  0
LINE
  5
15F
330
1F
100
AcDbEntity
  8
0
  6
Continuous
 62
     7
370
    25
100
AcDbLine
 10
37.2503001582
 20
926.1874445473
 30
0.0
 11
37.2503001582
 21
924.6874445473
 31
0.0
  0
LINE
  5
160
330
1F
100
AcDbEntity
  8
0
  6
Continuous
 62
     7
370
    25
100
AcDbLine
 10
103.7503001582
 20
924.6874445473
 30
0.0
 11
103.7503001582
 21
926.1874445473
 31
0.0
  0
LINE
  5
161
330
1F
100
AcDbEntity
  8
0
  6
Continuous
 62
     7
370
    25
100
AcDbLine
 10
103.7503001582
 20
926.1874445473
 30
0.0
 11
103.7523001582
 21
926.1874445473
 31
0.0
  0
ARC
  5
162
330
1F
100
AcDbEntity
  8
0
  6
Continuous
 62
     7
370
    25
100
AcDbCircle
 10
103.7523001582
 20
924.1894445473
 30
0.0
 40
1.998000000000047
100
AcDbArc
 50
0.0
 51
90.0
  0
LINE
  5
163
330
1F
100
AcDbEntity
  8
0
  6
Continuous
 62
     7
370
    25
100
AcDbLine
 10
105.7503001582
 20
924.1894445473
 30
0.0
 11
105.7503001582
 21
911.5874445473
 31
0.0
  0
LINE
  5
164
330
1F
100
AcDbEntity
  8
0
  6
Continuous
 62
     7
370
    25
100
AcDbLine
 10
37.2503001582
 20
926.1874445473
 30
0.0
 11
37.2503001582
 21
926.9874445473
 31
0.0
  0
LINE
  5
165
330
1F
100
AcDbEntity
  8
0
  6
Continuous
 62
     7
370
    25
100
AcDbLine
 10
37.2503001582
 20
926.9874445473
 30
0.0
 11
103.7503001582
 21
926.9874445473
 31
0.0
  0
LINE
  5
166
330
1F
100
AcDbEntity
  8
0
  6
Continuous
 62
     7
370
    25
100
AcDbLine
 10
103.7503001582
 20
926.9874445473
 30
0.0
 11
103.7503001582
 21
926.1874445473
 31
0.0
  0
LINE
  5
167
330
1F
100
AcDbEntity
  8
0
  6
Continuous
 62
     7
370
    25
100
AcDbLine
 10
105.7503001582
 20
911.5874445473
 30
0.0
 11
105.7503001582
 21
909.2874445473
 31
0.0
  0
LINE
  5
168
330
1F
100
AcDbEntity
  8
0
  6
Continuous
 62
     7
370
    25
100
AcDbLine
 10
105.7503001582
 20
909.2874445473
 30
0.0
 11
48.250300157
 21
909.2874445473
 31
0.0
  0
LINE
  5
169
330
1F
100
AcDbEntity
  8
0
  6
Continuous
 62
     7
370
    25
100
AcDbLine
 10
48.250300157
 20
909.2874445473
 30
0.0
 11
48.250300157
 21
911.3874445473
 31
0.0
  0
LINE
  5
16A
330
1F
100
AcDbEntity
  8
0
  6
Continuous
 62
     7
370
    25
100
AcDbLine
 10
63.1503010618
 20
940.7474445473
 30
0.0
 11
78.1503001584
 21
940.7474445473
 31
0.0
  0
LINE
  5
16B
330
1F
100
AcDbEntity
  8
0
  6
Continuous
 62
     7
370
    25
100
AcDbLine
 10
886.629526039
 20
818.7624138339
 30
0.0
 11
886.5388952603
 21
818.7201520077
 31
0.0
  0
LINE
  5
16C
330
1F
100
AcDbEntity
  8
0
  6
Continuous
 62
     7
370
    25
100
AcDbLine
 10
886.629526039
 20
818.7624138339
 30
0.0
 11
887.0521443007
 21
817.8561060468
 31
0.0
  0
LINE
  5
16D
330
1F
100
AcDbEntity
  8
0
  6
Continuous
 62
     7
370
    25
100
AcDbLine
 10
887.0521443007
 20
817.8561060468
 30
0.0
 11
896.4469482592
 21
797.708883941
 31
0.0
  0
LINE
  5
16E
330
1F
100
AcDbEntity
  8
0
  6
Continuous
 62
     7
370
    25
100
AcDbLine
 10
915.084413602
 20
757.7407105327
 30
0.0
 11
922.114735626
 21
742.6641362989
 31
0.0
  0
LINE
  5
16F
330
1F
100
AcDbEntity
  8
0
  6
Continuous
 62
     7
370
    25
100
AcDbLine
 10
921.4761008304
 20
756.5913775052
 30
0.0
 11
920.1667016365
 21
752.9938327868
 31
0.0
  0
LINE
  5
170
330
1F
100
AcDbEntity
  8
0
  6
Continuous
 62
     7
370
    25
100
AcDbLine
 10
896.0774607173
 20
804.6533766479
 30
0.0
 11
920.1667016365
 21
752.9938327868
 31
0.0
  0
LINE
  5
171
330
1F
100
AcDbEntity
  8
0
  6
Continuous
 62
     7
370
    25
100
AcDbLine
 10
899.6750054356
 20
803.343977454
 30
0.0
 11
896.0774607173
 21
804.6533766479
 31
0.0
  0
LINE
  5
172
330
1F
100
AcDbEntity
  8
0
  6
Continuous
 62
     7
370
    25
100
AcDbLine
 10
920.1667016365
 20
752.9938327868
 30
0.0
 11
918.3540860624
 21
752.1485962633
 31
0.0
  0
LINE
  5
173
330
1F
100
AcDbEntity
  8
0
  6
Continuous
 62
     7
370
    25
100
AcDbLine
 10
918.3540860624
 20
752.1485962633
 30
0.0
 11
894.2648451432
 21
803.8081401244
 31
0.0
  0
LINE
  5
174
330
1F
100
AcDbEntity
  8
0
  6
Continuous
 62
     7
370
    25
100
AcDbLine
 10
896.0774607173
 20
804.6533766479
 30
0.0
 11
894.2648451432
 21
803.8081401244
 31
0.0
  0
LINE
  5
175
330
1F
100
AcDbEntity
  8
0
  6
Continuous
 62
     7
370
    25
100
AcDbLine
 10
900.4396438407
 20
803.3773622878
 30
0.0
 11
900.0642388636
 21
803.202308072
 31
0.0
  0
LINE
  5
176
330
1F
100
AcDbEntity
  8
0
  6
Continuous
 62
     7
370
    25
100
AcDbLine
 10
921.9931751895
 20
757.1556651489
 30
0.0
 11
921.6177702124
 21
756.9806109332
 31
0.0
  0
LINE
  5
177
330
1F
100
AcDbEntity
  8
0
  6
Continuous
 62
     7
370
    25
100
AcDbLine
 10
899.6750054356
 20
803.343977454
 30
0.0
 11
900.0642388636
 21
803.202308072
 31
0.0
  0
LINE
  5
178
330
1F
100
AcDbEntity
  8
0
  6
Continuous
 62
     7
370
    25
100
AcDbLine
 10
921.4761008304
 20
756.5913775052
 30
0.0
 11
921.6177702124
 21
756.9806109332
 31
0.0
  0
LINE
  5
179
330
1F
100
AcDbEntity
  8
0
  6
Continuous
 62
     7
370
    25
100
AcDbLine
 10
923.9140753118
 20
759.1547735054
 30
0.0
 11
903.2057804865
 21
803.5638550702
 31
0.0
  0
ARC
  5
17A
330
1F
100
AcDbEntity
  8
0
  6
Continuous
 62
     7
370
    25
100
AcDbCircle
 10
923.0077675247
 20
758.7321552437
 30
0.0
 40
1.000000000000013
100
AcDbArc
 50
295.0
 51
25.0
  0
ARC
  5
17B
330
1F
100
AcDbEntity
  8
0
  6
Continuous
 62
     7
370
    25
100
AcDbCircle
 10
902.2994726994
 20
803.1412368085
 30
0.0
 40
1.00000000000002
100
AcDbArc
 50
25.0
 51
115.0
  0
LINE
  5
17C
330
1F
100
AcDbEntity
  8
0
  6
Continuous
 62
     7
370
    25
100
AcDbLine
 10
900.4396438407
 20
803.3773622878
 30
0.0
 11
901.8768544377
 21
804.0475445955
 31
0.0
  0
LINE
  5
17D
330
1F
100
AcDbEntity
  8
0
  6
Continuous
 62
     7
370
    25
100
AcDbLine
 10
921.9931751895
 20
757.1556651489
 30
0.0
 11
923.4303857865
 21
757.8258474566
 31
0.0
  0
LINE
  5
17E
330
1F
100
AcDbEntity
  8
0
  6
Continuous
 62
     7
370
    25
100
AcDbLine
 10
914.9937828233
 20
757.6984487065
 30
0.0
 11
915.6281982742
 21
757.9942814897
 31
0.0
  0
LINE
  5
17F
330
1F
100
AcDbEntity
  8
0
  6
Continuous
 62
     7
370
    25
100
AcDbLine
 10
896.9907329314
 20
797.9624548981
 30
0.0
 11
896.3563174805
 21
797.6666221148
 31
0.0
  0
SPLINE
  5
180
330
1F
100
AcDbEntity
  8
0
  6
Continuous
 62
     7
370
    25
100
AcDbSpline
210
0.0
220
0.0
230
1.0
 70
    24
 71
     3
 72
    11
 73
     7
 74
     0
 42
0.000000001
 43
0.00000001
 40
0.0
 40
0.0
 40
0.0
 40
0.0
 40
0.0891247404174462
 40
0.1982885697613913
 40
0.3971296529455977
 40
1.0
 40
1.0
 40
1.0
 40
1.0
 10
907.7460625535416
 20
794.6472441786495
 30
0.0
 10
907.7444984219916
 20
794.6465148121295
 30
0.0
 10
907.7410184745996
 20
794.6448920860106
 30
0.0
 10
907.7092425086537
 20
794.6300747097448
 30
0.0
 10
907.61232155597
 20
794.5848797272718
 30
0.0
 10
907.5093760138049
 20
794.5368754325876
 30
0.0
 10
907.4319631038826
 20
794.5007771998512
 30
0.0
  0
ARC
  5
181
330
1F
100
AcDbEntity
  8
0
  6
Continuous
 62
     7
370
    25
100
AcDbCircle
 10
912.5216750551
 20
780.161462615
 30
0.0
 40
15.25268311723291
100
AcDbArc
 50
56.7206196165
 51
108.2461403543
  0
ARC
  5
182
330
1F
100
AcDbEntity
  8
0
  6
Continuous
 62
     7
370
    25
100
AcDbCircle
 10
920.3424357256
 20
792.0767753921
 30
0.0
 40
1.000000000000027
100
AcDbArc
 50
329.9309373011
 51
56.7206196165
  0
LINE
  5
183
330
1F
100
AcDbEntity
  8
0
  6
Continuous
 62
     7
370
    25
100
AcDbLine
 10
915.9709129874
 20
782.530274618
 30
0.0
 11
921.2078578147
 21
791.5757318732
 31
0.0
  0
LINE
  5
184
330
1F
100
AcDbEntity
  8
0
  6
Continuous
 62
     7
370
    25
100
AcDbLine
 10
915.7861601057
 20
778.3564636264
 30
0.0
 11
915.560868773
 21
778.942947794
 31
0.0
  0
ARC
  5
185
330
1F
100
AcDbEntity
  8
0
  6
Continuous
 62
     7
370
    25
100
AcDbCircle
 10
919.8815524699
 20
780.266176449
 30
0.0
 40
4.518765504196002
100
AcDbArc
 50
149.9309373011
 51
197.0274409924
  0
LINE
  5
186
330
1F
100
AcDbEntity
  8
0
  6
Continuous
 62
     7
370
    25
100
AcDbLine
 10
920.0289516719
 20
769.2577677504
 30
0.0
 11
915.7861601057
 21
778.3564636264
 31
0.0
  0
ARC
  5
187
330
1F
100
AcDbEntity
  8
0
  6
Continuous
 62
     7
370
    25
100
AcDbCircle
 10
919.3039054422
 20
768.9196731411
 30
0.0
 40
0.8000000000000794
100
AcDbArc
 50
298.68436129
 51
25.0
  0
LINE
  5
188
330
1F
100
AcDbEntity
  8
0
  6
Continuous
 62
     7
370
    25
100
AcDbLine
 10
889.1969873764
 20
848.9861191333
 30
0.0
 11
891.0096029505
 21
849.8313556568
 31
0.0
  0
LINE
  5
189
330
1F
100
AcDbEntity
  8
0
  6
Continuous
 62
     7
370
    25
100
AcDbLine
 10
891.0096029505
 20
849.8313556568
 30
0.0
 11
891.3476975599
 21
849.1063094271
 31
0.0
  0
LINE
  5
18A
330
1F
100
AcDbEntity
  8
0
  6
Continuous
 62
     7
370
    25
100
AcDbLine
 10
891.3476975599
 20
849.1063094271
 30
0.0
 11
889.5350819858
 21
848.2610729036
 31
0.0
  0
LINE
  5
18B
330
1F
100
AcDbEntity
  8
0
  6
Continuous
 62
     7
370
    25
100
AcDbLine
 10
876.5539937472
 20
843.090594382
 30
0.0
 11
889.1969873764
 21
848.9861191333
 31
0.0
  0
LINE
  5
18C
330
1F
100
AcDbEntity
  8
0
  6
Continuous
 62
     7
370
    25
100
AcDbLine
 10
876.8920883566
 20
842.3655481524
 30
0.0
 11
889.5350819858
 21
848.2610729036
 31
0.0
  0
ARC
  5
18D
330
1F
100
AcDbEntity
  8
0
  6
Continuous
 62
     7
370
    25
100
AcDbCircle
 10
901.7954234857
 20
672.0474445473
 30
0.0
 40
10.00000000000014
100
AcDbArc
 50
270.0
 51
335.0
  0
ARC
  5
18E
330
1F
100
AcDbEntity
  8
0
  6
Continuous
 62
     7
370
    25
100
AcDbCircle
 10
901.7954234857
 20
672.0474445473
 30
0.0
 40
10.80000000000017
100
AcDbArc
 50
270.0
 51
335.0
  0
LINE
  5
18F
330
1F
100
AcDbEntity
  8
0
  6
Continuous
 62
     7
370
    25
100
AcDbLine
 10
841.1661260938
 20
661.2474445473
 30
0.0
 11
841.1661260938
 21
662.0474445473
 31
0.0
  0
LINE
  5
190
330
1F
100
AcDbEntity
  8
0
  6
Continuous
 62
     7
370
    25
100
AcDbLine
 10
841.1661260938
 20
662.0474445473
 30
0.0
 11
843.1661260938
 21
662.0474445473
 31
0.0
  0
LINE
  5
191
330
1F
100
AcDbEntity
  8
0
  6
Continuous
 62
     7
370
    25
100
AcDbLine
 10
843.1661260938
 20
661.2474445473
 30
0.0
 11
841.1661260938
 21
661.2474445473
 31
0.0
  0
ARC
  5
192
330
1F
100
AcDbEntity
  8
0
  6
Continuous
 62
     7
370
    25
100
AcDbCircle
 10
877.4203611838
 20
841.2326634186
 30
0.0
 40
1.249999999999922
100
AcDbArc
 50
115.0
 51
205.0
  0
ARC
  5
193
330
1F
100
AcDbEntity
  8
0
  6
Continuous
 62
     7
370
    25
100
AcDbCircle
 10
877.4203611838
 20
841.2326634186
 30
0.0
 40
2.049999999999954
100
AcDbArc
 50
115.0
 51
205.0
  0
ARC
  5
194
330
1F
100
AcDbEntity
  8
0
  6
Continuous
 62
     7
370
    25
100
AcDbCircle
 10
922.4062219761
 20
716.2474445473
 30
0.0
 40
9.999999999999929
100
AcDbArc
 50
335.0
 51
25.0
  0
ARC
  5
195
330
1F
100
AcDbEntity
  8
0
  6
Continuous
 62
     7
370
    25
100
AcDbCircle
 10
922.4062219761
 20
716.2474445473
 30
0.0
 40
10.80000000000001
100
AcDbArc
 50
335.0
 51
25.0
  0
LINE
  5
196
330
1F
100
AcDbEntity
  8
0
  6
Continuous
 62
     7
370
    25
100
AcDbLine
 10
843.1661260938
 20
662.0474445473
 30
0.0
 11
901.7954234857
 21
662.0474445473
 31
0.0
  0
LINE
  5
197
330
1F
100
AcDbEntity
  8
0
  6
Continuous
 62
     7
370
    25
100
AcDbLine
 10
843.1661260938
 20
661.2474445473
 30
0.0
 11
901.7954234857
 21
661.2474445473
 31
0.0
  0
LINE
  5
198
330
1F
100
AcDbEntity
  8
0
  6
Continuous
 62
     7
370
    25
100
AcDbLine
 10
931.4692998465
 20
720.4736271647
 30
0.0
 11
875.5624302204
 21
840.366295982
 31
0.0
  0
LINE
  5
199
330
1F
100
AcDbEntity
  8
0
  6
Continuous
 62
     7
370
    25
100
AcDbLine
 10
932.1943460761
 20
720.8117217741
 30
0.0
 11
876.28747645
 21
840.7043905914
 31
0.0
  0
LINE
  5
19A
330
1F
100
AcDbEntity
  8
0
  6
Continuous
 62
     7
370
    25
100
AcDbLine
 10
910.8585013561
 20
667.8212619299
 30
0.0
 11
931.4692998465
 21
712.0212619299
 31
0.0
  0
LINE
  5
19B
330
1F
100
AcDbEntity
  8
0
  6
Continuous
 62
     7
370
    25
100
AcDbLine
 10
911.5835475857
 20
667.4831673205
 30
0.0
 11
932.1943460761
 21
711.6831673205
 31
0.0
  0
LINE
  5
19C
330
1F
100
AcDbEntity
  8
0
  6
Continuous
 62
     7
370
    25
100
AcDbLine
 10
892.0838708667
 20
850.443838979
 30
0.0
 11
892.0800580364
 21
850.4333633137
 31
0.0
  0
ARC
  5
19D
330
1F
100
AcDbEntity
  8
0
  6
Continuous
 62
     7
370
    25
100
AcDbCircle
 10
889.8125680922
 20
850.9282360137
 30
0.0
 40
2.299999999999941
100
AcDbArc
 50
310.6725549768
 51
328.1376406254
  0
ARC
  5
19E
330
1F
100
AcDbEntity
  8
0
  6
Continuous
 62
     7
370
    25
100
AcDbCircle
 10
889.8125680922
 20
850.9282360137
 30
0.0
 40
1.499999999999936
100
AcDbArc
 50
295.0
 51
316.1554725005
  0
SPLINE
  5
19F
330
1F
100
AcDbEntity
  8
0
  6
Continuous
 62
     7
370
    25
100
AcDbSpline
210
0.0
220
0.0
230
1.0
 70
    24
 71
     3
 72
    11
 73
     7
 74
     0
 42
0.000000001
 43
0.00000001
 40
0.0
 40
0.0
 40
0.0
 40
0.0
 40
0.2832771686238223
 40
0.5580022489005096
 40
0.7754022428539143
 40
1.0
 40
1.0
 40
1.0
 40
1.0
 10
930.4473986435465
 20
728.3439851660899
 30
0.0
 10
930.4312191969392
 20
728.3786821013093
 30
0.0
 10
930.3993487583977
 20
728.4470284773215
 30
0.0
 10
930.1741191457071
 20
728.9300349404397
 30
0.0
 10
929.8992379037503
 20
729.5195196661344
 30
0.0
 10
929.703942653715
 20
729.9383316813783
 30
0.0
 10
929.6047048747215
 20
730.1511477852057
 30
0.0
  0
LINE
  5
1A0
330
1F
100
AcDbEntity
  8
0
  6
Continuous
 62
     7
370
    25
100
AcDbLine
 10
929.6321078035
 20
730.0923820148
 30
0.0
 11
919.1697630708
 21
752.5289526989
 31
0.0
  0
SPLINE
  5
1A1
330
1F
100
AcDbEntity
  8
0
  6
Continuous
 62
     7
370
    25
100
AcDbSpline
210
0.0
220
0.0
230
1.0
 70
    24
 71
     3
 72
    11
 73
     7
 74
     0
 42
0.000000001
 43
0.00000001
 40
0.0
 40
0.0
 40
0.0
 40
0.0
 40
0.2832771686238223
 40
0.5580022489005096
 40
0.7754022428539143
 40
1.0
 40
1.0
 40
1.0
 40
1.0
 10
930.4748015723378
 20
728.285219395686
 30
0.0
 10
930.4586221257305
 20
728.3199163309055
 30
0.0
 10
930.426751687189
 20
728.3882627069175
 30
0.0
 10
930.2015220744986
 20
728.8712691700357
 30
0.0
 10
929.9266408325417
 20
729.4607538957306
 30
0.0
 10
929.7313455825065
 20
729.8795659109743
 30
0.0
 10
929.6321078035128
 20
730.0923820148018
 30
0.0
  0
LINE
  5
1A2
330
1F
100
AcDbEntity
  8
0
  6
Continuous
 62
     7
370
    25
100
AcDbLine
 10
929.2059706704
 20
727.6935538292
 30
0.0
 11
930.4748015723
 21
728.2852193957
 31
0.0
  0
LINE
  5
1A3
330
1F
100
AcDbEntity
  8
0
  6
Continuous
 62
     7
370
    25
100
AcDbLine
 10
930.6711475574
 20
731.1768362884
 30
0.0
 11
920.3118084941
 21
753.3925106014
 31
0.0
  0
SPLINE
  5
1A4
330
1F
100
AcDbEntity
  8
0
  6
Continuous
 62
     7
370
    25
100
AcDbSpline
210
0.0
220
0.0
230
1.0
 70
     8
 71
     3
 72
    11
 73
     7
 74
     0
 42
0.000000001
 43
0.00000001
 40
0.0
 40
0.0
 40
0.0
 40
0.0
 40
0.2514201137491517
 40
0.5021380165204693
 40
0.7627995894819135
 40
1.0
 40
1.0
 40
1.0
 40
1.0
 10
930.6437446285765
 20
731.2356020587922
 30
0.0
 10
930.7337096660063
 20
730.9993430168265
 30
0.0
 10
930.9133884704485
 20
730.5274847993254
 30
0.0
 10
930.9464463162753
 20
729.7532005766176
 30
0.0
 10
930.8078450934302
 20
729.0007549456174
 30
0.0
 10
930.5637126416241
 20
728.5559209998258
 30
0.0
 10
930.4473986435466
 20
728.3439851660896
 30
0.0
  0
SPLINE
  5
1A5
330
1F
100
AcDbEntity
  8
0
  6
Continuous
 62
     7
370
    25
100
AcDbSpline
210
0.0
220
0.0
230
1.0
 70
    24
 71
     3
 72
    13
 73
     9
 74
     0
 42
0.000000001
 43
0.00000001
 40
0.0
 40
0.0
 40
0.0
 40
0.0
 40
0.127587244129447
 40
0.2546759233236582
 40
0.5000487292309157
 40
0.7453982611490128
 40
0.8725397565424842
 40
1.0
 40
1.0
 40
1.0
 40
1.0
 10
929.6047048747214
 20
730.1511477852057
 30
0.0
 10
929.6609855831783
 20
730.0304534164286
 30
0.0
 10
929.7733270753816
 20
729.7895363089388
 30
0.0
 10
929.9845279454581
 20
729.3366145814407
 30
0.0
 10
930.2158706083657
 20
728.840498639828
 30
0.0
 10
930.3704444108607
 20
728.5090140506468
 30
0.0
 10
930.4381733564089
 20
728.3637688582004
 30
0.0
 10
930.4443209823319
 20
728.3505852318635
 30
0.0
 10
930.4473986435465
 20
728.3439851660897
 30
0.0
  0
SPLINE
  5
1A6
330
1F
100
AcDbEntity
  8
0
  6
Continuous
 62
     7
370
    25
100
AcDbSpline
210
0.0
220
0.0
230
1.0
 70
     8
 71
     3
 72
    10
 73
     6
 74
     0
 42
0.000000001
 43
0.00000001
 40
0.0
 40
0.0
 40
0.0
 40
0.0
 40
0.3349247119462443
 40
0.6831328026911468
 40
1.0
 40
1.0
 40
1.0
 40
1.0
 10
930.90145282681
 20
730.4585727009965
 30
0.0
 10
930.9288882499028
 20
730.2080504778029
 30
0.0
 10
930.9848472066531
 20
729.6970701220322
 30
0.0
 10
930.8327451466687
 20
728.9413894397547
 30
0.0
 10
930.5903079068571
 20
728.4969616982355
 30
0.0
 10
930.474801572338
 20
728.2852193956858
 30
0.0
  0
SPLINE
  5
1A7
330
1F
100
AcDbEntity
  8
0
  6
Continuous
 62
     7
370
    25
100
AcDbSpline
210
0.0
220
0.0
230
1.0
 70
    24
 71
     3
 72
    13
 73
     9
 74
     0
 42
0.000000001
 43
0.00000001
 40
0.0
 40
0.0
 40
0.0
 40
0.0
 40
0.127587244129447
 40
0.2546759233236582
 40
0.5000487292309157
 40
0.7453982611490128
 40
0.8725397565424842
 40
1.0
 40
1.0
 40
1.0
 40
1.0
 10
929.6321078035127
 20
730.0923820148018
 30
0.0
 10
929.6883885119698
 20
729.9716876460247
 30
0.0
 10
929.8007300041728
 20
729.7307705385349
 30
0.0
 10
930.0119308742496
 20
729.277848811037
 30
0.0
 10
930.2432735371569
 20
728.7817328694241
 30
0.0
 10
930.3978473396521
 20
728.4502482802428
 30
0.0
 10
930.4655762852003
 20
728.3050030877966
 30
0.0
 10
930.4717239111231
 20
728.2918194614597
 30
0.0
 10
930.4748015723378
 20
728.2852193956859
 30
0.0
  0
SPLINE
  5
1A8
330
1F
100
AcDbEntity
  8
0
  6
Continuous
 62
     7
370
    25
100
AcDbSpline
210
0.0
220
0.0
230
1.0
 70
    24
 71
     3
 72
    22
 73
    18
 74
     0
 42
0.000000001
 43
0.00000001
 40
0.0
 40
0.0
 40
0.0
 40
0.0
 40
0.0279753883826784
 40
0.1090477115187616
 40
0.187557308101839
 40
0.2619721341764034
 40
0.3312980884124213
 40
0.3954724108488999
 40
0.455463715562249
 40
0.5133630759185034
 40
0.5718859568392525
 40
0.633532650612824
 40
0.6999453282944054
 40
0.7716025523810021
 40
0.8479950486197707
 40
0.9278651458250897
 40
1.0
 40
1.0
 40
1.0
 40
1.0
 10
406.7374769676762
 20
912.2874445473286
 30
0.0
 10
406.7539798985601
 20
912.2874445473285
 30
0.0
 10
406.8183081152633
 20
912.287444547329
 30
0.0
 10
406.4095606563
 20
912.2874445473285
 30
0.0
 10
405.5256761663775
 20
912.2874445473285
 30
0.0
 10
404.1619380761723
 20
912.2874445473287
 30
0.0
 10
402.4130575760257
 20
912.2874445473288
 30
0.0
 10
400.3453135891306
 20
912.2874445473288
 30
0.0
 10
398.04394962138
 20
912.2874445473287
 30
0.0
 10
395.6299625751947
 20
912.2874445473291
 30
0.0
 10
393.2494342890115
 20
912.2874445473286
 30
0.0
 10
391.0392818796257
 20
912.2874445473288
 30
0.0
 10
389.1031901864738
 20
912.2874445473287
 30
0.0
 10
387.5184517542747
 20
912.2874445473288
 30
0.0
 10
386.3611733836752
 20
912.2874445473286
 30
0.0
 10
385.6580158528281
 20
912.2874445473287
 30
0.0
 10
385.5972291567213
 20
912.2874445473286
 30
0.0
 10
385.5683824683757
 20
912.2874445473286
 30
0.0
  0
SPLINE
  5
1A9
330
1F
100
AcDbEntity
  8
0
  6
Continuous
 62
     7
370
    25
100
AcDbSpline
210
0.0
220
0.0
230
1.0
 70
    24
 71
     3
 72
    22
 73
    18
 74
     0
 42
0.000000001
 43
0.00000001
 40
0.0
 40
0.0
 40
0.0
 40
0.0
 40
0.0279753883826758
 40
0.1090477115187595
 40
0.1875573081018392
 40
0.2619721341764008
 40
0.3312980884124209
 40
0.3954724108489024
 40
0.4554637155622495
 40
0.5133630759184982
 40
0.5718859568392455
 40
0.6335326506128178
 40
0.6999453282944044
 40
0.771602552381001
 40
0.8479950486197677
 40
0.9278651458250866
 40
1.0
 40
1.0
 40
1.0
 40
1.0
 10
523.7374769676759
 20
912.2874445473287
 30
0.0
 10
523.7539798985598
 20
912.2874445473288
 30
0.0
 10
523.818308115263
 20
912.2874445473288
 30
0.0
 10
523.4095606562996
 20
912.2874445473286
 30
0.0
 10
522.5256761663774
 20
912.287444547329
 30
0.0
 10
521.1619380761722
 20
912.2874445473287
 30
0.0
 10
519.4130575760255
 20
912.2874445473292
 30
0.0
 10
517.3453135891302
 20
912.2874445473287
 30
0.0
 10
515.0439496213797
 20
912.2874445473291
 30
0.0
 10
512.6299625751947
 20
912.2874445473287
 30
0.0
 10
510.2494342890116
 20
912.2874445473288
 30
0.0
 10
508.0392818796257
 20
912.2874445473287
 30
0.0
 10
506.1031901864736
 20
912.2874445473291
 30
0.0
 10
504.5184517542747
 20
912.2874445473287
 30
0.0
 10
503.3611733836754
 20
912.2874445473288
 30
0.0
 10
502.6580158528284
 20
912.2874445473288
 30
0.0
 10
502.5972291567215
 20
912.2874445473288
 30
0.0
 10
502.5683824683761
 20
912.2874445473287
 30
0.0
  0
SPLINE
  5
1AA
330
1F
100
AcDbEntity
  8
0
  6
Continuous
 62
     7
370
    25
100
AcDbSpline
210
0.0
220
0.0
230
1.0
 70
    24
 71
     3
 72
    22
 73
    18
 74
     0
 42
0.000000001
 43
0.00000001
 40
0.0
 40
0.0
 40
0.0
 40
0.0
 40
0.0279753883826732
 40
0.1090477115187543
 40
0.1875573081018359
 40
0.2619721341763955
 40
0.3312980884124158
 40
0.3954724108488945
 40
0.4554637155622439
 40
0.5133630759184948
 40
0.5718859568392407
 40
0.6335326506128108
 40
0.6999453282944003
 40
0.7716025523809985
 40
0.8479950486197669
 40
0.9278651458250863
 40
1.0
 40
1.0
 40
1.0
 40
1.0
 10
496.6689524647712
 20
939.3559690502333
 30
0.0
 10
496.6689524647712
 20
939.3724719811171
 30
0.0
 10
496.6689524647712
 20
939.4368001978206
 30
0.0
 10
496.6689524647712
 20
939.0280527388571
 30
0.0
 10
496.6689524647712
 20
938.1441682489349
 30
0.0
 10
496.6689524647712
 20
936.7804301587299
 30
0.0
 10
496.6689524647712
 20
935.0315496585832
 30
0.0
 10
496.6689524647712
 20
932.9638056716881
 30
0.0
 10
496.6689524647713
 20
930.6624417039375
 30
0.0
 10
496.6689524647713
 20
928.2484546577525
 30
0.0
 10
496.6689524647712
 20
925.8679263715692
 30
0.0
 10
496.668952464771
 20
923.6577739621837
 30
0.0
 10
496.6689524647711
 20
921.7216822690312
 30
0.0
 10
496.6689524647711
 20
920.1369438368323
 30
0.0
 10
496.6689524647711
 20
918.979665466233
 30
0.0
 10
496.6689524647711
 20
918.276507935386
 30
0.0
 10
496.6689524647711
 20
918.2157212392792
 30
0.0
 10
496.6689524647712
 20
918.1868745509335
 30
0.0
  0
SPLINE
  5
1AB
330
1F
100
AcDbEntity
  8
0
  6
Continuous
 62
     7
370
    25
100
AcDbSpline
210
0.0
220
0.0
230
1.0
 70
    24
 71
     3
 72
    22
 73
    18
 74
     0
 42
0.000000001
 43
0.00000001
 40
0.0
 40
0.0
 40
0.0
 40
0.0
 40
0.0268629365561468
 40
0.1079353991964925
 40
0.1864451308740517
 40
0.2608600849970668
 40
0.3301861585249218
 40
0.3943605913886268
 40
0.4543519993313183
 40
0.5122514593172234
 40
0.570774440940539
 40
0.6324212407919475
 40
0.6988340327523773
 40
0.7704913801423129
 40
0.8468840078325828
 40
0.9267542424734472
 40
1.0
 40
1.0
 40
1.0
 40
1.0
 10
412.6689524647712
 20
918.2177415737584
 30
0.0
 10
412.6689524647711
 20
918.2020777512122
 30
0.0
 10
412.6689524647711
 20
918.1391404421821
 30
0.0
 10
412.6689524647712
 20
918.5473328341023
 30
0.0
 10
412.6689524647712
 20
919.4305969041661
 30
0.0
 10
412.6689524647712
 20
920.7944890096683
 30
0.0
 10
412.6689524647712
 20
922.5433322528088
 30
0.0
 10
412.6689524647712
 20
924.6110851366149
 30
0.0
 10
412.6689524647712
 20
926.9124470136364
 30
0.0
 10
412.6689524647711
 20
929.3264343518888
 30
0.0
 10
412.6689524647713
 20
931.7069634650155
 30
0.0
 10
412.6689524647711
 20
933.9171119787765
 30
0.0
 10
412.6689524647712
 20
935.8532200563386
 30
0.0
 10
412.6689524647712
 20
937.4378901469481
 30
0.0
 10
412.6689524647712
 20
938.5954481367506
 30
0.0
 10
412.6689524647712
 20
939.3009534585802
 30
0.0
 10
412.6689524647712
 20
939.3616999974099
 30
0.0
 10
412.6689524647712
 20
939.3907591844403
 30
0.0
  0
LINE
  5
1AC
330
1F
100
AcDbEntity
  8
0
  6
Continuous
 62
     7
370
    25
100
AcDbLine
 10
839.6513715269
 20
662.6874445473
 30
0.0
 11
839.9260804583
 21
662.6874445473
 31
0.0
  0
CIRCLE
  5
1AD
330
1F
100
AcDbEntity
  8
0
  6
Continuous
 62
     7
370
    25
100
AcDbCircle
 10
880.7689524648
 20
889.2874445473
 30
0.0
 40
2.100000000000023
  0
CIRCLE
  5
1AE
330
1F
100
AcDbEntity
  8
0
  6
Continuous
 62
     7
370
    25
100
AcDbCircle
 10
500.7689524648
 20
889.2874445473
 30
0.0
 40
2.099999999999966
  0
CIRCLE
  5
1AF
330
1F
100
AcDbEntity
  8
0
  6
Continuous
 62
     7
370
    25
100
AcDbCircle
 10
110.7689524648
 20
889.2874445473
 30
0.0
 40
2.099999999999994
  0
LINE
  5
1B0
330
1F
100
AcDbEntity
  8
0
  6
Continuous
 62
     7
370
    25
100
AcDbLine
 10
911.7868270541
 20
857.4160247862
 30
0.0
 11
894.2044559856
 21
849.2172305085
 31
0.0
  0
LINE
  5
1B1
330
1F
100
AcDbEntity
  8
0
  6
Continuous
 62
     7
370
    25
100
AcDbLine
 10
910.9415905306
 20
859.2286403603
 30
0.0
 11
893.3592194621
 21
851.0298460825
 31
0.0
  0
ARC
  5
1B2
330
1F
100
AcDbEntity
  8
0
  6
Continuous
 62
     7
370
    25
100
AcDbCircle
 10
906.7154079132
 20
868.2917182307
 30
0.0
 40
9.999999999999977
100
AcDbArc
 50
295.0
 51
335.0
  0
ARC
  5
1B3
330
1F
100
AcDbEntity
  8
0
  6
Continuous
 62
     7
370
    25
100
AcDbCircle
 10
906.7154079132
 20
868.2917182307
 30
0.0
 40
12.00000000000006
100
AcDbArc
 50
295.0
 51
335.0
  0
ARC
  5
1B4
330
1F
100
AcDbEntity
  8
0
  6
Continuous
 62
     7
370
    25
100
AcDbCircle
 10
37.4189524648
 20
925.0374445473
 30
0.0
 40
2.25
100
AcDbArc
 50
90.0
 51
180.0
  0
ARC
  5
1B5
330
1F
100
AcDbEntity
  8
0
  6
Continuous
 62
     7
370
    25
100
AcDbCircle
 10
37.4189524648
 20
925.0374445473
 30
0.0
 40
4.25
100
AcDbArc
 50
90.0
 51
180.0
  0
ARC
  5
1B6
330
1F
100
AcDbEntity
  8
0
  6
Continuous
 62
     7
370
    25
100
AcDbCircle
 10
103.9189524648
 20
925.0374445473
 30
0.0
 40
2.25
100
AcDbArc
 50
0.0
 51
90.0
  0
ARC
  5
1B7
330
1F
100
AcDbEntity
  8
0
  6
Continuous
 62
     7
370
    25
100
AcDbCircle
 10
103.9189524648
 20
925.0374445473
 30
0.0
 40
4.25
100
AcDbArc
 50
0.0
 51
90.0
  0
LINE
  5
1B8
330
1F
100
AcDbEntity
  8
0
  6
Continuous
 62
     7
370
    25
100
AcDbLine
 10
37.4189524648
 20
927.2874445473
 30
0.0
 11
103.9189524648
 21
927.2874445473
 31
0.0
  0
LINE
  5
1B9
330
1F
100
AcDbEntity
  8
0
  6
Continuous
 62
     7
370
    25
100
AcDbLine
 10
37.4189524648
 20
929.2874445473
 30
0.0
 11
103.9189524648
 21
929.2874445473
 31
0.0
  0
LINE
  5
1BA
330
1F
100
AcDbEntity
  8
0
  6
Continuous
 62
     7
370
    25
100
AcDbLine
 10
48.1689524648
 20
911.2874445473
 30
0.0
 11
48.1689524648
 21
909.2874445473
 31
0.0
  0
LINE
  5
1BB
330
1F
100
AcDbEntity
  8
0
  6
Continuous
 62
     7
370
    25
100
AcDbLine
 10
46.1689524648
 20
911.2874445473
 30
0.0
 11
48.1689524648
 21
911.2874445473
 31
0.0
  0
LINE
  5
1BC
330
1F
100
AcDbEntity
  8
0
  6
Continuous
 62
     7
370
    25
100
AcDbLine
 10
48.1689524648
 20
909.2874445473
 30
0.0
 11
46.1689524648
 21
909.2874445473
 31
0.0
  0
LINE
  5
1BD
330
1F
100
AcDbEntity
  8
0
  6
Continuous
 62
     7
370
    25
100
AcDbLine
 10
46.1689524648
 20
911.2874445473
 30
0.0
 11
37.4189524648
 21
911.2874445473
 31
0.0
  0
LINE
  5
1BE
330
1F
100
AcDbEntity
  8
0
  6
Continuous
 62
     7
370
    25
100
AcDbLine
 10
46.1689524648
 20
909.2874445473
 30
0.0
 11
37.4189524648
 21
909.2874445473
 31
0.0
  0
LINE
  5
1BF
330
1F
100
AcDbEntity
  8
0
  6
Continuous
 62
     7
370
    25
100
AcDbLine
 10
892.3918404115
 20
848.371993985
 30
0.0
 11
891.5466038881
 21
850.1846095591
 31
0.0
  0
LINE
  5
1C0
330
1F
100
AcDbEntity
  8
0
  6
Continuous
 62
     7
370
    25
100
AcDbLine
 10
894.2044559856
 20
849.2172305085
 30
0.0
 11
892.3918404115
 21
848.371993985
 31
0.0
  0
LINE
  5
1C1
330
1F
100
AcDbEntity
  8
0
  6
Continuous
 62
     7
370
    25
100
AcDbLine
 10
891.5466038881
 20
850.1846095591
 30
0.0
 11
893.3592194621
 21
851.0298460825
 31
0.0
  0
LINE
  5
1C2
330
1F
100
AcDbEntity
  8
0
  6
Continuous
 62
     7
370
    25
100
AcDbLine
 10
35.1689524648
 20
913.5374445473
 30
0.0
 11
35.1689524648
 21
925.0374445473
 31
0.0
  0
LINE
  5
1C3
330
1F
100
AcDbEntity
  8
0
  6
Continuous
 62
     7
370
    25
100
AcDbLine
 10
33.1689524648
 20
913.5374445473
 30
0.0
 11
33.1689524648
 21
925.0374445473
 31
0.0
  0
ARC
  5
1C4
330
1F
100
AcDbEntity
  8
0
  6
Continuous
 62
     7
370
    25
100
AcDbCircle
 10
37.4189524648
 20
913.5374445473
 30
0.0
 40
4.249999999999886
100
AcDbArc
 50
180.0
 51
270.0
  0
ARC
  5
1C5
330
1F
100
AcDbEntity
  8
0
  6
Continuous
 62
     7
370
    25
100
AcDbCircle
 10
37.4189524648
 20
913.5374445473
 30
0.0
 40
2.249999999999886
100
AcDbArc
 50
180.0
 51
270.0
  0
LINE
  5
1C6
330
1F
100
AcDbEntity
  8
0
  6
Continuous
 62
     7
370
    25
100
AcDbLine
 10
110.4189524648
 20
909.2874445473
 30
0.0
 11
921.1689524648
 21
909.2874445473
 31
0.0
  0
LINE
  5
1C7
330
1F
100
AcDbEntity
  8
0
  6
Continuous
 62
     7
370
    25
100
AcDbLine
 10
110.4189524648
 20
911.2874445473
 30
0.0
 11
921.1689524648
 21
911.2874445473
 31
0.0
  0
LINE
  5
1C8
330
1F
100
AcDbEntity
  8
0
  6
Continuous
 62
     7
370
    25
100
AcDbLine
 10
108.1689524648
 20
925.0374445473
 30
0.0
 11
108.1689524648
 21
913.5374445473
 31
0.0
  0
LINE
  5
1C9
330
1F
100
AcDbEntity
  8
0
  6
Continuous
 62
     7
370
    25
100
AcDbLine
 10
106.1689524648
 20
925.0374445473
 30
0.0
 11
106.1689524648
 21
913.5374445473
 31
0.0
  0
ARC
  5
1CA
330
1F
100
AcDbEntity
  8
0
  6
Continuous
 62
     7
370
    25
100
AcDbCircle
 10
110.4189524648
 20
913.5374445473
 30
0.0
 40
2.249999999999986
100
AcDbArc
 50
180.0
 51
270.0
  0
ARC
  5
1CB
330
1F
100
AcDbEntity
  8
0
  6
Continuous
 62
     7
370
    25
100
AcDbCircle
 10
110.4189524648
 20
913.5374445473
 30
0.0
 40
4.249999999999986
100
AcDbArc
 50
180.0
 51
270.0
  0
ARC
  5
1CC
330
1F
100
AcDbEntity
  8
0
  6
Continuous
 62
     7
370
    25
100
AcDbCircle
 10
921.1689524648
 20
899.2874445473
 30
0.0
 40
10.00000000000011
100
AcDbArc
 50
335.0
 51
90.0
  0
ARC
  5
1CD
330
1F
100
AcDbEntity
  8
0
  6
Continuous
 62
     7
370
    25
100
AcDbCircle
 10
921.1689524648
 20
899.2874445473
 30
0.0
 40
12.00000000000011
100
AcDbArc
 50
335.0
 51
90.0
  0
LINE
  5
1CE
330
1F
100
AcDbEntity
  8
0
  6
Continuous
 62
     7
370
    25
100
AcDbLine
 10
932.0446459092
 20
894.2160254064
 30
0.0
 11
917.5911013577
 21
863.2202990898
 31
0.0
  0
LINE
  5
1CF
330
1F
100
AcDbEntity
  8
0
  6
Continuous
 62
     7
370
    25
100
AcDbLine
 10
930.2320303351
 20
895.0612619299
 30
0.0
 11
915.7784857836
 21
864.0655356133
 31
0.0
  0
LINE
  5
1D0
330
1F
100
AcDbEntity
  8
0
  6
Continuous
 62
     7
370
    25
100
AcDbLine
 10
502.8689524648
 20
889.2874445473
 30
0.0
 11
498.6689524648
 21
889.2874445473
 31
0.0
  0
LINE
  5
1D1
330
1F
100
AcDbEntity
  8
0
  6
Continuous
 62
     7
370
    25
100
AcDbLine
 10
901.8919855721
 20
662.8474445473
 30
0.0
 11
901.8919855721
 21
662.8874445473
 31
0.0
  0
LINE
  5
1D2
330
1F
100
AcDbEntity
  8
0
  6
Continuous
 62
     7
370
    25
100
AcDbLine
 10
901.7954234857
 20
662.8474445473
 30
0.0
 11
901.8919855721
 21
662.8474445473
 31
0.0
  0
LINE
  5
1D3
330
1F
100
AcDbEntity
  8
0
  6
Continuous
 62
     7
370
    25
100
AcDbLine
 10
910.0926462253
 20
668.0718415684
 30
0.0
 11
910.0764564344
 21
668.0793909919
 31
0.0
  0
LINE
  5
1D4
330
1F
100
AcDbEntity
  8
0
  6
Continuous
 62
     7
370
    25
100
AcDbLine
 10
910.0926462253
 20
668.0718415684
 30
0.0
 11
910.1487760153
 21
668.1922122915
 31
0.0
  0
LINE
  5
1D5
330
1F
100
AcDbEntity
  8
0
  6
Continuous
 62
     7
370
    25
100
AcDbLine
 10
34.014465095
 20
662.8545156151
 30
0.0
 11
33.2030777484
 21
662.8545156151
 31
0.0
  0
LINE
  5
1D6
330
1F
100
AcDbEntity
  8
0
  6
Continuous
 62
     7
370
    25
100
AcDbLine
 10
33.2030777484
 20
662.8545156151
 30
0.0
 11
33.2030777484
 21
662.8945156151
 31
0.0
  0
LINE
  5
1D7
330
1F
100
AcDbEntity
  8
0
  6
Continuous
 62
     7
370
    25
100
AcDbLine
 10
36.0030777484
 20
662.0474445473
 30
0.0
 11
61.4394643029
 21
662.0474445473
 31
0.0
  0
LINE
  5
1D8
330
1F
100
AcDbEntity
  8
0
  6
Continuous
 62
     7
370
    25
100
AcDbLine
 10
94.0530777484
 20
662.0874445473
 30
0.0
 11
94.0530777484
 21
662.0474445473
 31
0.0
  0
LINE
  5
1D9
330
1F
100
AcDbEntity
  8
0
  6
Continuous
 62
     7
370
    25
100
AcDbLine
 10
86.343350633
 20
662.0474445473
 30
0.0
 11
94.0530777484
 21
662.0474445473
 31
0.0
  0
LINE
  5
1DA
330
1F
100
AcDbEntity
  8
0
  6
Continuous
 62
     7
370
    25
100
AcDbLine
 10
34.0101488163
 20
662.0874445473
 30
0.0
 11
34.0101488163
 21
662.0474445473
 31
0.0
  0
LINE
  5
1DB
330
1F
100
AcDbEntity
  8
0
  6
Continuous
 62
     7
370
    25
100
AcDbLine
 10
34.0101488163
 20
662.0474445473
 30
0.0
 11
36.0030777484
 21
662.0474445473
 31
0.0
  0
LINE
  5
1DC
330
1F
100
AcDbEntity
  8
0
  6
Continuous
 62
     7
370
    25
100
AcDbLine
 10
840.2914074679
 20
182.0545156151
 30
0.0
 11
840.2914074679
 21
182.0945156151
 31
0.0
  0
LINE
  5
1DD
330
1F
100
AcDbEntity
  8
0
  6
Continuous
 62
     7
370
    25
100
AcDbLine
 10
839.4914074679
 20
182.0545156151
 30
0.0
 11
840.2914074679
 21
182.0545156151
 31
0.0
  0
LINE
  5
1DE
330
1F
100
AcDbEntity
  8
0
  6
Continuous
 62
     7
370
    25
100
AcDbLine
 10
839.4914074679
 20
182.0545156151
 30
0.0
 11
839.4914074679
 21
182.1318459017
 31
0.0
  0
LINE
  5
1DF
330
1F
100
AcDbEntity
  8
0
  6
Continuous
 62
     7
370
    25
100
AcDbLine
 10
95.8030777484
 20
182.119908909
 30
0.0
 11
95.8030777484
 21
182.0545156151
 31
0.0
  0
LINE
  5
1E0
330
1F
100
AcDbEntity
  8
0
  6
Continuous
 62
     7
370
    25
100
AcDbLine
 10
95.8030777484
 20
182.0545156151
 30
0.0
 11
95.0030777484
 21
182.0545156151
 31
0.0
  0
LINE
  5
1E1
330
1F
100
AcDbEntity
  8
0
  6
Continuous
 62
     7
370
    25
100
AcDbLine
 10
95.0030777484
 20
182.0945156151
 30
0.0
 11
95.0030777484
 21
182.0545156151
 31
0.0
  0
LINE
  5
1E2
330
1F
100
AcDbEntity
  8
0
  6
Continuous
 62
     7
370
    25
100
AcDbLine
 10
97.8030777484
 20
181.2474445473
 30
0.0
 11
100.3714240727
 21
181.2474445473
 31
0.0
  0
LINE
  5
1E3
330
1F
100
AcDbEntity
  8
0
  6
Continuous
 62
     7
370
    25
100
AcDbLine
 10
111.0113908632
 20
181.2474445473
 30
0.0
 11
140.7355004786
 21
181.2474445473
 31
0.0
  0
LINE
  5
1E4
330
1F
100
AcDbEntity
  8
0
  6
Continuous
 62
     7
370
    25
100
AcDbLine
 10
206.8473144572
 20
181.2474445473
 30
0.0
 11
719.7355004786
 21
181.2474445473
 31
0.0
  0
LINE
  5
1E5
330
1F
100
AcDbEntity
  8
0
  6
Continuous
 62
     7
370
    25
100
AcDbLine
 10
785.8473144572
 20
181.2474445473
 30
0.0
 11
820.4991947991
 21
181.2474445473
 31
0.0
  0
LINE
  5
1E6
330
1F
100
AcDbEntity
  8
0
  6
Continuous
 62
     7
370
    25
100
AcDbLine
 10
839.4255860757
 20
182.0474445473
 30
0.0
 11
839.4843364001
 21
182.0474445473
 31
0.0
  0
LINE
  5
1E7
330
1F
100
AcDbEntity
  8
0
  6
Continuous
 62
     7
370
    25
100
AcDbLine
 10
95.8101488163
 20
181.2874445473
 30
0.0
 11
95.8101488163
 21
181.2474445473
 31
0.0
  0
LINE
  5
1E8
330
1F
100
AcDbEntity
  8
0
  6
Continuous
 62
     7
370
    25
100
AcDbLine
 10
95.8101488163
 20
182.0474445473
 30
0.0
 11
95.8700349904
 21
182.0474445473
 31
0.0
  0
LINE
  5
1E9
330
1F
100
AcDbEntity
  8
0
  6
Continuous
 62
     7
370
    25
100
AcDbLine
 10
95.8101488163
 20
181.2474445473
 30
0.0
 11
97.8030777484
 21
181.2474445473
 31
0.0
  0
LINE
  5
1EA
330
1F
100
AcDbEntity
  8
0
  6
Continuous
 62
     7
370
    25
100
AcDbLine
 10
867.1954234857
 20
662.0474445473
 30
0.0
 11
867.1954234857
 21
662.0874445473
 31
0.0
  0
LINE
  5
1EB
330
1F
100
AcDbEntity
  8
0
  6
Continuous
 62
     7
370
    25
100
AcDbLine
 10
897.3163319474
 20
852.8750779386
 30
0.0
 11
897.3130005299
 21
852.8822221864
 31
0.0
  0
LINE
  5
1EC
330
1F
100
AcDbEntity
  8
0
  6
Continuous
 62
     7
370
    25
100
AcDbLine
 10
881.2655146806
 20
845.3591566407
 30
0.0
 11
881.2501937917
 21
845.3920123929
 31
0.0
  0
LINE
  5
1ED
330
1F
100
AcDbEntity
  8
0
  6
Continuous
 62
     7
370
    25
100
AcDbLine
 10
881.2655146806
 20
845.3591566407
 30
0.0
 11
890.814473651
 21
849.811909336
 31
0.0
  0
LINE
  5
1EE
330
1F
100
AcDbEntity
  8
0
  6
Continuous
 62
     7
370
    25
100
AcDbLine
 10
910.8585013561
 20
667.8212619299
 30
0.0
 11
910.1334551264
 21
668.1593565393
 31
0.0
  0
LINE
  5
1EF
330
1F
100
AcDbEntity
  8
0
  6
Continuous
 62
     7
370
    25
100
AcDbLine
 10
931.4692998465
 20
720.4736271647
 30
0.0
 11
930.759509772
 21
720.1426466173
 31
0.0
  0
LINE
  5
1F0
330
1F
100
AcDbEntity
  8
0
  6
Continuous
 62
     7
370
    25
100
AcDbLine
 10
931.4692998465
 20
712.0212619299
 30
0.0
 11
931.4539789576
 21
712.0284061777
 31
0.0
  0
LINE
  5
1F1
330
1F
100
AcDbEntity
  8
0
  6
Continuous
 62
     7
370
    25
100
AcDbLine
 10
880.2877681347
 20
844.9032259386
 30
0.0
 11
880.2724472458
 21
844.9360816908
 31
0.0
  0
LINE
  5
1F2
330
1F
100
AcDbEntity
  8
0
  6
Continuous
 62
     7
370
    25
100
AcDbLine
 10
880.2877681347
 20
844.9032259386
 30
0.0
 11
881.2655146806
 21
845.3591566407
 31
0.0
  0
LINE
  5
1F3
330
1F
100
AcDbEntity
  8
0
  6
Continuous
 62
     7
370
    25
100
AcDbLine
 10
875.5296522527
 20
842.6844800645
 30
0.0
 11
880.2877681347
 21
844.9032259386
 31
0.0
  0
LINE
  5
1F4
330
1F
100
AcDbEntity
  8
0
  6
Continuous
 62
     7
370
    25
100
AcDbLine
 10
910.9109487529
 20
859.2143518647
 30
0.0
 11
910.9076173355
 21
859.2214961125
 31
0.0
  0
ARC
  5
1F5
330
1F
100
AcDbEntity
  8
0
  6
Continuous
 62
     7
370
    25
100
AcDbCircle
 10
906.6967556069
 20
868.2517182307
 30
0.0
 40
9.200000000000102
100
AcDbArc
 50
295.0
 51
335.0
  0
LINE
  5
1F6
330
1F
100
AcDbEntity
  8
0
  6
Continuous
 62
     7
370
    25
100
AcDbLine
 10
915.0347872477
 20
864.3636302227
 30
0.0
 11
915.7597452066
 21
864.0255767746
 31
0.0
  0
LINE
  5
1F7
330
1F
100
AcDbEntity
  8
0
  6
Continuous
 62
     7
370
    25
100
AcDbLine
 10
930.2133780288
 20
895.0212619299
 30
0.0
 11
930.19805714
 21
895.0284061777
 31
0.0
  0
LINE
  5
1F8
330
1F
100
AcDbEntity
  8
0
  6
Continuous
 62
     7
370
    25
100
AcDbLine
 10
915.0347872477
 20
864.3636302227
 30
0.0
 11
915.0501081365
 21
864.3964859749
 31
0.0
  0
ARC
  5
1F9
330
1F
100
AcDbEntity
  8
0
  6
Continuous
 62
     7
370
    25
100
AcDbCircle
 10
901.7954234857
 20
672.0474445473
 30
0.0
 40
9.200000000000054
100
AcDbArc
 50
270.0
 51
335.0
  0
ARC
  5
1FA
330
1F
100
AcDbEntity
  8
0
  6
Continuous
 62
     7
370
    25
100
AcDbCircle
 10
921.1503001584
 20
899.2474445473
 30
0.0
 40
9.19999999999954
100
AcDbArc
 50
335.0
 51
0.124650699
  0
ARC
  5
1FB
330
1F
100
AcDbEntity
  8
0
  6
Continuous
 62
     7
370
    25
100
AcDbCircle
 10
921.1503001584
 20
899.2474445473
 30
0.0
 40
9.99999999999957
100
AcDbArc
 50
335.0
 51
90.0
  0
ARC
  5
1FC
330
1F
100
AcDbEntity
  8
0
  6
Continuous
 62
     7
370
    25
100
AcDbCircle
 10
922.4062219761
 20
716.2474445473
 30
0.0
 40
9.199999999999752
100
AcDbArc
 50
335.0
 51
0.1244298111
  0
SPLINE
  5
1FD
330
1F
100
AcDbEntity
  8
0
  6
Continuous
 62
     7
370
    25
100
AcDbSpline
210
0.0
220
0.0
230
1.0
 70
     8
 71
     3
 72
    10
 73
     6
 74
     0
 42
0.000000001
 43
0.00000001
 40
0.0
 40
0.0
 40
0.0
 40
0.0
 40
0.1155141694301232
 40
0.7221971551779324
 40
1.0
 40
1.0
 40
1.0
 40
1.0
 10
839.691449448939
 20
662.6874445473261
 30
0.0
 10
839.7511845308838
 20
662.6347812078195
 30
0.0
 10
840.1246495911248
 20
662.3055288385091
 30
0.0
 10
840.6429528011031
 20
662.0958298987324
 30
0.0
 10
841.0983686407741
 20
662.0590093061982
 30
0.0
 10
841.2414074679264
 20
662.0474445473286
 30
0.0
  0
SPLINE
  5
1FE
330
1F
100
AcDbEntity
  8
0
  6
Continuous
 62
     7
370
    25
100
AcDbSpline
210
0.0
220
0.0
230
1.0
 70
     8
 71
     3
 72
    14
 73
    10
 74
     0
 42
0.000000001
 43
0.00000001
 40
0.0
 40
0.0
 40
0.0
 40
0.0
 40
0.0927078961947201
 40
0.2453757757749647
 40
0.4024696220225044
 40
0.5551381910247243
 40
0.7122327722806545
 40
0.8543430931376322
 40
1.0
 40
1.0
 40
1.0
 40
1.0
 10
95.86855880618722
 20
182.3204991172547
 30
0.0
 10
95.88428588788739
 20
182.3584185492377
 30
0.0
 10
95.92591173672282
 20
182.4587822768348
 30
0.0
 10
96.05716599616198
 20
182.6233752991172
 30
0.0
 10
96.24796499595512
 20
182.8125303789653
 30
0.0
 10
96.48531423703893
 20
183.003450985128
 30
0.0
 10
96.7462255228107
 20
183.1882983564685
 30
0.0
 10
97.02334390302447
 20
183.3701924733751
 30
0.0
 10
97.20907013922675
 20
183.4878770549651
 30
0.0
 10
97.30307774844188
 20
183.547444547329
 30
0.0
  0
SPLINE
  5
1FF
330
1F
100
AcDbEntity
  8
0
  6
Continuous
 62
     7
370
    25
100
AcDbSpline
210
0.0
220
0.0
230
1.0
 70
     8
 71
     3
 72
    10
 73
     6
 74
     0
 42
0.000000001
 43
0.00000001
 40
0.0
 40
0.0
 40
0.0
 40
0.0
 40
0.3226677762453408
 40
0.6737180464586671
 40
1.0
 40
1.0
 40
1.0
 40
1.0
 10
838.6146801247207
 20
183.136977187493
 30
0.0
 10
838.774434472831
 20
183.0205323058515
 30
0.0
 10
839.1079954765806
 20
182.7773998211252
 30
0.0
 10
839.4278707024633
 20
182.4164198936813
 30
0.0
 10
839.4707512232998
 20
182.172173214713
 30
0.0
 10
839.4914074679263
 20
182.0545156151408
 30
0.0
  0
SPLINE
  5
200
330
1F
100
AcDbEntity
  8
0
  6
Continuous
 62
     7
370
    25
100
AcDbSpline
210
0.0
220
0.0
230
1.0
 70
     8
 71
     3
 72
    11
 73
     7
 74
     0
 42
0.000000001
 43
0.00000001
 40
0.0
 40
0.0
 40
0.0
 40
0.0
 40
0.2543211584721825
 40
0.5088664984542619
 40
0.7634130007196698
 40
1.0
 40
1.0
 40
1.0
 40
1.0
 10
97.30307774844188
 20
183.547444547329
 30
0.0
 10
97.17649664065631
 20
183.3474693571898
 30
0.0
 10
96.92322284512844
 20
182.9473427008186
 30
0.0
 10
96.54327817564362
 20
182.445718946723
 30
0.0
 10
96.17205304397241
 20
182.1096536998642
 30
0.0
 10
95.92780639930342
 20
182.0676691757535
 30
0.0
 10
95.81014881625377
 20
182.047444547329
 30
0.0
  0
LINE
  5
201
330
1F
100
AcDbEntity
  8
0
  6
Continuous
 62
     7
370
    25
100
AcDbLine
 10
910.1334551264
 20
668.1993565393
 30
0.0
 11
910.0926462253
 21
668.1118415684
 31
0.0
  0
LINE
  5
202
330
1F
100
AcDbEntity
  8
0
  6
Continuous
 62
     7
370
    25
100
AcDbLine
 10
910.0926462253
 20
668.1118415684
 30
0.0
 11
910.0921869394
 21
668.112055737
 31
0.0
  0
LINE
  5
203
330
1F
100
AcDbEntity
  8
0
  6
Continuous
 62
     7
370
    25
100
AcDbLine
 10
901.7954234857
 20
662.8874445473
 30
0.0
 11
901.8919855721
 21
662.8874445473
 31
0.0
  0
LINE
  5
204
330
1F
100
AcDbEntity
  8
0
  6
Continuous
 62
     7
370
    25
100
AcDbLine
 10
901.8919855721
 20
662.8879513133
 30
0.0
 11
901.8919855721
 21
662.8874445473
 31
0.0
  0
LINE
  5
205
330
1F
100
AcDbEntity
  8
0
  6
Continuous
 62
     7
370
    25
100
AcDbLine
 10
910.5848436149
 20
859.9536865899
 30
0.0
 11
910.9229382243
 21
859.2286403603
 31
0.0
  0
LINE
  5
206
330
1F
100
AcDbEntity
  8
0
  6
Continuous
 62
     7
370
    25
100
AcDbLine
 10
910.9229382243
 20
859.2286403603
 30
0.0
 11
875.5296522527
 21
842.7244800645
 31
0.0
  0
SPLINE
  5
207
330
1F
100
AcDbEntity
  8
0
  6
Continuous
 62
     7
370
    25
100
AcDbSpline
210
0.0
220
0.0
230
1.0
 70
     8
 71
     3
 72
    11
 73
     7
 74
     0
 42
0.000000001
 43
0.00000001
 40
0.0
 40
0.0
 40
0.0
 40
0.0
 40
0.2889759275645
 40
0.5779517763250636
 40
0.8674414070450248
 40
1.0
 40
1.0
 40
1.0
 40
1.0
 10
875.5296522527115
 20
842.7244800644772
 30
0.0
 10
875.2261243431561
 20
842.634204680162
 30
0.0
 10
874.6190686068178
 20
842.4536539361497
 30
0.0
 10
873.470550629386
 20
842.6930403008208
 30
0.0
 10
872.435992831686
 20
843.0848205796439
 30
0.0
 10
871.8090444091937
 20
843.3516665690942
 30
0.0
 10
871.612129942839
 20
843.4354786240041
 30
0.0
  0
SPLINE
  5
208
330
1F
100
AcDbEntity
  8
0
  6
Continuous
 62
     7
370
    25
100
AcDbSpline
210
0.0
220
0.0
230
1.0
 70
     8
 71
     3
 72
    11
 73
     7
 74
     0
 42
0.000000001
 43
0.00000001
 40
0.0
 40
0.0
 40
0.0
 40
0.0
 40
0.2888077077192577
 40
0.5776153362194943
 40
0.8669345414319966
 40
1.0
 40
1.0
 40
1.0
 40
1.0
 10
871.6121299428388
 20
843.4354786240041
 30
0.0
 10
872.0598279676163
 20
843.2992698691477
 30
0.0
 10
872.9552238943692
 20
843.0268523967969
 30
0.0
 10
874.1023854834299
 20
842.5268430696829
 30
0.0
 10
874.7772730321619
 20
841.9905923392544
 30
0.0
 10
874.9986271166117
 20
841.5915442032018
 30
0.0
 10
875.068361141729
 20
841.4658305403543
 30
0.0
  0
LINE
  5
209
330
1F
100
AcDbEntity
  8
0
  6
Continuous
 62
     7
370
    25
100
AcDbLine
 10
875.0683611417
 20
841.4658305404
 30
0.0
 11
875.4667193704
 21
840.6115485622
 31
0.0
  0
LINE
  5
20A
330
1F
100
AcDbEntity
  8
0
  6
Continuous
 62
     7
370
    25
100
AcDbLine
 10
931.4539789576
 20
720.5064829169
 30
0.0
 11
930.7442536169
 21
720.1755325553
 31
0.0
  0
SPLINE
  5
20B
330
1F
100
AcDbEntity
  8
0
  6
Continuous
 62
     7
370
    25
100
AcDbSpline
210
0.0
220
0.0
230
1.0
 70
     8
 71
     3
 72
    12
 73
     8
 74
     0
 42
0.000000001
 43
0.00000001
 40
0.0
 40
0.0
 40
0.0
 40
0.0
 40
0.209682100152916
 40
0.4420453733185742
 40
0.6744332966680988
 40
0.9068208701180657
 40
0.9999999999999999
 40
0.9999999999999999
 40
0.9999999999999999
 40
0.9999999999999999
 10
35.5030777484458
 20
906.9874445473275
 30
0.0
 10
35.39879254051831
 20
907.239775505303
 30
0.0
 10
35.1789416632316
 20
907.7717318927902
 30
0.0
 10
34.8429735333487
 20
908.4931133226047
 30
0.0
 10
34.49606826493184
 20
909.0364722565912
 30
0.0
 10
34.21769160269866
 20
909.2650940967347
 30
0.0
 10
34.05633114147738
 20
909.282471135359
 30
0.0
 10
34.01014881625769
 20
909.2874445473276
 30
0.0
  0
LINE
  5
20C
330
1F
100
AcDbEntity
  8
0
  6
Continuous
 62
     7
370
    25
100
AcDbLine
 10
34.0101488163
 20
909.2874445473
 30
0.0
 11
37.4189524648
 21
909.2874445473
 31
0.0
  0
LINE
  5
20D
330
1F
100
AcDbEntity
  8
0
  6
Continuous
 62
     7
370
    25
100
AcDbLine
 10
48.1689524648
 20
909.2874445473
 30
0.0
 11
48.250300157
 21
909.2874445473
 31
0.0
  0
LINE
  5
20E
330
1F
100
AcDbEntity
  8
0
  6
Continuous
 62
     7
370
    25
100
AcDbLine
 10
105.7503001582
 20
909.2874445473
 30
0.0
 11
110.4189524648
 21
909.2874445473
 31
0.0
  0
LINE
  5
20F
330
1F
100
AcDbEntity
  8
0
  6
Continuous
 62
     7
370
    25
100
AcDbLine
 10
921.1503001584
 20
909.2874445473
 30
0.0
 11
921.1503001584
 21
908.4874445473
 31
0.0
  0
LINE
  5
210
330
1F
100
AcDbEntity
  8
0
  6
Continuous
 62
     7
370
    25
100
AcDbLine
 10
930.7442536169
 20
712.3993565393
 30
0.0
 11
931.4692998465
 21
712.0612619299
 31
0.0
  0
LINE
  5
211
330
1F
100
AcDbEntity
  8
0
  6
Continuous
 62
     7
370
    25
100
AcDbLine
 10
931.4692998465
 20
712.0612619299
 30
0.0
 11
910.8585013561
 21
667.8612619299
 31
0.0
  0
LINE
  5
212
330
1F
100
AcDbEntity
  8
0
  6
Continuous
 62
     7
370
    25
100
AcDbLine
 10
910.8585013561
 20
667.8612619299
 30
0.0
 11
910.1334551264
 21
668.1993565393
 31
0.0
  0
LINE
  5
213
330
1F
100
AcDbEntity
  8
0
  6
Continuous
 62
     7
370
    25
100
AcDbLine
 10
929.4883317992
 20
895.3993565393
 30
0.0
 11
930.2133780288
 21
895.0612619299
 31
0.0
  0
LINE
  5
214
330
1F
100
AcDbEntity
  8
0
  6
Continuous
 62
     7
370
    25
100
AcDbLine
 10
915.7598334773
 20
864.0655356133
 30
0.0
 11
930.2133780288
 21
895.0612619299
 31
0.0
  0
LINE
  5
215
330
1F
100
AcDbEntity
  8
0
  6
Continuous
 62
     7
370
    25
100
AcDbLine
 10
915.7598334773
 20
864.0655356133
 30
0.0
 11
915.0347872477
 21
864.4036302227
 31
0.0
  0
CIRCLE
  5
216
330
1F
100
AcDbEntity
  8
0
  6
Continuous
 62
     7
370
    25
100
AcDbCircle
 10
110.7503001584
 20
889.2874445473
 30
0.0
 40
6.347663105371566
  0
CIRCLE
  5
217
330
1F
100
AcDbEntity
  8
0
  6
Continuous
 62
     7
370
    25
100
AcDbCircle
 10
880.7503001584
 20
889.2874445473
 30
0.0
 40
6.347663105371566
  0
LINE
  5
218
330
1F
100
AcDbEntity
  8
0
  6
Continuous
 62
     7
370
    25
100
AcDbLine
 10
928.1288701186
 20
896.0332839319
 30
0.0
 11
929.4883317992
 21
895.3993565393
 31
0.0
  0
LINE
  5
219
330
1F
100
AcDbEntity
  8
0
  6
Continuous
 62
     7
370
    25
100
AcDbLine
 10
915.0347872477
 20
864.4036302227
 30
0.0
 11
913.6753255671
 21
865.0375576153
 31
0.0
  0
LINE
  5
21A
330
1F
100
AcDbEntity
  8
0
  6
Continuous
 62
     7
370
    25
100
AcDbLine
 10
930.7442536169
 20
720.1755325553
 30
0.0
 11
929.3847919363
 21
719.5416051627
 31
0.0
  0
ARC
  5
21B
330
1F
100
AcDbEntity
  8
0
  6
Continuous
 62
     7
370
    25
100
AcDbCircle
 10
922.4062219761
 20
716.2874445473
 30
0.0
 40
9.199999999999994
100
AcDbArc
 50
335.0
 51
25.0
  0
LINE
  5
21C
330
1F
100
AcDbEntity
  8
0
  6
Continuous
 62
     7
370
    25
100
AcDbLine
 10
910.1334551264
 20
668.1993565393
 30
0.0
 11
908.7739934459
 21
668.8332839319
 31
0.0
  0
ARC
  5
21D
330
1F
100
AcDbEntity
  8
0
  6
Continuous
 62
     7
370
    25
100
AcDbCircle
 10
901.7954234857
 20
672.0874445473
 30
0.0
 40
9.200000000000102
100
AcDbArc
 50
270.0
 51
335.0
  0
LINE
  5
21E
330
1F
100
AcDbEntity
  8
0
  6
Continuous
 62
     7
370
    25
100
AcDbLine
 10
901.7954234857
 20
664.3874445473
 30
0.0
 11
901.7954234857
 21
662.8874445473
 31
0.0
  0
ARC
  5
21F
330
1F
100
AcDbEntity
  8
0
  6
Continuous
 62
     7
370
    25
100
AcDbCircle
 10
921.1503001584
 20
899.2874445473
 30
0.0
 40
9.199999999999704
100
AcDbArc
 50
335.0
 51
90.0
  0
CIRCLE
  5
220
330
1F
100
AcDbEntity
  8
0
  6
Continuous
 62
     7
370
    25
100
AcDbCircle
 10
500.7503001584
 20
889.2874445473
 30
0.0
 40
6.347663105371566
  0
LINE
  5
221
330
1F
100
AcDbEntity
  8
0
  6
Continuous
 62
     7
370
    25
100
AcDbLine
 10
929.3847919363
 20
713.0332839319
 30
0.0
 11
930.7442536169
 21
712.3993565393
 31
0.0
  0
ARC
  5
222
330
1F
100
AcDbEntity
  8
0
  6
Continuous
 62
     7
370
    25
100
AcDbCircle
 10
906.6967556069
 20
868.2917182307
 30
0.0
 40
9.200000000000102
100
AcDbArc
 50
295.0
 51
335.0
  0
LINE
  5
223
330
1F
100
AcDbEntity
  8
0
  6
Continuous
 62
     7
370
    25
100
AcDbLine
 10
909.9509162223
 20
861.3131482705
 30
0.0
 11
910.5848436149
 21
859.9536865899
 31
0.0
  0
LINE
  5
224
330
1F
100
AcDbEntity
  8
0
  6
Continuous
 62
     7
370
    25
100
AcDbLine
 10
921.1503001584
 20
908.4874445473
 30
0.0
 11
921.1503001584
 21
906.9874445473
 31
0.0
  0
SPLINE
  5
225
330
1F
100
AcDbEntity
  8
0
  6
Continuous
 62
     7
370
    25
100
AcDbSpline
210
0.0
220
0.0
230
1.0
 70
     8
 71
     3
 72
    11
 73
     7
 74
     0
 42
0.000000001
 43
0.00000001
 40
0.0
 40
0.0
 40
0.0
 40
0.0
 40
0.2543211584721156
 40
0.5088664984542283
 40
0.7634130007198001
 40
1.0
 40
1.0
 40
1.0
 40
1.0
 10
35.5030777484458
 20
906.9874445473275
 30
0.0
 10
35.37649664066039
 20
907.1874197374667
 30
0.0
 10
35.12322284513253
 20
907.5875463938381
 30
0.0
 10
34.74327817564754
 20
908.0891701479336
 30
0.0
 10
34.37205304397622
 20
908.4252353947926
 30
0.0
 10
34.12780639930707
 20
908.4672199189033
 30
0.0
 10
34.01014881625758
 20
908.4874445473276
 30
0.0
  0
LINE
  5
226
330
1F
100
AcDbEntity
  8
0
  6
Continuous
 62
     7
370
    25
100
AcDbLine
 10
34.0101488163
 20
909.2874445473
 30
0.0
 11
34.0101488163
 21
908.4874445473
 31
0.0
  0
SPLINE
  5
227
330
1F
100
AcDbEntity
  8
0
  6
Continuous
 62
     7
370
    25
100
AcDbSpline
210
0.0
220
0.0
230
1.0
 70
     8
 71
     3
 72
    12
 73
     8
 74
     0
 42
0.000000001
 43
0.00000001
 40
0.0
 40
0.0
 40
0.0
 40
0.0
 40
0.2096821001528836
 40
0.4420453733186079
 40
0.6744332966681059
 40
0.9068208701180763
 40
1.0
 40
1.0
 40
1.0
 40
1.0
 10
33.20307774844583
 20
908.4803734795157
 30
0.0
 10
33.22741771861454
 20
908.3760882715882
 30
0.0
 10
33.27873049730162
 20
908.1562373943016
 30
0.0
 10
33.69966108422989
 20
907.8202692644184
 30
0.0
 10
34.35145056212557
 20
907.473363996002
 30
0.0
 10
35.00089160122815
 20
907.1949873337688
 30
0.0
 10
35.39133151833435
 20
907.0336268725473
 30
0.0
 10
35.5030777484458
 20
906.9874445473276
 30
0.0
  0
LINE
  5
228
330
1F
100
AcDbEntity
  8
0
  6
Continuous
 62
     7
370
    25
100
AcDbLine
 10
33.2030777484
 20
908.4803734795
 30
0.0
 11
34.0030777484
 21
908.4803734795
 31
0.0
  0
SPLINE
  5
229
330
1F
100
AcDbEntity
  8
0
  6
Continuous
 62
     7
370
    25
100
AcDbSpline
210
0.0
220
0.0
230
1.0
 70
     8
 71
     3
 72
    11
 73
     7
 74
     0
 42
0.000000001
 43
0.00000001
 40
0.0
 40
0.0
 40
0.0
 40
0.0
 40
0.2543211584721299
 40
0.5088664984543146
 40
0.7634130007197667
 40
0.9999999999999999
 40
0.9999999999999999
 40
0.9999999999999999
 40
0.9999999999999999
 10
34.00307774844585
 20
908.4803734795157
 30
0.0
 10
34.02643181046477
 20
908.35379237173
 30
0.0
 10
34.07316052087045
 20
908.1005185762024
 30
0.0
 10
34.43204813706608
 20
907.7205739067175
 30
0.0
 10
34.93127111635557
 20
907.3493487750462
 30
0.0
 10
35.3171794329506
 20
907.1051021303771
 30
0.0
 10
35.50307774844569
 20
906.9874445473278
 30
0.0
  0
SPLINE
  5
22A
330
1F
100
AcDbEntity
  8
0
  6
Continuous
 62
     7
370
    25
100
AcDbSpline
210
0.0
220
0.0
230
1.0
 70
     8
 71
     3
 72
    12
 73
     8
 74
     0
 42
0.000000001
 43
0.00000001
 40
0.0
 40
0.0
 40
0.0
 40
0.0
 40
0.2096821001528707
 40
0.4420453733186138
 40
0.6744332966681267
 40
0.9068208701180682
 40
1.0
 40
1.0
 40
1.0
 40
1.0
 10
34.01014881625758
 20
662.0874445473271
 30
0.0
 10
34.11443402418518
 20
662.1117845174955
 30
0.0
 10
34.33428490147189
 20
662.1630972961825
 30
0.0
 10
34.6702530313549
 20
662.584027883111
 30
0.0
 10
35.01715829977176
 20
663.2358173610066
 30
0.0
 10
35.29553496200427
 20
663.8852584001094
 30
0.0
 10
35.456895423226
 20
664.2756983172155
 30
0.0
 10
35.5030777484458
 20
664.387444547327
 30
0.0
  0
LINE
  5
22B
330
1F
100
AcDbEntity
  8
0
  6
Continuous
 62
     7
370
    25
100
AcDbLine
 10
34.0101488163
 20
662.0874445473
 30
0.0
 11
34.0101488163
 21
662.8874445473
 31
0.0
  0
SPLINE
  5
22C
330
1F
100
AcDbEntity
  8
0
  6
Continuous
 62
     7
370
    25
100
AcDbSpline
210
0.0
220
0.0
230
1.0
 70
     8
 71
     3
 72
    11
 73
     7
 74
     0
 42
0.000000001
 43
0.00000001
 40
0.0
 40
0.0
 40
0.0
 40
0.0
 40
0.2543211584721068
 40
0.5088664984542295
 40
0.7634130007196984
 40
1.0
 40
1.0
 40
1.0
 40
1.0
 10
34.01014881625758
 20
662.8874445473269
 30
0.0
 10
34.1367299240431
 20
662.9107986093459
 30
0.0
 10
34.39000371957074
 20
662.9575273197518
 30
0.0
 10
34.76994838905595
 20
663.3164149359471
 30
0.0
 10
35.14117352072693
 20
663.8156379152367
 30
0.0
 10
35.3854201653962
 20
664.2015462318318
 30
0.0
 10
35.5030777484458
 20
664.387444547327
 30
0.0
  0
SPLINE
  5
22D
330
1F
100
AcDbEntity
  8
0
  6
Continuous
 62
     7
370
    25
100
AcDbSpline
210
0.0
220
0.0
230
1.0
 70
     8
 71
     3
 72
    12
 73
     8
 74
     0
 42
0.000000001
 43
0.00000001
 40
0.0
 40
0.0
 40
0.0
 40
0.0
 40
0.2096821001528611
 40
0.4420453733185845
 40
0.6744332966681457
 40
0.9068208701180819
 40
1.0
 40
1.0
 40
1.0
 40
1.0
 10
35.5030777484458
 20
664.387444547327
 30
0.0
 10
35.25074679047052
 20
664.2831593393995
 30
0.0
 10
34.71879040298326
 20
664.0633084621128
 30
0.0
 10
33.99740897316855
 20
663.7273403322297
 30
0.0
 10
33.45405003918184
 20
663.380435063813
 30
0.0
 10
33.22542819903845
 20
663.1020584015799
 30
0.0
 10
33.20805116041453
 20
662.9406979403585
 30
0.0
 10
33.20307774844583
 20
662.8945156151389
 30
0.0
  0
LINE
  5
22E
330
1F
100
AcDbEntity
  8
0
  6
Continuous
 62
     7
370
    25
100
AcDbLine
 10
33.2030777484
 20
908.4803734795
 30
0.0
 11
33.2030777484
 21
662.8945156151
 31
0.0
  0
LINE
  5
22F
330
1F
100
AcDbEntity
  8
0
  6
Continuous
 62
     7
370
    25
100
AcDbLine
 10
840.2914074679
 20
182.0945156151
 30
0.0
 11
840.2914074679
 21
661.1374445473
 31
0.0
  0
SPLINE
  5
230
330
1F
100
AcDbEntity
  8
0
  6
Continuous
 62
     7
370
    25
100
AcDbSpline
210
0.0
220
0.0
230
1.0
 70
     8
 71
     3
 72
    12
 73
     8
 74
     0
 42
0.000000001
 43
0.00000001
 40
0.0
 40
0.0
 40
0.0
 40
0.0
 40
0.209682100152865
 40
0.4420453733185837
 40
0.6744332966681138
 40
0.9068208701180468
 40
1.0
 40
1.0
 40
1.0
 40
1.0
 10
840.2914074679264
 20
182.0945156151394
 30
0.0
 10
840.2670674977579
 20
182.198800823067
 30
0.0
 10
840.2157547190711
 20
182.4186517003537
 30
0.0
 10
839.794824132142
 20
182.7546198302367
 30
0.0
 10
839.1430346542468
 20
183.1015250986534
 30
0.0
 10
838.493593615144
 20
183.3799017608862
 30
0.0
 10
838.1031536980379
 20
183.5412622221079
 30
0.0
 10
837.9914074679264
 20
183.5874445473276
 30
0.0
  0
SPLINE
  5
231
330
1F
100
AcDbEntity
  8
0
  6
Continuous
 62
     7
370
    25
100
AcDbSpline
210
0.0
220
0.0
230
1.0
 70
     8
 71
     3
 72
    11
 73
     7
 74
     0
 42
0.000000001
 43
0.00000001
 40
0.0
 40
0.0
 40
0.0
 40
0.0
 40
0.2889759275644302
 40
0.5779517763249518
 40
0.8674414070449287
 40
1.0
 40
1.0
 40
1.0
 40
1.0
 10
837.9914074679264
 20
664.3874445473273
 30
0.0
 10
838.3397969830979
 20
664.0742028133171
 30
0.0
 10
839.0365759184349
 20
663.4477194307179
 30
0.0
 10
839.8651964095318
 20
662.5079776935418
 30
0.0
 10
840.2495816143501
 20
661.735923405767
 30
0.0
 10
840.2814105184966
 20
661.280489156606
 30
0.0
 10
840.2914074679264
 20
661.1374445473273
 30
0.0
  0
LINE
  5
232
330
1F
100
AcDbEntity
  8
0
  6
Continuous
 62
     7
370
    25
100
AcDbLine
 10
840.2914074679
 20
182.0945156151
 30
0.0
 11
839.4914074679
 21
182.0945156151
 31
0.0
  0
SPLINE
  5
233
330
1F
100
AcDbEntity
  8
0
  6
Continuous
 62
     7
370
    25
100
AcDbSpline
210
0.0
220
0.0
230
1.0
 70
     8
 71
     3
 72
    11
 73
     7
 74
     0
 42
0.000000001
 43
0.00000001
 40
0.0
 40
0.0
 40
0.0
 40
0.0
 40
0.2543211584721249
 40
0.508866498454234
 40
0.7634130007197268
 40
1.0
 40
1.0
 40
1.0
 40
1.0
 10
839.4914074679264
 20
182.0945156151394
 30
0.0
 10
839.4680534059073
 20
182.2210967229249
 30
0.0
 10
839.4213246955013
 20
182.4743705184526
 30
0.0
 10
839.0624370793063
 20
182.8543151879379
 30
0.0
 10
838.5632141000166
 20
183.2255403196089
 30
0.0
 10
838.1773057834214
 20
183.469786964278
 30
0.0
 10
837.9914074679264
 20
183.5874445473276
 30
0.0
  0
SPLINE
  5
234
330
1F
100
AcDbEntity
  8
0
  6
Continuous
 62
     7
370
    25
100
AcDbSpline
210
0.0
220
0.0
230
1.0
 70
     8
 71
     3
 72
    11
 73
     7
 74
     0
 42
0.000000001
 43
0.00000001
 40
0.0
 40
0.0
 40
0.0
 40
0.0
 40
0.2889759275644331
 40
0.577951776324948
 40
0.867441407044932
 40
1.0
 40
1.0
 40
1.0
 40
1.0
 10
97.3030777484421
 20
664.387444547327
 30
0.0
 10
96.989836014432
 20
664.0390550321554
 30
0.0
 10
96.36335263183283
 20
663.3422760968184
 30
0.0
 10
95.4236108946565
 20
662.5136556057212
 30
0.0
 10
94.65155660688174
 20
662.1292704009035
 30
0.0
 10
94.19612235772068
 20
662.0974414967567
 30
0.0
 10
94.05307774844202
 20
662.0874445473271
 30
0.0
  0
LINE
  5
235
330
1F
100
AcDbEntity
  8
0
  6
Continuous
 62
     7
370
    25
100
AcDbLine
 10
34.0101488163
 20
662.0874445473
 30
0.0
 11
94.0530777484
 21
662.0874445473
 31
0.0
  0
SPLINE
  5
236
330
1F
100
AcDbEntity
  8
0
  6
Continuous
 62
     7
370
    25
100
AcDbSpline
210
0.0
220
0.0
230
1.0
 70
     8
 71
     3
 72
    17
 73
    13
 74
     0
 42
0.000000001
 43
0.00000001
 40
0.0
 40
0.0
 40
0.0
 40
0.0
 40
0.103598410708405
 40
0.2096300057675097
 40
0.3241995137044872
 40
0.442090388979559
 40
0.5566717778555527
 40
0.6745756090648043
 40
0.7891568249000581
 40
0.9070604758598518
 40
0.953424617261384
 40
1.0
 40
1.0
 40
1.0
 40
1.0
 10
837.9914074679264
 20
183.5874445473276
 30
0.0
 10
838.0429579346716
 20
183.4626977639556
 30
0.0
 10
838.1472696182891
 20
183.2102743074669
 30
0.0
 10
838.3085824188681
 20
182.8303173516201
 30
0.0
 10
838.4770628214933
 20
182.4564220557631
 30
0.0
 10
838.6497911649042
 20
182.1103705816661
 30
0.0
 10
838.8241720232899
 20
181.810490535823
 30
0.0
 10
838.9969227419894
 20
181.5721774737538
 30
0.0
 10
839.1712851703358
 20
181.3988148724881
 30
0.0
 10
839.3101503329243
 20
181.3196507548238
 30
0.0
 10
839.4149621108775
 20
181.2910059171264
 30
0.0
 10
839.4611766235307
 20
181.2886334680327
 30
0.0
 10
839.4843364001146
 20
181.2874445473276
 30
0.0
  0
LINE
  5
237
330
1F
100
AcDbEntity
  8
0
  6
Continuous
 62
     7
370
    25
100
AcDbLine
 10
839.4843364001
 20
181.2874445473
 30
0.0
 11
95.8101488163
 21
181.2874445473
 31
0.0
  0
SPLINE
  5
238
330
1F
100
AcDbEntity
  8
0
  6
Continuous
 62
     7
370
    25
100
AcDbSpline
210
0.0
220
0.0
230
1.0
 70
     8
 71
     3
 72
    17
 73
    13
 74
     0
 42
0.000000001
 43
0.00000001
 40
0.0
 40
0.0
 40
0.0
 40
0.0
 40
0.1035984107083872
 40
0.2096300057675031
 40
0.3241995137044631
 40
0.4420903889795454
 40
0.5566717778555352
 40
0.6745756090647889
 40
0.7891568249000357
 40
0.9070604758598177
 40
0.953424617261385
 40
1.0
 40
1.0
 40
1.0
 40
1.0
 10
95.81014881625366
 20
181.2874445473276
 30
0.0
 10
95.86169928299881
 20
181.293329269738
 30
0.0
 10
95.9660109666165
 20
181.3052369272434
 30
0.0
 10
96.1273237671954
 20
181.4042378533247
 30
0.0
 10
96.29580416982081
 20
181.5698023577175
 30
0.0
 10
96.46853251323134
 20
181.8077963415775
 30
0.0
 10
96.64291337161713
 20
182.1070160630949
 30
0.0
 10
96.81566409031633
 20
182.4526982176396
 30
0.0
 10
96.99002651866302
 20
182.8393136385714
 30
0.0
 10
97.12889168125133
 20
183.1672764062591
 30
0.0
 10
97.23370345920529
 20
183.4195680228742
 30
0.0
 10
97.27991797185803
 20
183.5314009778326
 30
0.0
 10
97.30307774844188
 20
183.5874445473276
 30
0.0
  0
SPLINE
  5
239
330
1F
100
AcDbEntity
  8
0
  6
Continuous
 62
     7
370
    25
100
AcDbSpline
210
0.0
220
0.0
230
1.0
 70
     8
 71
     3
 72
    12
 73
     8
 74
     0
 42
0.000000001
 43
0.00000001
 40
0.0
 40
0.0
 40
0.0
 40
0.0
 40
0.2096821001529036
 40
0.4420453733186216
 40
0.6744332966681691
 40
0.9068208701180693
 40
1.0
 40
1.0
 40
1.0
 40
1.0
 10
97.30307774844188
 20
183.5874445473276
 30
0.0
 10
97.05074679046649
 20
183.4831593394
 30
0.0
 10
96.51879040297933
 20
183.2633084621133
 30
0.0
 10
95.79740897316458
 20
182.9273403322304
 30
0.0
 10
95.25405003917776
 20
182.5804350638137
 30
0.0
 10
95.02542819903526
 20
182.3020584015808
 30
0.0
 10
95.00805116041062
 20
182.1406979403591
 30
0.0
 10
95.00307774844191
 20
182.0945156151394
 30
0.0
  0
LINE
  5
23A
330
1F
100
AcDbEntity
  8
0
  6
Continuous
 62
     7
370
    25
100
AcDbLine
 10
95.0030777484
 20
661.1374445473
 30
0.0
 11
95.0030777484
 21
182.0945156151
 31
0.0
  0
SPLINE
  5
23B
330
1F
100
AcDbEntity
  8
0
  6
Continuous
 62
     7
370
    25
100
AcDbSpline
210
0.0
220
0.0
230
1.0
 70
     8
 71
     3
 72
    11
 73
     7
 74
     0
 42
0.000000001
 43
0.00000001
 40
0.0
 40
0.0
 40
0.0
 40
0.0
 40
0.2889759275644727
 40
0.5779517763250405
 40
0.867441407044975
 40
1.0
 40
1.0
 40
1.0
 40
1.0
 10
95.00307774844191
 20
661.137444547327
 30
0.0
 10
95.04953690218531
 20
661.4506862813374
 30
0.0
 10
95.14245519700276
 20
662.0771696639365
 30
0.0
 10
95.84479759461468
 20
663.0169114011128
 30
0.0
 10
96.6370941302539
 20
663.7889656888875
 30
0.0
 10
97.14389858094702
 20
664.2443999380486
 30
0.0
 10
97.30307774844188
 20
664.387444547327
 30
0.0
  0
SPLINE
  5
23C
330
1F
100
AcDbEntity
  8
0
  6
Continuous
 62
     7
370
    25
100
AcDbSpline
210
0.0
220
0.0
230
1.0
 70
     8
 71
     3
 72
    11
 73
     7
 74
     0
 42
0.000000001
 43
0.00000001
 40
0.0
 40
0.0
 40
0.0
 40
0.0
 40
0.2543211584721816
 40
0.5088664984542698
 40
0.7634130007197555
 40
1.0
 40
1.0
 40
1.0
 40
1.0
 10
35.5030777484458
 20
664.387444547327
 30
0.0
 10
35.30310255830643
 20
664.2608634395415
 30
0.0
 10
34.90297590193519
 20
664.0075896440139
 30
0.0
 10
34.40135214783974
 20
663.6276449745284
 30
0.0
 10
34.06528690098104
 20
663.2564198428574
 30
0.0
 10
34.0233023768704
 20
663.0121731981884
 30
0.0
 10
34.00307774844585
 20
662.8945156151389
 30
0.0
  0
LINE
  5
23D
330
1F
100
AcDbEntity
  8
0
  6
Continuous
 62
     7
370
    25
100
AcDbLine
 10
33.2030777484
 20
662.8945156151
 30
0.0
 11
34.0030777484
 21
662.8945156151
 31
0.0
  0
SPLINE
  5
23E
330
1F
100
AcDbEntity
  8
0
  6
Continuous
 62
     7
370
    25
100
AcDbSpline
210
0.0
220
0.0
230
1.0
 70
     8
 71
     3
 72
    11
 73
     7
 74
     0
 42
0.000000001
 43
0.00000001
 40
0.0
 40
0.0
 40
0.0
 40
0.0
 40
0.2543211584722105
 40
0.5088664984542715
 40
0.7634130007198021
 40
0.9999999999999999
 40
0.9999999999999999
 40
0.9999999999999999
 40
0.9999999999999999
 10
97.30307774844188
 20
183.5874445473276
 30
0.0
 10
97.10310255830257
 20
183.4608634395421
 30
0.0
 10
96.70297590193138
 20
183.2075896440145
 30
0.0
 10
96.20135214783582
 20
182.827644974529
 30
0.0
 10
95.86528690097728
 20
182.4564198428581
 30
0.0
 10
95.82330237686637
 20
182.2121731981889
 30
0.0
 10
95.80307774844194
 20
182.0945156151394
 30
0.0
  0
LINE
  5
23F
330
1F
100
AcDbEntity
  8
0
  6
Continuous
 62
     7
370
    25
100
AcDbLine
 10
95.0030777484
 20
182.0945156151
 30
0.0
 11
95.8030777484
 21
182.0945156151
 31
0.0
  0
LINE
  5
240
330
1F
100
AcDbEntity
  8
0
  6
Continuous
 62
     7
370
    25
100
AcDbLine
 10
901.7954234857
 20
662.8874445473
 30
0.0
 11
901.7954234857
 21
662.0874445473
 31
0.0
  0
LINE
  5
241
330
1F
100
AcDbEntity
  8
0
  6
Continuous
 62
     7
370
    25
100
AcDbLine
 10
901.7954234857
 20
662.0874445473
 30
0.0
 11
841.5106382372
 21
662.0874445473
 31
0.0
  0
SPLINE
  5
242
330
1F
100
AcDbEntity
  8
0
  6
Continuous
 62
     7
370
    25
100
AcDbSpline
210
0.0
220
0.0
230
1.0
 70
     8
 71
     3
 72
    11
 73
     7
 74
     0
 42
0.000000001
 43
0.00000001
 40
0.0
 40
0.0
 40
0.0
 40
0.0
 40
0.2999401068833883
 40
0.5998801778523134
 40
0.9004866520642032
 40
1.0
 40
1.0
 40
1.0
 40
1.0
 10
841.5106382371571
 20
662.0874445473271
 30
0.0
 10
841.1585972270531
 20
662.1375551021641
 30
0.0
 10
840.4545152489982
 20
662.2377762058383
 30
0.0
 10
839.3983680659184
 20
662.9914069893366
 30
0.0
 10
838.5749501714733
 20
663.7878760720273
 30
0.0
 10
838.1076333143485
 20
664.2680268027372
 30
0.0
 10
837.9914074679264
 20
664.3874445473273
 30
0.0
  0
SPLINE
  5
243
330
1F
100
AcDbEntity
  8
0
  6
Continuous
 62
     7
370
    25
100
AcDbSpline
210
0.0
220
0.0
230
1.0
 70
     8
 71
     3
 72
    15
 73
    11
 74
     0
 42
0.000000001
 43
0.00000001
 40
0.0
 40
0.0
 40
0.0
 40
0.0
 40
0.1253607905739668
 40
0.2543493449800825
 40
0.3798182032805792
 40
0.5089245063804869
 40
0.6343939312768782
 40
0.7635008384375207
 40
0.8802930527505215
 40
1.0
 40
1.0
 40
1.0
 40
1.0
 10
837.9914074679265
 20
183.5874445473276
 30
0.0
 10
838.0537910388163
 20
183.4889887860074
 30
0.0
 10
838.1803634728342
 20
183.2892280929978
 30
0.0
 10
838.3694015190688
 20
183.0025903766975
 30
0.0
 10
838.5602671732844
 20
182.7366517042564
 30
0.0
 10
838.7494222261381
 20
182.5068349213291
 30
0.0
 10
838.9403428394518
 20
182.3179044253216
 30
0.0
 10
839.1251902088832
 20
182.1852318512443
 30
0.0
 10
839.307084326252
 20
182.1026575825599
 30
0.0
 10
839.4247689077812
 20
182.0925570537137
 30
0.0
 10
839.4843364001146
 20
182.0874445473276
 30
0.0
  0
LINE
  5
244
330
1F
100
AcDbEntity
  8
0
  6
Continuous
 62
     7
370
    25
100
AcDbLine
 10
839.4843364001
 20
181.2874445473
 30
0.0
 11
839.4843364001
 21
182.0874445473
 31
0.0
  0
LINE
  5
245
330
1F
100
AcDbEntity
  8
0
  6
Continuous
 62
     7
370
    25
100
AcDbLine
 10
95.8101488163
 20
181.2874445473
 30
0.0
 11
95.8101488163
 21
182.0874445473
 31
0.0
  0
SPLINE
  5
246
330
1F
100
AcDbEntity
  8
0
  6
Continuous
 62
     7
370
    25
100
AcDbSpline
210
0.0
220
0.0
230
1.0
 70
     8
 71
     3
 72
    15
 73
    11
 74
     0
 42
0.000000001
 43
0.00000001
 40
0.0
 40
0.0
 40
0.0
 40
0.0
 40
0.125360790574013
 40
0.2543493449801326
 40
0.3798182032806739
 40
0.5089245063805389
 40
0.6343939312768777
 40
0.763500838437496
 40
0.8802930527505373
 40
1.0
 40
1.0
 40
1.0
 40
1.0
 10
95.81014881625366
 20
182.0874445473276
 30
0.0
 10
95.8725323871435
 20
182.093069015229
 30
0.0
 10
95.99910482116152
 20
182.1044807151715
 30
0.0
 10
96.18814286739646
 20
182.1959954194509
 30
0.0
 10
96.37900852161202
 20
182.3397083500282
 30
0.0
 10
96.56816357446534
 20
182.5328107063128
 30
0.0
 10
96.75908418777878
 20
182.7695497873285
 30
0.0
 10
96.94393155721059
 20
183.030623966688
 30
0.0
 10
97.12582567457927
 20
183.3077029017582
 30
0.0
 10
97.2435102561086
 20
183.4934343167862
 30
0.0
 10
97.30307774844182
 20
183.5874445473276
 30
0.0
  0
CIRCLE
  5
247
330
1F
100
AcDbEntity
  8
0
  6
Continuous
 62
     7
370
    25
100
AcDbCircle
 10
110.7503001584
 20
889.2874445473
 30
0.0
 40
2.699999999999932
  0
CIRCLE
  5
248
330
1F
100
AcDbEntity
  8
0
  6
Continuous
 62
     7
370
    25
100
AcDbCircle
 10
500.7503001584
 20
889.2874445473
 30
0.0
 40
2.700000000000045
  0
CIRCLE
  5
249
330
1F
100
AcDbEntity
  8
0
  6
Continuous
 62
     7
370
    25
100
AcDbCircle
 10
880.7503001584
 20
889.2874445473
 30
0.0
 40
2.700000000000045
  0
LWPOLYLINE
  5
24A
330
1F
100
AcDbEntity
  8
0
  6
Continuous
 62
     7
370
    25
100
AcDbPolyline
 90
        3
 70
   128
 43
0.0
 10
95.4788119761
 20
662.4206683545
 10
95.4520676397
 20
662.4481047191
 10
95.3426888768
 20
662.5472133524
  0
LINE
  5
24B
330
1F
100
AcDbEntity
  8
0
  6
Continuous
 62
     7
370
    25
100
AcDbLine
 10
839.4914074679
 20
662.9746257416
 30
0.0
 11
839.4914074679
 21
662.8742907798
 31
0.0
  0
LINE
  5
24C
330
1F
100
AcDbEntity
  8
0
  6
Continuous
 62
     7
370
    25
100
AcDbLine
 10
840.7914074679
 20
222.5202340409
 30
0.0
 11
840.7914074679
 21
221.9508420069
 31
0.0
  0
LINE
  5
24D
330
1F
100
AcDbEntity
  8
0
  6
Continuous
 62
     7
370
    25
100
AcDbLine
 10
840.7914074679
 20
230.4508420069
 30
0.0
 11
840.7914074679
 21
222.5202340409
 31
0.0
  0
LINE
  5
24E
330
1F
100
AcDbEntity
  8
0
  6
Continuous
 62
     7
370
    25
100
AcDbLine
 10
840.7914074679
 20
205.6240470877
 30
0.0
 11
840.7914074679
 21
197.1240470877
 31
0.0
  0
LINE
  5
24F
330
1F
100
AcDbEntity
  8
0
  6
Continuous
 62
     7
370
    25
100
AcDbLine
 10
72.7122142731
 20
646.5374445473
 30
0.0
 11
72.7122142731
 21
650.4374445473
 31
0.0
  0
LINE
  5
250
330
1F
100
AcDbEntity
  8
0
  6
Continuous
 62
     7
370
    25
100
AcDbLine
 10
74.3283778668
 20
650.4374445473
 30
0.0
 11
74.3283778668
 21
646.5374445473
 31
0.0
  0
LINE
  5
251
330
1F
100
AcDbEntity
  8
0
  6
Continuous
 62
     7
370
    25
100
AcDbLine
 10
72.7122142731
 20
650.4374445473
 30
0.0
 11
74.3283778668
 21
650.4374445473
 31
0.0
  0
LINE
  5
252
330
1F
100
AcDbEntity
  8
0
  6
Continuous
 62
     7
370
    25
100
AcDbLine
 10
74.3283778668
 20
646.5374445473
 30
0.0
 11
72.7122142731
 21
646.5374445473
 31
0.0
  0
LINE
  5
253
330
1F
100
AcDbEntity
  8
0
  6
Continuous
 62
     7
370
    25
100
AcDbLine
 10
83.6606311472
 20
646.5374445473
 30
0.0
 11
83.6606311472
 21
650.4374445473
 31
0.0
  0
LINE
  5
254
330
1F
100
AcDbEntity
  8
0
  6
Continuous
 62
     7
370
    25
100
AcDbLine
 10
74.3283778668
 20
650.4374445473
 30
0.0
 11
83.6606311472
 21
650.4374445473
 31
0.0
  0
LINE
  5
255
330
1F
100
AcDbEntity
  8
0
  6
Continuous
 62
     7
370
    25
100
AcDbLine
 10
74.3283778668
 20
646.5374445473
 30
0.0
 11
83.6606311472
 21
646.5374445473
 31
0.0
  0
LINE
  5
256
330
1F
100
AcDbEntity
  8
0
  6
Continuous
 62
     7
370
    25
100
AcDbLine
 10
63.3765193128
 20
650.4374445473
 30
0.0
 11
63.3765193128
 21
646.5374445473
 31
0.0
  0
LINE
  5
257
330
1F
100
AcDbEntity
  8
0
  6
Continuous
 62
     7
370
    25
100
AcDbLine
 10
63.3765193128
 20
650.4374445473
 30
0.0
 11
72.7122142731
 21
650.4374445473
 31
0.0
  0
LINE
  5
258
330
1F
100
AcDbEntity
  8
0
  6
Continuous
 62
     7
370
    25
100
AcDbLine
 10
63.3765193128
 20
646.5374445473
 30
0.0
 11
72.7122142731
 21
646.5374445473
 31
0.0
  0
LINE
  5
259
330
1F
100
AcDbEntity
  8
0
  6
Continuous
 62
     7
370
    25
100
AcDbLine
 10
62.9914074679
 20
652.8374445473
 30
0.0
 11
84.7914074679
 21
652.8374445473
 31
0.0
  0
LINE
  5
25A
330
1F
100
AcDbEntity
  8
0
  6
Continuous
 62
     7
370
    25
100
AcDbLine
 10
64.3414074679
 20
637.8374445473
 30
0.0
 11
83.4414074679
 21
637.8374445473
 31
0.0
  0
LINE
  5
25B
330
1F
100
AcDbEntity
  8
0
  6
Continuous
 62
     7
370
    25
100
AcDbLine
 10
63.7414074679
 20
658.0374445473
 30
0.0
 11
84.0414074679
 21
658.0374445473
 31
0.0
  0
LINE
  5
25C
330
1F
100
AcDbEntity
  8
0
  6
Continuous
 62
     7
370
    25
100
AcDbLine
 10
84.8432660218
 20
650.4374445473
 30
0.0
 11
84.8432660218
 21
646.5374445473
 31
0.0
  0
LINE
  5
25D
330
1F
100
AcDbEntity
  8
0
  6
Continuous
 62
     7
370
    25
100
AcDbLine
 10
83.6606311472
 20
650.4374445473
 30
0.0
 11
84.8432660218
 21
650.4374445473
 31
0.0
  0
LINE
  5
25E
330
1F
100
AcDbEntity
  8
0
  6
Continuous
 62
     7
370
    25
100
AcDbLine
 10
84.8432660218
 20
646.5374445473
 30
0.0
 11
83.6606311472
 21
646.5374445473
 31
0.0
  0
LINE
  5
25F
330
1F
100
AcDbEntity
  8
0
  6
Continuous
 62
     7
370
    25
100
AcDbLine
 10
62.9429905939
 20
646.5374445473
 30
0.0
 11
62.9429905939
 21
650.4374445473
 31
0.0
  0
LINE
  5
260
330
1F
100
AcDbEntity
  8
0
  6
Continuous
 62
     7
370
    25
100
AcDbLine
 10
62.9429905939
 20
650.4374445473
 30
0.0
 11
63.3765193128
 21
650.4374445473
 31
0.0
  0
LINE
  5
261
330
1F
100
AcDbEntity
  8
0
  6
Continuous
 62
     7
370
    25
100
AcDbLine
 10
63.3765193128
 20
646.5374445473
 30
0.0
 11
62.9429905939
 21
646.5374445473
 31
0.0
  0
LINE
  5
262
330
1F
100
AcDbEntity
  8
0
  6
Continuous
 62
     7
370
    25
100
AcDbLine
 10
62.939548914
 20
650.4374445473
 30
0.0
 11
62.939548914
 21
646.5374445473
 31
0.0
  0
LINE
  5
263
330
1F
100
AcDbEntity
  8
0
  6
Continuous
 62
     7
370
    25
100
AcDbLine
 10
62.939548914
 20
650.4374445473
 30
0.0
 11
62.9429905939
 21
650.4374445473
 31
0.0
  0
LINE
  5
264
330
1F
100
AcDbEntity
  8
0
  6
Continuous
 62
     7
370
    25
100
AcDbLine
 10
62.939548914
 20
646.5374445473
 30
0.0
 11
62.9429905939
 21
646.5374445473
 31
0.0
  0
LINE
  5
265
330
1F
100
AcDbEntity
  8
0
  6
Continuous
 62
     7
370
    25
100
AcDbLine
 10
68.9126556886
 20
662.0874445473
 30
0.0
 11
68.9126556886
 21
659.3374445473
 31
0.0
  0
LINE
  5
266
330
1F
100
AcDbEntity
  8
0
  6
Continuous
 62
     7
370
    25
100
AcDbLine
 10
79.7483345545
 20
659.3374445473
 30
0.0
 11
79.7483345545
 21
662.0874445473
 31
0.0
  0
LINE
  5
267
330
1F
100
AcDbEntity
  8
0
  6
Continuous
 62
     7
370
    25
100
AcDbLine
 10
68.9126556886
 20
659.3374445473
 30
0.0
 11
79.7483345545
 21
659.3374445473
 31
0.0
  0
LINE
  5
268
330
1F
100
AcDbEntity
  8
0
  6
Continuous
 62
     7
370
    25
100
AcDbLine
 10
68.9126556886
 20
659.3374445473
 30
0.0
 11
67.2963913895
 21
659.3374445473
 31
0.0
  0
LINE
  5
269
330
1F
100
AcDbEntity
  8
0
  6
Continuous
 62
     7
370
    25
100
AcDbLine
 10
67.2963913895
 20
659.3374445473
 30
0.0
 11
67.2963913895
 21
662.0874445473
 31
0.0
  0
LINE
  5
26A
330
1F
100
AcDbEntity
  8
0
  6
Continuous
 62
     7
370
    25
100
AcDbLine
 10
80.9306937285
 20
662.0874445473
 30
0.0
 11
80.9306937285
 21
659.3374445473
 31
0.0
  0
LINE
  5
26B
330
1F
100
AcDbEntity
  8
0
  6
Continuous
 62
     7
370
    25
100
AcDbLine
 10
80.9306937285
 20
659.3374445473
 30
0.0
 11
79.7483345545
 21
659.3374445473
 31
0.0
  0
LINE
  5
26C
330
1F
100
AcDbEntity
  8
0
  6
Continuous
 62
     7
370
    25
100
AcDbLine
 10
61.8733694281
 20
662.0874445473
 30
0.0
 11
61.8733694281
 21
659.3374445473
 31
0.0
  0
LINE
  5
26D
330
1F
100
AcDbEntity
  8
0
  6
Continuous
 62
     7
370
    25
100
AcDbLine
 10
61.8733694281
 20
659.3374445473
 30
0.0
 11
67.2963913895
 21
659.3374445473
 31
0.0
  0
LINE
  5
26E
330
1F
100
AcDbEntity
  8
0
  6
Continuous
 62
     7
370
    25
100
AcDbLine
 10
86.343350633
 20
659.3374445473
 30
0.0
 11
86.343350633
 21
662.0874445473
 31
0.0
  0
LINE
  5
26F
330
1F
100
AcDbEntity
  8
0
  6
Continuous
 62
     7
370
    25
100
AcDbLine
 10
80.9306937285
 20
659.3374445473
 30
0.0
 11
86.343350633
 21
659.3374445473
 31
0.0
  0
LINE
  5
270
330
1F
100
AcDbEntity
  8
0
  6
Continuous
 62
     7
370
    25
100
AcDbLine
 10
61.4394643029
 20
659.3374445473
 30
0.0
 11
61.4394643029
 21
662.0874445473
 31
0.0
  0
LINE
  5
271
330
1F
100
AcDbEntity
  8
0
  6
Continuous
 62
     7
370
    25
100
AcDbLine
 10
61.8733694281
 20
659.3374445473
 30
0.0
 11
61.4394643029
 21
659.3374445473
 31
0.0
  0
LINE
  5
272
330
1F
100
AcDbEntity
  8
0
  6
Continuous
 62
     7
370
    25
100
AcDbLine
 10
84.7914074679
 20
639.3374445473
 30
0.0
 11
62.9914074679
 21
639.3374445473
 31
0.0
  0
SPLINE
  5
273
330
1F
100
AcDbEntity
  8
0
  6
Continuous
 62
     7
370
    25
100
AcDbSpline
210
0.0
220
0.0
230
1.0
 70
     8
 71
     3
 72
    13
 73
     9
 74
     0
 42
0.000000001
 43
0.00000001
 40
0.0
 40
0.0
 40
0.0
 40
0.0
 40
0.1695411050601283
 40
0.338645838307937
 40
0.5184804584266848
 40
0.7277236211491035
 40
0.9924537768857032
 40
1.0
 40
1.0
 40
1.0
 40
1.0
 10
114.281430501003
 20
168.7374445473301
 30
0.0
 10
114.2795418866979
 20
168.7128334000435
 30
0.0
 10
114.2757695190804
 20
168.663674450645
 30
0.0
 10
114.2470751706169
 20
168.5975386572647
 30
0.0
 10
114.203618678404
 20
168.5418670541601
 30
0.0
 10
114.1408158715976
 20
168.4991482748882
 30
0.0
 10
114.0893547871313
 20
168.4875626152758
 30
0.0
 10
114.0603942358664
 20
168.4874477313727
 30
0.0
 10
114.0595915853306
 20
168.4874445473302
 30
0.0
  0
LINE
  5
274
330
1F
100
AcDbEntity
  8
0
  6
Continuous
 62
     7
370
    25
100
AcDbLine
 10
114.0595915853
 20
168.4874445473
 30
0.0
 11
111.5286623099
 21
168.4874445473
 31
0.0
  0
LINE
  5
275
330
1F
100
AcDbEntity
  8
0
  6
Continuous
 62
     7
370
    25
100
AcDbLine
 10
105.0684261242
 20
168.4874445473
 30
0.0
 11
98.6541169491
 21
168.4874445473
 31
0.0
  0
SPLINE
  5
276
330
1F
100
AcDbEntity
  8
0
  6
Continuous
 62
     7
370
    25
100
AcDbSpline
210
0.0
220
0.0
230
1.0
 70
     8
 71
     3
 72
    13
 73
     9
 74
     0
 42
0.000000001
 43
0.00000001
 40
0.0
 40
0.0
 40
0.0
 40
0.0
 40
0.1695411050604095
 40
0.3386458383073662
 40
0.5184804584268912
 40
0.7277236211490099
 40
0.9924537768862803
 40
1.0
 40
1.0
 40
1.0
 40
1.0
 10
98.5431858332732
 20
168.7374445473303
 30
0.0
 10
98.54412237174814
 20
168.7128334000436
 30
0.0
 10
98.54599303819694
 20
168.6636744506455
 30
0.0
 10
98.56024167314092
 20
168.5975386572645
 30
0.0
 10
98.58187821994547
 20
168.5418670541605
 30
0.0
 10
98.61326218451278
 20
168.4991482748881
 30
0.0
 10
98.63911506086298
 20
168.4875626152759
 30
0.0
 10
98.65371237990533
 20
168.4874477313728
 30
0.0
 10
98.654116949067
 20
168.4874445473303
 30
0.0
  0
LINE
  5
277
330
1F
100
AcDbEntity
  8
0
  6
Continuous
 62
     7
370
    25
100
AcDbLine
 10
98.6541169491
 20
169.6874445473
 30
0.0
 11
105.0409298635
 21
169.6874445473
 31
0.0
  0
LINE
  5
278
330
1F
100
AcDbEntity
  8
0
  6
Continuous
 62
     7
370
    25
100
AcDbLine
 10
110.8247850604
 20
169.6874445473
 30
0.0
 11
114.0595915853
 21
169.6874445473
 31
0.0
  0
SPLINE
  5
279
330
1F
100
AcDbEntity
  8
0
  6
Continuous
 62
     7
370
    25
100
AcDbSpline
210
0.0
220
0.0
230
1.0
 70
     8
 71
     3
 72
    13
 73
     9
 74
     0
 42
0.000000001
 43
0.00000001
 40
0.0
 40
0.0
 40
0.0
 40
0.0
 40
0.0075462231142166
 40
0.2722763788514041
 40
0.4815195415734122
 40
0.6613541616923297
 40
0.8304588949398977
 40
0.9999999999999999
 40
0.9999999999999999
 40
0.9999999999999999
 40
0.9999999999999999
 10
114.0595915853305
 20
169.6874445473302
 30
0.0
 10
114.0603942358662
 20
169.6874413632876
 30
0.0
 10
114.0893547871315
 20
169.6873264793845
 30
0.0
 10
114.1408158715974
 20
169.6757408197722
 30
0.0
 10
114.2036186784038
 20
169.6330220405
 30
0.0
 10
114.2470751706169
 20
169.5773504373956
 30
0.0
 10
114.2757695190804
 20
169.5112146440152
 30
0.0
 10
114.2795418866978
 20
169.4620556946168
 30
0.0
 10
114.2814305010028
 20
169.4374445473301
 30
0.0
  0
SPLINE
  5
27A
330
1F
100
AcDbEntity
  8
0
  6
Continuous
 62
     7
370
    25
100
AcDbSpline
210
0.0
220
0.0
230
1.0
 70
     8
 71
     3
 72
    13
 73
     9
 74
     0
 42
0.000000001
 43
0.00000001
 40
0.0
 40
0.0
 40
0.0
 40
0.0
 40
0.0075462231143366
 40
0.272276378851562
 40
0.4815195415729528
 40
0.6613541616925417
 40
0.8304588949394709
 40
1.0
 40
1.0
 40
1.0
 40
1.0
 10
98.654116949067
 20
169.6874445473302
 30
0.0
 10
98.65371237990523
 20
169.6874413632877
 30
0.0
 10
98.63911506086492
 20
169.6873264793847
 30
0.0
 10
98.61326218451217
 20
169.6757408197724
 30
0.0
 10
98.58187821994547
 20
169.6330220404999
 30
0.0
 10
98.56024167314042
 20
169.5773504373961
 30
0.0
 10
98.54599303819705
 20
169.511214644015
 30
0.0
 10
98.54412237174797
 20
169.4620556946169
 30
0.0
 10
98.54318583327299
 20
169.4374445473303
 30
0.0
  0
LINE
  5
27B
330
1F
100
AcDbEntity
  8
0
  6
Continuous
 62
     7
370
    25
100
AcDbLine
 10
114.281430501
 20
169.4374445473
 30
0.0
 11
114.281430501
 21
168.7374445473
 31
0.0
  0
LINE
  5
27C
330
1F
100
AcDbEntity
  8
0
  6
Continuous
 62
     7
370
    25
100
AcDbLine
 10
98.5431858333
 20
169.4374445473
 30
0.0
 11
98.5431858333
 21
168.7374445473
 31
0.0
  0
SPLINE
  5
27D
330
1F
100
AcDbEntity
  8
0
  6
Continuous
 62
     7
370
    25
100
AcDbSpline
210
0.0
220
0.0
230
1.0
 70
     8
 71
     3
 72
    12
 73
     8
 74
     0
 42
0.000000001
 43
0.00000001
 40
0.0
 40
0.0
 40
0.0
 40
0.0
 40
0.2289440738515888
 40
0.4594214300241644
 40
0.6825355698157263
 40
0.8947175231628303
 40
1.0
 40
1.0
 40
1.0
 40
1.0
 10
98.34197566268982
 20
168.4874445473303
 30
0.0
 10
98.1714844375961
 20
168.5047790319078
 30
0.0
 10
97.82936017501365
 20
168.539564093427
 30
0.0
 10
97.37791617796715
 20
168.8134339392394
 30
0.0
 10
97.05295779196716
 20
169.2104704737224
 30
0.0
 10
96.90704126455307
 20
169.611346463075
 30
0.0
 10
96.89463049342872
 20
169.8562318561621
 30
0.0
 10
96.89051464107112
 20
169.9374445473303
 30
0.0
  0
LINE
  5
27E
330
1F
100
AcDbEntity
  8
0
  6
Continuous
 62
     7
370
    25
100
AcDbLine
 10
98.3419756627
 20
168.4874445473
 30
0.0
 11
96.9414074679
 21
168.4874445473
 31
0.0
  0
LINE
  5
27F
330
1F
100
AcDbEntity
  8
0
  6
Continuous
 62
     7
370
    25
100
AcDbLine
 10
97.1062227986
 20
175.2874445473
 30
0.0
 11
97.8248287397
 21
175.2874445473
 31
0.0
  0
LINE
  5
280
330
1F
100
AcDbEntity
  8
0
  6
Continuous
 62
     7
370
    25
100
AcDbLine
 10
95.7414074679
 20
175.2874445473
 30
0.0
 11
97.1062227986
 21
175.2874445473
 31
0.0
  0
LINE
  5
281
330
1F
100
AcDbEntity
  8
0
  6
Continuous
 62
     7
370
    25
100
AcDbLine
 10
98.3419756627
 20
169.6874445473
 30
0.0
 11
98.6541169491
 21
169.6874445473
 31
0.0
  0
LINE
  5
282
330
1F
100
AcDbEntity
  8
0
  6
Continuous
 62
     7
370
    25
100
AcDbLine
 10
98.6541169491
 20
168.4874445473
 30
0.0
 11
98.3419756627
 21
168.4874445473
 31
0.0
  0
LINE
  5
283
330
1F
100
AcDbEntity
  8
0
  6
Continuous
 62
     7
370
    25
100
AcDbLine
 10
114.0595915853
 20
169.6874445473
 30
0.0
 11
114.3717328717
 21
169.6874445473
 31
0.0
  0
LINE
  5
284
330
1F
100
AcDbEntity
  8
0
  6
Continuous
 62
     7
370
    25
100
AcDbLine
 10
114.3717328717
 20
168.4874445473
 30
0.0
 11
114.0595915853
 21
168.4874445473
 31
0.0
  0
SPLINE
  5
285
330
1F
100
AcDbEntity
  8
0
  6
Continuous
 62
     7
370
    25
100
AcDbSpline
210
0.0
220
0.0
230
1.0
 70
     8
 71
     3
 72
    12
 73
     8
 74
     0
 42
0.000000001
 43
0.00000001
 40
0.0
 40
0.0
 40
0.0
 40
0.0
 40
0.194721953856357
 40
0.418776897176651
 40
0.6230742393895033
 40
0.8142730248046738
 40
1.0
 40
1.0
 40
1.0
 40
1.0
 10
114.3717328717075
 20
169.6874445473302
 30
0.0
 10
114.396546778649
 20
169.6892676665914
 30
0.0
 10
114.4499125689465
 20
169.6931885404955
 30
0.0
 10
114.5256040403048
 20
169.7269411869779
 30
0.0
 10
114.5887400867162
 20
169.7828847971902
 30
0.0
 10
114.6318447340035
 20
169.8553245792469
 30
0.0
 10
114.6375086265168
 20
169.9103374308004
 30
0.0
 10
114.6402994615679
 20
169.9374445473301
 30
0.0
  0
LINE
  5
286
330
1F
100
AcDbEntity
  8
0
  6
Continuous
 62
     7
370
    25
100
AcDbLine
 10
114.4414074679
 20
168.4874445473
 30
0.0
 11
114.3717328717
 21
168.4874445473
 31
0.0
  0
LINE
  5
287
330
1F
100
AcDbEntity
  8
0
  6
Continuous
 62
     7
370
    25
100
AcDbLine
 10
114.8888797947
 20
175.2874445473
 30
0.0
 11
115.6074857358
 21
175.2874445473
 31
0.0
  0
LINE
  5
288
330
1F
100
AcDbEntity
  8
0
  6
Continuous
 62
     7
370
    25
100
AcDbLine
 10
113.5579861962
 20
175.2874445473
 30
0.0
 11
114.8888797947
 21
175.2874445473
 31
0.0
  0
LINE
  5
289
330
1F
100
AcDbEntity
  8
0
  6
Continuous
 62
     7
370
    25
100
AcDbLine
 10
115.6074857358
 20
175.2874445473
 30
0.0
 11
115.6414074679
 21
175.2874445473
 31
0.0
  0
SPLINE
  5
28A
330
1F
100
AcDbEntity
  8
0
  6
Continuous
 62
     7
370
    25
100
AcDbSpline
210
0.0
220
0.0
230
1.0
 70
     8
 71
     3
 72
    12
 73
     8
 74
     0
 42
0.000000001
 43
0.00000001
 40
0.0
 40
0.0
 40
0.0
 40
0.0
 40
0.2028202020467468
 40
0.4049472449426764
 40
0.6098312030741482
 40
0.8226939241829178
 40
1.0
 40
1.0
 40
1.0
 40
1.0
 10
111.4190455974162
 20
169.4374445473299
 30
0.0
 10
111.4139819322034
 20
169.5945853878653
 30
0.0
 10
111.4038719073806
 20
169.9083300237578
 30
0.0
 10
111.3251377331855
 20
170.3287262742274
 30
0.0
 10
111.2074245530853
 20
170.6558048096669
 30
0.0
 10
111.0648543333078
 20
170.8540140759329
 30
0.0
 10
110.962723590388
 20
170.8769992818551
 30
0.0
 10
110.9163118798923
 20
170.8874445473299
 30
0.0
  0
LINE
  5
28B
330
1F
100
AcDbEntity
  8
0
  6
Continuous
 62
     7
370
    25
100
AcDbLine
 10
105.1667870584
 20
170.8874445473
 30
0.0
 11
110.9163118799
 21
170.8874445473
 31
0.0
  0
LINE
  5
28C
330
1F
100
AcDbEntity
  8
0
  6
Continuous
 62
     7
370
    25
100
AcDbLine
 10
111.2786623099
 20
164.0874445473
 30
0.0
 11
105.5291374884
 21
164.0874445473
 31
0.0
  0
ARC
  5
28D
330
1F
100
AcDbEntity
  8
0
  6
Continuous
 62
     7
370
    25
100
AcDbCircle
 10
105.5344693862
 20
164.3323352343
 30
0.0
 40
0.2449487245930559
100
AcDbArc
 50
178.8047975853
 51
268.7527211341
  0
SPLINE
  5
28E
330
1F
100
AcDbEntity
  8
0
  6
Continuous
 62
     7
370
    25
100
AcDbSpline
210
0.0
220
0.0
230
1.0
 70
     8
 71
     3
 72
    13
 73
     9
 74
     0
 42
0.000000001
 43
0.00000001
 40
0.0
 40
0.0
 40
0.0
 40
0.0
 40
0.0075462231145331
 40
0.2722763788516194
 40
0.481519541573005
 40
0.6613541616924946
 40
0.8304588949395093
 40
1.0
 40
1.0
 40
1.0
 40
1.0
 10
105.0752602388708
 20
169.6874445473302
 30
0.0
 10
105.0745773653934
 20
169.6874477313727
 30
0.0
 10
105.0499385076735
 20
169.687562615276
 30
0.0
 10
105.0059592507117
 20
169.699148274888
 30
0.0
 10
104.9519026263594
 20
169.7418670541606
 30
0.0
 10
104.9143143845475
 20
169.7975386572644
 30
0.0
 10
104.8894072159243
 20
169.8636744506454
 30
0.0
 10
104.886126827352
 20
169.9128334000436
 30
0.0
 10
104.8844845195465
 20
169.9374445473302
 30
0.0
  0
LINE
  5
28F
330
1F
100
AcDbEntity
  8
0
  6
Continuous
 62
     7
370
    25
100
AcDbLine
 10
105.0752602389
 20
169.6874445473
 30
0.0
 11
98.6541169491
 21
169.6874445473
 31
0.0
  0
LINE
  5
290
330
1F
100
AcDbEntity
  8
0
  6
Continuous
 62
     7
370
    25
100
AcDbLine
 10
98.3419756627
 20
169.6874445473
 30
0.0
 11
98.1634947304
 21
169.6874445473
 31
0.0
  0
SPLINE
  5
291
330
1F
100
AcDbEntity
  8
0
  6
Continuous
 62
     7
370
    25
100
AcDbSpline
210
0.0
220
0.0
230
1.0
 70
     8
 71
     3
 72
    13
 73
     9
 74
     0
 42
0.000000001
 43
0.00000001
 40
0.0
 40
0.0
 40
0.0
 40
0.0
 40
0.1695411050603763
 40
0.3386458383074193
 40
0.5184804584269227
 40
0.7277236211488177
 40
0.9924537768863051
 40
1.0
 40
1.0
 40
1.0
 40
1.0
 10
104.8844845195467
 20
170.6374445473303
 30
0.0
 10
104.8861268273522
 20
170.6620556946168
 30
0.0
 10
104.8894072159244
 20
170.7112146440151
 30
0.0
 10
104.9143143845471
 20
170.7773504373961
 30
0.0
 10
104.9519026263592
 20
170.8330220404999
 30
0.0
 10
105.005959250712
 20
170.8757408197724
 30
0.0
 10
105.0499385076726
 20
170.8873264793845
 30
0.0
 10
105.0745773653934
 20
170.8874413632877
 30
0.0
 10
105.0752602388708
 20
170.8874445473302
 30
0.0
  0
LINE
  5
292
330
1F
100
AcDbEntity
  8
0
  6
Continuous
 62
     7
370
    25
100
AcDbLine
 10
98.0748287397
 20
170.8874445473
 30
0.0
 11
105.0752602389
 21
170.8874445473
 31
0.0
  0
LINE
  5
293
330
1F
100
AcDbEntity
  8
0
  6
Continuous
 62
     7
370
    25
100
AcDbLine
 10
104.8844845195
 20
169.9374445473
 30
0.0
 11
104.8844845195
 21
170.6374445473
 31
0.0
  0
LINE
  5
294
330
1F
100
AcDbEntity
  8
0
  6
Continuous
 62
     7
370
    25
100
AcDbLine
 10
105.5291374884
 20
164.0874445473
 30
0.0
 11
105.3184261242
 21
164.0874445473
 31
0.0
  0
LINE
  5
295
330
1F
100
AcDbEntity
  8
0
  6
Continuous
 62
     7
370
    25
100
AcDbLine
 10
105.0752602389
 20
170.8874445473
 30
0.0
 11
105.1667870584
 21
170.8874445473
 31
0.0
  0
LINE
  5
296
330
1F
100
AcDbEntity
  8
0
  6
Continuous
 62
     7
370
    25
100
AcDbLine
 10
111.5286623099
 20
169.4374445473
 30
0.0
 11
111.4190455974
 21
169.4374445473
 31
0.0
  0
LINE
  5
297
330
1F
100
AcDbEntity
  8
0
  6
Continuous
 62
     7
370
    25
100
AcDbLine
 10
114.0595915853
 20
169.6874445473
 30
0.0
 11
111.4934088683
 21
169.6874445473
 31
0.0
  0
LINE
  5
298
330
1F
100
AcDbEntity
  8
0
  6
Continuous
 62
     7
370
    25
100
AcDbLine
 10
110.8247850604
 20
170.8874445473
 30
0.0
 11
114.1414074679
 21
170.8874445473
 31
0.0
  0
LINE
  5
299
330
1F
100
AcDbEntity
  8
0
  6
Continuous
 62
     7
370
    25
100
AcDbLine
 10
104.3042561043
 20
181.0908625599
 30
0.0
 11
105.5251553048
 21
181.2874445473
 31
0.0
  0
LINE
  5
29A
330
1F
100
AcDbEntity
  8
0
  6
Continuous
 62
     7
370
    25
100
AcDbLine
 10
108.7110551648
 20
181.2874445473
 30
0.0
 11
109.8513725885
 21
181.0908625599
 31
0.0
  0
LINE
  5
29B
330
1F
100
AcDbEntity
  8
0
  6
Continuous
 62
     7
370
    25
100
AcDbLine
 10
109.8513725885
 20
181.0908625599
 30
0.0
 11
109.8513725885
 21
176.7840265347
 31
0.0
  0
SPLINE
  5
29C
330
1F
100
AcDbEntity
  8
0
  6
Continuous
 62
     7
370
    25
100
AcDbSpline
210
0.0
220
0.0
230
1.0
 70
     8
 71
     3
 72
     9
 73
     5
 74
     0
 42
0.000000001
 43
0.00000001
 40
0.0
 40
0.0
 40
0.0
 40
0.0
 40
0.0702005767034937
 40
1.0
 40
1.0
 40
1.0
 40
1.0
 10
107.0778143464022
 20
176.3374445473302
 30
0.0
 10
107.1435640877126
 20
176.3378906635978
 30
0.0
 10
108.0801623949907
 20
176.3442455439782
 30
0.0
 10
108.9979832690934
 20
176.5721350258736
 30
0.0
 10
109.8513725885235
 20
176.7840265347154
 30
0.0
  0
LINE
  5
29D
330
1F
100
AcDbEntity
  8
0
  6
Continuous
 62
     7
370
    25
100
AcDbLine
 10
104.3042561043
 20
176.7840265347
 30
0.0
 11
107.0778143464
 21
176.3374445473
 31
0.0
  0
LINE
  5
29E
330
1F
100
AcDbEntity
  8
0
  6
Continuous
 62
     7
370
    25
100
AcDbLine
 10
104.3042561043
 20
181.0908625599
 30
0.0
 11
104.3042561043
 21
176.7840265347
 31
0.0
  0
SPLINE
  5
29F
330
1F
100
AcDbEntity
  8
0
  6
Continuous
 62
     7
370
    25
100
AcDbSpline
210
0.0
220
0.0
230
1.0
 70
     8
 71
     3
 72
     9
 73
     5
 74
     0
 42
0.000000001
 43
0.00000001
 40
0.0
 40
0.0
 40
0.0
 40
0.0
 40
0.2686336050554993
 40
0.9999999999999999
 40
0.9999999999999999
 40
0.9999999999999999
 40
0.9999999999999999
 10
102.2242735439827
 20
176.3374445473303
 30
0.0
 10
102.413402160452
 20
176.3440734999147
 30
0.0
 10
103.1174414649545
 20
176.368750057351
 30
0.0
 10
103.8029200804527
 20
176.608604820951
 30
0.0
 10
104.3042561042811
 20
176.7840265347154
 30
0.0
  0
LINE
  5
2A0
330
1F
100
AcDbEntity
  8
0
  6
Continuous
 62
     7
370
    25
100
AcDbLine
 10
107.0778143464
 20
176.3374445473
 30
0.0
 11
102.224273544
 21
176.3374445473
 31
0.0
  0
LINE
  5
2A1
330
1F
100
AcDbEntity
  8
0
  6
Continuous
 62
     7
370
    25
100
AcDbLine
 10
103.580432044
 20
181.2874445473
 30
0.0
 11
104.3042561043
 21
181.0908625599
 31
0.0
  0
LINE
  5
2A2
330
1F
100
AcDbEntity
  8
0
  6
Continuous
 62
     7
370
    25
100
AcDbLine
 10
109.8513725885
 20
176.7840265347
 30
0.0
 11
110.5449482703
 21
176.3374445473
 31
0.0
  0
LINE
  5
2A3
330
1F
100
AcDbEntity
  8
0
  6
Continuous
 62
     7
370
    25
100
AcDbLine
 10
110.5449482703
 20
176.3374445473
 30
0.0
 11
107.0778143464
 21
176.3374445473
 31
0.0
  0
LINE
  5
2A4
330
1F
100
AcDbEntity
  8
0
  6
Continuous
 62
     7
370
    25
100
AcDbLine
 10
109.8513725885
 20
181.0908625599
 30
0.0
 11
110.1566793178
 21
181.2874445473
 31
0.0
  0
SPLINE
  5
2A5
330
1F
100
AcDbEntity
  8
0
  6
Continuous
 62
     7
370
    25
100
AcDbSpline
210
0.0
220
0.0
230
1.0
 70
     8
 71
     3
 72
     9
 73
     5
 74
     0
 42
0.000000001
 43
0.00000001
 40
0.0
 40
0.0
 40
0.0
 40
0.0
 40
0.9250528693650412
 40
1.0
 40
1.0
 40
1.0
 40
1.0
 10
100.1442909836837
 20
181.0908625599451
 30
0.0
 10
100.3173962313639
 20
181.1694162727105
 30
0.0
 10
100.504526344045
 20
181.2543343518462
 30
0.0
 10
100.6990068953753
 20
181.2851360485416
 30
0.0
 10
100.7135826546618
 20
181.2874445473276
 30
0.0
  0
SPLINE
  5
2A6
330
1F
100
AcDbEntity
  8
0
  6
Continuous
 62
     7
370
    25
100
AcDbSpline
210
0.0
220
0.0
230
1.0
 70
     8
 71
     3
 72
     9
 73
     5
 74
     0
 42
0.000000001
 43
0.00000001
 40
0.0
 40
0.0
 40
0.0
 40
0.0
 40
0.2575513451038052
 40
1.0
 40
1.0
 40
1.0
 40
1.0
 10
100.1442909836839
 20
176.7840265347155
 30
0.0
 10
100.3189091334398
 20
176.7166113119406
 30
0.0
 10
100.9969026794861
 20
176.4548568149967
 30
0.0
 10
101.701296958794
 20
176.387473327204
 30
0.0
 10
102.2242735439827
 20
176.3374445473303
 30
0.0
  0
LINE
  5
2A7
330
1F
100
AcDbEntity
  8
0
  6
Continuous
 62
     7
370
    25
100
AcDbLine
 10
100.1442909837
 20
181.0908625599
 30
0.0
 11
100.1442909837
 21
176.7840265347
 31
0.0
  0
LINE
  5
2A8
330
1F
100
AcDbEntity
  8
0
  6
Continuous
 62
     7
370
    25
100
AcDbLine
 10
111.2385239522
 20
181.0908625599
 30
0.0
 11
111.2385239522
 21
176.7840265347
 31
0.0
  0
SPLINE
  5
2A9
330
1F
100
AcDbEntity
  8
0
  6
Continuous
 62
     7
370
    25
100
AcDbSpline
210
0.0
220
0.0
230
1.0
 70
     8
 71
     3
 72
     9
 73
     5
 74
     0
 42
0.000000001
 43
0.00000001
 40
0.0
 40
0.0
 40
0.0
 40
0.0
 40
0.0702005767034498
 40
1.0
 40
1.0
 40
1.0
 40
1.0
 10
110.5449482703462
 20
176.3374445473302
 30
0.0
 10
110.5613901178497
 20
176.3378906635978
 30
0.0
 10
110.7956025456604
 20
176.3442455439782
 30
0.0
 10
111.0251193551076
 20
176.5721350258736
 30
0.0
 10
111.2385239521686
 20
176.7840265347154
 30
0.0
  0
LINE
  5
2AA
330
1F
100
AcDbEntity
  8
0
  6
Continuous
 62
     7
370
    25
100
AcDbLine
 10
100.540972797
 20
176.5105603173
 30
0.0
 11
100.1442909837
 21
176.7840265347
 31
0.0
  0
LINE
  5
2AB
330
1F
100
AcDbEntity
  8
0
  6
Continuous
 62
     7
370
    25
100
AcDbLine
 10
102.224273544
 20
176.3374445473
 30
0.0
 11
100.6914074679
 21
176.3374445473
 31
0.0
  0
LINE
  5
2AC
330
1F
100
AcDbEntity
  8
0
  6
Continuous
 62
     7
370
    25
100
AcDbLine
 10
110.6914074679
 20
176.3374445473
 30
0.0
 11
110.5449482703
 21
176.3374445473
 31
0.0
  0
LINE
  5
2AD
330
1F
100
AcDbEntity
  8
0
  6
Continuous
 62
     7
370
    25
100
AcDbLine
 10
107.1377042363
 20
175.6408625599
 30
0.0
 11
109.1964176946
 21
176.0874445473
 31
0.0
  0
SPLINE
  5
2AE
330
1F
100
AcDbEntity
  8
0
  6
Continuous
 62
     7
370
    25
100
AcDbSpline
210
0.0
220
0.0
230
1.0
 70
     8
 71
     3
 72
     9
 73
     5
 74
     0
 42
0.000000001
 43
0.00000001
 40
0.0
 40
0.0
 40
0.0
 40
0.0
 40
0.0702005767035261
 40
0.9999999999999999
 40
0.9999999999999999
 40
0.9999999999999999
 40
0.9999999999999999
 10
109.1964176946255
 20
176.0874445473302
 30
0.0
 10
109.2452213848682
 20
176.0869984310626
 30
0.0
 10
109.9404249363845
 20
176.0806435506822
 30
0.0
 10
110.6216906683132
 20
175.8527540687868
 30
0.0
 10
111.255131152972
 20
175.640862559945
 30
0.0
  0
LINE
  5
2AF
330
1F
100
AcDbEntity
  8
0
  6
Continuous
 62
     7
370
    25
100
AcDbLine
 10
111.255131153
 20
175.6408625599
 30
0.0
 11
111.255131153
 21
171.3340265347
 31
0.0
  0
SPLINE
  5
2B0
330
1F
100
AcDbEntity
  8
0
  6
Continuous
 62
     7
370
    25
100
AcDbSpline
210
0.0
220
0.0
230
1.0
 70
     8
 71
     3
 72
     9
 73
     5
 74
     0
 42
0.000000001
 43
0.00000001
 40
0.0
 40
0.0
 40
0.0
 40
0.0
 40
0.0702005767034409
 40
1.0
 40
1.0
 40
1.0
 40
1.0
 10
109.1964176946257
 20
170.8874445473302
 30
0.0
 10
109.2452213848684
 20
170.8878906635978
 30
0.0
 10
109.9404249363841
 20
170.8942455439782
 30
0.0
 10
110.6216906683131
 20
171.1221350258736
 30
0.0
 10
111.2551311529724
 20
171.3340265347153
 30
0.0
  0
LINE
  5
2B1
330
1F
100
AcDbEntity
  8
0
  6
Continuous
 62
     7
370
    25
100
AcDbLine
 10
107.1377042363
 20
171.3340265347
 30
0.0
 11
109.1964176946
 21
170.8874445473
 31
0.0
  0
LINE
  5
2B2
330
1F
100
AcDbEntity
  8
0
  6
Continuous
 62
     7
370
    25
100
AcDbLine
 10
107.1377042363
 20
175.6408625599
 30
0.0
 11
107.1377042363
 21
171.3340265347
 31
0.0
  0
SPLINE
  5
2B3
330
1F
100
AcDbEntity
  8
0
  6
Continuous
 62
     7
370
    25
100
AcDbSpline
210
0.0
220
0.0
230
1.0
 70
     8
 71
     3
 72
     9
 73
     5
 74
     0
 42
0.000000001
 43
0.00000001
 40
0.0
 40
0.0
 40
0.0
 40
0.0
 40
0.2686336050555287
 40
1.0
 40
1.0
 40
1.0
 40
1.0
 10
104.3558423937562
 20
176.0874445473302
 30
0.0
 10
104.6087914768531
 20
176.0808155947458
 30
0.0
 10
105.550405177956
 20
176.0561390373094
 30
0.0
 10
106.4671949822157
 20
175.8162842737094
 30
0.0
 10
107.137704236279
 20
175.640862559945
 30
0.0
  0
LINE
  5
2B4
330
1F
100
AcDbEntity
  8
0
  6
Continuous
 62
     7
370
    25
100
AcDbLine
 10
104.3558423938
 20
176.0874445473
 30
0.0
 11
109.1964176946
 21
176.0874445473
 31
0.0
  0
SPLINE
  5
2B5
330
1F
100
AcDbEntity
  8
0
  6
Continuous
 62
     7
370
    25
100
AcDbSpline
210
0.0
220
0.0
230
1.0
 70
     8
 71
     3
 72
     9
 73
     5
 74
     0
 42
0.000000001
 43
0.00000001
 40
0.0
 40
0.0
 40
0.0
 40
0.0
 40
0.2686336050555039
 40
1.0
 40
1.0
 40
1.0
 40
1.0
 10
104.3558423937563
 20
170.8874445473302
 30
0.0
 10
104.6087914768533
 20
170.8940734999147
 30
0.0
 10
105.5504051779562
 20
170.918750057351
 30
0.0
 10
106.4671949822159
 20
171.158604820951
 30
0.0
 10
107.1377042362793
 20
171.3340265347154
 30
0.0
  0
SPLINE
  5
2B6
330
1F
100
AcDbEntity
  8
0
  6
Continuous
 62
     7
370
    25
100
AcDbSpline
210
0.0
220
0.0
230
1.0
 70
     8
 71
     3
 72
     9
 73
     5
 74
     0
 42
0.000000001
 43
0.00000001
 40
0.0
 40
0.0
 40
0.0
 40
0.0
 40
0.2575513451038077
 40
0.9999999999999999
 40
0.9999999999999999
 40
0.9999999999999999
 40
0.9999999999999999
 10
101.5739805512329
 20
175.640862559945
 30
0.0
 10
101.8075226861959
 20
175.7082777827199
 30
0.0
 10
102.7143016232997
 20
175.9700322796639
 30
0.0
 10
103.6563900836075
 20
176.0374157674564
 30
0.0
 10
104.3558423937562
 20
176.0874445473302
 30
0.0
  0
SPLINE
  5
2B7
330
1F
100
AcDbEntity
  8
0
  6
Continuous
 62
     7
370
    25
100
AcDbSpline
210
0.0
220
0.0
230
1.0
 70
     8
 71
     3
 72
     9
 73
     5
 74
     0
 42
0.000000001
 43
0.00000001
 40
0.0
 40
0.0
 40
0.0
 40
0.0
 40
0.2575513451038325
 40
0.9999999999999999
 40
0.9999999999999999
 40
0.9999999999999999
 40
0.9999999999999999
 10
101.5739805512331
 20
171.3340265347155
 30
0.0
 10
101.807522686196
 20
171.2666113119406
 30
0.0
 10
102.7143016233001
 20
171.0048568149967
 30
0.0
 10
103.6563900836077
 20
170.9374733272041
 30
0.0
 10
104.3558423937563
 20
170.8874445473302
 30
0.0
  0
LINE
  5
2B8
330
1F
100
AcDbEntity
  8
0
  6
Continuous
 62
     7
370
    25
100
AcDbLine
 10
101.5739805512
 20
175.6408625599
 30
0.0
 11
101.5739805512
 21
171.3340265347
 31
0.0
  0
SPLINE
  5
2B9
330
1F
100
AcDbEntity
  8
0
  6
Continuous
 62
     7
370
    25
100
AcDbSpline
210
0.0
220
0.0
230
1.0
 70
     8
 71
     3
 72
     9
 73
     5
 74
     0
 42
0.000000001
 43
0.00000001
 40
0.0
 40
0.0
 40
0.0
 40
0.0
 40
0.0702005767034125
 40
1.0
 40
1.0
 40
1.0
 40
1.0
 10
100.8508321670565
 20
176.0874445473303
 30
0.0
 10
100.8679750625857
 20
176.0869984310627
 30
0.0
 10
101.1121738474698
 20
176.0806435506823
 30
0.0
 10
101.3514768020609
 20
175.8527540687868
 30
0.0
 10
101.5739805512329
 20
175.640862559945
 30
0.0
  0
LINE
  5
2BA
330
1F
100
AcDbEntity
  8
0
  6
Continuous
 62
     7
370
    25
100
AcDbLine
 10
100.8508321671
 20
176.0874445473
 30
0.0
 11
104.3558423938
 21
176.0874445473
 31
0.0
  0
SPLINE
  5
2BB
330
1F
100
AcDbEntity
  8
0
  6
Continuous
 62
     7
370
    25
100
AcDbSpline
210
0.0
220
0.0
230
1.0
 70
     8
 71
     3
 72
     9
 73
     5
 74
     0
 42
0.000000001
 43
0.00000001
 40
0.0
 40
0.0
 40
0.0
 40
0.0
 40
0.0702005767034581
 40
1.0
 40
1.0
 40
1.0
 40
1.0
 10
100.8508321670566
 20
170.8874445473302
 30
0.0
 10
100.8679750625857
 20
170.8878906635978
 30
0.0
 10
101.1121738474708
 20
170.8942455439782
 30
0.0
 10
101.3514768020615
 20
171.1221350258737
 30
0.0
 10
101.5739805512331
 20
171.3340265347155
 30
0.0
  0
LINE
  5
2BC
330
1F
100
AcDbEntity
  8
0
  6
Continuous
 62
     7
370
    25
100
AcDbLine
 10
100.1276837829
 20
175.6408625599
 30
0.0
 11
100.8508321671
 21
176.0874445473
 31
0.0
  0
LINE
  5
2BD
330
1F
100
AcDbEntity
  8
0
  6
Continuous
 62
     7
370
    25
100
AcDbLine
 10
100.1276837829
 20
171.3340265347
 30
0.0
 11
100.5269442091
 21
171.0874623184
 31
0.0
  0
LINE
  5
2BE
330
1F
100
AcDbEntity
  8
0
  6
Continuous
 62
     7
370
    25
100
AcDbLine
 10
100.1276837829
 20
175.6408625599
 30
0.0
 11
100.1276837829
 21
171.3340265347
 31
0.0
  0
LINE
  5
2BF
330
1F
100
AcDbEntity
  8
0
  6
Continuous
 62
     7
370
    25
100
AcDbLine
 10
111.255131153
 20
171.3340265347
 30
0.0
 11
110.8558707268
 21
171.0874623184
 31
0.0
  0
LINE
  5
2C0
330
1F
100
AcDbEntity
  8
0
  6
Continuous
 62
     7
370
    25
100
AcDbLine
 10
111.255131153
 20
175.6408625599
 30
0.0
 11
110.8558707268
 21
175.8874267762
 31
0.0
  0
LINE
  5
2C1
330
1F
100
AcDbEntity
  8
0
  6
Continuous
 62
     7
370
    25
100
AcDbLine
 10
109.1964176946
 20
176.0874445473
 30
0.0
 11
110.6914074679
 21
176.0874445473
 31
0.0
  0
LINE
  5
2C2
330
1F
100
AcDbEntity
  8
0
  6
Continuous
 62
     7
370
    25
100
AcDbLine
 10
100.6914074679
 20
176.0874445473
 30
0.0
 11
100.8508321671
 21
176.0874445473
 31
0.0
  0
LINE
  5
2C3
330
1F
100
AcDbEntity
  8
0
  6
Continuous
 62
     7
370
    25
100
AcDbLine
 10
99.9312701108
 20
168.0408625599
 30
0.0
 11
101.5413141706
 21
168.4874445473
 31
0.0
  0
SPLINE
  5
2C4
330
1F
100
AcDbEntity
  8
0
  6
Continuous
 62
     7
370
    25
100
AcDbSpline
210
0.0
220
0.0
230
1.0
 70
     8
 71
     3
 72
     9
 73
     5
 74
     0
 42
0.000000001
 43
0.00000001
 40
0.0
 40
0.0
 40
0.0
 40
0.0
 40
0.0702005767034
 40
1.0
 40
1.0
 40
1.0
 40
1.0
 10
101.5413141706474
 20
168.4874445473302
 30
0.0
 10
101.5794817413965
 20
168.4869984310626
 30
0.0
 10
102.1231748638955
 20
168.4806435506822
 30
0.0
 10
102.6559677304392
 20
168.2527540687868
 30
0.0
 10
103.151358230488
 20
168.0408625599451
 30
0.0
  0
LINE
  5
2C5
330
1F
100
AcDbEntity
  8
0
  6
Continuous
 62
     7
370
    25
100
AcDbLine
 10
103.1513582305
 20
168.0408625599
 30
0.0
 11
103.1513582305
 21
163.7340265347
 31
0.0
  0
SPLINE
  5
2C6
330
1F
100
AcDbEntity
  8
0
  6
Continuous
 62
     7
370
    25
100
AcDbSpline
210
0.0
220
0.0
230
1.0
 70
     8
 71
     3
 72
     9
 73
     5
 74
     0
 42
0.000000001
 43
0.00000001
 40
0.0
 40
0.0
 40
0.0
 40
0.0
 40
0.0702005767034618
 40
1.0
 40
1.0
 40
1.0
 40
1.0
 10
101.5413141706475
 20
163.2874445473302
 30
0.0
 10
101.5794817413966
 20
163.2878906635978
 30
0.0
 10
102.1231748638955
 20
163.2942455439782
 30
0.0
 10
102.6559677304393
 20
163.5221350258736
 30
0.0
 10
103.1513582304881
 20
163.7340265347154
 30
0.0
  0
LINE
  5
2C7
330
1F
100
AcDbEntity
  8
0
  6
Continuous
 62
     7
370
    25
100
AcDbLine
 10
99.9312701108
 20
163.7340265347
 30
0.0
 11
101.5413141706
 21
163.2874445473
 31
0.0
  0
LINE
  5
2C8
330
1F
100
AcDbEntity
  8
0
  6
Continuous
 62
     7
370
    25
100
AcDbLine
 10
99.9312701108
 20
168.0408625599
 30
0.0
 11
99.9312701108
 21
163.7340265347
 31
0.0
  0
SPLINE
  5
2C9
330
1F
100
AcDbEntity
  8
0
  6
Continuous
 62
     7
370
    25
100
AcDbSpline
210
0.0
220
0.0
230
1.0
 70
     8
 71
     3
 72
     9
 73
     5
 74
     0
 42
0.000000001
 43
0.00000001
 40
0.0
 40
0.0
 40
0.0
 40
0.0
 40
0.3856687079100873
 40
1.0
 40
1.0
 40
1.0
 40
1.0
 10
103.151358230488
 20
168.0408625599451
 30
0.0
 10
103.3927429225309
 20
168.1104156564346
 30
0.0
 10
104.0186290447185
 20
168.290759809494
 30
0.0
 10
104.6689274590942
 20
168.3413021045614
 30
0.0
 10
105.0684261242416
 20
168.3723518179954
 30
0.0
  0
SPLINE
  5
2CA
330
1F
100
AcDbEntity
  8
0
  6
Continuous
 62
     7
370
    25
100
AcDbSpline
210
0.0
220
0.0
230
1.0
 70
     8
 71
     3
 72
     9
 73
     5
 74
     0
 42
0.000000001
 43
0.00000001
 40
0.0
 40
0.0
 40
0.0
 40
0.0
 40
0.2575513451038264
 40
1.0
 40
1.0
 40
1.0
 40
1.0
 10
103.1513582304882
 20
163.7340265347154
 30
0.0
 10
103.3931449999636
 20
163.6666113119406
 30
0.0
 10
104.3319355521072
 20
163.4048568149966
 30
0.0
 10
105.3072821439078
 20
163.3374733272041
 30
0.0
 10
106.0314269090477
 20
163.2874445473302
 30
0.0
  0
LINE
  5
2CB
330
1F
100
AcDbEntity
  8
0
  6
Continuous
 62
     7
370
    25
100
AcDbLine
 10
106.031426909
 20
163.2874445473
 30
0.0
 11
101.5413141706
 21
163.2874445473
 31
0.0
  0
LINE
  5
2CC
330
1F
100
AcDbEntity
  8
0
  6
Continuous
 62
     7
370
    25
100
AcDbLine
 10
108.9114955876
 20
164.0874445473
 30
0.0
 11
108.9114955876
 21
163.7340265347
 31
0.0
  0
SPLINE
  5
2CD
330
1F
100
AcDbEntity
  8
0
  6
Continuous
 62
     7
370
    25
100
AcDbSpline
210
0.0
220
0.0
230
1.0
 70
     8
 71
     3
 72
     9
 73
     5
 74
     0
 42
0.000000001
 43
0.00000001
 40
0.0
 40
0.0
 40
0.0
 40
0.0
 40
0.2686336050555039
 40
1.0
 40
1.0
 40
1.0
 40
1.0
 10
106.0314269090477
 20
163.2874445473302
 30
0.0
 10
106.2933057415484
 20
163.2940734999147
 30
0.0
 10
107.2681608139301
 20
163.318750057351
 30
0.0
 10
108.2173156424376
 20
163.558604820951
 30
0.0
 10
108.9114955876072
 20
163.7340265347154
 30
0.0
  0
LINE
  5
2CE
330
1F
100
AcDbEntity
  8
0
  6
Continuous
 62
     7
370
    25
100
AcDbLine
 10
108.9114955876
 20
163.7340265347
 30
0.0
 11
110.1815202063
 21
163.2874445473
 31
0.0
  0
LINE
  5
2CF
330
1F
100
AcDbEntity
  8
0
  6
Continuous
 62
     7
370
    25
100
AcDbLine
 10
110.1815202063
 20
163.2874445473
 30
0.0
 11
106.031426909
 21
163.2874445473
 31
0.0
  0
LINE
  5
2D0
330
1F
100
AcDbEntity
  8
0
  6
Continuous
 62
     7
370
    25
100
AcDbLine
 10
111.451544825
 20
164.1568576265
 30
0.0
 11
111.451544825
 21
163.7340265347
 31
0.0
  0
SPLINE
  5
2D1
330
1F
100
AcDbEntity
  8
0
  6
Continuous
 62
     7
370
    25
100
AcDbSpline
210
0.0
220
0.0
230
1.0
 70
     8
 71
     3
 72
     9
 73
     5
 74
     0
 42
0.000000001
 43
0.00000001
 40
0.0
 40
0.0
 40
0.0
 40
0.0
 40
0.0702005767034732
 40
1.0
 40
1.0
 40
1.0
 40
1.0
 10
110.1815202063261
 20
163.2874445473302
 30
0.0
 10
110.2116273044466
 20
163.2878906635978
 30
0.0
 10
110.6404998227983
 20
163.2942455439781
 30
0.0
 10
111.0607740712283
 20
163.5221350258736
 30
0.0
 10
111.4515448250452
 20
163.7340265347154
 30
0.0
  0
LINE
  5
2D2
330
1F
100
AcDbEntity
  8
0
  6
Continuous
 62
     7
370
    25
100
AcDbLine
 10
100.1219545734
 20
168.1126516451
 30
0.0
 11
99.9312701108
 21
168.0408625599
 31
0.0
  0
LINE
  5
2D3
330
1F
100
AcDbEntity
  8
0
  6
Continuous
 62
     7
370
    25
100
AcDbLine
 10
100.1219545734
 20
163.6622374496
 30
0.0
 11
99.9312701108
 21
163.7340265347
 31
0.0
  0
LINE
  5
2D4
330
1F
100
AcDbEntity
  8
0
  6
Continuous
 62
     7
370
    25
100
AcDbLine
 10
101.5413141706
 20
163.2874445473
 30
0.0
 11
100.6914074679
 21
163.2874445473
 31
0.0
  0
LINE
  5
2D5
330
1F
100
AcDbEntity
  8
0
  6
Continuous
 62
     7
370
    25
100
AcDbLine
 10
110.6914074679
 20
163.2874445473
 30
0.0
 11
110.1815202063
 21
163.2874445473
 31
0.0
  0
LWPOLYLINE
  5
2D6
330
1F
100
AcDbEntity
  8
0
  6
Continuous
 62
     7
370
    25
100
AcDbPolyline
 90
        3
 70
   128
 43
0.0
 10
838.4097722476
 20
182.9165574821
 10
838.5395045068
 20
183.0393475085
 10
838.6257346969
 20
183.1289419629
  0
LINE
  5
2D7
330
1F
100
AcDbEntity
  8
0
  6
Continuous
 62
     7
370
    25
100
AcDbLine
 10
779.2914074679
 20
13.2874445473
 30
0.0
 11
726.2914074679
 21
13.2874445473
 31
0.0
  0
LINE
  5
2D8
330
1F
100
AcDbEntity
  8
0
  6
Continuous
 62
     7
370
    25
100
AcDbLine
 10
781.2914074679
 20
19.2874445473
 30
0.0
 11
724.2914074679
 21
19.2874445473
 31
0.0
  0
LINE
  5
2D9
330
1F
100
AcDbEntity
  8
0
  6
Continuous
 62
     7
370
    25
100
AcDbLine
 10
173.7914074679
 20
19.2874445473
 30
0.0
 11
145.2914074679
 21
19.2874445473
 31
0.0
  0
LINE
  5
2DA
330
1F
100
AcDbEntity
  8
0
  6
Continuous
 62
     7
370
    25
100
AcDbLine
 10
202.2914074679
 20
19.2874445473
 30
0.0
 11
173.7914074679
 21
19.2874445473
 31
0.0
  0
LINE
  5
2DB
330
1F
100
AcDbEntity
  8
0
  6
Continuous
 62
     7
370
    25
100
AcDbLine
 10
173.7914074679
 20
13.2874445473
 30
0.0
 11
147.2914074679
 21
13.2874445473
 31
0.0
  0
LINE
  5
2DC
330
1F
100
AcDbEntity
  8
0
  6
Continuous
 62
     7
370
    25
100
AcDbLine
 10
200.2914074679
 20
13.2874445473
 30
0.0
 11
173.7914074679
 21
13.2874445473
 31
0.0
  0
LINE
  5
2DD
330
1F
100
AcDbEntity
  8
0
  6
Continuous
 62
     7
370
    25
100
AcDbLine
 10
783.7510576883
 20
87.2874445473
 30
0.0
 11
721.8317572476
 21
87.2874445473
 31
0.0
  0
LINE
  5
2DE
330
1F
100
AcDbEntity
  8
0
  6
Continuous
 62
     7
370
    25
100
AcDbLine
 10
173.7914074679
 20
87.2874445473
 30
0.0
 11
142.8317572476
 21
87.2874445473
 31
0.0
  0
LINE
  5
2DF
330
1F
100
AcDbEntity
  8
0
  6
Continuous
 62
     7
370
    25
100
AcDbLine
 10
204.7510576883
 20
87.2874445473
 30
0.0
 11
173.7914074679
 21
87.2874445473
 31
0.0
  0
ENDSEC
  0
SECTION
  2
OBJECTS
  0
DICTIONARY
  5
C
330
0
100
AcDbDictionary
281
     1
  3
ACAD_GROUP
350
D
  3
ACAD_LAYOUT
350
1A
  3
ACAD_MLINESTYLE
350
17
  3
ACAD_PLOTSETTINGS
350
19
  3
ACAD_PLOTSTYLENAME
350
E
  3
ACAD_SCALELIST
350
47
  0
DICTIONARY
  5
D
102
{ACAD_REACTORS
330
C
102
}
330
C
100
AcDbDictionary
281
     1
  0
DICTIONARY
  5
1A
102
{ACAD_REACTORS
330
C
102
}
330
C
100
AcDbDictionary
281
     1
  3
Layout1
350
1E
  3
Layout2
350
26
  3
Model
350
22
  0
DICTIONARY
  5
17
102
{ACAD_REACTORS
330
C
102
}
330
C
100
AcDbDictionary
281
     1
  3
Standard
350
18
  0
DICTIONARY
  5
19
102
{ACAD_REACTORS
330
C
102
}
330
C
100
AcDbDictionary
281
     1
  0
ACDBDICTIONARYWDFLT
  5
E
102
{ACAD_REACTORS
330
C
102
}
330
C
100
AcDbDictionary
281
     1
  3
Normal
350
F
100
AcDbDictionaryWithDefault
340
F
  0
DICTIONARY
  5
47
102
{ACAD_REACTORS
330
C
102
}
330
C
100
AcDbDictionary
281
     1
  3
A0
350
48
  3
A1
350
49
  3
A2
350
4A
  3
A3
350
4B
  3
A4
350
4C
  3
A5
350
4D
  3
A6
350
4E
  3
A7
350
4F
  3
A8
350
50
  3
A9
350
51
  3
B0
350
52
  3
B1
350
53
  3
B2
350
54
  3
B3
350
55
  3
B4
350
56
  3
B5
350
57
  3
B6
350
58
  3
B7
350
59
  3
B8
350
5A
  3
B9
350
5B
  3
C0
350
5C
  3
C1
350
5D
  3
C2
350
5E
  3
C3
350
5F
  3
C4
350
60
  3
C5
350
61
  3
C6
350
62
  3
C7
350
63
  3
C8
350
64
  3
C9
350
65
  3
D0
350
66
  3
D1
350
67
  3
D2
350
68
  0
LAYOUT
  5
1E
102
{ACAD_REACTORS
330
1A
102
}
330
1A
100
AcDbPlotSettings
  1

  2
none_device
  4

  6

 40
0.0
 41
0.0
 42
0.0
 43
0.0
 44
0.0
 45
0.0
 46
0.0
 47
0.0
 48
0.0
 49
0.0
140
0.0
141
0.0
142
1.0
143
1.0
 70
   688
 72
     1
 73
     0
 74
     5
  7

 75
    16
147
1.0
148
0.0
149
0.0
100
AcDbLayout
  1
Layout1
 70
     1
 71
     1
 10
0.0
 20
0.0
 11
420.0
 21
297.0
 12
0.0
 22
0.0
 32
0.0
 14
1.0000000000E+20
 24
1.0000000000E+20
 34
1.0000000000E+20
 15
-1.0000000000E+20
 25
-1.0000000000E+20
 35
-1.0000000000E+20
146
0.0
 13
0.0
 23
0.0
 33
0.0
 16
1.0
 26
0.0
 36
0.0
 17
0.0
 27
1.0
 37
0.0
 76
     0
330
1B
  0
LAYOUT
  5
26
102
{ACAD_REACTORS
330
1A
102
}
330
1A
100
AcDbPlotSettings
  1

  2
none_device
  4

  6

 40
0.0
 41
0.0
 42
0.0
 43
0.0
 44
0.0
 45
0.0
 46
0.0
 47
0.0
 48
0.0
 49
0.0
140
0.0
141
0.0
142
1.0
143
1.0
 70
   688
 72
     1
 73
     0
 74
     5
  7

 75
    16
147
1.0
148
0.0
149
0.0
100
AcDbLayout
  1
Layout2
 70
     1
 71
     2
 10
0.0
 20
0.0
 11
0.0
 21
0.0
 12
0.0
 22
0.0
 32
0.0
 14
0.0
 24
0.0
 34
0.0
 15
0.0
 25
0.0
 35
0.0
146
0.0
 13
0.0
 23
0.0
 33
0.0
 16
1.0
 26
0.0
 36
0.0
 17
0.0
 27
1.0
 37
0.0
 76
     0
330
23
  0
LAYOUT
  5
22
102
{ACAD_REACTORS
330
1A
102
}
330
1A
100
AcDbPlotSettings
  1

  2
none_device
  4
Letter_(8.50_x_11.00_Inches)
  6

 40
6.35
 41
6.35
 42
6.35000508
 43
6.35000508
 44
215.9
 45
279.4
 46
0.0
 47
0.0
 48
0.0
 49
0.0
140
0.0
141
0.0
142
1.0
143
1.0
 70
  1712
 72
     1
 73
     0
 74
     0
  7

 75
     0
147
1.0
148
0.0
149
0.0
100
AcDbLayout
  1
Model
 70
     1
 71
     0
 10
0.0
 20
0.0
 11
950.0
 21
950.0
 12
0.0
 22
0.0
 32
0.0
 14
0.0
 24
0.0
 34
0.0
 15
950.0
 25
950.0
 35
0.0
146
0.0
 13
0.0
 23
0.0
 33
0.0
 16
1.0
 26
0.0
 36
0.0
 17
0.0
 27
1.0
 37
0.0
 76
     0
330
1F
331
29
  0
MLINESTYLE
  5
18
102
{ACAD_REACTORS
330
17
102
}
330
17
100
AcDbMlineStyle
  2
Standard
 70
     0
  3

 62
   256
 51
90.0
 52
90.0
 71
     2
 49
0.5
 62
   256
  6
BYLAYER
 49
-0.5
 62
   256
  6
BYLAYER
  0
ACDBPLACEHOLDER
  5
F
102
{ACAD_REACTORS
330
E
102
}
330
E
  0
SCALE
  5
48
102
{ACAD_REACTORS
330
47
102
}
330
47
100
AcDbScale
 70
     0
300
1:1
140
1.0
141
1.0
290
     1
  0
SCALE
  5
49
102
{ACAD_REACTORS
330
47
102
}
330
47
100
AcDbScale
 70
     0
300
1:2
140
1.0
141
2.0
290
     0
  0
SCALE
  5
4A
102
{ACAD_REACTORS
330
47
102
}
330
47
100
AcDbScale
 70
     0
300
1:4
140
1.0
141
4.0
290
     0
  0
SCALE
  5
4B
102
{ACAD_REACTORS
330
47
102
}
330
47
100
AcDbScale
 70
     0
300
1:5
140
1.0
141
5.0
290
     0
  0
SCALE
  5
4C
102
{ACAD_REACTORS
330
47
102
}
330
47
100
AcDbScale
 70
     0
300
1:8
140
1.0
141
8.0
290
     0
  0
SCALE
  5
4D
102
{ACAD_REACTORS
330
47
102
}
330
47
100
AcDbScale
 70
     0
300
1:10
140
1.0
141
10.0
290
     0
  0
SCALE
  5
4E
102
{ACAD_REACTORS
330
47
102
}
330
47
100
AcDbScale
 70
     0
300
1:16
140
1.0
141
16.0
290
     0
  0
SCALE
  5
4F
102
{ACAD_REACTORS
330
47
102
}
330
47
100
AcDbScale
 70
     0
300
1:20
140
1.0
141
20.0
290
     0
  0
SCALE
  5
50
102
{ACAD_REACTORS
330
47
102
}
330
47
100
AcDbScale
 70
     0
300
1:30
140
1.0
141
30.0
290
     0
  0
SCALE
  5
51
102
{ACAD_REACTORS
330
47
102
}
330
47
100
AcDbScale
 70
     0
300
1:40
140
1.0
141
40.0
290
     0
  0
SCALE
  5
52
102
{ACAD_REACTORS
330
47
102
}
330
47
100
AcDbScale
 70
     0
300
1:50
140
1.0
141
50.0
290
     0
  0
SCALE
  5
53
102
{ACAD_REACTORS
330
47
102
}
330
47
100
AcDbScale
 70
     0
300
1:100
140
1.0
141
100.0
290
     0
  0
SCALE
  5
54
102
{ACAD_REACTORS
330
47
102
}
330
47
100
AcDbScale
 70
     0
300
2:1
140
2.0
141
1.0
290
     0
  0
SCALE
  5
55
102
{ACAD_REACTORS
330
47
102
}
330
47
100
AcDbScale
 70
     0
300
4:1
140
4.0
141
1.0
290
     0
  0
SCALE
  5
56
102
{ACAD_REACTORS
330
47
102
}
330
47
100
AcDbScale
 70
     0
300
8:1
140
8.0
141
1.0
290
     0
  0
SCALE
  5
57
102
{ACAD_REACTORS
330
47
102
}
330
47
100
AcDbScale
 70
     0
300
10:1
140
10.0
141
1.0
290
     0
  0
SCALE
  5
58
102
{ACAD_REACTORS
330
47
102
}
330
47
100
AcDbScale
 70
     0
300
100:1
140
100.0
141
1.0
290
     0
  0
SCALE
  5
59
102
{ACAD_REACTORS
330
47
102
}
330
47
100
AcDbScale
 70
     0
300
1/128" = 1'-0"
140
0.0078125
141
12.0
290
     0
  0
SCALE
  5
5A
102
{ACAD_REACTORS
330
47
102
}
330
47
100
AcDbScale
 70
     0
300
1/64" = 1'-0"
140
0.015625
141
12.0
290
     0
  0
SCALE
  5
5B
102
{ACAD_REACTORS
330
47
102
}
330
47
100
AcDbScale
 70
     0
300
1/32" = 1'-0"
140
0.03125
141
12.0
290
     0
  0
SCALE
  5
5C
102
{ACAD_REACTORS
330
47
102
}
330
47
100
AcDbScale
 70
     0
300
1/16" = 1'-0"
140
0.0625
141
12.0
290
     0
  0
SCALE
  5
5D
102
{ACAD_REACTORS
330
47
102
}
330
47
100
AcDbScale
 70
     0
300
3/32" = 1'-0"
140
0.09375
141
12.0
290
     0
  0
SCALE
  5
5E
102
{ACAD_REACTORS
330
47
102
}
330
47
100
AcDbScale
 70
     0
300
1/8" = 1'-0"
140
0.125
141
12.0
290
     0
  0
SCALE
  5
5F
102
{ACAD_REACTORS
330
47
102
}
330
47
100
AcDbScale
 70
     0
300
3/16" = 1'-0"
140
0.1875
141
12.0
290
     0
  0
SCALE
  5
60
102
{ACAD_REACTORS
330
47
102
}
330
47
100
AcDbScale
 70
     0
300
1/4" = 1'-0"
140
0.25
141
12.0
290
     0
  0
SCALE
  5
61
102
{ACAD_REACTORS
330
47
102
}
330
47
100
AcDbScale
 70
     0
300
3/8" = 1'-0"
140
0.375
141
12.0
290
     0
  0
SCALE
  5
62
102
{ACAD_REACTORS
330
47
102
}
330
47
100
AcDbScale
 70
     0
300
1/2" = 1'-0"
140
0.5
141
12.0
290
     0
  0
SCALE
  5
63
102
{ACAD_REACTORS
330
47
102
}
330
47
100
AcDbScale
 70
     0
300
3/4" = 1'-0"
140
0.75
141
12.0
290
     0
  0
SCALE
  5
64
102
{ACAD_REACTORS
330
47
102
}
330
47
100
AcDbScale
 70
     0
300
1" = 1'-0"
140
1.0
141
12.0
290
     0
  0
SCALE
  5
65
102
{ACAD_REACTORS
330
47
102
}
330
47
100
AcDbScale
 70
     0
300
1-1/2" = 1'-0"
140
1.5
141
12.0
290
     0
  0
SCALE
  5
66
102
{ACAD_REACTORS
330
47
102
}
330
47
100
AcDbScale
 70
     0
300
3" = 1'-0"
140
3.0
141
12.0
290
     0
  0
SCALE
  5
67
102
{ACAD_REACTORS
330
47
102
}
330
47
100
AcDbScale
 70
     0
300
6" = 1'-0"
140
6.0
141
12.0
290
     0
  0
SCALE
  5
68
102
{ACAD_REACTORS
330
47
102
}
330
47
100
AcDbScale
 70
     0
300
1'-0" = 1'-0"
140
12.0
141
12.0
290
     0
  0
ENDSEC
  0
EOF
