  0
SECTION
  2
HEADER
  9
$ACADVER
  1
AC1015
  9
$ACADMAINTVER
 70
     6
  9
$DWGCODEPAGE
  3
ANSI_1252
  9
$INSBASE
 10
0.0
 20
0.0
 30
0.0
  9
$EXTMIN
 10
0.0
 20
0.0
 30
0.0
  9
$EXTMAX
 10
1100.0
 20
1100.0
 30
0.0
  9
$LIMMIN
 10
0.0
 20
0.0
  9
$LIMMAX
 10
1100.0
 20
1100.0
  9
$ORTHOMODE
 70
     0
  9
$REGENMODE
 70
     1
  9
$FILLMODE
 70
     1
  9
$QTEXTMODE
 70
     0
  9
$MIRRTEXT
 70
     1
  9
$LTSCALE
 40
1.0
  9
$ATTMODE
 70
     1
  9
$TEXTSIZE
 40
3.5
  9
$TRACEWID
 40
1.0
  9
$TEXTSTYLE
  7
Standard
  9
$CLAYER
  8
0
  9
$CELTYPE
  6
ByLayer
  9
$CECOLOR
 62
   256
  9
$CELTSCALE
 40
1.0
  9
$DISPSILH
 70
     0
  9
$DIMSCALE
 40
1.0
  9
$DIMASZ
 40
3.302
  9
$DIMEXO
 40
1.0
  9
$DIMDLI
 40
3.75
  9
$DIMRND
 40
0.0
  9
$DIMDLE
 40
0.0
  9
$DIMEXE
 40
1.0
  9
$DIMTP
 40
0.0
  9
$DIMTM
 40
0.0
  9
$DIMTXT
 40
3.5
  9
$DIMCEN
 40
2.5
  9
$DIMTSZ
 40
0.0
  9
$DIMTOL
 70
     0
  9
$DIMLIM
 70
     0
  9
$DIMTIH
 70
     1
  9
$DIMTOH
 70
     1
  9
$DIMSE1
 70
     0
  9
$DIMSE2
 70
     0
  9
$DIMTAD
 70
     1
  9
$DIMZIN
 70
     0
  9
$DIMBLK
  1

  9
$DIMASO
 70
     1
  9
$DIMSHO
 70
     1
  9
$DIMPOST
  1

  9
$DIMAPOST
  1

  9
$DIMALT
 70
     0
  9
$DIMALTD
 70
     3
  9
$DIMALTF
 40
0.0393700787
  9
$DIMLFAC
 40
1.0
  9
$DIMTOFL
 70
     1
  9
$DIMTVP
 40
0.0
  9
$DIMTIX
 70
     0
  9
$DIMSOXD
 70
     0
  9
$DIMSAH
 70
     0
  9
$DIMBLK1
  1

  9
$DIMBLK2
  1

  9
$DIMSTYLE
  2
ISO-25
  9
$DIMCLRD
 70
     0
  9
$DIMCLRE
 70
     0
  9
$DIMCLRT
 70
     0
  9
$DIMTFAC
 40
1.0
  9
$DIMGAP
 40
1.524
  9
$DIMJUST
 70
     0
  9
$DIMSD1
 70
     0
  9
$DIMSD2
 70
     0
  9
$DIMTOLJ
 70
     0
  9
$DIMTZIN
 70
     0
  9
$DIMALTZ
 70
     0
  9
$DIMALTTZ
 70
     0
  9
$DIMUPT
 70
     0
  9
$DIMDEC
 70
     1
  9
$DIMTDEC
 70
     1
  9
$DIMALTU
 70
     2
  9
$DIMALTTD
 70
     3
  9
$DIMTXSTY
  7
Standard
  9
$DIMAUNIT
 70
     0
  9
$DIMADEC
 70
     1
  9
$DIMALTRND
 40
0.0
  9
$DIMAZIN
 70
     0
  9
$DIMDSEP
 70
    44
  9
$DIMATFIT
 70
     3
  9
$DIMFRAC
 70
     0
  9
$DIMLDRBLK
  1

  9
$DIMLUNIT
 70
     2
  9
$DIMLWD
 70
    -2
  9
$DIMLWE
 70
    -2
  9
$DIMTMOVE
 70
     0
  9
$LUNITS
 70
     2
  9
$LUPREC
 70
     1
  9
$SKETCHINC
 40
1.0
  9
$FILLETRAD
 40
10.0
  9
$AUNITS
 70
     0
  9
$AUPREC
 70
     1
  9
$MENU
  1
.
  9
$ELEVATION
 40
0.0
  9
$PELEVATION
 40
0.0
  9
$THICKNESS
 40
0.0
  9
$LIMCHECK
 70
     0
  9
$CHAMFERA
 40
10.0
  9
$CHAMFERB
 40
10.0
  9
$CHAMFERC
 40
20.0
  9
$CHAMFERD
 40
0.0
  9
$SKPOLY
 70
     0
  9
$TDCREATE
 40
2457420.491737361
  9
$TDUCREATE
 40
2457420.491737361
  9
$TDUPDATE
 40
2457420.491738079
  9
$TDUUPDATE
 40
2457420.491738079
  9
$TDINDWG
 40
0.0000000116
  9
$TDUSRTIMER
 40
0.0000000116
  9
$USRTIMER
 70
     1
  9
$ANGBASE
 50
0.0
  9
$ANGDIR
 70
     0
  9
$PDMODE
 70
     0
  9
$PDSIZE
 40
-1.0
  9
$PLINEWID
 40
0.0
  9
$SPLFRAME
 70
     0
  9
$SPLINETYPE
 70
     6
  9
$SPLINESEGS
 70
     8
  9
$HANDSEED
  5
2F0
  9
$SURFTAB1
 70
     6
  9
$SURFTAB2
 70
     6
  9
$SURFTYPE
 70
     6
  9
$SURFU
 70
     6
  9
$SURFV
 70
     6
  9
$UCSBASE
  2

  9
$UCSNAME
  2

  9
$UCSORG
 10
0.0
 20
0.0
 30
0.0
  9
$UCSXDIR
 10
1.0
 20
0.0
 30
0.0
  9
$UCSYDIR
 10
0.0
 20
1.0
 30
0.0
  9
$UCSORTHOREF
  2

  9
$UCSORTHOVIEW
 70
     0
  9
$UCSORGTOP
 10
0.0
 20
0.0
 30
0.0
  9
$UCSORGBOTTOM
 10
0.0
 20
0.0
 30
0.0
  9
$UCSORGLEFT
 10
0.0
 20
0.0
 30
0.0
  9
$UCSORGRIGHT
 10
0.0
 20
0.0
 30
0.0
  9
$UCSORGFRONT
 10
0.0
 20
0.0
 30
0.0
  9
$UCSORGBACK
 10
0.0
 20
0.0
 30
0.0
  9
$PUCSBASE
  2

  9
$PUCSNAME
  2

  9
$PUCSORG
 10
0.0
 20
0.0
 30
0.0
  9
$PUCSXDIR
 10
1.0
 20
0.0
 30
0.0
  9
$PUCSYDIR
 10
0.0
 20
1.0
 30
0.0
  9
$PUCSORTHOREF
  2

  9
$PUCSORTHOVIEW
 70
     0
  9
$PUCSORGTOP
 10
0.0
 20
0.0
 30
0.0
  9
$PUCSORGBOTTOM
 10
0.0
 20
0.0
 30
0.0
  9
$PUCSORGLEFT
 10
0.0
 20
0.0
 30
0.0
  9
$PUCSORGRIGHT
 10
0.0
 20
0.0
 30
0.0
  9
$PUCSORGFRONT
 10
0.0
 20
0.0
 30
0.0
  9
$PUCSORGBACK
 10
0.0
 20
0.0
 30
0.0
  9
$USERI1
 70
     0
  9
$USERI2
 70
     0
  9
$USERI3
 70
     0
  9
$USERI4
 70
     0
  9
$USERI5
 70
     0
  9
$USERR1
 40
0.0
  9
$USERR2
 40
0.0
  9
$USERR3
 40
0.0
  9
$USERR4
 40
0.0
  9
$USERR5
 40
0.0
  9
$WORLDVIEW
 70
     1
  9
$SHADEDGE
 70
     3
  9
$SHADEDIF
 70
    70
  9
$TILEMODE
 70
     1
  9
$MAXACTVP
 70
    64
  9
$PINSBASE
 10
0.0
 20
0.0
 30
0.0
  9
$PLIMCHECK
 70
     0
  9
$PEXTMIN
 10
1.0000000000E+20
 20
1.0000000000E+20
 30
1.0000000000E+20
  9
$PEXTMAX
 10
-1.0000000000E+20
 20
-1.0000000000E+20
 30
-1.0000000000E+20
  9
$PLIMMIN
 10
0.0
 20
0.0
  9
$PLIMMAX
 10
420.0
 20
297.0
  9
$UNITMODE
 70
     0
  9
$VISRETAIN
 70
     1
  9
$PLINEGEN
 70
     0
  9
$PSLTSCALE
 70
     1
  9
$TREEDEPTH
 70
  3020
  9
$CMLSTYLE
  2
Standard
  9
$CMLJUST
 70
     0
  9
$CMLSCALE
 40
20.0
  9
$PROXYGRAPHICS
 70
     1
  9
$MEASUREMENT
 70
     1
  9
$CELWEIGHT
370
    -1
  9
$ENDCAPS
280
     0
  9
$JOINSTYLE
280
     0
  9
$LWDISPLAY
290
     1
  9
$INSUNITS
 70
     4
  9
$HYPERLINKBASE
  1

  9
$STYLESHEET
  1

  9
$XEDIT
290
     1
  9
$CEPSNTYPE
380
     0
  9
$PSTYLEMODE
290
     1
  9
$FINGERPRINTGUID
  2
{B4CE491A-4549-4C50-AC21-8F15291C904E}
  9
$VERSIONGUID
  2
{FAEB1C32-E019-11D5-929B-00C0DF256EC4}
  9
$EXTNAMES
290
     1
  9
$PSVPSCALE
 40
0.0
  9
$OLESTARTUP
290
     0
  0
ENDSEC
  0
SECTION
  2
CLASSES
  0
CLASS
  1
ACDBDICTIONARYWDFLT
  2
AcDbDictionaryWithDefault
  3
ObjectDBX Classes
 90
        0
280
     0
281
     0
  0
CLASS
  1
VISUALSTYLE
  2
AcDbVisualStyle
  3
ObjectDBX Classes
 90
     4095
280
     0
281
     0
  0
CLASS
  1
MATERIAL
  2
AcDbMaterial
  3
ObjectDBX Classes
 90
     1153
280
     0
281
     0
  0
CLASS
  1
ACDBPLACEHOLDER
  2
AcDbPlaceHolder
  3
ObjectDBX Classes
 90
        0
280
     0
281
     0
  0
CLASS
  1
LAYOUT
  2
AcDbLayout
  3
ObjectDBX Classes
 90
        0
280
     0
281
     0
  0
ENDSEC
  0
SECTION
  2
TABLES
  0
TABLE
  2
VPORT
  5
8
330
0
100
AcDbSymbolTable
 70
     1
  0
VPORT
  5
29
330
8
100
AcDbSymbolTableRecord
100
AcDbViewportTableRecord
  2
*Active
 70
     0
 10
0.0
 20
0.0
 11
1.0
 21
1.0
 12
550.0
 22
550.0
 13
0.0
 23
0.0
 14
10.0
 24
10.0
 15
10.0
 25
10.0
 16
0.0
 26
0.0
 36
1.0
 17
0.0
 27
0.0
 37
0.0
 40
1100.0
 41
1.0
 42
50.0
 43
0.0
 44
0.0
 50
0.0
 51
0.0
 71
     0
 72
  2000
 73
     1
 74
     3
 75
     0
 76
     0
 77
     0
 78
     0
281
     0
 65
     1
110
0.0
120
0.0
130
0.0
111
1.0
121
0.0
131
0.0
112
0.0
122
1.0
132
0.0
 79
     0
146
0.0
  0
ENDTAB
  0
TABLE
  2
LTYPE
  5
5
330
0
100
AcDbSymbolTable
 70
     6
  0
LTYPE
  5
14
330
5
100
AcDbSymbolTableRecord
100
AcDbLinetypeTableRecord
  2
ByBlock
 70
     0
  3

 72
    65
 73
     0
 40
0.0
  0
LTYPE
  5
15
330
5
100
AcDbSymbolTableRecord
100
AcDbLinetypeTableRecord
  2
ByLayer
 70
     0
  3

 72
    65
 73
     0
 40
0.0
  0
LTYPE
  5
16
330
5
100
AcDbSymbolTableRecord
100
AcDbLinetypeTableRecord
  2
Continuous
 70
     0
  3
Solid line
 72
    65
 73
     0
 40
0.0
  0
LTYPE
  5
3F
330
5
100
AcDbSymbolTableRecord
100
AcDbLinetypeTableRecord
  2
HIDDEN
 70
     0
  3
Hidden __ __ __ __ __ __ __ __ __ __ __ __ __ __
 72
    65
 73
     2
 40
1.905
 49
1.27
 74
     0
 49
-0.635
 74
     0
  0
LTYPE
  5
40
330
5
100
AcDbSymbolTableRecord
100
AcDbLinetypeTableRecord
  2
PHANTOM
 70
     0
  3
Phantom ______  __  __  ______  __  __  ______
 72
    65
 73
     6
 40
12.7
 49
6.35
 74
     0
 49
-1.27
 74
     0
 49
1.27
 74
     0
 49
-1.27
 74
     0
 49
1.27
 74
     0
 49
-1.27
 74
     0
  0
LTYPE
  5
41
330
5
100
AcDbSymbolTableRecord
100
AcDbLinetypeTableRecord
  2
CENTER
 70
     0
  3
Center ____ _ ____ _ ____ _ ____ _ ____ _ ____
 72
    65
 73
     4
 40
10.16
 49
6.35
 74
     0
 49
-1.27
 74
     0
 49
1.27
 74
     0
 49
-1.27
 74
     0
  0
LTYPE
  5
42
330
5
100
AcDbSymbolTableRecord
100
AcDbLinetypeTableRecord
  2
CENTERX2
 70
     0
  3
Center (2x) ________  __  ________  __  _____
 72
    65
 73
     4
 40
20.32
 49
12.7
 74
     0
 49
-2.54
 74
     0
 49
2.54
 74
     0
 49
-2.54
 74
     0
  0
LTYPE
  5
43
330
5
100
AcDbSymbolTableRecord
100
AcDbLinetypeTableRecord
  2
DOT2
 70
     0
  3
Dot (.5x) ........................................
 72
    65
 73
     2
 40
0.635
 49
0.0
 74
     0
 49
-0.635
 74
     0
  0
ENDTAB
  0
TABLE
  2
LAYER
  5
2
330
0
100
AcDbSymbolTable
 70
     4
  0
LAYER
  5
10
330
2
100
AcDbSymbolTableRecord
100
AcDbLayerTableRecord
  2
0
 70
     0
 62
     7
  6
Continuous
370
    -3
390
F
  0
LAYER
  5
44
330
2
100
AcDbSymbolTableRecord
100
AcDbLayerTableRecord
  2
FORMAT
 70
     0
 62
     7
  6
Continuous
370
    -3
390
F
  0
LAYER
  5
45
330
2
100
AcDbSymbolTableRecord
100
AcDbLayerTableRecord
  2
SLD-0
 70
     0
 62
     1
  6
Continuous
370
    -3
390
F
  0
LAYER
  5
46
330
2
100
AcDbSymbolTableRecord
100
AcDbLayerTableRecord
  2
WATERMARK
 70
     0
 62
     1
  6
Continuous
370
    -3
390
F
  0
ENDTAB
  0
TABLE
  2
STYLE
  5
3
330
0
100
AcDbSymbolTable
 70
     1
  0
STYLE
  5
11
330
3
100
AcDbSymbolTableRecord
100
AcDbTextStyleTableRecord
  2
Standard
 70
     0
 40
0.0
 41
1.0
 50
0.0
 71
     0
 42
3.5
  3
txt
  4

  0
ENDTAB
  0
TABLE
  2
VIEW
  5
6
330
0
100
AcDbSymbolTable
 70
     0
  0
ENDTAB
  0
TABLE
  2
UCS
  5
7
330
0
100
AcDbSymbolTable
 70
     0
  0
ENDTAB
  0
TABLE
  2
APPID
  5
9
330
0
100
AcDbSymbolTable
 70
     1
  0
APPID
  5
12
330
9
100
AcDbSymbolTableRecord
100
AcDbRegAppTableRecord
  2
ACAD
 70
     0
  0
ENDTAB
  0
TABLE
  2
DIMSTYLE
  5
A
330
0
100
AcDbSymbolTable
 70
     1
100
AcDbDimStyleTable
  0
DIMSTYLE
105
27
330
A
100
AcDbSymbolTableRecord
100
AcDbDimStyleTableRecord
  2
ISO-25
 70
     0
 41
2.5
 42
0.625
 43
3.75
 44
1.25
 73
     0
 74
     0
 77
     1
 78
     8
140
2.5
141
2.5
143
0.0393700787
147
0.625
171
     3
172
     1
178
     0
271
     2
272
     2
274
     3
278
    44
283
     0
284
     8
340
11
  0
ENDTAB
  0
TABLE
  2
BLOCK_RECORD
  5
1
330
0
100
AcDbSymbolTable
 70
     1
  0
BLOCK_RECORD
  5
1F
330
1
100
AcDbSymbolTableRecord
100
AcDbBlockTableRecord
  2
*Model_Space
340
22
  0
BLOCK_RECORD
  5
1B
330
1
100
AcDbSymbolTableRecord
100
AcDbBlockTableRecord
  2
*Paper_Space
340
1E
  0
BLOCK_RECORD
  5
23
330
1
100
AcDbSymbolTableRecord
100
AcDbBlockTableRecord
  2
*Paper_Space0
340
26
  0
ENDTAB
  0
ENDSEC
  0
SECTION
  2
BLOCKS
  0
BLOCK
  5
20
330
1F
100
AcDbEntity
  8
0
100
AcDbBlockBegin
  2
*Model_Space
 70
     0
 10
0.0
 20
0.0
 30
0.0
  3
*Model_Space
  1

  0
ENDBLK
  5
21
330
1F
100
AcDbEntity
  8
0
100
AcDbBlockEnd
  0
BLOCK
  5
1C
330
1B
100
AcDbEntity
 67
     1
  8
0
100
AcDbBlockBegin
  2
*Paper_Space
 70
     0
 10
0.0
 20
0.0
 30
0.0
  3
*Paper_Space
  1

  0
ENDBLK
  5
1D
330
1B
100
AcDbEntity
 67
     1
  8
0
100
AcDbBlockEnd
  0
BLOCK
  5
24
330
23
100
AcDbEntity
  8
0
100
AcDbBlockBegin
  2
*Paper_Space0
 70
     0
 10
0.0
 20
0.0
 30
0.0
  3
*Paper_Space0
  1

  0
ENDBLK
  5
25
330
23
100
AcDbEntity
  8
0
100
AcDbBlockEnd
  0
ENDSEC
  0
SECTION
  2
ENTITIES
  0
LINE
  5
47
330
1F
100
AcDbEntity
  8
0
  6
Continuous
 62
     7
370
    15
100
AcDbLine
 10
158.2906344336
 20
117.9199322648
 30
0.0
 11
958.2906463546
 21
117.9199322648
 31
0.0
  0
LINE
  5
48
330
1F
100
AcDbEntity
  8
0
  6
Continuous
 62
     7
370
    15
100
AcDbLine
 10
158.2906344336
 20
117.8381546922
 30
0.0
 11
201.1879780692
 21
117.8381546922
 31
0.0
  0
LINE
  5
49
330
1F
100
AcDbEntity
  8
0
  6
Continuous
 62
     7
370
    15
100
AcDbLine
 10
447.9791545671
 20
117.8381546922
 30
0.0
 11
544.2086835754
 21
117.8381546922
 31
0.0
  0
LINE
  5
4A
330
1F
100
AcDbEntity
  8
0
  6
Continuous
 62
     7
370
    15
100
AcDbLine
 10
572.3826256943
 20
117.8381546922
 30
0.0
 11
834.4242670935
 21
117.8381546922
 31
0.0
  0
LINE
  5
4B
330
1F
100
AcDbEntity
  8
0
  6
Continuous
 62
     7
370
    15
100
AcDbLine
 10
862.5969090861
 20
117.8381546922
 30
0.0
 11
958.2906463546
 21
117.8381546922
 31
0.0
  0
LINE
  5
4C
330
1F
100
AcDbEntity
  8
0
  6
Continuous
 62
     7
370
    15
100
AcDbLine
 10
858.6171963614
 20
117.2026127167
 30
0.0
 11
858.9244285029
 21
117.9199322648
 31
0.0
  0
SPLINE
  5
4D
330
1F
100
AcDbEntity
  8
0
  6
Continuous
 62
     7
370
    15
100
AcDbSpline
210
0.0
220
0.0
230
1.0
 70
     8
 71
     3
 72
     9
 73
     5
 74
     0
 42
0.00000001
 43
0.00000001
 12
1.0
 22
0.0
 32
0.0
 13
1.0
 23
0.0
 33
0.0
 40
0.0
 40
0.0
 40
0.0
 40
0.0
 40
0.913043649212448
 40
1.0
 40
1.0
 40
1.0
 40
1.0
 10
837.3829224508953
 20
117.919932264802
 30
0.0
 10
837.610630224414
 20
117.4914713381535
 30
0.0
 10
837.8600244058587
 20
117.0222046968291
 30
0.0
 10
837.9862332586728
 20
116.5524836496808
 30
0.0
 10
837.9972079199505
 20
116.5116384215327
 30
0.0
  0
ARC
  5
4E
330
1F
100
AcDbEntity
  8
0
  6
Continuous
 62
     7
370
    15
100
AcDbCircle
 10
859.08391433
 20
106.7371520665
 30
0.0
 40
1.000000000000015
100
AcDbArc
 50
286.4403576866
 51
348.995984334
  0
ARC
  5
4F
330
1F
100
AcDbEntity
  8
0
  6
Continuous
 62
     7
370
    15
100
AcDbCircle
 10
837.8154175656
 20
106.645329135
 30
0.0
 40
1.000000000000039
100
AcDbArc
 50
190.3043221748
 51
254.2294316995
  0
SPLINE
  5
50
330
1F
100
AcDbEntity
  8
0
  6
Continuous
 62
     7
370
    15
100
AcDbSpline
210
0.0
220
0.0
230
1.0
 70
     8
 71
     3
 72
     9
 73
     5
 74
     0
 42
0.00000001
 43
0.00000001
 12
1.0
 22
0.0
 32
0.0
 13
1.0
 23
0.0
 33
0.0
 40
0.0
 40
0.0
 40
0.0
 40
0.0
 40
0.5404665349740904
 40
1.0
 40
1.0
 40
1.0
 40
1.0
 10
860.0661852759075
 20
106.5465166754694
 30
0.0
 10
860.4700043323915
 20
108.5573537226228
 30
0.0
 10
861.2171718818182
 20
112.2779116425497
 30
0.0
 10
862.1624994384296
 20
116.0875146306674
 30
0.0
 10
862.5969090861036
 20
117.8381546921702
 30
0.0
  0
SPLINE
  5
51
330
1F
100
AcDbEntity
  8
0
  6
Continuous
 62
     7
370
    15
100
AcDbSpline
210
0.0
220
0.0
230
1.0
 70
     8
 71
     3
 72
    17
 73
    13
 74
     0
 42
0.00000001
 43
0.00000001
 12
1.0
 22
0.0
 32
0.0
 13
1.0
 23
0.0
 33
0.0
 40
0.0
 40
0.0
 40
0.0
 40
0.0
 40
0.056837932208163
 40
0.1650942182607857
 40
0.2731325437785057
 40
0.3809806251995822
 40
0.4887259186851603
 40
0.5964412340143683
 40
0.7041892545738385
 40
0.8120330072505718
 40
0.9200519158498115
 40
1.0
 40
1.0
 40
1.0
 40
1.0
 10
837.5436463755321
 20
105.6829720325442
 30
0.0
 10
837.9156755738454
 20
105.5825056975081
 30
0.0
 10
838.9962896510914
 20
105.2906863015534
 30
0.0
 10
840.9052448392729
 20
104.899841378907
 30
0.0
 10
843.2802494485574
 20
104.558259016967
 30
0.0
 10
845.7345987437906
 20
104.3513347800086
 30
0.0
 10
848.2270562487521
 20
104.2795548956177
 30
0.0
 10
850.7197247573844
 20
104.3443963217177
 30
0.0
 10
853.1747966494631
 20
104.5441472686694
 30
0.0
 10
855.5506893316896
 20
104.8785607109868
 30
0.0
 10
857.6262762530599
 20
105.2946753143879
 30
0.0
 10
858.8475068400847
 20
105.6337957468662
 30
0.0
 10
859.366933385725
 20
105.7780339903803
 30
0.0
  0
LINE
  5
52
330
1F
100
AcDbEntity
  8
0
  6
Continuous
 62
     7
370
    15
100
AcDbLine
 10
836.7555835646
 20
106.7260756679
 30
0.0
 11
836.7997804087
 21
106.4822479672
 31
0.0
  0
SPLINE
  5
53
330
1F
100
AcDbEntity
  8
0
  6
Continuous
 62
     7
370
    15
100
AcDbSpline
210
0.0
220
0.0
230
1.0
 70
     8
 71
     3
 72
    10
 73
     6
 74
     0
 42
0.00000001
 43
0.00000001
 12
1.0
 22
0.0
 32
0.0
 13
1.0
 23
0.0
 33
0.0
 40
0.0
 40
0.0
 40
0.0
 40
0.0
 40
0.1162633281345022
 40
0.7571590881470102
 40
1.0
 40
1.0
 40
1.0
 40
1.0
 10
834.3778350752544
 20
118.0285766310664
 30
0.0
 10
834.483485072592
 20
117.5978993434477
 30
0.0
 10
835.171525376705
 20
114.7931351274971
 30
0.0
 10
835.9766091730585
 20
111.111170610663
 30
0.0
 10
836.5387166736349
 20
107.9414637107299
 30
0.0
 10
836.6931775015545
 20
107.0704638547869
 30
0.0
  0
SPLINE
  5
54
330
1F
100
AcDbEntity
  8
0
  6
Continuous
 62
     7
370
    15
100
AcDbSpline
210
0.0
220
0.0
230
1.0
 70
     8
 71
     3
 72
     9
 73
     5
 74
     0
 42
0.00000001
 43
0.00000001
 12
1.0
 22
0.0
 32
0.0
 13
1.0
 23
0.0
 33
0.0
 40
0.0
 40
0.0
 40
0.0
 40
0.0
 40
0.0514698561442842
 40
1.0
 40
1.0
 40
1.0
 40
1.0
 10
568.6099506345344
 20
116.8965056128474
 30
0.0
 10
568.614701521829
 20
116.9140769021689
 30
0.0
 10
568.7070057878692
 20
117.2554668075986
 30
0.0
 10
568.8908273425548
 20
117.5964753669471
 30
0.0
 10
569.0651876282644
 20
117.919932264802
 30
0.0
  0
LINE
  5
55
330
1F
100
AcDbEntity
  8
0
  6
Continuous
 62
     7
370
    15
100
AcDbLine
 10
547.5238333818
 20
117.9199322648
 30
0.0
 11
547.7495273006
 21
117.3904940076
 31
0.0
  0
ARC
  5
56
330
1F
100
AcDbEntity
  8
0
  6
Continuous
 62
     7
370
    15
100
AcDbCircle
 10
568.9254436545
 20
106.6908973275
 30
0.0
 40
1.000000000000076
100
AcDbArc
 50
286.1036910378
 51
349.3444562998
  0
ARC
  5
57
330
1F
100
AcDbEntity
  8
0
  6
Continuous
 62
     7
370
    15
100
AcDbCircle
 10
547.6558371337
 20
106.6908973275
 30
0.0
 40
0.9999999999999728
100
AcDbArc
 50
190.6555437002
 51
253.8963089622
  0
SPLINE
  5
58
330
1F
100
AcDbEntity
  8
0
  6
Continuous
 62
     7
370
    15
100
AcDbSpline
210
0.0
220
0.0
230
1.0
 70
     8
 71
     3
 72
    17
 73
    13
 74
     0
 42
0.00000001
 43
0.00000001
 12
1.0
 22
0.0
 32
0.0
 13
1.0
 23
0.0
 33
0.0
 40
0.0
 40
0.0
 40
0.0
 40
0.0
 40
0.0568463386070641
 40
0.1651287048834774
 40
0.2731859662942073
 40
0.3810465170422885
 40
0.4887964062122561
 40
0.5965119865262158
 40
0.7042562254836333
 40
0.8120888584994246
 40
0.9200909369167541
 40
1.0
 40
1.0
 40
1.0
 40
1.0
 10
547.3784604471874
 20
105.7301342077227
 30
0.0
 10
547.7482334261563
 20
105.6280166546667
 30
0.0
 10
548.8223594756826
 20
105.3313829629425
 30
0.0
 10
550.7225828234152
 20
104.9321600256143
 30
0.0
 10
553.0899906708764
 20
104.5802554591997
 30
0.0
 10
555.5396882575326
 20
104.3627433002181
 30
0.0
 10
558.0304868880285
 20
104.2802484522873
 30
0.0
 10
560.5245427668707
 20
104.3343829312183
 30
0.0
 10
562.9840114385871
 20
104.5235345412379
 30
0.0
 10
565.367266566767
 20
104.8476557424626
 30
0.0
 10
567.4518484663824
 20
105.2546546053698
 30
0.0
 10
568.6803858136805
 20
105.5882661600963
 30
0.0
 10
569.2028203409862
 20
105.7301342077227
 30
0.0
  0
SPLINE
  5
59
330
1F
100
AcDbEntity
  8
0
  6
Continuous
 62
     7
370
    15
100
AcDbSpline
210
0.0
220
0.0
230
1.0
 70
     8
 71
     3
 72
     9
 73
     5
 74
     0
 42
0.00000001
 43
0.00000001
 12
1.0
 22
0.0
 32
0.0
 13
1.0
 23
0.0
 33
0.0
 40
0.0
 40
0.0
 40
0.0
 40
0.0
 40
0.5245002533625086
 40
1.0
 40
1.0
 40
1.0
 40
1.0
 10
569.9090748456073
 20
106.5063505954714
 30
0.0
 10
570.2988025446848
 20
108.5068919758472
 30
0.0
 10
571.0418483231738
 20
112.3210777032145
 30
0.0
 10
571.9895111734841
 20
116.2258468148236
 30
0.0
 10
572.4401246187043
 20
118.0825635380717
 30
0.0
  0
SPLINE
  5
5A
330
1F
100
AcDbEntity
  8
0
  6
Continuous
 62
     7
370
    15
100
AcDbSpline
210
0.0
220
0.0
230
1.0
 70
     8
 71
     3
 72
    10
 73
     6
 74
     0
 42
0.00000001
 43
0.00000001
 12
1.0
 22
0.0
 32
0.0
 13
1.0
 23
0.0
 33
0.0
 40
0.0
 40
0.0
 40
0.0
 40
0.0
 40
0.1102505916719731
 40
0.7179886166271143
 40
1.0
 40
1.0
 40
1.0
 40
1.0
 10
544.148384163971
 20
118.0798366255732
 30
0.0
 10
544.2565669719472
 20
117.6486508405518
 30
0.0
 10
544.961089491634
 20
114.8406252272475
 30
0.0
 10
545.8292180098672
 20
110.9562145956496
 30
0.0
 10
546.4460368151041
 20
107.5891431444916
 30
0.0
 10
546.6415412154746
 20
106.5219297594996
 30
0.0
  0
ARC
  5
5B
330
1F
100
AcDbEntity
  8
0
  6
Continuous
 62
     7
370
    15
100
AcDbCircle
 10
788.5906403941
 20
999.9671579656
 30
0.0
 40
0.2999999999999639
100
AcDbArc
 50
0.0
 51
25.53689034
  0
LINE
  5
5C
330
1F
100
AcDbEntity
  8
0
  6
Continuous
 62
     7
370
    15
100
AcDbLine
 10
795.8906391066
 20
999.9671756811
 30
0.0
 11
795.8907881182
 21
999.9764144011
 31
0.0
  0
LINE
  5
5D
330
1F
100
AcDbEntity
  8
0
  6
Continuous
 62
     7
370
    15
100
AcDbLine
 10
788.8906398219
 20
999.9671756811
 30
0.0
 11
788.8906398219
 21
995.3671872206
 31
0.0
  0
LINE
  5
5E
330
1F
100
AcDbEntity
  8
0
  6
Continuous
 62
     7
370
    15
100
AcDbLine
 10
795.8906391066
 20
995.3671872206
 30
0.0
 11
795.8906391066
 21
999.9671756811
 31
0.0
  0
LINE
  5
5F
330
1F
100
AcDbEntity
  8
0
  6
Continuous
 62
     7
370
    15
100
AcDbLine
 10
788.8906398219
 20
995.3671872206
 30
0.0
 11
789.1406366032
 21
994.7671472616
 31
0.0
  0
LINE
  5
60
330
1F
100
AcDbEntity
  8
0
  6
Continuous
 62
     7
370
    15
100
AcDbLine
 10
795.6406423253
 20
994.7671472616
 30
0.0
 11
795.8906391066
 21
995.3671872206
 31
0.0
  0
LINE
  5
61
330
1F
100
AcDbEntity
  8
0
  6
Continuous
 62
     7
370
    15
100
AcDbLine
 10
883.2906284732
 20
871.615844924
 30
0.0
 11
233.290652315
 21
871.615844924
 31
0.0
  0
LINE
  5
62
330
1F
100
AcDbEntity
  8
0
  6
Continuous
 62
     7
370
    15
100
AcDbLine
 10
233.290652315
 20
872.6245343275
 30
0.0
 11
883.2906284732
 21
872.6245343275
 31
0.0
  0
ARC
  5
63
330
1F
100
AcDbEntity
  8
0
  6
Continuous
 62
     7
370
    15
100
AcDbCircle
 10
233.2905081315
 20
867.6246534788
 30
0.0
 40
4.999880850827883
100
AcDbArc
 50
89.998347739
 51
179.9992616569
  0
ARC
  5
64
330
1F
100
AcDbEntity
  8
0
  6
Continuous
 62
     7
370
    15
100
AcDbCircle
 10
233.2905409075
 20
867.6159482262
 30
0.0
 40
3.999896699275733
100
AcDbArc
 50
89.9984041636
 51
179.9990344634
  0
ARC
  5
65
330
1F
100
AcDbEntity
  8
0
  6
Continuous
 62
     7
370
    15
100
AcDbCircle
 10
883.2907398807
 20
867.6159482262
 30
0.0
 40
3.999896699275733
100
AcDbArc
 50
0.0009655366
 51
90.0015958364
  0
ARC
  5
66
330
1F
100
AcDbEntity
  8
0
  6
Continuous
 62
     7
370
    15
100
AcDbCircle
 10
883.2907726567
 20
867.6246534788
 30
0.0
 40
4.999880850827883
100
AcDbArc
 50
0.0007383431
 51
90.001652261
  0
LINE
  5
67
330
1F
100
AcDbEntity
  8
0
  6
Continuous
 62
     7
370
    15
100
AcDbLine
 10
542.1190676641
 20
233.6401596255
 30
0.0
 11
544.4622128633
 21
233.6401596255
 31
0.0
  0
LINE
  5
68
330
1F
100
AcDbEntity
  8
0
  6
Continuous
 62
     7
370
    15
100
AcDbLine
 10
542.1190676641
 20
855.6164681501
 30
0.0
 11
542.1190676641
 21
233.6401596255
 31
0.0
  0
ELLIPSE
  5
69
330
1F
100
AcDbEntity
  8
0
  6
Continuous
 62
     7
370
    15
100
AcDbEllipse
 10
539.2906403941
 20
855.6164757538
 30
0.0
 11
2.828427124746327
 21
0.0
 31
0.0
210
0.0
220
0.0
230
1.0
 40
0.7070798567
 41
0.0
 42
1.570796326794897
  0
LINE
  5
6A
330
1F
100
AcDbEntity
  8
0
  6
Continuous
 62
     7
370
    15
100
AcDbLine
 10
537.2906406772
 20
857.6163827963
 30
0.0
 11
539.290641005
 21
857.6163827963
 31
0.0
  0
ELLIPSE
  5
6B
330
1F
100
AcDbEntity
  8
0
  6
Continuous
 62
     7
370
    15
100
AcDbEllipse
 10
537.2906403941
 20
855.6164757538
 30
0.0
 11
2.828427124746213
 21
0.0
 31
0.0
210
0.0
220
0.0
230
1.0
 40
0.7070798567
 41
1.570796326794897
 42
3.141592653589793
  0
LINE
  5
6C
330
1F
100
AcDbEntity
  8
0
  6
Continuous
 62
     7
370
    15
100
AcDbLine
 10
534.4622140181
 20
855.6164681501
 30
0.0
 11
534.4622140181
 21
233.6401596255
 31
0.0
  0
LINE
  5
6D
330
1F
100
AcDbEntity
  8
0
  6
Continuous
 62
     7
370
    15
100
AcDbLine
 10
532.1190678877
 20
233.6401596255
 30
0.0
 11
534.4622140181
 21
233.6401596255
 31
0.0
  0
LINE
  5
6E
330
1F
100
AcDbEntity
  8
0
  6
Continuous
 62
     7
370
    15
100
AcDbLine
 10
532.1190678877
 20
855.6164681501
 30
0.0
 11
532.1190678877
 21
233.6401596255
 31
0.0
  0
ELLIPSE
  5
6F
330
1F
100
AcDbEntity
  8
0
  6
Continuous
 62
     7
370
    15
100
AcDbEllipse
 10
529.2906403941
 20
855.6164757538
 30
0.0
 11
2.828427124746327
 21
0.0
 31
0.0
210
0.0
220
0.0
230
1.0
 40
0.7070798567
 41
0.0
 42
1.570796326794897
  0
LINE
  5
70
330
1F
100
AcDbEntity
  8
0
  6
Continuous
 62
     7
370
    15
100
AcDbLine
 10
527.2906409007
 20
857.6163827963
 30
0.0
 11
529.2906412286
 21
857.6163827963
 31
0.0
  0
ELLIPSE
  5
71
330
1F
100
AcDbEntity
  8
0
  6
Continuous
 62
     7
370
    15
100
AcDbEllipse
 10
527.2906403942
 20
855.6164757538
 30
0.0
 11
2.828427124746213
 21
0.0
 31
0.0
210
0.0
220
0.0
230
1.0
 40
0.7070798567
 41
1.570796326794897
 42
3.141592653589793
  0
LINE
  5
72
330
1F
100
AcDbEntity
  8
0
  6
Continuous
 62
     7
370
    15
100
AcDbLine
 10
524.4622142416
 20
855.6164681501
 30
0.0
 11
524.4622142416
 21
233.6401596255
 31
0.0
  0
LINE
  5
73
330
1F
100
AcDbEntity
  8
0
  6
Continuous
 62
     7
370
    15
100
AcDbLine
 10
522.1190662485
 20
233.6401596255
 30
0.0
 11
524.4622142416
 21
233.6401596255
 31
0.0
  0
LINE
  5
74
330
1F
100
AcDbEntity
  8
0
  6
Continuous
 62
     7
370
    15
100
AcDbLine
 10
522.1190662485
 20
855.6164681501
 30
0.0
 11
522.1190662485
 21
233.6401596255
 31
0.0
  0
ELLIPSE
  5
75
330
1F
100
AcDbEntity
  8
0
  6
Continuous
 62
     7
370
    15
100
AcDbEllipse
 10
519.2906403941
 20
855.6164757538
 30
0.0
 11
2.828427124746327
 21
0.0
 31
0.0
210
0.0
220
0.0
230
1.0
 40
0.7070798567
 41
0.0
 42
1.570796326794897
  0
LINE
  5
76
330
1F
100
AcDbEntity
  8
0
  6
Continuous
 62
     7
370
    15
100
AcDbLine
 10
517.2906392616
 20
857.6163827963
 30
0.0
 11
519.2906395894
 21
857.6163827963
 31
0.0
  0
ELLIPSE
  5
77
330
1F
100
AcDbEntity
  8
0
  6
Continuous
 62
     7
370
    15
100
AcDbEllipse
 10
517.2906403942
 20
855.6164757538
 30
0.0
 11
2.828427124746213
 21
0.0
 31
0.0
210
0.0
220
0.0
230
1.0
 40
0.7070798567
 41
1.570796326794897
 42
3.141592653589793
  0
LINE
  5
78
330
1F
100
AcDbEntity
  8
0
  6
Continuous
 62
     7
370
    15
100
AcDbLine
 10
514.4622126025
 20
855.6164681501
 30
0.0
 11
514.4622126025
 21
233.6401596255
 31
0.0
  0
LINE
  5
79
330
1F
100
AcDbEntity
  8
0
  6
Continuous
 62
     7
370
    15
100
AcDbLine
 10
512.1190683347
 20
233.6401596255
 30
0.0
 11
514.4622126025
 21
233.6401596255
 31
0.0
  0
LINE
  5
7A
330
1F
100
AcDbEntity
  8
0
  6
Continuous
 62
     7
370
    15
100
AcDbLine
 10
512.1190683347
 20
855.6164681501
 30
0.0
 11
512.1190683347
 21
233.6401596255
 31
0.0
  0
ELLIPSE
  5
7B
330
1F
100
AcDbEntity
  8
0
  6
Continuous
 62
     7
370
    15
100
AcDbEllipse
 10
509.2906403941
 20
855.6164757538
 30
0.0
 11
2.828427124746327
 21
0.0
 31
0.0
210
0.0
220
0.0
230
1.0
 40
0.7070798567
 41
0.0
 42
1.570796326794897
  0
LINE
  5
7C
330
1F
100
AcDbEntity
  8
0
  6
Continuous
 62
     7
370
    15
100
AcDbLine
 10
507.2906413478
 20
857.6163827963
 30
0.0
 11
509.2906416756
 21
857.6163827963
 31
0.0
  0
ELLIPSE
  5
7D
330
1F
100
AcDbEntity
  8
0
  6
Continuous
 62
     7
370
    15
100
AcDbEllipse
 10
507.2906403942
 20
855.6164757538
 30
0.0
 11
2.828427124746213
 21
0.0
 31
0.0
210
0.0
220
0.0
230
1.0
 40
0.7070798567
 41
1.570796326794897
 42
3.141592653589793
  0
LINE
  5
7E
330
1F
100
AcDbEntity
  8
0
  6
Continuous
 62
     7
370
    15
100
AcDbLine
 10
504.4622146887
 20
855.6164681501
 30
0.0
 11
504.4622146887
 21
233.6401596255
 31
0.0
  0
LINE
  5
7F
330
1F
100
AcDbEntity
  8
0
  6
Continuous
 62
     7
370
    15
100
AcDbLine
 10
502.1190666956
 20
233.6401596255
 30
0.0
 11
504.4622146887
 21
233.6401596255
 31
0.0
  0
LINE
  5
80
330
1F
100
AcDbEntity
  8
0
  6
Continuous
 62
     7
370
    15
100
AcDbLine
 10
502.1190666956
 20
855.6164681501
 30
0.0
 11
502.1190666956
 21
233.6401596255
 31
0.0
  0
ELLIPSE
  5
81
330
1F
100
AcDbEntity
  8
0
  6
Continuous
 62
     7
370
    15
100
AcDbEllipse
 10
499.2906403941
 20
855.6164757538
 30
0.0
 11
2.828427124746327
 21
0.0
 31
0.0
210
0.0
220
0.0
230
1.0
 40
0.7070798567
 41
0.0
 42
1.570796326794897
  0
LINE
  5
82
330
1F
100
AcDbEntity
  8
0
  6
Continuous
 62
     7
370
    15
100
AcDbLine
 10
497.2906397086
 20
857.6163827963
 30
0.0
 11
499.2906400365
 21
857.6163827963
 31
0.0
  0
ELLIPSE
  5
83
330
1F
100
AcDbEntity
  8
0
  6
Continuous
 62
     7
370
    15
100
AcDbEllipse
 10
497.2906403941
 20
855.6164757538
 30
0.0
 11
2.82842712474627
 21
0.0
 31
0.0
210
0.0
220
0.0
230
1.0
 40
0.7070798567
 41
1.570796326794897
 42
3.141592653589793
  0
LINE
  5
84
330
1F
100
AcDbEntity
  8
0
  6
Continuous
 62
     7
370
    15
100
AcDbLine
 10
494.4622167748
 20
855.6164681501
 30
0.0
 11
494.4622167748
 21
233.6401596255
 31
0.0
  0
LINE
  5
85
330
1F
100
AcDbEntity
  8
0
  6
Continuous
 62
     7
370
    15
100
AcDbLine
 10
492.1190687817
 20
233.6401596255
 30
0.0
 11
494.4622167748
 21
233.6401596255
 31
0.0
  0
LINE
  5
86
330
1F
100
AcDbEntity
  8
0
  6
Continuous
 62
     7
370
    15
100
AcDbLine
 10
492.1190687817
 20
855.6164681501
 30
0.0
 11
492.1190687817
 21
233.6401596255
 31
0.0
  0
ELLIPSE
  5
87
330
1F
100
AcDbEntity
  8
0
  6
Continuous
 62
     7
370
    15
100
AcDbEllipse
 10
489.2906403941
 20
855.6164757538
 30
0.0
 11
2.82842712474627
 21
0.0
 31
0.0
210
0.0
220
0.0
230
1.0
 40
0.7070798567
 41
0.0
 42
1.570796326794897
  0
LINE
  5
88
330
1F
100
AcDbEntity
  8
0
  6
Continuous
 62
     7
370
    15
100
AcDbLine
 10
487.2906380695
 20
857.6163827963
 30
0.0
 11
489.2906421226
 21
857.6163827963
 31
0.0
  0
ELLIPSE
  5
89
330
1F
100
AcDbEntity
  8
0
  6
Continuous
 62
     7
370
    15
100
AcDbEllipse
 10
487.2906403941
 20
855.6164757538
 30
0.0
 11
2.828427124746213
 21
0.0
 31
0.0
210
0.0
220
0.0
230
1.0
 40
0.7070798567
 41
1.570796326794897
 42
3.141592653589793
  0
LINE
  5
8A
330
1F
100
AcDbEntity
  8
0
  6
Continuous
 62
     7
370
    15
100
AcDbLine
 10
484.4622114104
 20
855.6164681501
 30
0.0
 11
484.4622114104
 21
233.6401596255
 31
0.0
  0
LINE
  5
8B
330
1F
100
AcDbEntity
  8
0
  6
Continuous
 62
     7
370
    15
100
AcDbLine
 10
482.1190708679
 20
233.6401596255
 30
0.0
 11
484.4622114104
 21
233.6401596255
 31
0.0
  0
LINE
  5
8C
330
1F
100
AcDbEntity
  8
0
  6
Continuous
 62
     7
370
    15
100
AcDbLine
 10
482.1190708679
 20
855.6164681501
 30
0.0
 11
482.1190708679
 21
233.6401596255
 31
0.0
  0
ELLIPSE
  5
8D
330
1F
100
AcDbEntity
  8
0
  6
Continuous
 62
     7
370
    15
100
AcDbEllipse
 10
479.2906403941
 20
855.6164757538
 30
0.0
 11
2.828427124746213
 21
0.0
 31
0.0
210
0.0
220
0.0
230
1.0
 40
0.7070798567
 41
0.0
 42
1.570796326794897
  0
LINE
  5
8E
330
1F
100
AcDbEntity
  8
0
  6
Continuous
 62
     7
370
    15
100
AcDbLine
 10
477.2906401557
 20
857.6163827963
 30
0.0
 11
479.2906367582
 21
857.6163827963
 31
0.0
  0
ELLIPSE
  5
8F
330
1F
100
AcDbEntity
  8
0
  6
Continuous
 62
     7
370
    15
100
AcDbEllipse
 10
477.2906403942
 20
855.6164757538
 30
0.0
 11
2.828427124746156
 21
0.0
 31
0.0
210
0.0
220
0.0
230
1.0
 40
0.7070798567
 41
1.570796326794897
 42
3.141592653589793
  0
LINE
  5
90
330
1F
100
AcDbEntity
  8
0
  6
Continuous
 62
     7
370
    15
100
AcDbLine
 10
474.4622134966
 20
855.6164681501
 30
0.0
 11
474.4622134966
 21
233.6401596255
 31
0.0
  0
LINE
  5
91
330
1F
100
AcDbEntity
  8
0
  6
Continuous
 62
     7
370
    15
100
AcDbLine
 10
472.1190655035
 20
233.6401596255
 30
0.0
 11
474.4622134966
 21
233.6401596255
 31
0.0
  0
LINE
  5
92
330
1F
100
AcDbEntity
  8
0
  6
Continuous
 62
     7
370
    15
100
AcDbLine
 10
472.1190655035
 20
855.6164681501
 30
0.0
 11
472.1190655035
 21
233.6401596255
 31
0.0
  0
ELLIPSE
  5
93
330
1F
100
AcDbEntity
  8
0
  6
Continuous
 62
     7
370
    15
100
AcDbEllipse
 10
469.2906403941
 20
855.6164757538
 30
0.0
 11
2.828427124746213
 21
0.0
 31
0.0
210
0.0
220
0.0
230
1.0
 40
0.7070798567
 41
0.0
 42
1.570796326794897
  0
LINE
  5
94
330
1F
100
AcDbEntity
  8
0
  6
Continuous
 62
     7
370
    15
100
AcDbLine
 10
467.2906422418
 20
857.6163827963
 30
0.0
 11
469.2906388444
 21
857.6163827963
 31
0.0
  0
ELLIPSE
  5
95
330
1F
100
AcDbEntity
  8
0
  6
Continuous
 62
     7
370
    15
100
AcDbEllipse
 10
467.2906403942
 20
855.6164757538
 30
0.0
 11
2.828427124746156
 21
0.0
 31
0.0
210
0.0
220
0.0
230
1.0
 40
0.7070798567
 41
1.570796326794897
 42
3.141592653589793
  0
LINE
  5
96
330
1F
100
AcDbEntity
  8
0
  6
Continuous
 62
     7
370
    15
100
AcDbLine
 10
464.4622155827
 20
855.6164681501
 30
0.0
 11
464.4622155827
 21
233.6401596255
 31
0.0
  0
LINE
  5
97
330
1F
100
AcDbEntity
  8
0
  6
Continuous
 62
     7
370
    15
100
AcDbLine
 10
462.1190675896
 20
233.6401596255
 30
0.0
 11
464.4622155827
 21
233.6401596255
 31
0.0
  0
LINE
  5
98
330
1F
100
AcDbEntity
  8
0
  6
Continuous
 62
     7
370
    15
100
AcDbLine
 10
462.1190675896
 20
855.6164681501
 30
0.0
 11
462.1190675896
 21
233.6401596255
 31
0.0
  0
ELLIPSE
  5
99
330
1F
100
AcDbEntity
  8
0
  6
Continuous
 62
     7
370
    15
100
AcDbEllipse
 10
459.2906403941
 20
855.6164757538
 30
0.0
 11
2.828427124746213
 21
0.0
 31
0.0
210
0.0
220
0.0
230
1.0
 40
0.7070798567
 41
0.0
 42
1.570796326794897
  0
LINE
  5
9A
330
1F
100
AcDbEntity
  8
0
  6
Continuous
 62
     7
370
    15
100
AcDbLine
 10
457.2906368774
 20
857.6163827963
 30
0.0
 11
459.2906409305
 21
857.6163827963
 31
0.0
  0
ELLIPSE
  5
9B
330
1F
100
AcDbEntity
  8
0
  6
Continuous
 62
     7
370
    15
100
AcDbEllipse
 10
457.2906403941
 20
855.6164757538
 30
0.0
 11
2.828427124746213
 21
0.0
 31
0.0
210
0.0
220
0.0
230
1.0
 40
0.7070798567
 41
1.570796326794897
 42
3.141592653589793
  0
LINE
  5
9C
330
1F
100
AcDbEntity
  8
0
  6
Continuous
 62
     7
370
    15
100
AcDbLine
 10
454.4622102183
 20
855.6164681501
 30
0.0
 11
454.4622102183
 21
233.6401596255
 31
0.0
  0
LINE
  5
9D
330
1F
100
AcDbEntity
  8
0
  6
Continuous
 62
     7
370
    15
100
AcDbLine
 10
452.1190696758
 20
233.6401596255
 30
0.0
 11
454.4622102183
 21
233.6401596255
 31
0.0
  0
LINE
  5
9E
330
1F
100
AcDbEntity
  8
0
  6
Continuous
 62
     7
370
    15
100
AcDbLine
 10
452.1190696758
 20
855.6164681501
 30
0.0
 11
452.1190696758
 21
233.6401596255
 31
0.0
  0
ELLIPSE
  5
9F
330
1F
100
AcDbEntity
  8
0
  6
Continuous
 62
     7
370
    15
100
AcDbEllipse
 10
449.2906403941
 20
855.6164757538
 30
0.0
 11
2.82842712474627
 21
0.0
 31
0.0
210
0.0
220
0.0
230
1.0
 40
0.7070798567
 41
0.0
 42
1.570796326794897
  0
LINE
  5
A0
330
1F
100
AcDbEntity
  8
0
  6
Continuous
 62
     7
370
    15
100
AcDbLine
 10
447.2906389636
 20
857.6163827963
 30
0.0
 11
449.2906430167
 21
857.6163827963
 31
0.0
  0
ELLIPSE
  5
A1
330
1F
100
AcDbEntity
  8
0
  6
Continuous
 62
     7
370
    15
100
AcDbEllipse
 10
447.2906403941
 20
855.6164757538
 30
0.0
 11
2.828427124746213
 21
0.0
 31
0.0
210
0.0
220
0.0
230
1.0
 40
0.7070798567
 41
1.570796326794897
 42
3.141592653589793
  0
LINE
  5
A2
330
1F
100
AcDbEntity
  8
0
  6
Continuous
 62
     7
370
    15
100
AcDbLine
 10
444.4622123045
 20
855.6164681501
 30
0.0
 11
444.4622123045
 21
233.6401596255
 31
0.0
  0
LINE
  5
A3
330
1F
100
AcDbEntity
  8
0
  6
Continuous
 62
     7
370
    15
100
AcDbLine
 10
442.1190643114
 20
233.6401596255
 30
0.0
 11
444.4622123045
 21
233.6401596255
 31
0.0
  0
LINE
  5
A4
330
1F
100
AcDbEntity
  8
0
  6
Continuous
 62
     7
370
    15
100
AcDbLine
 10
442.1190643114
 20
855.6164681501
 30
0.0
 11
442.1190643114
 21
233.6401596255
 31
0.0
  0
ELLIPSE
  5
A5
330
1F
100
AcDbEntity
  8
0
  6
Continuous
 62
     7
370
    15
100
AcDbEllipse
 10
439.2906403941
 20
855.6164757538
 30
0.0
 11
2.82842712474627
 21
0.0
 31
0.0
210
0.0
220
0.0
230
1.0
 40
0.7070798567
 41
0.0
 42
1.570796326794897
  0
LINE
  5
A6
330
1F
100
AcDbEntity
  8
0
  6
Continuous
 62
     7
370
    15
100
AcDbLine
 10
437.2906410497
 20
857.6163827963
 30
0.0
 11
439.2906376523
 21
857.6163827963
 31
0.0
  0
ELLIPSE
  5
A7
330
1F
100
AcDbEntity
  8
0
  6
Continuous
 62
     7
370
    15
100
AcDbEllipse
 10
437.2906403941
 20
855.6164757538
 30
0.0
 11
2.828427124746213
 21
0.0
 31
0.0
210
0.0
220
0.0
230
1.0
 40
0.7070798567
 41
1.570796326794897
 42
3.141592653589793
  0
LINE
  5
A8
330
1F
100
AcDbEntity
  8
0
  6
Continuous
 62
     7
370
    15
100
AcDbLine
 10
434.4622143906
 20
855.6164681501
 30
0.0
 11
434.4622143906
 21
233.6401596255
 31
0.0
  0
LINE
  5
A9
330
1F
100
AcDbEntity
  8
0
  6
Continuous
 62
     7
370
    15
100
AcDbLine
 10
432.1190663975
 20
233.6401596255
 30
0.0
 11
434.4622143906
 21
233.6401596255
 31
0.0
  0
LINE
  5
AA
330
1F
100
AcDbEntity
  8
0
  6
Continuous
 62
     7
370
    15
100
AcDbLine
 10
432.1190663975
 20
855.6164681501
 30
0.0
 11
432.1190663975
 21
233.6401596255
 31
0.0
  0
ELLIPSE
  5
AB
330
1F
100
AcDbEntity
  8
0
  6
Continuous
 62
     7
370
    15
100
AcDbEllipse
 10
429.2906403941
 20
855.6164757538
 30
0.0
 11
2.828427124746213
 21
0.0
 31
0.0
210
0.0
220
0.0
230
1.0
 40
0.7070798567
 41
0.0
 42
1.570796326794897
  0
LINE
  5
AC
330
1F
100
AcDbEntity
  8
0
  6
Continuous
 62
     7
370
    15
100
AcDbLine
 10
427.2906431359
 20
857.6163827963
 30
0.0
 11
429.290647189
 21
857.6163827963
 31
0.0
  0
ELLIPSE
  5
AD
330
1F
100
AcDbEntity
  8
0
  6
Continuous
 62
     7
370
    15
100
AcDbEllipse
 10
427.2906403941
 20
855.6164757538
 30
0.0
 11
2.828427124746156
 21
0.0
 31
0.0
210
0.0
220
0.0
230
1.0
 40
0.7070798567
 41
1.570796326794897
 42
3.141592653589793
  0
LINE
  5
AE
330
1F
100
AcDbEntity
  8
0
  6
Continuous
 62
     7
370
    15
100
AcDbLine
 10
424.4622090262
 20
855.6164681501
 30
0.0
 11
424.4622090262
 21
233.6401596255
 31
0.0
  0
LINE
  5
AF
330
1F
100
AcDbEntity
  8
0
  6
Continuous
 62
     7
370
    15
100
AcDbLine
 10
422.1190610331
 20
233.6401596255
 30
0.0
 11
424.4622090262
 21
233.6401596255
 31
0.0
  0
LINE
  5
B0
330
1F
100
AcDbEntity
  8
0
  6
Continuous
 62
     7
370
    15
100
AcDbLine
 10
422.1190610331
 20
855.6164681501
 30
0.0
 11
422.1190610331
 21
233.6401596255
 31
0.0
  0
ELLIPSE
  5
B1
330
1F
100
AcDbEntity
  8
0
  6
Continuous
 62
     7
370
    15
100
AcDbEllipse
 10
419.2906403941
 20
855.6164757538
 30
0.0
 11
2.828427124746213
 21
0.0
 31
0.0
210
0.0
220
0.0
230
1.0
 40
0.7070798567
 41
0.0
 42
1.570796326794897
  0
LINE
  5
B2
330
1F
100
AcDbEntity
  8
0
  6
Continuous
 62
     7
370
    15
100
AcDbLine
 10
417.2906377715
 20
857.6163827963
 30
0.0
 11
419.2906418246
 21
857.6163827963
 31
0.0
  0
ELLIPSE
  5
B3
330
1F
100
AcDbEntity
  8
0
  6
Continuous
 62
     7
370
    15
100
AcDbEllipse
 10
417.2906403941
 20
855.6164757538
 30
0.0
 11
2.828427124746156
 21
0.0
 31
0.0
210
0.0
220
0.0
230
1.0
 40
0.7070798567
 41
1.570796326794897
 42
3.141592653589793
  0
LINE
  5
B4
330
1F
100
AcDbEntity
  8
0
  6
Continuous
 62
     7
370
    15
100
AcDbLine
 10
414.462218563
 20
855.6164681501
 30
0.0
 11
414.462218563
 21
233.6401596255
 31
0.0
  0
LINE
  5
B5
330
1F
100
AcDbEntity
  8
0
  6
Continuous
 62
     7
370
    15
100
AcDbLine
 10
412.1190705699
 20
233.6401596255
 30
0.0
 11
414.462218563
 21
233.6401596255
 31
0.0
  0
LINE
  5
B6
330
1F
100
AcDbEntity
  8
0
  6
Continuous
 62
     7
370
    15
100
AcDbLine
 10
412.1190705699
 20
855.6164681501
 30
0.0
 11
412.1190705699
 21
233.6401596255
 31
0.0
  0
ELLIPSE
  5
B7
330
1F
100
AcDbEntity
  8
0
  6
Continuous
 62
     7
370
    15
100
AcDbEllipse
 10
409.2906403941
 20
855.6164757538
 30
0.0
 11
2.828427124746213
 21
0.0
 31
0.0
210
0.0
220
0.0
230
1.0
 40
0.7070798567
 41
0.0
 42
1.570796326794897
  0
LINE
  5
B8
330
1F
100
AcDbEntity
  8
0
  6
Continuous
 62
     7
370
    15
100
AcDbLine
 10
407.2906473082
 20
857.6163827963
 30
0.0
 11
409.2906364602
 21
857.6163827963
 31
0.0
  0
ELLIPSE
  5
B9
330
1F
100
AcDbEntity
  8
0
  6
Continuous
 62
     7
370
    15
100
AcDbEllipse
 10
407.2906403941
 20
855.6164757538
 30
0.0
 11
2.828427124746156
 21
0.0
 31
0.0
210
0.0
220
0.0
230
1.0
 40
0.7070798567
 41
1.570796326794897
 42
3.141592653589793
  0
LINE
  5
BA
330
1F
100
AcDbEntity
  8
0
  6
Continuous
 62
     7
370
    15
100
AcDbLine
 10
404.4622131985
 20
855.6164681501
 30
0.0
 11
404.4622131985
 21
233.6401596255
 31
0.0
  0
LINE
  5
BB
330
1F
100
AcDbEntity
  8
0
  6
Continuous
 62
     7
370
    15
100
AcDbLine
 10
402.1190652055
 20
233.6401596255
 30
0.0
 11
404.4622131985
 21
233.6401596255
 31
0.0
  0
LINE
  5
BC
330
1F
100
AcDbEntity
  8
0
  6
Continuous
 62
     7
370
    15
100
AcDbLine
 10
402.1190652055
 20
855.6164681501
 30
0.0
 11
402.1190652055
 21
233.6401596255
 31
0.0
  0
ELLIPSE
  5
BD
330
1F
100
AcDbEntity
  8
0
  6
Continuous
 62
     7
370
    15
100
AcDbEllipse
 10
399.2906403941
 20
855.6164757538
 30
0.0
 11
2.828427124746213
 21
0.0
 31
0.0
210
0.0
220
0.0
230
1.0
 40
0.7070798567
 41
0.0
 42
1.570796326794897
  0
LINE
  5
BE
330
1F
100
AcDbEntity
  8
0
  6
Continuous
 62
     7
370
    15
100
AcDbLine
 10
397.2906419438
 20
857.6163827963
 30
0.0
 11
399.2906459969
 21
857.6163827963
 31
0.0
  0
ELLIPSE
  5
BF
330
1F
100
AcDbEntity
  8
0
  6
Continuous
 62
     7
370
    15
100
AcDbEllipse
 10
397.2906403941
 20
855.6164757538
 30
0.0
 11
2.828427124746156
 21
0.0
 31
0.0
210
0.0
220
0.0
230
1.0
 40
0.7070798567
 41
1.570796326794897
 42
3.141592653589793
  0
LINE
  5
C0
330
1F
100
AcDbEntity
  8
0
  6
Continuous
 62
     7
370
    15
100
AcDbLine
 10
394.4622078341
 20
855.6164681501
 30
0.0
 11
394.4622078341
 21
233.6401596255
 31
0.0
  0
LINE
  5
C1
330
1F
100
AcDbEntity
  8
0
  6
Continuous
 62
     7
370
    15
100
AcDbLine
 10
392.1190747422
 20
233.6401596255
 30
0.0
 11
394.4622078341
 21
233.6401596255
 31
0.0
  0
LINE
  5
C2
330
1F
100
AcDbEntity
  8
0
  6
Continuous
 62
     7
370
    15
100
AcDbLine
 10
392.1190747422
 20
855.6164681501
 30
0.0
 11
392.1190747422
 21
233.6401596255
 31
0.0
  0
ELLIPSE
  5
C3
330
1F
100
AcDbEntity
  8
0
  6
Continuous
 62
     7
370
    15
100
AcDbEllipse
 10
389.2906403941
 20
855.6164757538
 30
0.0
 11
2.828427124746327
 21
0.0
 31
0.0
210
0.0
220
0.0
230
1.0
 40
0.7070798567
 41
0.0
 42
1.570796326794897
  0
LINE
  5
C4
330
1F
100
AcDbEntity
  8
0
  6
Continuous
 62
     7
370
    15
100
AcDbLine
 10
387.2906365794
 20
857.6163827963
 30
0.0
 11
389.2906406325
 21
857.6163827963
 31
0.0
  0
ELLIPSE
  5
C5
330
1F
100
AcDbEntity
  8
0
  6
Continuous
 62
     7
370
    15
100
AcDbEllipse
 10
387.2906403941
 20
855.6164757538
 30
0.0
 11
2.828427124746213
 21
0.0
 31
0.0
210
0.0
220
0.0
230
1.0
 40
0.7070798567
 41
1.570796326794897
 42
3.141592653589793
  0
LINE
  5
C6
330
1F
100
AcDbEntity
  8
0
  6
Continuous
 62
     7
370
    15
100
AcDbLine
 10
384.4622173709
 20
855.6164681501
 30
0.0
 11
384.4622173709
 21
233.6401596255
 31
0.0
  0
LINE
  5
C7
330
1F
100
AcDbEntity
  8
0
  6
Continuous
 62
     7
370
    15
100
AcDbLine
 10
382.1190693778
 20
233.6401596255
 30
0.0
 11
384.4622173709
 21
233.6401596255
 31
0.0
  0
LINE
  5
C8
330
1F
100
AcDbEntity
  8
0
  6
Continuous
 62
     7
370
    15
100
AcDbLine
 10
382.1190693778
 20
855.6164681501
 30
0.0
 11
382.1190693778
 21
233.6401596255
 31
0.0
  0
ELLIPSE
  5
C9
330
1F
100
AcDbEntity
  8
0
  6
Continuous
 62
     7
370
    15
100
AcDbEllipse
 10
379.2906403941
 20
855.6164757538
 30
0.0
 11
2.828427124746327
 21
0.0
 31
0.0
210
0.0
220
0.0
230
1.0
 40
0.7070798567
 41
0.0
 42
1.570796326794897
  0
LINE
  5
CA
330
1F
100
AcDbEntity
  8
0
  6
Continuous
 62
     7
370
    15
100
AcDbLine
 10
377.2906461161
 20
857.6163827963
 30
0.0
 11
379.2906352681
 21
857.6163827963
 31
0.0
  0
ELLIPSE
  5
CB
330
1F
100
AcDbEntity
  8
0
  6
Continuous
 62
     7
370
    15
100
AcDbEllipse
 10
377.2906403941
 20
855.6164757538
 30
0.0
 11
2.828427124746213
 21
0.0
 31
0.0
210
0.0
220
0.0
230
1.0
 40
0.7070798567
 41
1.570796326794897
 42
3.141592653589793
  0
LINE
  5
CC
330
1F
100
AcDbEntity
  8
0
  6
Continuous
 62
     7
370
    15
100
AcDbLine
 10
374.4622120064
 20
855.6164681501
 30
0.0
 11
374.4622120064
 21
233.6401596255
 31
0.0
  0
LINE
  5
CD
330
1F
100
AcDbEntity
  8
0
  6
Continuous
 62
     7
370
    15
100
AcDbLine
 10
372.1190640134
 20
233.6401596255
 30
0.0
 11
374.4622120064
 21
233.6401596255
 31
0.0
  0
LINE
  5
CE
330
1F
100
AcDbEntity
  8
0
  6
Continuous
 62
     7
370
    15
100
AcDbLine
 10
372.1190640134
 20
855.6164681501
 30
0.0
 11
372.1190640134
 21
233.6401596255
 31
0.0
  0
ELLIPSE
  5
CF
330
1F
100
AcDbEntity
  8
0
  6
Continuous
 62
     7
370
    15
100
AcDbEllipse
 10
369.2906403941
 20
855.6164757538
 30
0.0
 11
2.82842712474627
 21
0.0
 31
0.0
210
0.0
220
0.0
230
1.0
 40
0.7070798567
 41
0.0
 42
1.570796326794897
  0
LINE
  5
D0
330
1F
100
AcDbEntity
  8
0
  6
Continuous
 62
     7
370
    15
100
AcDbLine
 10
367.2906407517
 20
857.6163827963
 30
0.0
 11
369.2906448048
 21
857.6163827963
 31
0.0
  0
ELLIPSE
  5
D1
330
1F
100
AcDbEntity
  8
0
  6
Continuous
 62
     7
370
    15
100
AcDbEllipse
 10
367.2906403941
 20
855.6164757538
 30
0.0
 11
2.828427124746156
 21
0.0
 31
0.0
210
0.0
220
0.0
230
1.0
 40
0.7070798567
 41
1.570796326794897
 42
3.141592653589793
  0
LINE
  5
D2
330
1F
100
AcDbEntity
  8
0
  6
Continuous
 62
     7
370
    15
100
AcDbLine
 10
364.462206642
 20
855.6164681501
 30
0.0
 11
364.462206642
 21
233.6401596255
 31
0.0
  0
LINE
  5
D3
330
1F
100
AcDbEntity
  8
0
  6
Continuous
 62
     7
370
    15
100
AcDbLine
 10
362.1190735501
 20
233.6401596255
 30
0.0
 11
364.462206642
 21
233.6401596255
 31
0.0
  0
LINE
  5
D4
330
1F
100
AcDbEntity
  8
0
  6
Continuous
 62
     7
370
    15
100
AcDbLine
 10
362.1190735501
 20
855.6164681501
 30
0.0
 11
362.1190735501
 21
233.6401596255
 31
0.0
  0
ELLIPSE
  5
D5
330
1F
100
AcDbEntity
  8
0
  6
Continuous
 62
     7
370
    15
100
AcDbEllipse
 10
359.2906403941
 20
855.6164757538
 30
0.0
 11
2.82842712474627
 21
0.0
 31
0.0
210
0.0
220
0.0
230
1.0
 40
0.7070798567
 41
0.0
 42
1.570796326794897
  0
LINE
  5
D6
330
1F
100
AcDbEntity
  8
0
  6
Continuous
 62
     7
370
    15
100
AcDbLine
 10
357.2906353873
 20
857.6163827963
 30
0.0
 11
359.2906394404
 21
857.6163827963
 31
0.0
  0
ELLIPSE
  5
D7
330
1F
100
AcDbEntity
  8
0
  6
Continuous
 62
     7
370
    15
100
AcDbEllipse
 10
357.2906403941
 20
855.6164757538
 30
0.0
 11
2.828427124746156
 21
0.0
 31
0.0
210
0.0
220
0.0
230
1.0
 40
0.7070798567
 41
1.570796326794897
 42
3.141592653589793
  0
LINE
  5
D8
330
1F
100
AcDbEntity
  8
0
  6
Continuous
 62
     7
370
    15
100
AcDbLine
 10
354.4622161788
 20
855.6164681501
 30
0.0
 11
354.4622161788
 21
233.6401596255
 31
0.0
  0
LINE
  5
D9
330
1F
100
AcDbEntity
  8
0
  6
Continuous
 62
     7
370
    15
100
AcDbLine
 10
352.1190681857
 20
233.6401596255
 30
0.0
 11
354.4622161788
 21
233.6401596255
 31
0.0
  0
LINE
  5
DA
330
1F
100
AcDbEntity
  8
0
  6
Continuous
 62
     7
370
    15
100
AcDbLine
 10
352.1190681857
 20
855.6164681501
 30
0.0
 11
352.1190681857
 21
233.6401596255
 31
0.0
  0
ELLIPSE
  5
DB
330
1F
100
AcDbEntity
  8
0
  6
Continuous
 62
     7
370
    15
100
AcDbEllipse
 10
349.2906403941
 20
855.6164757538
 30
0.0
 11
2.82842712474627
 21
0.0
 31
0.0
210
0.0
220
0.0
230
1.0
 40
0.7070798567
 41
0.0
 42
1.570796326794897
  0
LINE
  5
DC
330
1F
100
AcDbEntity
  8
0
  6
Continuous
 62
     7
370
    15
100
AcDbLine
 10
347.290644924
 20
857.6163827963
 30
0.0
 11
349.290634076
 21
857.6163827963
 31
0.0
  0
ELLIPSE
  5
DD
330
1F
100
AcDbEntity
  8
0
  6
Continuous
 62
     7
370
    15
100
AcDbEllipse
 10
347.2906403942
 20
855.6164757538
 30
0.0
 11
2.828427124746156
 21
0.0
 31
0.0
210
0.0
220
0.0
230
1.0
 40
0.7070798567
 41
1.570796326794897
 42
3.141592653589793
  0
LINE
  5
DE
330
1F
100
AcDbEntity
  8
0
  6
Continuous
 62
     7
370
    15
100
AcDbLine
 10
344.4622108144
 20
855.6164681501
 30
0.0
 11
344.4622108144
 21
233.6401596255
 31
0.0
  0
LINE
  5
DF
330
1F
100
AcDbEntity
  8
0
  6
Continuous
 62
     7
370
    15
100
AcDbLine
 10
342.1190628213
 20
233.6401596255
 30
0.0
 11
344.4622108144
 21
233.6401596255
 31
0.0
  0
LINE
  5
E0
330
1F
100
AcDbEntity
  8
0
  6
Continuous
 62
     7
370
    15
100
AcDbLine
 10
342.1190628213
 20
855.6164681501
 30
0.0
 11
342.1190628213
 21
233.6401596255
 31
0.0
  0
ELLIPSE
  5
E1
330
1F
100
AcDbEntity
  8
0
  6
Continuous
 62
     7
370
    15
100
AcDbEllipse
 10
339.2906403941
 20
855.6164757538
 30
0.0
 11
2.82842712474627
 21
0.0
 31
0.0
210
0.0
220
0.0
230
1.0
 40
0.7070798567
 41
0.0
 42
1.570796326794897
  0
LINE
  5
E2
330
1F
100
AcDbEntity
  8
0
  6
Continuous
 62
     7
370
    15
100
AcDbLine
 10
337.2906395596
 20
857.6163827963
 30
0.0
 11
339.2906436127
 21
857.6163827963
 31
0.0
  0
ELLIPSE
  5
E3
330
1F
100
AcDbEntity
  8
0
  6
Continuous
 62
     7
370
    15
100
AcDbEllipse
 10
337.2906403942
 20
855.6164757538
 30
0.0
 11
2.828427124746156
 21
0.0
 31
0.0
210
0.0
220
0.0
230
1.0
 40
0.7070798567
 41
1.570796326794897
 42
3.141592653589793
  0
LINE
  5
E4
330
1F
100
AcDbEntity
  8
0
  6
Continuous
 62
     7
370
    15
100
AcDbLine
 10
334.4622203511
 20
855.6164681501
 30
0.0
 11
334.4622203511
 21
233.6401596255
 31
0.0
  0
LINE
  5
E5
330
1F
100
AcDbEntity
  8
0
  6
Continuous
 62
     7
370
    15
100
AcDbLine
 10
332.119072358
 20
233.6401596255
 30
0.0
 11
334.4622203511
 21
233.6401596255
 31
0.0
  0
LINE
  5
E6
330
1F
100
AcDbEntity
  8
0
  6
Continuous
 62
     7
370
    15
100
AcDbLine
 10
332.119072358
 20
855.6164681501
 30
0.0
 11
332.119072358
 21
233.6401596255
 31
0.0
  0
ELLIPSE
  5
E7
330
1F
100
AcDbEntity
  8
0
  6
Continuous
 62
     7
370
    15
100
AcDbEllipse
 10
329.2906403941
 20
855.6164757538
 30
0.0
 11
2.82842712474627
 21
0.0
 31
0.0
210
0.0
220
0.0
230
1.0
 40
0.7070798567
 41
0.0
 42
1.570796326794897
  0
LINE
  5
E8
330
1F
100
AcDbEntity
  8
0
  6
Continuous
 62
     7
370
    15
100
AcDbLine
 10
327.2906341952
 20
857.6163827963
 30
0.0
 11
329.2906382483
 21
857.6163827963
 31
0.0
  0
ELLIPSE
  5
E9
330
1F
100
AcDbEntity
  8
0
  6
Continuous
 62
     7
370
    15
100
AcDbEllipse
 10
327.2906403941
 20
855.6164757538
 30
0.0
 11
2.828427124746213
 21
0.0
 31
0.0
210
0.0
220
0.0
230
1.0
 40
0.7070798567
 41
1.570796326794897
 42
3.141592653589793
  0
LINE
  5
EA
330
1F
100
AcDbEntity
  8
0
  6
Continuous
 62
     7
370
    15
100
AcDbLine
 10
324.4622149867
 20
855.6164681501
 30
0.0
 11
324.4622149867
 21
233.6401596255
 31
0.0
  0
LINE
  5
EB
330
1F
100
AcDbEntity
  8
0
  6
Continuous
 62
     7
370
    15
100
AcDbLine
 10
322.1190669936
 20
233.6401596255
 30
0.0
 11
324.4622149867
 21
233.6401596255
 31
0.0
  0
LINE
  5
EC
330
1F
100
AcDbEntity
  8
0
  6
Continuous
 62
     7
370
    15
100
AcDbLine
 10
322.1190669936
 20
855.6164681501
 30
0.0
 11
322.1190669936
 21
233.6401596255
 31
0.0
  0
ELLIPSE
  5
ED
330
1F
100
AcDbEntity
  8
0
  6
Continuous
 62
     7
370
    15
100
AcDbEllipse
 10
319.2906403941
 20
855.6164757538
 30
0.0
 11
2.82842712474627
 21
0.0
 31
0.0
210
0.0
220
0.0
230
1.0
 40
0.7070798567
 41
0.0
 42
1.570796326794897
  0
LINE
  5
EE
330
1F
100
AcDbEntity
  8
0
  6
Continuous
 62
     7
370
    15
100
AcDbLine
 10
317.2906437319
 20
857.6163827963
 30
0.0
 11
319.2906477851
 21
857.6163827963
 31
0.0
  0
ELLIPSE
  5
EF
330
1F
100
AcDbEntity
  8
0
  6
Continuous
 62
     7
370
    15
100
AcDbEllipse
 10
317.2906403941
 20
855.6164757538
 30
0.0
 11
2.828427124746213
 21
0.0
 31
0.0
210
0.0
220
0.0
230
1.0
 40
0.7070798567
 41
1.570796326794897
 42
3.141592653589793
  0
LINE
  5
F0
330
1F
100
AcDbEntity
  8
0
  6
Continuous
 62
     7
370
    15
100
AcDbLine
 10
314.4622096223
 20
855.6164681501
 30
0.0
 11
314.4622096223
 21
233.6401596255
 31
0.0
  0
LINE
  5
F1
330
1F
100
AcDbEntity
  8
0
  6
Continuous
 62
     7
370
    15
100
AcDbLine
 10
312.1190616292
 20
233.6401596255
 30
0.0
 11
314.4622096223
 21
233.6401596255
 31
0.0
  0
LINE
  5
F2
330
1F
100
AcDbEntity
  8
0
  6
Continuous
 62
     7
370
    15
100
AcDbLine
 10
312.1190616292
 20
855.6164681501
 30
0.0
 11
312.1190616292
 21
233.6401596255
 31
0.0
  0
ELLIPSE
  5
F3
330
1F
100
AcDbEntity
  8
0
  6
Continuous
 62
     7
370
    15
100
AcDbEllipse
 10
309.2906403941
 20
855.6164757538
 30
0.0
 11
2.82842712474627
 21
0.0
 31
0.0
210
0.0
220
0.0
230
1.0
 40
0.7070798567
 41
0.0
 42
1.570796326794897
  0
LINE
  5
F4
330
1F
100
AcDbEntity
  8
0
  6
Continuous
 62
     7
370
    15
100
AcDbLine
 10
307.2906532687
 20
857.6163827963
 30
0.0
 11
309.2906424206
 21
857.6163827963
 31
0.0
  0
ELLIPSE
  5
F5
330
1F
100
AcDbEntity
  8
0
  6
Continuous
 62
     7
370
    15
100
AcDbEllipse
 10
307.2906403941
 20
855.6164757538
 30
0.0
 11
2.828427124746213
 21
0.0
 31
0.0
210
0.0
220
0.0
230
1.0
 40
0.7070798567
 41
1.570796326794897
 42
3.141592653589793
  0
LINE
  5
F6
330
1F
100
AcDbEntity
  8
0
  6
Continuous
 62
     7
370
    15
100
AcDbLine
 10
304.4622042578
 20
855.6164681501
 30
0.0
 11
304.4622042578
 21
233.6401596255
 31
0.0
  0
LINE
  5
F7
330
1F
100
AcDbEntity
  8
0
  6
Continuous
 62
     7
370
    15
100
AcDbLine
 10
302.1190562648
 20
233.6401596255
 30
0.0
 11
304.4622042578
 21
233.6401596255
 31
0.0
  0
LINE
  5
F8
330
1F
100
AcDbEntity
  8
0
  6
Continuous
 62
     7
370
    15
100
AcDbLine
 10
302.1190562648
 20
855.6164681501
 30
0.0
 11
302.1190562648
 21
233.6401596255
 31
0.0
  0
ELLIPSE
  5
F9
330
1F
100
AcDbEntity
  8
0
  6
Continuous
 62
     7
370
    15
100
AcDbEllipse
 10
299.2906403941
 20
855.6164757538
 30
0.0
 11
2.82842712474627
 21
0.0
 31
0.0
210
0.0
220
0.0
230
1.0
 40
0.7070798567
 41
0.0
 42
1.570796326794897
  0
LINE
  5
FA
330
1F
100
AcDbEntity
  8
0
  6
Continuous
 62
     7
370
    15
100
AcDbLine
 10
297.2906330031
 20
857.6163827963
 30
0.0
 11
299.2906370562
 21
857.6163827963
 31
0.0
  0
ELLIPSE
  5
FB
330
1F
100
AcDbEntity
  8
0
  6
Continuous
 62
     7
370
    15
100
AcDbEllipse
 10
297.2906403941
 20
855.6164757538
 30
0.0
 11
2.828427124746156
 21
0.0
 31
0.0
210
0.0
220
0.0
230
1.0
 40
0.7070798567
 41
1.570796326794897
 42
3.141592653589793
  0
LINE
  5
FC
330
1F
100
AcDbEntity
  8
0
  6
Continuous
 62
     7
370
    15
100
AcDbLine
 10
294.4622137946
 20
855.6164681501
 30
0.0
 11
294.4622137946
 21
233.6401596255
 31
0.0
  0
LINE
  5
FD
330
1F
100
AcDbEntity
  8
0
  6
Continuous
 62
     7
370
    15
100
AcDbLine
 10
292.1190658015
 20
233.6401596255
 30
0.0
 11
294.4622137946
 21
233.6401596255
 31
0.0
  0
LINE
  5
FE
330
1F
100
AcDbEntity
  8
0
  6
Continuous
 62
     7
370
    15
100
AcDbLine
 10
292.1190658015
 20
855.6164681501
 30
0.0
 11
292.1190658015
 21
233.6401596255
 31
0.0
  0
ELLIPSE
  5
FF
330
1F
100
AcDbEntity
  8
0
  6
Continuous
 62
     7
370
    15
100
AcDbEllipse
 10
289.2906403941
 20
855.6164757538
 30
0.0
 11
2.82842712474627
 21
0.0
 31
0.0
210
0.0
220
0.0
230
1.0
 40
0.7070798567
 41
0.0
 42
1.570796326794897
  0
LINE
  5
100
330
1F
100
AcDbEntity
  8
0
  6
Continuous
 62
     7
370
    15
100
AcDbLine
 10
287.2906425399
 20
857.6163827963
 30
0.0
 11
289.290646593
 21
857.6163827963
 31
0.0
  0
ELLIPSE
  5
101
330
1F
100
AcDbEntity
  8
0
  6
Continuous
 62
     7
370
    15
100
AcDbEllipse
 10
287.2906403941
 20
855.6164757538
 30
0.0
 11
2.828427124746156
 21
0.0
 31
0.0
210
0.0
220
0.0
230
1.0
 40
0.7070798567
 41
1.570796326794897
 42
3.141592653589793
  0
LINE
  5
102
330
1F
100
AcDbEntity
  8
0
  6
Continuous
 62
     7
370
    15
100
AcDbLine
 10
284.4622233313
 20
855.6164681501
 30
0.0
 11
284.4622233313
 21
233.6401596255
 31
0.0
  0
LINE
  5
103
330
1F
100
AcDbEntity
  8
0
  6
Continuous
 62
     7
370
    15
100
AcDbLine
 10
282.1190753382
 20
233.6401596255
 30
0.0
 11
284.4622233313
 21
233.6401596255
 31
0.0
  0
LINE
  5
104
330
1F
100
AcDbEntity
  8
0
  6
Continuous
 62
     7
370
    15
100
AcDbLine
 10
282.1190753382
 20
855.6164681501
 30
0.0
 11
282.1190753382
 21
233.6401596255
 31
0.0
  0
ELLIPSE
  5
105
330
1F
100
AcDbEntity
  8
0
  6
Continuous
 62
     7
370
    15
100
AcDbEllipse
 10
279.2906403941
 20
855.6164757538
 30
0.0
 11
2.82842712474627
 21
0.0
 31
0.0
210
0.0
220
0.0
230
1.0
 40
0.7070798567
 41
0.0
 42
1.570796326794897
  0
LINE
  5
106
330
1F
100
AcDbEntity
  8
0
  6
Continuous
 62
     7
370
    15
100
AcDbLine
 10
277.2906520766
 20
857.6163827963
 30
0.0
 11
279.2906263274
 21
857.6163827963
 31
0.0
  0
ELLIPSE
  5
107
330
1F
100
AcDbEntity
  8
0
  6
Continuous
 62
     7
370
    15
100
AcDbEllipse
 10
277.2906403942
 20
855.6164757538
 30
0.0
 11
2.828427124746213
 21
0.0
 31
0.0
210
0.0
220
0.0
230
1.0
 40
0.7070798567
 41
1.570796326794897
 42
3.141592653589793
  0
LINE
  5
108
330
1F
100
AcDbEntity
  8
0
  6
Continuous
 62
     7
370
    15
100
AcDbLine
 10
274.4622030657
 20
855.6164681501
 30
0.0
 11
274.4622030657
 21
233.6401596255
 31
0.0
  0
LINE
  5
109
330
1F
100
AcDbEntity
  8
0
  6
Continuous
 62
     7
370
    15
100
AcDbLine
 10
272.1190550727
 20
233.6401596255
 30
0.0
 11
274.4622030657
 21
233.6401596255
 31
0.0
  0
LINE
  5
10A
330
1F
100
AcDbEntity
  8
0
  6
Continuous
 62
     7
370
    15
100
AcDbLine
 10
272.1190550727
 20
855.6164681501
 30
0.0
 11
272.1190550727
 21
233.6401596255
 31
0.0
  0
ELLIPSE
  5
10B
330
1F
100
AcDbEntity
  8
0
  6
Continuous
 62
     7
370
    15
100
AcDbEllipse
 10
269.2906403941
 20
855.6164757538
 30
0.0
 11
2.828427124746327
 21
0.0
 31
0.0
210
0.0
220
0.0
230
1.0
 40
0.7070798567
 41
0.0
 42
1.570796326794897
  0
LINE
  5
10C
330
1F
100
AcDbEntity
  8
0
  6
Continuous
 62
     7
370
    15
100
AcDbLine
 10
267.290631811
 20
857.6163827963
 30
0.0
 11
269.2906358641
 21
857.6163827963
 31
0.0
  0
ELLIPSE
  5
10D
330
1F
100
AcDbEntity
  8
0
  6
Continuous
 62
     7
370
    15
100
AcDbEllipse
 10
267.2906403941
 20
855.6164757538
 30
0.0
 11
2.828427124746213
 21
0.0
 31
0.0
210
0.0
220
0.0
230
1.0
 40
0.7070798567
 41
1.570796326794897
 42
3.141592653589793
  0
LINE
  5
10E
330
1F
100
AcDbEntity
  8
0
  6
Continuous
 62
     7
370
    15
100
AcDbLine
 10
264.4622126025
 20
855.6164681501
 30
0.0
 11
264.4622126025
 21
233.6401596255
 31
0.0
  0
LINE
  5
10F
330
1F
100
AcDbEntity
  8
0
  6
Continuous
 62
     7
370
    15
100
AcDbLine
 10
262.1190646094
 20
233.6401596255
 30
0.0
 11
264.4622126025
 21
233.6401596255
 31
0.0
  0
LINE
  5
110
330
1F
100
AcDbEntity
  8
0
  6
Continuous
 62
     7
370
    15
100
AcDbLine
 10
262.1190646094
 20
855.6164681501
 30
0.0
 11
262.1190646094
 21
233.6401596255
 31
0.0
  0
ELLIPSE
  5
111
330
1F
100
AcDbEntity
  8
0
  6
Continuous
 62
     7
370
    15
100
AcDbEllipse
 10
259.2906403941
 20
855.6164757538
 30
0.0
 11
2.828427124746327
 21
0.0
 31
0.0
210
0.0
220
0.0
230
1.0
 40
0.7070798567
 41
0.0
 42
1.570796326794897
  0
LINE
  5
112
330
1F
100
AcDbEntity
  8
0
  6
Continuous
 62
     7
370
    15
100
AcDbLine
 10
257.2906413478
 20
857.6163827963
 30
0.0
 11
259.2906454009
 21
857.6163827963
 31
0.0
  0
ELLIPSE
  5
113
330
1F
100
AcDbEntity
  8
0
  6
Continuous
 62
     7
370
    15
100
AcDbEllipse
 10
257.2906403941
 20
855.6164757538
 30
0.0
 11
2.828427124746213
 21
0.0
 31
0.0
210
0.0
220
0.0
230
1.0
 40
0.7070798567
 41
1.570796326794897
 42
3.141592653589793
  0
LINE
  5
114
330
1F
100
AcDbEntity
  8
0
  6
Continuous
 62
     7
370
    15
100
AcDbLine
 10
254.4622221392
 20
855.6164681501
 30
0.0
 11
254.4622221392
 21
233.6401596255
 31
0.0
  0
LINE
  5
115
330
1F
100
AcDbEntity
  8
0
  6
Continuous
 62
     7
370
    15
100
AcDbLine
 10
252.1190741461
 20
233.6401596255
 30
0.0
 11
254.4622221392
 21
233.6401596255
 31
0.0
  0
LINE
  5
116
330
1F
100
AcDbEntity
  8
0
  6
Continuous
 62
     7
370
    15
100
AcDbLine
 10
252.1190741461
 20
855.6164681501
 30
0.0
 11
252.1190741461
 21
233.6401596255
 31
0.0
  0
ELLIPSE
  5
117
330
1F
100
AcDbEntity
  8
0
  6
Continuous
 62
     7
370
    15
100
AcDbEllipse
 10
249.2906403941
 20
855.6164757538
 30
0.0
 11
2.828427124746298
 21
0.0
 31
0.0
210
0.0
220
0.0
230
1.0
 40
0.7070798567
 41
0.0
 42
1.570796326794897
  0
LINE
  5
118
330
1F
100
AcDbEntity
  8
0
  6
Continuous
 62
     7
370
    15
100
AcDbLine
 10
247.2906508845
 20
857.6163827963
 30
0.0
 11
249.2906549376
 21
857.6163827963
 31
0.0
  0
ELLIPSE
  5
119
330
1F
100
AcDbEntity
  8
0
  6
Continuous
 62
     7
370
    15
100
AcDbEllipse
 10
247.2906403942
 20
855.6164757538
 30
0.0
 11
2.828427124746241
 21
0.0
 31
0.0
210
0.0
220
0.0
230
1.0
 40
0.7070798567
 41
1.570796326794897
 42
3.141592653589793
  0
LINE
  5
11A
330
1F
100
AcDbEntity
  8
0
  6
Continuous
 62
     7
370
    15
100
AcDbLine
 10
244.4622018737
 20
855.6164681501
 30
0.0
 11
244.4622018737
 21
233.6401596255
 31
0.0
  0
LINE
  5
11B
330
1F
100
AcDbEntity
  8
0
  6
Continuous
 62
     7
370
    15
100
AcDbLine
 10
233.290652315
 20
233.6401596255
 30
0.0
 11
244.4622018737
 21
233.6401596255
 31
0.0
  0
ARC
  5
11C
330
1F
100
AcDbEntity
  8
0
  6
Continuous
 62
     7
370
    15
100
AcDbCircle
 10
233.2905701289
 20
237.6400855456
 30
0.0
 40
3.999925920915079
100
AcDbArc
 50
180.0011173073
 51
270.0011772506
  0
LINE
  5
11D
330
1F
100
AcDbEntity
  8
0
  6
Continuous
 62
     7
370
    15
100
AcDbLine
 10
229.2906442088
 20
867.6160156317
 30
0.0
 11
229.2906442088
 21
237.6400075443
 31
0.0
  0
LINE
  5
11E
330
1F
100
AcDbEntity
  8
0
  6
Continuous
 62
     7
370
    15
100
AcDbLine
 10
887.2906365794
 20
237.6400075443
 30
0.0
 11
887.2906365794
 21
867.6160156317
 31
0.0
  0
ARC
  5
11F
330
1F
100
AcDbEntity
  8
0
  6
Continuous
 62
     7
370
    15
100
AcDbCircle
 10
883.2907106592
 20
237.6400855456
 30
0.0
 40
3.999925920915057
100
AcDbArc
 50
269.9988227494
 51
359.9988826927
  0
LINE
  5
120
330
1F
100
AcDbEntity
  8
0
  6
Continuous
 62
     7
370
    15
100
AcDbLine
 10
552.1190674406
 20
233.6401596255
 30
0.0
 11
883.2906284732
 21
233.6401596255
 31
0.0
  0
LINE
  5
121
330
1F
100
AcDbEntity
  8
0
  6
Continuous
 62
     7
370
    15
100
AcDbLine
 10
552.1190674406
 20
855.6164681501
 30
0.0
 11
552.1190674406
 21
233.6401596255
 31
0.0
  0
ELLIPSE
  5
122
330
1F
100
AcDbEntity
  8
0
  6
Continuous
 62
     7
370
    15
100
AcDbEllipse
 10
549.2906403941
 20
855.6164757538
 30
0.0
 11
2.828427124746327
 21
0.0
 31
0.0
210
0.0
220
0.0
230
1.0
 40
0.7070798567
 41
0.0
 42
1.570796326794897
  0
LINE
  5
123
330
1F
100
AcDbEntity
  8
0
  6
Continuous
 62
     7
370
    15
100
AcDbLine
 10
547.2906404537
 20
857.6163827963
 30
0.0
 11
549.2906407815
 21
857.6163827963
 31
0.0
  0
ELLIPSE
  5
124
330
1F
100
AcDbEntity
  8
0
  6
Continuous
 62
     7
370
    15
100
AcDbEllipse
 10
547.2906403941
 20
855.6164757538
 30
0.0
 11
2.828427124746213
 21
0.0
 31
0.0
210
0.0
220
0.0
230
1.0
 40
0.7070798567
 41
1.570796326794897
 42
3.141592653589793
  0
LINE
  5
125
330
1F
100
AcDbEntity
  8
0
  6
Continuous
 62
     7
370
    15
100
AcDbLine
 10
544.4622128633
 20
855.6164681501
 30
0.0
 11
544.4622128633
 21
233.6401596255
 31
0.0
  0
LINE
  5
126
330
1F
100
AcDbEntity
  8
0
  6
Continuous
 62
     7
370
    15
100
AcDbLine
 10
228.2906272811
 20
237.6487340368
 30
0.0
 11
228.2906272811
 21
867.6247179098
 31
0.0
  0
LINE
  5
127
330
1F
100
AcDbEntity
  8
0
  6
Continuous
 62
     7
370
    15
100
AcDbLine
 10
888.2906535071
 20
867.6247179098
 30
0.0
 11
888.2906535071
 21
237.6487340368
 31
0.0
  0
LINE
  5
128
330
1F
100
AcDbEntity
  8
0
  6
Continuous
 62
     7
370
    15
100
AcDbLine
 10
261.119077484
 20
232.6489250697
 30
0.0
 11
262.1190646094
 21
233.6401596255
 31
0.0
  0
LINE
  5
129
330
1F
100
AcDbEntity
  8
0
  6
Continuous
 62
     7
370
    15
100
AcDbLine
 10
259.7048678797
 20
232.6612650938
 30
0.0
 11
261.119077484
 21
232.6489250697
 31
0.0
  0
LINE
  5
12A
330
1F
100
AcDbEntity
  8
0
  6
Continuous
 62
     7
370
    15
100
AcDbLine
 10
351.1190661591
 20
232.6489250697
 30
0.0
 11
352.1190681857
 21
233.6401596255
 31
0.0
  0
LINE
  5
12B
330
1F
100
AcDbEntity
  8
0
  6
Continuous
 62
     7
370
    15
100
AcDbLine
 10
349.7048565549
 20
232.6612650938
 30
0.0
 11
351.1190661591
 21
232.6489250697
 31
0.0
  0
LINE
  5
12C
330
1F
100
AcDbEntity
  8
0
  6
Continuous
 62
     7
370
    15
100
AcDbLine
 10
551.1190677424
 20
232.6489250697
 30
0.0
 11
552.1190674406
 21
233.6401596255
 31
0.0
  0
LINE
  5
12D
330
1F
100
AcDbEntity
  8
0
  6
Continuous
 62
     7
370
    15
100
AcDbLine
 10
549.7048539472
 20
232.6612650938
 30
0.0
 11
551.1190677424
 21
232.6489250697
 31
0.0
  0
LINE
  5
12E
330
1F
100
AcDbEntity
  8
0
  6
Continuous
 62
     7
370
    15
100
AcDbLine
 10
291.1190786761
 20
232.6489250697
 30
0.0
 11
292.1190658015
 21
233.6401596255
 31
0.0
  0
LINE
  5
12F
330
1F
100
AcDbEntity
  8
0
  6
Continuous
 62
     7
370
    15
100
AcDbLine
 10
289.7048392695
 20
232.6612650938
 30
0.0
 11
291.1190786761
 21
232.6489250697
 31
0.0
  0
LINE
  5
130
330
1F
100
AcDbEntity
  8
0
  6
Continuous
 62
     7
370
    15
100
AcDbLine
 10
521.1190679473
 20
232.6489250697
 30
0.0
 11
522.1190662485
 21
233.6401596255
 31
0.0
  0
LINE
  5
131
330
1F
100
AcDbEntity
  8
0
  6
Continuous
 62
     7
370
    15
100
AcDbLine
 10
519.7048546177
 20
232.6612650938
 30
0.0
 11
521.1190679473
 21
232.6489250697
 31
0.0
  0
LINE
  5
132
330
1F
100
AcDbEntity
  8
0
  6
Continuous
 62
     7
370
    15
100
AcDbLine
 10
331.1190703314
 20
232.6489250697
 30
0.0
 11
332.119072358
 21
233.6401596255
 31
0.0
  0
LINE
  5
133
330
1F
100
AcDbEntity
  8
0
  6
Continuous
 62
     7
370
    15
100
AcDbLine
 10
329.7048607272
 20
232.6612650938
 30
0.0
 11
331.1190703314
 21
232.6489250697
 31
0.0
  0
LINE
  5
134
330
1F
100
AcDbEntity
  8
0
  6
Continuous
 62
     7
370
    15
100
AcDbLine
 10
271.1190679473
 20
232.6489250697
 30
0.0
 11
272.1190550727
 21
233.6401596255
 31
0.0
  0
LINE
  5
135
330
1F
100
AcDbEntity
  8
0
  6
Continuous
 62
     7
370
    15
100
AcDbLine
 10
269.704858343
 20
232.6612650938
 30
0.0
 11
271.1190679473
 21
232.6489250697
 31
0.0
  0
LINE
  5
136
330
1F
100
AcDbEntity
  8
0
  6
Continuous
 62
     7
370
    15
100
AcDbLine
 10
411.1190685433
 20
232.6489250697
 30
0.0
 11
412.1190705699
 21
233.6401596255
 31
0.0
  0
LINE
  5
137
330
1F
100
AcDbEntity
  8
0
  6
Continuous
 62
     7
370
    15
100
AcDbLine
 10
409.704858939
 20
232.6612650938
 30
0.0
 11
411.1190685433
 21
232.6489250697
 31
0.0
  0
LINE
  5
138
330
1F
100
AcDbEntity
  8
0
  6
Continuous
 62
     7
370
    15
100
AcDbLine
 10
311.1190745038
 20
232.6489250697
 30
0.0
 11
312.1190616292
 21
233.6401596255
 31
0.0
  0
LINE
  5
139
330
1F
100
AcDbEntity
  8
0
  6
Continuous
 62
     7
370
    15
100
AcDbLine
 10
309.7048499984
 20
232.6612650938
 30
0.0
 11
311.1190745038
 21
232.6489250697
 31
0.0
  0
LINE
  5
13A
330
1F
100
AcDbEntity
  8
0
  6
Continuous
 62
     7
370
    15
100
AcDbLine
 10
401.1190631789
 20
232.6489250697
 30
0.0
 11
402.1190652055
 21
233.6401596255
 31
0.0
  0
LINE
  5
13B
330
1F
100
AcDbEntity
  8
0
  6
Continuous
 62
     7
370
    15
100
AcDbLine
 10
399.7048535746
 20
232.6612650938
 30
0.0
 11
401.1190631789
 21
232.6489250697
 31
0.0
  0
LINE
  5
13C
330
1F
100
AcDbEntity
  8
0
  6
Continuous
 62
     7
370
    15
100
AcDbLine
 10
341.1190607947
 20
232.6489250697
 30
0.0
 11
342.1190628213
 21
233.6401596255
 31
0.0
  0
LINE
  5
13D
330
1F
100
AcDbEntity
  8
0
  6
Continuous
 62
     7
370
    15
100
AcDbLine
 10
339.7048511904
 20
232.6612650938
 30
0.0
 11
341.1190607947
 21
232.6489250697
 31
0.0
  0
LINE
  5
13E
330
1F
100
AcDbEntity
  8
0
  6
Continuous
 62
     7
370
    15
100
AcDbLine
 10
421.1190739077
 20
232.6489250697
 30
0.0
 11
422.1190610331
 21
233.6401596255
 31
0.0
  0
LINE
  5
13F
330
1F
100
AcDbEntity
  8
0
  6
Continuous
 62
     7
370
    15
100
AcDbLine
 10
419.7048494023
 20
232.6612650938
 30
0.0
 11
421.1190739077
 21
232.6489250697
 31
0.0
  0
LINE
  5
140
330
1F
100
AcDbEntity
  8
0
  6
Continuous
 62
     7
370
    15
100
AcDbLine
 10
321.119064967
 20
232.6489250697
 30
0.0
 11
322.1190669936
 21
233.6401596255
 31
0.0
  0
LINE
  5
141
330
1F
100
AcDbEntity
  8
0
  6
Continuous
 62
     7
370
    15
100
AcDbLine
 10
319.7048553628
 20
232.6612650938
 30
0.0
 11
321.119064967
 21
232.6489250697
 31
0.0
  0
LINE
  5
142
330
1F
100
AcDbEntity
  8
0
  6
Continuous
 62
     7
370
    15
100
AcDbLine
 10
431.119064371
 20
232.6489250697
 30
0.0
 11
432.1190663975
 21
233.6401596255
 31
0.0
  0
LINE
  5
143
330
1F
100
AcDbEntity
  8
0
  6
Continuous
 62
     7
370
    15
100
AcDbLine
 10
429.7048547667
 20
232.6612650938
 30
0.0
 11
431.119064371
 21
232.6489250697
 31
0.0
  0
LINE
  5
144
330
1F
100
AcDbEntity
  8
0
  6
Continuous
 62
     7
370
    15
100
AcDbLine
 10
451.1190676492
 20
232.6489250697
 30
0.0
 11
452.1190696758
 21
233.6401596255
 31
0.0
  0
LINE
  5
145
330
1F
100
AcDbEntity
  8
0
  6
Continuous
 62
     7
370
    15
100
AcDbLine
 10
449.7048505944
 20
232.6612650938
 30
0.0
 11
451.1190676492
 21
232.6489250697
 31
0.0
  0
LINE
  5
146
330
1F
100
AcDbEntity
  8
0
  6
Continuous
 62
     7
370
    15
100
AcDbLine
 10
441.1190697354
 20
232.6489250697
 30
0.0
 11
442.1190643114
 21
233.6401596255
 31
0.0
  0
LINE
  5
147
330
1F
100
AcDbEntity
  8
0
  6
Continuous
 62
     7
370
    15
100
AcDbLine
 10
439.7048526806
 20
232.6612650938
 30
0.0
 11
441.1190697354
 21
232.6489250697
 31
0.0
  0
LINE
  5
148
330
1F
100
AcDbEntity
  8
0
  6
Continuous
 62
     7
370
    15
100
AcDbLine
 10
371.1190619868
 20
232.6489250697
 30
0.0
 11
372.1190640134
 21
233.6401596255
 31
0.0
  0
LINE
  5
149
330
1F
100
AcDbEntity
  8
0
  6
Continuous
 62
     7
370
    15
100
AcDbLine
 10
369.7048523825
 20
232.6612650938
 30
0.0
 11
371.1190619868
 21
232.6489250697
 31
0.0
  0
LINE
  5
14A
330
1F
100
AcDbEntity
  8
0
  6
Continuous
 62
     7
370
    15
100
AcDbLine
 10
301.1190691394
 20
232.6489250697
 30
0.0
 11
302.1190562648
 21
233.6401596255
 31
0.0
  0
LINE
  5
14B
330
1F
100
AcDbEntity
  8
0
  6
Continuous
 62
     7
370
    15
100
AcDbLine
 10
299.7048595351
 20
232.6612650938
 30
0.0
 11
301.1190691394
 21
232.6489250697
 31
0.0
  0
LINE
  5
14C
330
1F
100
AcDbEntity
  8
0
  6
Continuous
 62
     7
370
    15
100
AcDbLine
 10
275.4622199935
 20
232.6489250697
 30
0.0
 11
276.8764295977
 21
232.6612650938
 31
0.0
  0
LINE
  5
14D
330
1F
100
AcDbEntity
  8
0
  6
Continuous
 62
     7
370
    15
100
AcDbLine
 10
274.4622030657
 20
233.6401596255
 30
0.0
 11
275.4622199935
 21
232.6489250697
 31
0.0
  0
LINE
  5
14E
330
1F
100
AcDbEntity
  8
0
  6
Continuous
 62
     7
370
    15
100
AcDbLine
 10
495.4622113508
 20
232.6489250697
 30
0.0
 11
496.8764284056
 21
232.6612650938
 31
0.0
  0
LINE
  5
14F
330
1F
100
AcDbEntity
  8
0
  6
Continuous
 62
     7
370
    15
100
AcDbLine
 10
494.4622167748
 20
233.6401596255
 30
0.0
 11
495.4622113508
 21
232.6489250697
 31
0.0
  0
LINE
  5
150
330
1F
100
AcDbEntity
  8
0
  6
Continuous
 62
     7
370
    15
100
AcDbLine
 10
545.4622130272
 20
232.6489250697
 30
0.0
 11
546.8764272881
 21
232.6612650938
 31
0.0
  0
LINE
  5
151
330
1F
100
AcDbEntity
  8
0
  6
Continuous
 62
     7
370
    15
100
AcDbLine
 10
544.4622128633
 20
233.6401596255
 30
0.0
 11
545.4622130272
 21
232.6489250697
 31
0.0
  0
LINE
  5
152
330
1F
100
AcDbEntity
  8
0
  6
Continuous
 62
     7
370
    15
100
AcDbLine
 10
365.4622086686
 20
232.6489250697
 30
0.0
 11
366.876433174
 21
232.6612650938
 31
0.0
  0
LINE
  5
153
330
1F
100
AcDbEntity
  8
0
  6
Continuous
 62
     7
370
    15
100
AcDbLine
 10
364.462206642
 20
233.6401596255
 30
0.0
 11
365.4622086686
 21
232.6489250697
 31
0.0
  0
LINE
  5
154
330
1F
100
AcDbEntity
  8
0
  6
Continuous
 62
     7
370
    15
100
AcDbLine
 10
501.1190683943
 20
232.6489250697
 30
0.0
 11
502.1190666956
 21
233.6401596255
 31
0.0
  0
LINE
  5
155
330
1F
100
AcDbEntity
  8
0
  6
Continuous
 62
     7
370
    15
100
AcDbLine
 10
499.7048550647
 20
232.6612650938
 30
0.0
 11
501.1190683943
 21
232.6489250697
 31
0.0
  0
LINE
  5
156
330
1F
100
AcDbEntity
  8
0
  6
Continuous
 62
     7
370
    15
100
AcDbLine
 10
295.46220092
 20
232.6489250697
 30
0.0
 11
296.8764403266
 21
232.6612650938
 31
0.0
  0
LINE
  5
157
330
1F
100
AcDbEntity
  8
0
  6
Continuous
 62
     7
370
    15
100
AcDbLine
 10
294.4622137946
 20
233.6401596255
 30
0.0
 11
295.46220092
 21
232.6489250697
 31
0.0
  0
LINE
  5
158
330
1F
100
AcDbEntity
  8
0
  6
Continuous
 62
     7
370
    15
100
AcDbLine
 10
515.462214629
 20
232.6489250697
 30
0.0
 11
516.8764279586
 21
232.6612650938
 31
0.0
  0
LINE
  5
159
330
1F
100
AcDbEntity
  8
0
  6
Continuous
 62
     7
370
    15
100
AcDbLine
 10
514.4622126025
 20
233.6401596255
 30
0.0
 11
515.462214629
 21
232.6489250697
 31
0.0
  0
LINE
  5
15A
330
1F
100
AcDbEntity
  8
0
  6
Continuous
 62
     7
370
    15
100
AcDbLine
 10
285.4622104567
 20
232.6489250697
 30
0.0
 11
286.876420061
 21
232.6612650938
 31
0.0
  0
LINE
  5
15B
330
1F
100
AcDbEntity
  8
0
  6
Continuous
 62
     7
370
    15
100
AcDbLine
 10
284.4622233313
 20
233.6401596255
 30
0.0
 11
285.4622104567
 21
232.6489250697
 31
0.0
  0
LINE
  5
15C
330
1F
100
AcDbEntity
  8
0
  6
Continuous
 62
     7
370
    15
100
AcDbLine
 10
415.4622205895
 20
232.6489250697
 30
0.0
 11
416.8764301938
 21
232.6612650938
 31
0.0
  0
LINE
  5
15D
330
1F
100
AcDbEntity
  8
0
  6
Continuous
 62
     7
370
    15
100
AcDbLine
 10
414.462218563
 20
233.6401596255
 30
0.0
 11
415.4622205895
 21
232.6489250697
 31
0.0
  0
LINE
  5
15E
330
1F
100
AcDbEntity
  8
0
  6
Continuous
 62
     7
370
    15
100
AcDbLine
 10
281.1190584105
 20
232.6489250697
 30
0.0
 11
282.1190753382
 21
233.6401596255
 31
0.0
  0
LINE
  5
15F
330
1F
100
AcDbEntity
  8
0
  6
Continuous
 62
     7
370
    15
100
AcDbLine
 10
279.7048488063
 20
232.6612650938
 30
0.0
 11
281.1190584105
 21
232.6489250697
 31
0.0
  0
LINE
  5
160
330
1F
100
AcDbEntity
  8
0
  6
Continuous
 62
     7
370
    15
100
AcDbLine
 10
361.1190715235
 20
232.6489250697
 30
0.0
 11
362.1190735501
 21
233.6401596255
 31
0.0
  0
LINE
  5
161
330
1F
100
AcDbEntity
  8
0
  6
Continuous
 62
     7
370
    15
100
AcDbLine
 10
359.7048470181
 20
232.6612650938
 30
0.0
 11
361.1190715235
 21
232.6489250697
 31
0.0
  0
LINE
  5
162
330
1F
100
AcDbEntity
  8
0
  6
Continuous
 62
     7
370
    15
100
AcDbLine
 10
381.1190673512
 20
232.6489250697
 30
0.0
 11
382.1190693778
 21
233.6401596255
 31
0.0
  0
LINE
  5
163
330
1F
100
AcDbEntity
  8
0
  6
Continuous
 62
     7
370
    15
100
AcDbLine
 10
379.704857747
 20
232.6612650938
 30
0.0
 11
381.1190673512
 21
232.6489250697
 31
0.0
  0
LINE
  5
164
330
1F
100
AcDbEntity
  8
0
  6
Continuous
 62
     7
370
    15
100
AcDbLine
 10
355.4622182053
 20
232.6489250697
 30
0.0
 11
356.8764278096
 21
232.6612650938
 31
0.0
  0
LINE
  5
165
330
1F
100
AcDbEntity
  8
0
  6
Continuous
 62
     7
370
    15
100
AcDbLine
 10
354.4622161788
 20
233.6401596255
 30
0.0
 11
355.4622182053
 21
232.6489250697
 31
0.0
  0
LINE
  5
166
330
1F
100
AcDbEntity
  8
0
  6
Continuous
 62
     7
370
    15
100
AcDbLine
 10
315.4622116488
 20
232.6489250697
 30
0.0
 11
316.8764212531
 21
232.6612650938
 31
0.0
  0
LINE
  5
167
330
1F
100
AcDbEntity
  8
0
  6
Continuous
 62
     7
370
    15
100
AcDbLine
 10
314.4622096223
 20
233.6401596255
 30
0.0
 11
315.4622116488
 21
232.6489250697
 31
0.0
  0
LINE
  5
168
330
1F
100
AcDbEntity
  8
0
  6
Continuous
 62
     7
370
    15
100
AcDbLine
 10
265.4621997279
 20
232.6489250697
 30
0.0
 11
266.8764391345
 21
232.6612650938
 31
0.0
  0
LINE
  5
169
330
1F
100
AcDbEntity
  8
0
  6
Continuous
 62
     7
370
    15
100
AcDbLine
 10
264.4622126025
 20
233.6401596255
 30
0.0
 11
265.4621997279
 21
232.6489250697
 31
0.0
  0
LINE
  5
16A
330
1F
100
AcDbEntity
  8
0
  6
Continuous
 62
     7
370
    15
100
AcDbLine
 10
405.4622152251
 20
232.6489250697
 30
0.0
 11
406.8764248294
 21
232.6612650938
 31
0.0
  0
LINE
  5
16B
330
1F
100
AcDbEntity
  8
0
  6
Continuous
 62
     7
370
    15
100
AcDbLine
 10
404.4622131985
 20
233.6401596255
 30
0.0
 11
405.4622152251
 21
232.6489250697
 31
0.0
  0
LINE
  5
16C
330
1F
100
AcDbEntity
  8
0
  6
Continuous
 62
     7
370
    15
100
AcDbLine
 10
395.4622098607
 20
232.6489250697
 30
0.0
 11
396.8764194649
 21
232.6612650938
 31
0.0
  0
LINE
  5
16D
330
1F
100
AcDbEntity
  8
0
  6
Continuous
 62
     7
370
    15
100
AcDbLine
 10
394.4622078341
 20
233.6401596255
 30
0.0
 11
395.4622098607
 21
232.6489250697
 31
0.0
  0
LINE
  5
16E
330
1F
100
AcDbEntity
  8
0
  6
Continuous
 62
     7
370
    15
100
AcDbLine
 10
425.4622110528
 20
232.6489250697
 30
0.0
 11
426.876420657
 21
232.6612650938
 31
0.0
  0
LINE
  5
16F
330
1F
100
AcDbEntity
  8
0
  6
Continuous
 62
     7
370
    15
100
AcDbLine
 10
424.4622090262
 20
233.6401596255
 30
0.0
 11
425.4622110528
 21
232.6489250697
 31
0.0
  0
LINE
  5
170
330
1F
100
AcDbEntity
  8
0
  6
Continuous
 62
     7
370
    15
100
AcDbLine
 10
491.1190667552
 20
232.6489250697
 30
0.0
 11
492.1190687817
 21
233.6401596255
 31
0.0
  0
LINE
  5
171
330
1F
100
AcDbEntity
  8
0
  6
Continuous
 62
     7
370
    15
100
AcDbLine
 10
489.7048571509
 20
232.6612650938
 30
0.0
 11
491.1190667552
 21
232.6489250697
 31
0.0
  0
LINE
  5
172
330
1F
100
AcDbEntity
  8
0
  6
Continuous
 62
     7
370
    15
100
AcDbLine
 10
475.4622155231
 20
232.6489250697
 30
0.0
 11
476.8764251274
 21
232.6612650938
 31
0.0
  0
LINE
  5
173
330
1F
100
AcDbEntity
  8
0
  6
Continuous
 62
     7
370
    15
100
AcDbLine
 10
474.4622134966
 20
233.6401596255
 30
0.0
 11
475.4622155231
 21
232.6489250697
 31
0.0
  0
LINE
  5
174
330
1F
100
AcDbEntity
  8
0
  6
Continuous
 62
     7
370
    15
100
AcDbLine
 10
535.462214182
 20
232.6489250697
 30
0.0
 11
536.8764275116
 21
232.6612650938
 31
0.0
  0
LINE
  5
175
330
1F
100
AcDbEntity
  8
0
  6
Continuous
 62
     7
370
    15
100
AcDbLine
 10
534.4622140181
 20
233.6401596255
 30
0.0
 11
535.462214182
 21
232.6489250697
 31
0.0
  0
LINE
  5
176
330
1F
100
AcDbEntity
  8
0
  6
Continuous
 62
     7
370
    15
100
AcDbLine
 10
511.1190663081
 20
232.6489250697
 30
0.0
 11
512.1190683347
 21
233.6401596255
 31
0.0
  0
LINE
  5
177
330
1F
100
AcDbEntity
  8
0
  6
Continuous
 62
     7
370
    15
100
AcDbLine
 10
509.7048529786
 20
232.6612650938
 30
0.0
 11
511.1190663081
 21
232.6489250697
 31
0.0
  0
LINE
  5
178
330
1F
100
AcDbEntity
  8
0
  6
Continuous
 62
     7
370
    15
100
AcDbLine
 10
541.1190675002
 20
232.6489250697
 30
0.0
 11
542.1190676641
 21
233.6401596255
 31
0.0
  0
LINE
  5
179
330
1F
100
AcDbEntity
  8
0
  6
Continuous
 62
     7
370
    15
100
AcDbLine
 10
539.7048541707
 20
232.6612650938
 30
0.0
 11
541.1190675002
 21
232.6489250697
 31
0.0
  0
LINE
  5
17A
330
1F
100
AcDbEntity
  8
0
  6
Continuous
 62
     7
370
    15
100
AcDbLine
 10
435.4622164172
 20
232.6489250697
 30
0.0
 11
436.8764260215
 21
232.6612650938
 31
0.0
  0
LINE
  5
17B
330
1F
100
AcDbEntity
  8
0
  6
Continuous
 62
     7
370
    15
100
AcDbLine
 10
434.4622143906
 20
233.6401596255
 30
0.0
 11
435.4622164172
 21
232.6489250697
 31
0.0
  0
LINE
  5
17C
330
1F
100
AcDbEntity
  8
0
  6
Continuous
 62
     7
370
    15
100
AcDbLine
 10
461.1190655631
 20
232.6489250697
 30
0.0
 11
462.1190675896
 21
233.6401596255
 31
0.0
  0
LINE
  5
17D
330
1F
100
AcDbEntity
  8
0
  6
Continuous
 62
     7
370
    15
100
AcDbLine
 10
459.7048559588
 20
232.6612650938
 30
0.0
 11
461.1190655631
 21
232.6489250697
 31
0.0
  0
LINE
  5
17E
330
1F
100
AcDbEntity
  8
0
  6
Continuous
 62
     7
370
    15
100
AcDbLine
 10
375.462214033
 20
232.6489250697
 30
0.0
 11
376.8764236373
 21
232.6612650938
 31
0.0
  0
LINE
  5
17F
330
1F
100
AcDbEntity
  8
0
  6
Continuous
 62
     7
370
    15
100
AcDbLine
 10
374.4622120064
 20
233.6401596255
 30
0.0
 11
375.462214033
 21
232.6489250697
 31
0.0
  0
LINE
  5
180
330
1F
100
AcDbEntity
  8
0
  6
Continuous
 62
     7
370
    15
100
AcDbLine
 10
305.4622211856
 20
232.6489250697
 30
0.0
 11
306.8764307898
 21
232.6612650938
 31
0.0
  0
LINE
  5
181
330
1F
100
AcDbEntity
  8
0
  6
Continuous
 62
     7
370
    15
100
AcDbLine
 10
304.4622042578
 20
233.6401596255
 30
0.0
 11
305.4622211856
 21
232.6489250697
 31
0.0
  0
LINE
  5
182
330
1F
100
AcDbEntity
  8
0
  6
Continuous
 62
     7
370
    15
100
AcDbLine
 10
481.1190688413
 20
232.6489250697
 30
0.0
 11
482.1190708679
 21
233.6401596255
 31
0.0
  0
LINE
  5
183
330
1F
100
AcDbEntity
  8
0
  6
Continuous
 62
     7
370
    15
100
AcDbLine
 10
479.7048517865
 20
232.6612650938
 30
0.0
 11
481.1190688413
 21
232.6489250697
 31
0.0
  0
LINE
  5
184
330
1F
100
AcDbEntity
  8
0
  6
Continuous
 62
     7
370
    15
100
AcDbLine
 10
531.1190677237
 20
232.6489250697
 30
0.0
 11
532.1190678877
 21
233.6401596255
 31
0.0
  0
LINE
  5
185
330
1F
100
AcDbEntity
  8
0
  6
Continuous
 62
     7
370
    15
100
AcDbLine
 10
529.7048543942
 20
232.6612650938
 30
0.0
 11
531.1190677237
 21
232.6489250697
 31
0.0
  0
LINE
  5
186
330
1F
100
AcDbEntity
  8
0
  6
Continuous
 62
     7
370
    15
100
AcDbLine
 10
245.4622188014
 20
232.6489250697
 30
0.0
 11
246.8764284056
 21
232.6612650938
 31
0.0
  0
LINE
  5
187
330
1F
100
AcDbEntity
  8
0
  6
Continuous
 62
     7
370
    15
100
AcDbLine
 10
244.4622018737
 20
233.6401596255
 30
0.0
 11
245.4622188014
 21
232.6489250697
 31
0.0
  0
LINE
  5
188
330
1F
100
AcDbEntity
  8
0
  6
Continuous
 62
     7
370
    15
100
AcDbLine
 10
325.4622170132
 20
232.6489250697
 30
0.0
 11
326.8764266175
 21
232.6612650938
 31
0.0
  0
LINE
  5
189
330
1F
100
AcDbEntity
  8
0
  6
Continuous
 62
     7
370
    15
100
AcDbLine
 10
324.4622149867
 20
233.6401596255
 30
0.0
 11
325.4622170132
 21
232.6489250697
 31
0.0
  0
LINE
  5
18A
330
1F
100
AcDbEntity
  8
0
  6
Continuous
 62
     7
370
    15
100
AcDbLine
 10
335.4622074765
 20
232.6489250697
 30
0.0
 11
336.8764319819
 21
232.6612650938
 31
0.0
  0
LINE
  5
18B
330
1F
100
AcDbEntity
  8
0
  6
Continuous
 62
     7
370
    15
100
AcDbLine
 10
334.4622203511
 20
233.6401596255
 30
0.0
 11
335.4622074765
 21
232.6489250697
 31
0.0
  0
LINE
  5
18C
330
1F
100
AcDbEntity
  8
0
  6
Continuous
 62
     7
370
    15
100
AcDbLine
 10
455.4622122449
 20
232.6489250697
 30
0.0
 11
456.8764292997
 21
232.6612650938
 31
0.0
  0
LINE
  5
18D
330
1F
100
AcDbEntity
  8
0
  6
Continuous
 62
     7
370
    15
100
AcDbLine
 10
454.4622102183
 20
233.6401596255
 30
0.0
 11
455.4622122449
 21
232.6489250697
 31
0.0
  0
LINE
  5
18E
330
1F
100
AcDbEntity
  8
0
  6
Continuous
 62
     7
370
    15
100
AcDbLine
 10
505.4622129899
 20
232.6489250697
 30
0.0
 11
506.8764263195
 21
232.6612650938
 31
0.0
  0
LINE
  5
18F
330
1F
100
AcDbEntity
  8
0
  6
Continuous
 62
     7
370
    15
100
AcDbLine
 10
504.4622146887
 20
233.6401596255
 30
0.0
 11
505.4622129899
 21
232.6489250697
 31
0.0
  0
LINE
  5
190
330
1F
100
AcDbEntity
  8
0
  6
Continuous
 62
     7
370
    15
100
AcDbLine
 10
345.4622128409
 20
232.6489250697
 30
0.0
 11
346.8764224452
 21
232.6612650938
 31
0.0
  0
LINE
  5
191
330
1F
100
AcDbEntity
  8
0
  6
Continuous
 62
     7
370
    15
100
AcDbLine
 10
344.4622108144
 20
233.6401596255
 30
0.0
 11
345.4622128409
 21
232.6489250697
 31
0.0
  0
LINE
  5
192
330
1F
100
AcDbEntity
  8
0
  6
Continuous
 62
     7
370
    15
100
AcDbLine
 10
445.462214331
 20
232.6489250697
 30
0.0
 11
446.8764239353
 21
232.6612650938
 31
0.0
  0
LINE
  5
193
330
1F
100
AcDbEntity
  8
0
  6
Continuous
 62
     7
370
    15
100
AcDbLine
 10
444.4622123045
 20
233.6401596255
 30
0.0
 11
445.462214331
 21
232.6489250697
 31
0.0
  0
LINE
  5
194
330
1F
100
AcDbEntity
  8
0
  6
Continuous
 62
     7
370
    15
100
AcDbLine
 10
485.462213437
 20
232.6489250697
 30
0.0
 11
486.8764304918
 21
232.6612650938
 31
0.0
  0
LINE
  5
195
330
1F
100
AcDbEntity
  8
0
  6
Continuous
 62
     7
370
    15
100
AcDbLine
 10
484.4622114104
 20
233.6401596255
 30
0.0
 11
485.462213437
 21
232.6489250697
 31
0.0
  0
LINE
  5
196
330
1F
100
AcDbEntity
  8
0
  6
Continuous
 62
     7
370
    15
100
AcDbLine
 10
525.4622125429
 20
232.6489250697
 30
0.0
 11
526.8764258724
 21
232.6612650938
 31
0.0
  0
LINE
  5
197
330
1F
100
AcDbEntity
  8
0
  6
Continuous
 62
     7
370
    15
100
AcDbLine
 10
524.4622142416
 20
233.6401596255
 30
0.0
 11
525.4622125429
 21
232.6489250697
 31
0.0
  0
LINE
  5
198
330
1F
100
AcDbEntity
  8
0
  6
Continuous
 62
     7
370
    15
100
AcDbLine
 10
471.1190709275
 20
232.6489250697
 30
0.0
 11
472.1190655035
 21
233.6401596255
 31
0.0
  0
LINE
  5
199
330
1F
100
AcDbEntity
  8
0
  6
Continuous
 62
     7
370
    15
100
AcDbLine
 10
469.7048538727
 20
232.6612650938
 30
0.0
 11
471.1190709275
 21
232.6489250697
 31
0.0
  0
LINE
  5
19A
330
1F
100
AcDbEntity
  8
0
  6
Continuous
 62
     7
370
    15
100
AcDbLine
 10
465.4622101587
 20
232.6489250697
 30
0.0
 11
466.8764272135
 21
232.6612650938
 31
0.0
  0
LINE
  5
19B
330
1F
100
AcDbEntity
  8
0
  6
Continuous
 62
     7
370
    15
100
AcDbLine
 10
464.4622155827
 20
233.6401596255
 30
0.0
 11
465.4622101587
 21
232.6489250697
 31
0.0
  0
LINE
  5
19C
330
1F
100
AcDbEntity
  8
0
  6
Continuous
 62
     7
370
    15
100
AcDbLine
 10
255.4622092646
 20
232.6489250697
 30
0.0
 11
256.8764188689
 21
232.6612650938
 31
0.0
  0
LINE
  5
19D
330
1F
100
AcDbEntity
  8
0
  6
Continuous
 62
     7
370
    15
100
AcDbLine
 10
254.4622221392
 20
233.6401596255
 30
0.0
 11
255.4622092646
 21
232.6489250697
 31
0.0
  0
LINE
  5
19E
330
1F
100
AcDbEntity
  8
0
  6
Continuous
 62
     7
370
    15
100
AcDbLine
 10
385.4622193974
 20
232.6489250697
 30
0.0
 11
386.8764290017
 21
232.6612650938
 31
0.0
  0
LINE
  5
19F
330
1F
100
AcDbEntity
  8
0
  6
Continuous
 62
     7
370
    15
100
AcDbLine
 10
384.4622173709
 20
233.6401596255
 30
0.0
 11
385.4622193974
 21
232.6489250697
 31
0.0
  0
LINE
  5
1A0
330
1F
100
AcDbEntity
  8
0
  6
Continuous
 62
     7
370
    15
100
AcDbLine
 10
391.1190727156
 20
232.6489250697
 30
0.0
 11
392.1190747422
 21
233.6401596255
 31
0.0
  0
LINE
  5
1A1
330
1F
100
AcDbEntity
  8
0
  6
Continuous
 62
     7
370
    15
100
AcDbLine
 10
389.7048482102
 20
232.6612650938
 30
0.0
 11
391.1190727156
 21
232.6489250697
 31
0.0
  0
LINE
  5
1A2
330
1F
100
AcDbEntity
  8
0
  6
Continuous
 62
     7
370
    15
100
AcDbLine
 10
251.1190572184
 20
232.6489250697
 30
0.0
 11
252.1190741461
 21
233.6401596255
 31
0.0
  0
LINE
  5
1A3
330
1F
100
AcDbEntity
  8
0
  6
Continuous
 62
     7
370
    15
100
AcDbLine
 10
249.7048476142
 20
232.6612650938
 30
0.0
 11
251.1190572184
 21
232.6489250697
 31
0.0
  0
LINE
  5
1A4
330
1F
100
AcDbEntity
  8
0
  6
Continuous
 62
     7
370
    15
100
AcDbLine
 10
883.2906284732
 20
872.7728902884
 30
0.0
 11
233.290652315
 21
872.7728902884
 31
0.0
  0
ARC
  5
1A5
330
1F
100
AcDbEntity
  8
0
  6
Continuous
 62
     7
370
    15
100
AcDbCircle
 10
233.2905081315
 20
867.7730094396
 30
0.0
 40
4.999880850827883
100
AcDbArc
 50
89.998347739
 51
179.9992616569
  0
LINE
  5
1A6
330
1F
100
AcDbEntity
  8
0
  6
Continuous
 62
     7
370
    15
100
AcDbLine
 10
228.2906272811
 20
867.6247179098
 30
0.0
 11
228.2906272811
 21
867.7730738707
 31
0.0
  0
ARC
  5
1A7
330
1F
100
AcDbEntity
  8
0
  6
Continuous
 62
     7
370
    15
100
AcDbCircle
 10
883.2907726567
 20
867.7730094396
 30
0.0
 40
4.999880850827883
100
AcDbArc
 50
0.0007383431
 51
90.001652261
  0
LINE
  5
1A8
330
1F
100
AcDbEntity
  8
0
  6
Continuous
 62
     7
370
    15
100
AcDbLine
 10
888.2906535071
 20
867.7730738707
 30
0.0
 11
888.2906535071
 21
867.6247179098
 31
0.0
  0
ARC
  5
1A9
330
1F
100
AcDbEntity
  8
0
  6
Continuous
 62
     7
370
    15
100
AcDbCircle
 10
248.2906380099
 20
42.8609037721
 30
0.0
 40
189.8056299129465
100
AcDbArc
 50
89.5730949001
 51
90.4269050999
  0
ARC
  5
1AA
330
1F
100
AcDbEntity
  8
0
  6
Continuous
 62
     7
370
    15
100
AcDbCircle
 10
298.2906499308
 20
42.8609037721
 30
0.0
 40
189.8056299129465
100
AcDbArc
 50
89.5730949001
 51
90.4269050999
  0
ARC
  5
1AB
330
1F
100
AcDbEntity
  8
0
  6
Continuous
 62
     7
370
    15
100
AcDbCircle
 10
408.2906418842
 20
42.8583599943
 30
0.0
 40
189.808173675667
100
AcDbArc
 50
89.5730983724
 51
90.4269016276
  0
ARC
  5
1AC
330
1F
100
AcDbEntity
  8
0
  6
Continuous
 62
     7
370
    15
100
AcDbCircle
 10
418.290639798
 20
42.8609037525
 30
0.0
 40
189.8056299325109
100
AcDbArc
 50
89.5730949001
 51
90.4269050999
  0
ARC
  5
1AD
330
1F
100
AcDbEntity
  8
0
  6
Continuous
 62
     7
370
    15
100
AcDbCircle
 10
278.290639202
 20
42.8588939422
 30
0.0
 40
189.8076396870418
100
AcDbArc
 50
89.5730994204
 51
90.4269005796
  0
ARC
  5
1AE
330
1F
100
AcDbEntity
  8
0
  6
Continuous
 62
     7
370
    15
100
AcDbCircle
 10
508.290639649
 20
42.8593806436
 30
0.0
 40
189.8071530269145
100
AcDbArc
 50
89.5730972013
 51
90.4269027987
  0
ARC
  5
1AF
330
1F
100
AcDbEntity
  8
0
  6
Continuous
 62
     7
370
    15
100
AcDbCircle
 10
288.2906296653
 20
42.8609037721
 30
0.0
 40
189.8056299129465
100
AcDbArc
 50
89.5730949001
 51
90.4269050999
  0
ARC
  5
1B0
330
1F
100
AcDbEntity
  8
0
  6
Continuous
 62
     7
370
    15
100
AcDbCircle
 10
528.2906401333
 20
42.8591882868
 30
0.0
 40
189.807345385377
100
AcDbArc
 50
89.5730973528
 51
90.4269026472
  0
ARC
  5
1B1
330
1F
100
AcDbEntity
  8
0
  6
Continuous
 62
     7
370
    15
100
AcDbCircle
 10
518.2906412882
 20
42.8593806436
 30
0.0
 40
189.8071530269145
100
AcDbArc
 50
89.5730972013
 51
90.4269027987
  0
ARC
  5
1B2
330
1F
100
AcDbEntity
  8
0
  6
Continuous
 62
     7
370
    15
100
AcDbCircle
 10
368.2906427783
 20
42.8609037525
 30
0.0
 40
189.8056299325109
100
AcDbArc
 50
89.5730949001
 51
90.4269050999
  0
ARC
  5
1B3
330
1F
100
AcDbEntity
  8
0
  6
Continuous
 62
     7
370
    15
100
AcDbCircle
 10
358.2906374139
 20
42.8609037525
 30
0.0
 40
189.8056299325109
100
AcDbArc
 50
89.5730949001
 51
90.4269050999
  0
ARC
  5
1B4
330
1F
100
AcDbEntity
  8
0
  6
Continuous
 62
     7
370
    15
100
AcDbCircle
 10
268.2906487387
 20
42.8609037721
 30
0.0
 40
189.8056299129465
100
AcDbArc
 50
89.5730949001
 51
90.4269050999
  0
ARC
  5
1B5
330
1F
100
AcDbEntity
  8
0
  6
Continuous
 62
     7
370
    15
100
AcDbCircle
 10
398.2906365198
 20
42.8583599943
 30
0.0
 40
189.808173675667
100
AcDbArc
 50
89.5730983724
 51
90.4269016276
  0
ARC
  5
1B6
330
1F
100
AcDbEntity
  8
0
  6
Continuous
 62
     7
370
    15
100
AcDbCircle
 10
378.2906406921
 20
42.8573550793
 30
0.0
 40
189.809178562715
100
AcDbArc
 50
89.5731006325
 51
90.4268993675
  0
ARC
  5
1B7
330
1F
100
AcDbEntity
  8
0
  6
Continuous
 62
     7
370
    15
100
AcDbCircle
 10
328.2906436723
 20
42.8583599943
 30
0.0
 40
189.808173675667
100
AcDbArc
 50
89.5730983724
 51
90.4269016276
  0
ARC
  5
1B8
330
1F
100
AcDbEntity
  8
0
  6
Continuous
 62
     7
370
    15
100
AcDbCircle
 10
498.2906417352
 20
42.8593806436
 30
0.0
 40
189.8071530269145
100
AcDbArc
 50
89.5730972013
 51
90.4269027987
  0
ARC
  5
1B9
330
1F
100
AcDbEntity
  8
0
  6
Continuous
 62
     7
370
    15
100
AcDbCircle
 10
258.2906433743
 20
42.8558162165
 30
0.0
 40
189.8107174383882
100
AcDbArc
 50
89.5731018445
 51
90.4268981555
  0
ARC
  5
1BA
330
1F
100
AcDbEntity
  8
0
  6
Continuous
 62
     7
370
    15
100
AcDbCircle
 10
478.2906384569
 20
42.8596318734
 30
0.0
 40
189.8069018040889
100
AcDbArc
 50
89.5730966363
 51
90.4269033637
  0
ARC
  5
1BB
330
1F
100
AcDbEntity
  8
0
  6
Continuous
 62
     7
370
    15
100
AcDbCircle
 10
538.2906408411
 20
42.8593806433
 30
0.0
 40
189.8071530272202
100
AcDbArc
 50
89.5730972013
 51
90.4269027987
  0
ARC
  5
1BC
330
1F
100
AcDbEntity
  8
0
  6
Continuous
 62
     7
370
    15
100
AcDbCircle
 10
308.2906403941
 20
42.8598988474
 30
0.0
 40
189.8066348097762
100
AcDbArc
 50
89.5730971603
 51
90.4269028397
  0
ARC
  5
1BD
330
1F
100
AcDbEntity
  8
0
  6
Continuous
 62
     7
370
    15
100
AcDbCircle
 10
458.2906426293
 20
42.8596318734
 30
0.0
 40
189.8069018040889
100
AcDbArc
 50
89.5730966363
 51
90.4269033637
  0
ARC
  5
1BE
330
1F
100
AcDbEntity
  8
0
  6
Continuous
 62
     7
370
    15
100
AcDbCircle
 10
438.290639351
 20
42.8591294159
 30
0.0
 40
189.8074042476127
100
AcDbArc
 50
89.5730977663
 51
90.4269022337
  0
ARC
  5
1BF
330
1F
100
AcDbEntity
  8
0
  6
Continuous
 62
     7
370
    15
100
AcDbCircle
 10
318.2906383079
 20
42.8583599943
 30
0.0
 40
189.808173675667
100
AcDbArc
 50
89.5730983724
 51
90.4269016276
  0
ARC
  5
1C0
330
1F
100
AcDbEntity
  8
0
  6
Continuous
 62
     7
370
    15
100
AcDbCircle
 10
448.2906372648
 20
42.8596318734
 30
0.0
 40
189.8069018040889
100
AcDbArc
 50
89.5730966363
 51
90.4269033637
  0
ARC
  5
1C1
330
1F
100
AcDbEntity
  8
0
  6
Continuous
 62
     7
370
    15
100
AcDbCircle
 10
428.2906377119
 20
42.8583599943
 30
0.0
 40
189.808173675667
100
AcDbArc
 50
89.5730983724
 51
90.4269016276
  0
ARC
  5
1C2
330
1F
100
AcDbEntity
  8
0
  6
Continuous
 62
     7
370
    15
100
AcDbCircle
 10
348.2906395
 20
42.8573550793
 30
0.0
 40
189.809178562715
100
AcDbArc
 50
89.5731006325
 51
90.4268993675
  0
ARC
  5
1C3
330
1F
100
AcDbEntity
  8
0
  6
Continuous
 62
     7
370
    15
100
AcDbCircle
 10
488.2906438214
 20
42.8596318734
 30
0.0
 40
189.8069018040889
100
AcDbArc
 50
89.5730966363
 51
90.4269033637
  0
ARC
  5
1C4
330
1F
100
AcDbEntity
  8
0
  6
Continuous
 62
     7
370
    15
100
AcDbCircle
 10
468.2906405431
 20
42.8591294159
 30
0.0
 40
189.8074042476127
100
AcDbArc
 50
89.5730977663
 51
90.4269022337
  0
ARC
  5
1C5
330
1F
100
AcDbEntity
  8
0
  6
Continuous
 62
     7
370
    15
100
AcDbCircle
 10
388.2906386059
 20
42.8609037525
 30
0.0
 40
189.8056299325109
100
AcDbArc
 50
89.5730949001
 51
90.4269050999
  0
ARC
  5
1C6
330
1F
100
AcDbEntity
  8
0
  6
Continuous
 62
     7
370
    15
100
AcDbCircle
 10
338.2906415862
 20
42.8609037525
 30
0.0
 40
189.8056299325109
100
AcDbArc
 50
89.5730949001
 51
90.4269050999
  0
ARC
  5
1C7
330
1F
100
AcDbEntity
  8
0
  6
Continuous
 62
     7
370
    15
100
AcDbCircle
 10
548.2906406176
 20
42.8594434504
 30
0.0
 40
189.8070902218944
100
AcDbArc
 50
89.57309706
 51
90.42690294
  0
ARC
  5
1C8
330
1F
100
AcDbEntity
  8
0
  6
Continuous
 62
     7
370
    15
100
AcDbCircle
 10
233.290550711
 20
237.6488484999
 30
0.0
 40
4.999923431277741
100
AcDbArc
 50
180.001311671
 51
270.0011643137
  0
ARC
  5
1C9
330
1F
100
AcDbEntity
  8
0
  6
Continuous
 62
     7
370
    15
100
AcDbCircle
 10
883.2907300771
 20
237.6488484999
 30
0.0
 40
4.999923431277741
100
AcDbArc
 50
269.9988356863
 51
359.998688329
  0
LINE
  5
1CA
330
1F
100
AcDbEntity
  8
0
  6
Continuous
 62
     7
370
    15
100
AcDbLine
 10
425.4622110528
 20
232.6489250697
 30
0.0
 11
421.1190739077
 21
232.6489250697
 31
0.0
  0
LINE
  5
1CB
330
1F
100
AcDbEntity
  8
0
  6
Continuous
 62
     7
370
    15
100
AcDbLine
 10
265.4621997279
 20
232.6489250697
 30
0.0
 11
261.119077484
 21
232.6489250697
 31
0.0
  0
LINE
  5
1CC
330
1F
100
AcDbEntity
  8
0
  6
Continuous
 62
     7
370
    15
100
AcDbLine
 10
405.4622152251
 20
232.6489250697
 30
0.0
 11
401.1190631789
 21
232.6489250697
 31
0.0
  0
LINE
  5
1CD
330
1F
100
AcDbEntity
  8
0
  6
Continuous
 62
     7
370
    15
100
AcDbLine
 10
355.4622182053
 20
232.6489250697
 30
0.0
 11
351.1190661591
 21
232.6489250697
 31
0.0
  0
LINE
  5
1CE
330
1F
100
AcDbEntity
  8
0
  6
Continuous
 62
     7
370
    15
100
AcDbLine
 10
255.4622092646
 20
232.6489250697
 30
0.0
 11
251.1190572184
 21
232.6489250697
 31
0.0
  0
LINE
  5
1CF
330
1F
100
AcDbEntity
  8
0
  6
Continuous
 62
     7
370
    15
100
AcDbLine
 10
465.4622101587
 20
232.6489250697
 30
0.0
 11
461.1190655631
 21
232.6489250697
 31
0.0
  0
LINE
  5
1D0
330
1F
100
AcDbEntity
  8
0
  6
Continuous
 62
     7
370
    15
100
AcDbLine
 10
883.2906284732
 20
232.6489250697
 30
0.0
 11
551.1190677424
 21
232.6489250697
 31
0.0
  0
LINE
  5
1D1
330
1F
100
AcDbEntity
  8
0
  6
Continuous
 62
     7
370
    15
100
AcDbLine
 10
435.4622164172
 20
232.6489250697
 30
0.0
 11
431.119064371
 21
232.6489250697
 31
0.0
  0
LINE
  5
1D2
330
1F
100
AcDbEntity
  8
0
  6
Continuous
 62
     7
370
    15
100
AcDbLine
 10
275.4622199935
 20
232.6489250697
 30
0.0
 11
271.1190679473
 21
232.6489250697
 31
0.0
  0
LINE
  5
1D3
330
1F
100
AcDbEntity
  8
0
  6
Continuous
 62
     7
370
    15
100
AcDbLine
 10
285.4622104567
 20
232.6489250697
 30
0.0
 11
281.1190584105
 21
232.6489250697
 31
0.0
  0
LINE
  5
1D4
330
1F
100
AcDbEntity
  8
0
  6
Continuous
 62
     7
370
    15
100
AcDbLine
 10
305.4622211856
 20
232.6489250697
 30
0.0
 11
301.1190691394
 21
232.6489250697
 31
0.0
  0
LINE
  5
1D5
330
1F
100
AcDbEntity
  8
0
  6
Continuous
 62
     7
370
    15
100
AcDbLine
 10
495.4622113508
 20
232.6489250697
 30
0.0
 11
491.1190667552
 21
232.6489250697
 31
0.0
  0
LINE
  5
1D6
330
1F
100
AcDbEntity
  8
0
  6
Continuous
 62
     7
370
    15
100
AcDbLine
 10
505.4622129899
 20
232.6489250697
 30
0.0
 11
501.1190683943
 21
232.6489250697
 31
0.0
  0
LINE
  5
1D7
330
1F
100
AcDbEntity
  8
0
  6
Continuous
 62
     7
370
    15
100
AcDbLine
 10
485.462213437
 20
232.6489250697
 30
0.0
 11
481.1190688413
 21
232.6489250697
 31
0.0
  0
LINE
  5
1D8
330
1F
100
AcDbEntity
  8
0
  6
Continuous
 62
     7
370
    15
100
AcDbLine
 10
415.4622205895
 20
232.6489250697
 30
0.0
 11
411.1190685433
 21
232.6489250697
 31
0.0
  0
LINE
  5
1D9
330
1F
100
AcDbEntity
  8
0
  6
Continuous
 62
     7
370
    15
100
AcDbLine
 10
375.462214033
 20
232.6489250697
 30
0.0
 11
371.1190619868
 21
232.6489250697
 31
0.0
  0
LINE
  5
1DA
330
1F
100
AcDbEntity
  8
0
  6
Continuous
 62
     7
370
    15
100
AcDbLine
 10
245.4622188014
 20
232.6489250697
 30
0.0
 11
233.290652315
 21
232.6489250697
 31
0.0
  0
LINE
  5
1DB
330
1F
100
AcDbEntity
  8
0
  6
Continuous
 62
     7
370
    15
100
AcDbLine
 10
445.462214331
 20
232.6489250697
 30
0.0
 11
441.1190697354
 21
232.6489250697
 31
0.0
  0
LINE
  5
1DC
330
1F
100
AcDbEntity
  8
0
  6
Continuous
 62
     7
370
    15
100
AcDbLine
 10
525.4622125429
 20
232.6489250697
 30
0.0
 11
521.1190679473
 21
232.6489250697
 31
0.0
  0
LINE
  5
1DD
330
1F
100
AcDbEntity
  8
0
  6
Continuous
 62
     7
370
    15
100
AcDbLine
 10
535.462214182
 20
232.6489250697
 30
0.0
 11
531.1190677237
 21
232.6489250697
 31
0.0
  0
LINE
  5
1DE
330
1F
100
AcDbEntity
  8
0
  6
Continuous
 62
     7
370
    15
100
AcDbLine
 10
475.4622155231
 20
232.6489250697
 30
0.0
 11
471.1190709275
 21
232.6489250697
 31
0.0
  0
LINE
  5
1DF
330
1F
100
AcDbEntity
  8
0
  6
Continuous
 62
     7
370
    15
100
AcDbLine
 10
315.4622116488
 20
232.6489250697
 30
0.0
 11
311.1190745038
 21
232.6489250697
 31
0.0
  0
LINE
  5
1E0
330
1F
100
AcDbEntity
  8
0
  6
Continuous
 62
     7
370
    15
100
AcDbLine
 10
295.46220092
 20
232.6489250697
 30
0.0
 11
291.1190786761
 21
232.6489250697
 31
0.0
  0
LINE
  5
1E1
330
1F
100
AcDbEntity
  8
0
  6
Continuous
 62
     7
370
    15
100
AcDbLine
 10
385.4622193974
 20
232.6489250697
 30
0.0
 11
381.1190673512
 21
232.6489250697
 31
0.0
  0
LINE
  5
1E2
330
1F
100
AcDbEntity
  8
0
  6
Continuous
 62
     7
370
    15
100
AcDbLine
 10
395.4622098607
 20
232.6489250697
 30
0.0
 11
391.1190727156
 21
232.6489250697
 31
0.0
  0
LINE
  5
1E3
330
1F
100
AcDbEntity
  8
0
  6
Continuous
 62
     7
370
    15
100
AcDbLine
 10
455.4622122449
 20
232.6489250697
 30
0.0
 11
451.1190676492
 21
232.6489250697
 31
0.0
  0
LINE
  5
1E4
330
1F
100
AcDbEntity
  8
0
  6
Continuous
 62
     7
370
    15
100
AcDbLine
 10
325.4622170132
 20
232.6489250697
 30
0.0
 11
321.119064967
 21
232.6489250697
 31
0.0
  0
LINE
  5
1E5
330
1F
100
AcDbEntity
  8
0
  6
Continuous
 62
     7
370
    15
100
AcDbLine
 10
365.4622086686
 20
232.6489250697
 30
0.0
 11
361.1190715235
 21
232.6489250697
 31
0.0
  0
LINE
  5
1E6
330
1F
100
AcDbEntity
  8
0
  6
Continuous
 62
     7
370
    15
100
AcDbLine
 10
335.4622074765
 20
232.6489250697
 30
0.0
 11
331.1190703314
 21
232.6489250697
 31
0.0
  0
LINE
  5
1E7
330
1F
100
AcDbEntity
  8
0
  6
Continuous
 62
     7
370
    15
100
AcDbLine
 10
345.4622128409
 20
232.6489250697
 30
0.0
 11
341.1190607947
 21
232.6489250697
 31
0.0
  0
LINE
  5
1E8
330
1F
100
AcDbEntity
  8
0
  6
Continuous
 62
     7
370
    15
100
AcDbLine
 10
545.4622130272
 20
232.6489250697
 30
0.0
 11
541.1190675002
 21
232.6489250697
 31
0.0
  0
LINE
  5
1E9
330
1F
100
AcDbEntity
  8
0
  6
Continuous
 62
     7
370
    15
100
AcDbLine
 10
515.462214629
 20
232.6489250697
 30
0.0
 11
511.1190663081
 21
232.6489250697
 31
0.0
  0
LINE
  5
1EA
330
1F
100
AcDbEntity
  8
0
  6
Continuous
 62
     7
370
    15
100
AcDbLine
 10
204.5977213782
 20
239.89047404
 30
0.0
 11
204.5977213782
 21
239.6548401154
 31
0.0
  0
ARC
  5
1EB
330
1F
100
AcDbEntity
  8
0
  6
Continuous
 62
     7
370
    15
100
AcDbCircle
 10
442.3587588119
 20
136.7381465048
 30
0.0
 40
19.71450267087895
100
AcDbArc
 50
269.2001987363
 51
287.3431458656
  0
LINE
  5
1EC
330
1F
100
AcDbEntity
  8
0
  6
Continuous
 62
     7
370
    15
100
AcDbLine
 10
442.0835697454
 20
117.0255645699
 30
0.0
 11
207.0835628909
 21
117.0255645699
 31
0.0
  0
ARC
  5
1ED
330
1F
100
AcDbEntity
  8
0
  6
Continuous
 62
     7
370
    15
100
AcDbCircle
 10
206.8083816706
 20
136.7381025616
 30
0.0
 40
19.71445862248822
100
AcDbArc
 50
252.656835636
 51
270.7997802454
  0
LINE
  5
1EE
330
1F
100
AcDbEntity
  8
0
  6
Continuous
 62
     7
370
    15
100
AcDbLine
 10
918.2906546992
 20
901.9199192114
 30
0.0
 11
918.2906546992
 21
189.719935093
 31
0.0
  0
LINE
  5
1EF
330
1F
100
AcDbEntity
  8
0
  6
Continuous
 62
     7
370
    15
100
AcDbLine
 10
922.5406446856
 20
906.1699091978
 30
0.0
 11
958.2906463546
 21
906.1699091978
 31
0.0
  0
LINE
  5
1F0
330
1F
100
AcDbEntity
  8
0
  6
Continuous
 62
     7
370
    15
100
AcDbLine
 10
958.2906463546
 20
185.4699357934
 30
0.0
 11
922.5406446856
 21
185.4699357934
 31
0.0
  0
LINE
  5
1F1
330
1F
100
AcDbEntity
  8
0
  6
Continuous
 62
     7
370
    15
100
AcDbLine
 10
958.2906463546
 20
906.1699091978
 30
0.0
 11
958.2906463546
 21
185.4699357934
 31
0.0
  0
ARC
  5
1F2
330
1F
100
AcDbEntity
  8
0
  6
Continuous
 62
     7
370
    15
100
AcDbCircle
 10
916.11184588
 20
653.3488818922
 30
0.0
 40
210.4814759807242
100
AcDbArc
 50
89.4068894723
 51
90.0193834438
  0
ARC
  5
1F3
330
1F
100
AcDbEntity
  8
0
  6
Continuous
 62
     7
370
    15
100
AcDbCircle
 10
916.6035598161
 20
831.5781711906
 30
0.0
 40
32.22216380143979
100
AcDbArc
 50
86.9987230889
 51
91.0010075698
  0
ARC
  5
1F4
330
1F
100
AcDbEntity
  8
0
  6
Continuous
 62
     7
370
    15
100
AcDbCircle
 10
916.6029589128
 20
207.6296388922
 30
0.0
 40
32.26573551248018
100
AcDbArc
 50
87.0017112082
 51
90.9985884556
  0
LINE
  5
1F5
330
1F
100
AcDbEntity
  8
0
  6
Continuous
 62
     7
370
    15
100
AcDbLine
 10
888.2906535071
 20
239.89047404
 30
0.0
 11
916.0406389636
 21
239.89047404
 31
0.0
  0
LINE
  5
1F6
330
1F
100
AcDbEntity
  8
0
  6
Continuous
 62
     7
370
    15
100
AcDbLine
 10
888.2906535071
 20
863.7954175062
 30
0.0
 11
916.0406389636
 21
863.7954175062
 31
0.0
  0
LINE
  5
1F7
330
1F
100
AcDbEntity
  8
0
  6
Continuous
 62
     7
370
    15
100
AcDbLine
 10
888.2906535071
 20
863.8303458281
 30
0.0
 11
916.0406389636
 21
863.8303458281
 31
0.0
  0
LINE
  5
1F8
330
1F
100
AcDbEntity
  8
0
  6
Continuous
 62
     7
370
    15
100
AcDbLine
 10
958.2906463546
 20
1013.6730849333
 30
0.0
 11
958.2906463546
 21
947.173076827
 31
0.0
  0
LINE
  5
1F9
330
1F
100
AcDbEntity
  8
0
  6
Continuous
 62
     7
370
    15
100
AcDbLine
 10
158.2906344336
 20
1013.6730849333
 30
0.0
 11
158.2906344336
 21
947.173076827
 31
0.0
  0
LINE
  5
1FA
330
1F
100
AcDbEntity
  8
0
  6
Continuous
 62
     7
370
    15
100
AcDbLine
 10
278.290639202
 20
997.8887021131
 30
0.0
 11
278.290639202
 21
962.9574596472
 31
0.0
  0
LINE
  5
1FB
330
1F
100
AcDbEntity
  8
0
  6
Continuous
 62
     7
370
    15
100
AcDbLine
 10
838.2906415862
 20
962.9574596472
 30
0.0
 11
838.2906415862
 21
997.8887021131
 31
0.0
  0
LINE
  5
1FC
330
1F
100
AcDbEntity
  8
0
  6
Continuous
 62
     7
370
    15
100
AcDbLine
 10
958.2906463546
 20
947.173076827
 30
0.0
 11
958.2906463546
 21
942.9230868406
 31
0.0
  0
LINE
  5
1FD
330
1F
100
AcDbEntity
  8
0
  6
Continuous
 62
     7
370
    15
100
AcDbLine
 10
958.2906463546
 20
942.9230868406
 30
0.0
 11
158.2906344336
 21
942.9230868406
 31
0.0
  0
LINE
  5
1FE
330
1F
100
AcDbEntity
  8
0
  6
Continuous
 62
     7
370
    15
100
AcDbLine
 10
158.2906344336
 20
947.173076827
 30
0.0
 11
158.2906344336
 21
942.9230868406
 31
0.0
  0
LINE
  5
1FF
330
1F
100
AcDbEntity
  8
0
  6
Continuous
 62
     7
370
    15
100
AcDbLine
 10
958.2906463546
 20
1017.9230749197
 30
0.0
 11
158.2906344336
 21
1017.9230749197
 31
0.0
  0
LINE
  5
200
330
1F
100
AcDbEntity
  8
0
  6
Continuous
 62
     7
370
    15
100
AcDbLine
 10
958.2906463546
 20
1017.9230749197
 30
0.0
 11
958.2906463546
 21
1013.6730849333
 31
0.0
  0
LINE
  5
201
330
1F
100
AcDbEntity
  8
0
  6
Continuous
 62
     7
370
    15
100
AcDbLine
 10
158.2906344336
 20
1017.9230749197
 30
0.0
 11
158.2906344336
 21
1013.6730849333
 31
0.0
  0
LINE
  5
202
330
1F
100
AcDbEntity
  8
0
  6
Continuous
 62
     7
370
    15
100
AcDbLine
 10
958.2906463546
 20
942.9230868406
 30
0.0
 11
958.2906463546
 21
940.673071105
 31
0.0
  0
LINE
  5
203
330
1F
100
AcDbEntity
  8
0
  6
Continuous
 62
     7
370
    15
100
AcDbLine
 10
158.2906344336
 20
942.9230868406
 30
0.0
 11
158.2906344336
 21
940.673071105
 31
0.0
  0
LINE
  5
204
330
1F
100
AcDbEntity
  8
0
  6
Continuous
 62
     7
370
    15
100
AcDbLine
 10
958.2906463546
 20
940.673071105
 30
0.0
 11
958.2906463546
 21
906.1699091978
 31
0.0
  0
LINE
  5
205
330
1F
100
AcDbEntity
  8
0
  6
Continuous
 62
     7
370
    15
100
AcDbLine
 10
958.2906463546
 20
906.1699091978
 30
0.0
 11
918.2906546992
 21
906.1699091978
 31
0.0
  0
LINE
  5
206
330
1F
100
AcDbEntity
  8
0
  6
Continuous
 62
     7
370
    15
100
AcDbLine
 10
198.290626089
 20
906.1699091978
 30
0.0
 11
158.2906344336
 21
906.1699091978
 31
0.0
  0
LINE
  5
207
330
1F
100
AcDbEntity
  8
0
  6
Continuous
 62
     7
370
    15
100
AcDbLine
 10
158.2906344336
 20
940.673071105
 30
0.0
 11
158.2906344336
 21
906.1699091978
 31
0.0
  0
LINE
  5
208
330
1F
100
AcDbEntity
  8
0
  6
Continuous
 62
     7
370
    15
100
AcDbLine
 10
918.2906546992
 20
901.9199192114
 30
0.0
 11
198.290626089
 21
901.9199192114
 31
0.0
  0
LINE
  5
209
330
1F
100
AcDbEntity
  8
0
  6
Continuous
 62
     7
370
    15
100
AcDbLine
 10
198.290626089
 20
901.9199192114
 30
0.0
 11
198.290626089
 21
906.1699091978
 31
0.0
  0
LINE
  5
20A
330
1F
100
AcDbEntity
  8
0
  6
Continuous
 62
     7
370
    15
100
AcDbLine
 10
918.2906546992
 20
901.9199192114
 30
0.0
 11
918.2906546992
 21
906.1699091978
 31
0.0
  0
LINE
  5
20B
330
1F
100
AcDbEntity
  8
0
  6
Continuous
 62
     7
370
    15
100
AcDbLine
 10
916.0367646617
 20
864.2199217863
 30
0.0
 11
888.2906535071
 21
864.2199217863
 31
0.0
  0
LINE
  5
20C
330
1F
100
AcDbEntity
  8
0
  6
Continuous
 62
     7
370
    15
100
AcDbLine
 10
228.2906272811
 20
864.2199217863
 30
0.0
 11
200.5445161265
 21
864.2199217863
 31
0.0
  0
LINE
  5
20D
330
1F
100
AcDbEntity
  8
0
  6
Continuous
 62
     7
370
    15
100
AcDbLine
 10
200.5445161265
 20
865.2197897024
 30
0.0
 11
200.5445161265
 21
864.2199217863
 31
0.0
  0
LINE
  5
20E
330
1F
100
AcDbEntity
  8
0
  6
Continuous
 62
     7
370
    15
100
AcDbLine
 10
200.5445161265
 20
865.2197897024
 30
0.0
 11
198.290626089
 21
865.2197897024
 31
0.0
  0
LINE
  5
20F
330
1F
100
AcDbEntity
  8
0
  6
Continuous
 62
     7
370
    15
100
AcDbLine
 10
916.0367646617
 20
865.2197897024
 30
0.0
 11
918.2906546992
 21
865.2197897024
 31
0.0
  0
LINE
  5
210
330
1F
100
AcDbEntity
  8
0
  6
Continuous
 62
     7
370
    15
100
AcDbLine
 10
916.0367646617
 20
865.2197897024
 30
0.0
 11
916.0367646617
 21
864.2199217863
 31
0.0
  0
LINE
  5
211
330
1F
100
AcDbEntity
  8
0
  6
Continuous
 62
     7
370
    15
100
AcDbLine
 10
158.2906344336
 20
906.1699091978
 30
0.0
 11
158.2906344336
 21
185.4699357934
 31
0.0
  0
LINE
  5
212
330
1F
100
AcDbEntity
  8
0
  6
Continuous
 62
     7
370
    15
100
AcDbLine
 10
194.0406361026
 20
906.1699091978
 30
0.0
 11
158.2906344336
 21
906.1699091978
 31
0.0
  0
LINE
  5
213
330
1F
100
AcDbEntity
  8
0
  6
Continuous
 62
     7
370
    15
100
AcDbLine
 10
158.2906344336
 20
185.4699357934
 30
0.0
 11
194.0406361026
 21
185.4699357934
 31
0.0
  0
LINE
  5
214
330
1F
100
AcDbEntity
  8
0
  6
Continuous
 62
     7
370
    15
100
AcDbLine
 10
198.290626089
 20
901.9199192114
 30
0.0
 11
198.290626089
 21
189.719935093
 31
0.0
  0
ARC
  5
215
330
1F
100
AcDbEntity
  8
0
  6
Continuous
 62
     7
370
    15
100
AcDbCircle
 10
200.4694349082
 20
653.3488818922
 30
0.0
 40
210.4814759807242
100
AcDbArc
 50
89.9806165562
 51
90.5931105277
  0
ARC
  5
216
330
1F
100
AcDbEntity
  8
0
  6
Continuous
 62
     7
370
    15
100
AcDbCircle
 10
199.9777209721
 20
831.5781711906
 30
0.0
 40
32.22216380143979
100
AcDbArc
 50
88.9989924302
 51
93.0012769111
  0
ARC
  5
217
330
1F
100
AcDbEntity
  8
0
  6
Continuous
 62
     7
370
    15
100
AcDbCircle
 10
199.9783218753
 20
207.6296388922
 30
0.0
 40
32.26573551248017
100
AcDbArc
 50
89.0014115444
 51
92.9982887918
  0
LINE
  5
218
330
1F
100
AcDbEntity
  8
0
  6
Continuous
 62
     7
370
    15
100
AcDbLine
 10
228.2906272811
 20
863.7954175062
 30
0.0
 11
200.5406418246
 21
863.7954175062
 31
0.0
  0
LINE
  5
219
330
1F
100
AcDbEntity
  8
0
  6
Continuous
 62
     7
370
    15
100
AcDbLine
 10
228.2906272811
 20
239.89047404
 30
0.0
 11
200.5406418246
 21
239.89047404
 31
0.0
  0
LINE
  5
21A
330
1F
100
AcDbEntity
  8
0
  6
Continuous
 62
     7
370
    15
100
AcDbLine
 10
228.2906272811
 20
863.8303458281
 30
0.0
 11
200.5406418246
 21
863.8303458281
 31
0.0
  0
LINE
  5
21B
330
1F
100
AcDbEntity
  8
0
  6
Continuous
 62
     7
370
    15
100
AcDbLine
 10
198.290626089
 20
185.4699357934
 30
0.0
 11
158.2906344336
 21
185.4699357934
 31
0.0
  0
LINE
  5
21C
330
1F
100
AcDbEntity
  8
0
  6
Continuous
 62
     7
370
    15
100
AcDbLine
 10
958.2906463546
 20
185.4699357934
 30
0.0
 11
918.2906546992
 21
185.4699357934
 31
0.0
  0
LINE
  5
21D
330
1F
100
AcDbEntity
  8
0
  6
Continuous
 62
     7
370
    15
100
AcDbLine
 10
958.2906463546
 20
185.4699357934
 30
0.0
 11
958.2906463546
 21
129.9199342318
 31
0.0
  0
LINE
  5
21E
330
1F
100
AcDbEntity
  8
0
  6
Continuous
 62
     7
370
    15
100
AcDbLine
 10
158.2906344336
 20
185.4699357934
 30
0.0
 11
158.2906344336
 21
129.9199342318
 31
0.0
  0
LINE
  5
21F
330
1F
100
AcDbEntity
  8
0
  6
Continuous
 62
     7
370
    15
100
AcDbLine
 10
958.2906463546
 20
129.9199342318
 30
0.0
 11
958.2906463546
 21
117.9199322648
 31
0.0
  0
LINE
  5
220
330
1F
100
AcDbEntity
  8
0
  6
Continuous
 62
     7
370
    15
100
AcDbLine
 10
158.2906344336
 20
129.9199342318
 30
0.0
 11
158.2906344336
 21
117.9199322648
 31
0.0
  0
LINE
  5
221
330
1F
100
AcDbEntity
  8
0
  6
Continuous
 62
     7
370
    15
100
AcDbLine
 10
918.2906546992
 20
189.719935093
 30
0.0
 11
198.290626089
 21
189.719935093
 31
0.0
  0
LINE
  5
222
330
1F
100
AcDbEntity
  8
0
  6
Continuous
 62
     7
370
    15
100
AcDbLine
 10
918.2906546992
 20
185.4699357934
 30
0.0
 11
918.2906546992
 21
189.719935093
 31
0.0
  0
LINE
  5
223
330
1F
100
AcDbEntity
  8
0
  6
Continuous
 62
     7
370
    15
100
AcDbLine
 10
198.290626089
 20
185.4699357934
 30
0.0
 11
198.290626089
 21
189.719935093
 31
0.0
  0
LINE
  5
224
330
1F
100
AcDbEntity
  8
0
  6
Continuous
 62
     7
370
    15
100
AcDbLine
 10
918.2906546992
 20
238.620088581
 30
0.0
 11
916.0406389636
 21
238.620088581
 31
0.0
  0
LINE
  5
225
330
1F
100
AcDbEntity
  8
0
  6
Continuous
 62
     7
370
    15
100
AcDbLine
 10
198.290626089
 20
238.620088581
 30
0.0
 11
200.5406418246
 21
238.620088581
 31
0.0
  0
LINE
  5
226
330
1F
100
AcDbEntity
  8
0
  6
Continuous
 62
     7
370
    15
100
AcDbLine
 10
200.5406418246
 20
238.620088581
 30
0.0
 11
200.5406418246
 21
239.619936008
 31
0.0
  0
LINE
  5
227
330
1F
100
AcDbEntity
  8
0
  6
Continuous
 62
     7
370
    15
100
AcDbLine
 10
228.2906272811
 20
239.619936008
 30
0.0
 11
200.5406418246
 21
239.619936008
 31
0.0
  0
LINE
  5
228
330
1F
100
AcDbEntity
  8
0
  6
Continuous
 62
     7
370
    15
100
AcDbLine
 10
916.0406389636
 20
239.619936008
 30
0.0
 11
888.2906535071
 21
239.619936008
 31
0.0
  0
LINE
  5
229
330
1F
100
AcDbEntity
  8
0
  6
Continuous
 62
     7
370
    15
100
AcDbLine
 10
916.0406389636
 20
238.620088581
 30
0.0
 11
916.0406389636
 21
239.619936008
 31
0.0
  0
LINE
  5
22A
330
1F
100
AcDbEntity
  8
0
  6
Continuous
 62
     7
370
    15
100
AcDbLine
 10
916.0406389636
 20
239.6548401154
 30
0.0
 11
888.2906535071
 21
239.6548401154
 31
0.0
  0
LINE
  5
22B
330
1F
100
AcDbEntity
  8
0
  6
Continuous
 62
     7
370
    15
100
AcDbLine
 10
916.0406389636
 20
239.619936008
 30
0.0
 11
916.0406389636
 21
239.6548401154
 31
0.0
  0
LINE
  5
22C
330
1F
100
AcDbEntity
  8
0
  6
Continuous
 62
     7
370
    15
100
AcDbLine
 10
228.2906272811
 20
239.6548401154
 30
0.0
 11
200.5406418246
 21
239.6548401154
 31
0.0
  0
LINE
  5
22D
330
1F
100
AcDbEntity
  8
0
  6
Continuous
 62
     7
370
    15
100
AcDbLine
 10
200.5406418246
 20
239.619936008
 30
0.0
 11
200.5406418246
 21
239.6548401154
 31
0.0
  0
LINE
  5
22E
330
1F
100
AcDbEntity
  8
0
  6
Continuous
 62
     7
370
    15
100
AcDbLine
 10
200.5406418246
 20
238.6549926884
 30
0.0
 11
198.290626089
 21
238.6549926884
 31
0.0
  0
LINE
  5
22F
330
1F
100
AcDbEntity
  8
0
  6
Continuous
 62
     7
370
    15
100
AcDbLine
 10
918.2906546992
 20
238.6549926884
 30
0.0
 11
916.0406389636
 21
238.6549926884
 31
0.0
  0
ARC
  5
230
330
1F
100
AcDbEntity
  8
0
  6
Continuous
 62
     7
370
    15
100
AcDbCircle
 10
279.2909367163
 20
226.9240454154
 30
0.0
 40
3.999697729064239
100
AcDbArc
 50
0.0043988958
 51
90.0044463303
  0
ARC
  5
231
330
1F
100
AcDbEntity
  8
0
  6
Continuous
 62
     7
370
    15
100
AcDbCircle
 10
227.2903467234
 20
226.9240284561
 30
0.0
 40
3.999714687131408
100
AcDbArc
 50
89.9957965931
 51
179.9953581807
  0
LINE
  5
232
330
1F
100
AcDbEntity
  8
0
  6
Continuous
 62
     7
370
    15
100
AcDbLine
 10
227.2906401557
 20
230.9237431325
 30
0.0
 11
279.2906263274
 21
230.9237431325
 31
0.0
  0
LINE
  5
233
330
1F
100
AcDbEntity
  8
0
  6
Continuous
 62
     7
370
    15
100
AcDbLine
 10
223.2906320494
 20
204.9277035109
 30
0.0
 11
223.2906320494
 21
226.9243524931
 31
0.0
  0
LINE
  5
234
330
1F
100
AcDbEntity
  8
0
  6
Continuous
 62
     7
370
    15
100
AcDbLine
 10
283.2906344336
 20
226.9243524931
 30
0.0
 11
283.2906344336
 21
204.9277035109
 31
0.0
  0
ARC
  5
235
330
1F
100
AcDbEntity
  8
0
  6
Continuous
 62
     7
370
    15
100
AcDbCircle
 10
227.2903485945
 20
204.9280284879
 30
0.0
 40
3.999716558238919
100
AcDbArc
 50
180.0046552814
 51
270.0041766024
  0
ARC
  5
236
330
1F
100
AcDbEntity
  8
0
  6
Continuous
 62
     7
370
    15
100
AcDbCircle
 10
279.2909348453
 20
204.9280115285
 30
0.0
 40
3.999699600170546
100
AcDbArc
 50
269.9955804744
 51
359.9955876417
  0
ARC
  5
237
330
1F
100
AcDbEntity
  8
0
  6
Continuous
 62
     7
370
    15
100
AcDbCircle
 10
227.290347129
 20
204.9978370998
 30
0.0
 40
3.999715092765363
100
AcDbArc
 50
180.0046476299
 51
270.0041975962
  0
ARC
  5
238
330
1F
100
AcDbEntity
  8
0
  6
Continuous
 62
     7
370
    15
100
AcDbCircle
 10
279.2909363107
 20
204.9978201405
 30
0.0
 40
3.999698134715547
100
AcDbArc
 50
269.9955594807
 51
359.9955952932
  0
LINE
  5
239
330
1F
100
AcDbEntity
  8
0
  6
Continuous
 62
     7
370
    15
100
AcDbLine
 10
279.2906263274
 20
200.9981220178
 30
0.0
 11
227.2906401557
 21
200.9981220178
 31
0.0
  0
ELLIPSE
  5
23A
330
1F
100
AcDbEntity
  8
0
  6
Continuous
 62
     7
370
    15
100
AcDbEllipse
 10
675.8700678583
 20
952.3504312301
 30
0.0
 11
2.001816800467282
 21
-1.983948714338794
 31
0.0
210
0.0
220
0.0
230
1.0
 40
0.1263244604
 41
4.836937837526983
 42
6.069140289435076
  0
ELLIPSE
  5
23B
330
1F
100
AcDbEntity
  8
0
  6
Continuous
 62
     7
370
    15
100
AcDbEllipse
 10
675.8884822637
 20
950.2966570698
 30
0.0
 11
2.00008477009203
 21
-0.0005700245061461827
 31
0.0
210
0.0
220
0.0
230
1.0
 40
0.0923977318
 41
0.0368939890405002
 42
0.3416783582808439
  0
ELLIPSE
  5
23C
330
1F
100
AcDbEntity
  8
0
  6
Continuous
 62
     7
370
    15
100
AcDbEllipse
 10
670.6927985245
 20
950.2966570698
 30
0.0
 11
2.00008477009203
 21
0.0005700245061461827
 31
0.0
210
0.0
220
0.0
230
1.0
 40
0.0923977318
 41
2.799914295308948
 42
3.10469866454929
  0
ELLIPSE
  5
23D
330
1F
100
AcDbEntity
  8
0
  6
Continuous
 62
     7
370
    15
100
AcDbEllipse
 10
670.7112129299
 20
952.3504312301
 30
0.0
 11
2.001816800467281
 21
1.98394871433868
 31
0.0
210
0.0
220
0.0
230
1.0
 40
0.1263244604
 41
3.3556376713345
 42
4.58784012324235
  0
ELLIPSE
  5
23E
330
1F
100
AcDbEntity
  8
0
  6
Continuous
 62
     7
370
    15
100
AcDbEllipse
 10
360.8700678583
 20
952.3504312301
 30
0.0
 11
2.001816800467225
 21
-1.983948714338795
 31
0.0
210
0.0
220
0.0
230
1.0
 40
0.1263244604
 41
4.836937837527044
 42
6.0691402894353
  0
ELLIPSE
  5
23F
330
1F
100
AcDbEntity
  8
0
  6
Continuous
 62
     7
370
    15
100
AcDbEllipse
 10
360.8884822637
 20
950.2966570698
 30
0.0
 11
2.000084770091973
 21
-0.0005700245061461827
 31
0.0
210
0.0
220
0.0
230
1.0
 40
0.0923977318
 41
0.0368939890405011
 42
0.3416783582808445
  0
ELLIPSE
  5
240
330
1F
100
AcDbEntity
  8
0
  6
Continuous
 62
     7
370
    15
100
AcDbEllipse
 10
355.6927985245
 20
950.2966570698
 30
0.0
 11
2.000084770091973
 21
0.0005700245061461827
 31
0.0
210
0.0
220
0.0
230
1.0
 40
0.0923977318
 41
2.799914295308948
 42
3.104698664549296
  0
ELLIPSE
  5
241
330
1F
100
AcDbEntity
  8
0
  6
Continuous
 62
     7
370
    15
100
AcDbEllipse
 10
355.7112129299
 20
952.3504312301
 30
0.0
 11
2.001816800467281
 21
1.98394871433868
 31
0.0
210
0.0
220
0.0
230
1.0
 40
0.1263244604
 41
3.355637671334591
 42
4.587840123242336
  0
ELLIPSE
  5
242
330
1F
100
AcDbEntity
  8
0
  6
Continuous
 62
     7
370
    15
100
AcDbEllipse
 10
261.7982800692
 20
1011.4154401093
 30
0.0
 11
-1.424997215780479
 21
1.424997215780536
 31
0.0
210
0.0
220
0.0
230
1.0
 40
0.9924325091
 41
5.501585242055419
 42
7.064785372303722
  0
ELLIPSE
  5
243
330
1F
100
AcDbEntity
  8
0
  6
Continuous
 62
     7
370
    15
100
AcDbEllipse
 10
854.783000719
 20
1011.4154401093
 30
0.0
 11
1.424997215780422
 21
1.424997215780536
 31
0.0
210
0.0
220
0.0
230
1.0
 40
0.9924325091
 41
5.501585242055455
 42
7.064785372303709
  0
LINE
  5
244
330
1F
100
AcDbEntity
  8
0
  6
Continuous
 62
     7
370
    15
100
AcDbLine
 10
856.7906418246
 20
949.4154631681
 30
0.0
 11
856.7906418246
 21
1011.4306985922
 31
0.0
  0
LINE
  5
245
330
1F
100
AcDbEntity
  8
0
  6
Continuous
 62
     7
370
    15
100
AcDbLine
 10
259.7906389636
 20
1011.4306985922
 30
0.0
 11
259.7906389636
 21
949.4154631681
 31
0.0
  0
LINE
  5
246
330
1F
100
AcDbEntity
  8
0
  6
Continuous
 62
     7
370
    15
100
AcDbLine
 10
854.7982373637
 20
1013.4231030531
 30
0.0
 11
261.7830434245
 21
1013.4231030531
 31
0.0
  0
LINE
  5
247
330
1F
100
AcDbEntity
  8
0
  6
Continuous
 62
     7
370
    15
100
AcDbLine
 10
752.7890452546
 20
965.1247441359
 30
0.0
 11
752.7890452546
 21
995.7214176245
 31
0.0
  0
LINE
  5
248
330
1F
100
AcDbEntity
  8
0
  6
Continuous
 62
     7
370
    15
100
AcDbLine
 10
363.7922355336
 20
995.7214176245
 30
0.0
 11
363.7922355336
 21
965.1247441359
 31
0.0
  0
LINE
  5
249
330
1F
100
AcDbEntity
  8
0
  6
Continuous
 62
     7
370
    15
100
AcDbLine
 10
362.8872135085
 20
950.3029167242
 30
0.0
 11
363.3494624299
 21
949.1447984762
 31
0.0
  0
LINE
  5
24A
330
1F
100
AcDbEntity
  8
0
  6
Continuous
 62
     7
370
    15
100
AcDbLine
 10
763.7922265929
 20
995.4149901457
 30
0.0
 11
763.7922265929
 21
965.4311716146
 31
0.0
  0
LINE
  5
24B
330
1F
100
AcDbEntity
  8
0
  6
Continuous
 62
     7
370
    15
100
AcDbLine
 10
552.7890473966
 20
963.8185083456
 30
0.0
 11
552.7890473966
 21
997.0276534147
 31
0.0
  0
LINE
  5
24C
330
1F
100
AcDbEntity
  8
0
  6
Continuous
 62
     7
370
    15
100
AcDbLine
 10
842.7890339297
 20
991.7561590261
 30
0.0
 11
842.7890339297
 21
988.6925398893
 31
0.0
  0
LINE
  5
24D
330
1F
100
AcDbEntity
  8
0
  6
Continuous
 62
     7
370
    15
100
AcDbLine
 10
842.7890339297
 20
972.153621871
 30
0.0
 11
842.7890339297
 21
969.0900027342
 31
0.0
  0
LINE
  5
24E
330
1F
100
AcDbEntity
  8
0
  6
Continuous
 62
     7
370
    15
100
AcDbLine
 10
437.7890476388
 20
964.38910361
 30
0.0
 11
437.7890476388
 21
996.4570581503
 31
0.0
  0
LINE
  5
24F
330
1F
100
AcDbEntity
  8
0
  6
Continuous
 62
     7
370
    15
100
AcDbLine
 10
448.7922364277
 20
996.6332494802
 30
0.0
 11
448.7922364277
 21
964.2129122801
 31
0.0
  0
LINE
  5
250
330
1F
100
AcDbEntity
  8
0
  6
Continuous
 62
     7
370
    15
100
AcDbLine
 10
353.2318123978
 20
949.1447984762
 30
0.0
 11
353.6940762204
 21
950.3029167242
 31
0.0
  0
LINE
  5
251
330
1F
100
AcDbEntity
  8
0
  6
Continuous
 62
     7
370
    15
100
AcDbLine
 10
352.7890541953
 20
965.4311716146
 30
0.0
 11
352.7890541953
 21
995.4149901457
 31
0.0
  0
LINE
  5
252
330
1F
100
AcDbEntity
  8
0
  6
Continuous
 62
     7
370
    15
100
AcDbLine
 10
668.2318174642
 20
949.1447984762
 30
0.0
 11
668.6940738362
 21
950.3029167242
 31
0.0
  0
LINE
  5
253
330
1F
100
AcDbEntity
  8
0
  6
Continuous
 62
     7
370
    15
100
AcDbLine
 10
667.7890443605
 20
964.2129122801
 30
0.0
 11
667.7890443605
 21
996.6332494802
 31
0.0
  0
LINE
  5
254
330
1F
100
AcDbEntity
  8
0
  6
Continuous
 62
     7
370
    15
100
AcDbLine
 10
563.7922333915
 20
997.0276534147
 30
0.0
 11
563.7922333915
 21
963.8185083456
 31
0.0
  0
LINE
  5
255
330
1F
100
AcDbEntity
  8
0
  6
Continuous
 62
     7
370
    15
100
AcDbLine
 10
273.7922468585
 20
991.7561590261
 30
0.0
 11
273.7922468585
 21
988.6925398893
 31
0.0
  0
LINE
  5
256
330
1F
100
AcDbEntity
  8
0
  6
Continuous
 62
     7
370
    15
100
AcDbLine
 10
273.7922468585
 20
972.153621871
 30
0.0
 11
273.7922468585
 21
969.0900027342
 31
0.0
  0
LINE
  5
257
330
1F
100
AcDbEntity
  8
0
  6
Continuous
 62
     7
370
    15
100
AcDbLine
 10
678.7922331494
 20
996.4570581503
 30
0.0
 11
678.7922331494
 21
964.38910361
 31
0.0
  0
LINE
  5
258
330
1F
100
AcDbEntity
  8
0
  6
Continuous
 62
     7
370
    15
100
AcDbLine
 10
677.8872111243
 20
950.3029167242
 30
0.0
 11
678.3494600457
 21
949.1447984762
 31
0.0
  0
ELLIPSE
  5
259
330
1F
100
AcDbEntity
  8
0
  6
Continuous
 62
     7
370
    15
100
AcDbEllipse
 10
854.783000719
 20
949.4307194595
 30
0.0
 11
1.424997215780422
 21
-1.424997215780536
 31
0.0
210
0.0
220
0.0
230
1.0
 40
0.9924325091
 41
5.501585242055497
 42
7.064785372303711
  0
ELLIPSE
  5
25A
330
1F
100
AcDbEntity
  8
0
  6
Continuous
 62
     7
370
    15
100
AcDbEllipse
 10
261.7982800692
 20
949.4307194595
 30
0.0
 11
-1.424997215780479
 21
-1.424997215780536
 31
0.0
210
0.0
220
0.0
230
1.0
 40
0.9924325091
 41
5.501585242055454
 42
7.064785372303749
  0
SPLINE
  5
25B
330
1F
100
AcDbEntity
  8
0
  6
Continuous
 62
     7
370
    15
100
AcDbSpline
210
0.0
220
0.0
230
1.0
 70
     8
 71
     3
 72
    13
 73
     9
 74
     0
 42
0.00000001
 43
0.00000001
 12
1.0
 22
0.0
 32
0.0
 13
1.0
 23
0.0
 33
0.0
 40
0.0
 40
0.0
 40
0.0
 40
0.0
 40
0.0016184440483293
 40
0.1076388527886588
 40
0.2135387306358389
 40
0.5545559081619028
 40
0.7768823296141759
 40
1.0
 40
1.0
 40
1.0
 40
1.0
 10
683.5644492310238
 20
948.5756933279009
 30
0.0
 10
683.5603812009543
 20
948.5758919267702
 30
0.0
 10
683.2898262254896
 20
948.5891002637986
 30
0.0
 10
682.7534311647224
 20
948.6174959109703
 30
0.0
 10
681.388849783661
 20
948.6912722665681
 30
0.0
 10
679.8670854171063
 20
948.8015853098246
 30
0.0
 10
678.623839326567
 20
948.9750302456295
 30
0.0
 10
678.4410280494418
 20
949.0881420919385
 30
0.0
 10
678.3494600456906
 20
949.1447984762165
 30
0.0
  0
LINE
  5
25C
330
1F
100
AcDbEntity
  8
0
  6
Continuous
 62
     7
370
    15
100
AcDbLine
 10
261.7830434245
 20
947.4230587072
 30
0.0
 11
854.7982373637
 21
947.4230587072
 31
0.0
  0
SPLINE
  5
25D
330
1F
100
AcDbEntity
  8
0
  6
Continuous
 62
     7
370
    15
100
AcDbSpline
210
0.0
220
0.0
230
1.0
 70
     8
 71
     3
 72
    13
 73
     9
 74
     0
 42
0.00000001
 43
0.00000001
 12
1.0
 22
0.0
 32
0.0
 13
1.0
 23
0.0
 33
0.0
 40
0.0
 40
0.0
 40
0.0
 40
0.0
 40
0.2231171137927011
 40
0.4454437663902379
 40
0.7864599961777522
 40
0.8923597781674352
 40
0.9983815574166394
 40
1.0
 40
1.0
 40
1.0
 40
1.0
 10
353.2318123978329
 20
949.1447984762165
 30
0.0
 10
353.1402511018233
 20
949.0881420409086
 30
0.0
 10
352.9574528939368
 20
948.9750298931901
 30
0.0
 10
351.7141909858213
 20
948.8015857492788
 30
0.0
 10
350.192435166782
 20
948.6912723694164
 30
0.0
 10
348.8278541385012
 20
948.6174954717517
 30
0.0
 10
348.2914498898909
 20
948.5891004459268
 30
0.0
 10
348.0208912423588
 20
948.5758919268027
 30
0.0
 10
348.0168232124997
 20
948.5756933279009
 30
0.0
  0
SPLINE
  5
25E
330
1F
100
AcDbEntity
  8
0
  6
Continuous
 62
     7
370
    15
100
AcDbSpline
210
0.0
220
0.0
230
1.0
 70
     8
 71
     3
 72
    13
 73
     9
 74
     0
 42
0.00000001
 43
0.00000001
 12
1.0
 22
0.0
 32
0.0
 13
1.0
 23
0.0
 33
0.0
 40
0.0
 40
0.0
 40
0.0
 40
0.0
 40
0.0016184437138382
 40
0.1076388305424515
 40
0.2135386865028261
 40
0.5545564326104061
 40
0.7768823757269112
 40
1.0
 40
1.0
 40
1.0
 40
1.0
 10
368.5644516152096
 20
948.5756933279009
 30
0.0
 10
368.560383585144
 20
948.5758919267705
 30
0.0
 10
368.2898286099347
 20
948.5891002638218
 30
0.0
 10
367.7534334482064
 20
948.6174959029945
 30
0.0
 10
366.3888512789871
 20
948.6912724063409
 30
0.0
 10
364.8670781743778
 20
948.801584844261
 30
0.0
 10
363.6238433575495
 20
948.9750304589921
 30
0.0
 10
363.4410310424307
 20
949.0881421265013
 30
0.0
 10
363.3494624298764
 20
949.1447984762164
 30
0.0
  0
SPLINE
  5
25F
330
1F
100
AcDbEntity
  8
0
  6
Continuous
 62
     7
370
    15
100
AcDbSpline
210
0.0
220
0.0
230
1.0
 70
     8
 71
     3
 72
    13
 73
     9
 74
     0
 42
0.00000001
 43
0.00000001
 12
1.0
 22
0.0
 32
0.0
 13
1.0
 23
0.0
 33
0.0
 40
0.0
 40
0.0
 40
0.0
 40
0.0
 40
0.2231174151440856
 40
0.4454441913382902
 40
0.786460610704828
 40
0.8923604515667155
 40
0.9983815565169086
 40
1.0
 40
1.0
 40
1.0
 40
1.0
 10
668.2318174642277
 20
949.1447984762164
 30
0.0
 10
668.1402531187464
 20
949.0881420491417
 30
0.0
 10
667.95744889523
 20
948.975029962727
 30
0.0
 10
666.7141892590738
 20
948.8015857623335
 30
0.0
 10
665.1924335352763
 20
948.6912722481072
 30
0.0
 10
663.827852724707
 20
948.6174956953483
 30
0.0
 10
663.2914531204837
 20
948.5891003548508
 30
0.0
 10
663.0208963088608
 20
948.5758919267862
 30
0.0
 10
663.0168282788944
 20
948.5756933279009
 30
0.0
  0
SPLINE
  5
260
330
1F
100
AcDbEntity
  8
0
  6
Continuous
 62
     7
370
    15
100
AcDbSpline
210
0.0
220
0.0
230
1.0
 70
     8
 71
     3
 72
    19
 73
    15
 74
     0
 42
0.00000001
 43
0.00000001
 12
1.0
 22
0.0
 32
0.0
 13
1.0
 23
0.0
 33
0.0
 40
0.0
 40
0.0
 40
0.0
 40
0.0
 40
0.3243826579895656
 40
0.5392432578436042
 40
0.6822266434855996
 40
0.7780903760785917
 40
0.843082342507122
 40
0.8878412963842656
 40
0.9311161097151607
 40
0.9564459738766932
 40
0.9725843776227623
 40
0.9849288401347149
 40
0.9973216634230891
 40
1.0
 40
1.0
 40
1.0
 40
1.0
 10
274.4046547812176
 20
971.770364005086
 30
0.0
 10
274.3373379560542
 20
971.9104469972123
 30
0.0
 10
274.2254326392477
 20
972.1433164406986
 30
0.0
 10
274.0831603792321
 20
972.3890424435747
 30
0.0
 10
273.9880742648507
 20
972.5149281132266
 30
0.0
 10
273.9241300823231
 20
972.5651553925331
 30
0.0
 10
273.8807224346793
 20
972.5699694333102
 30
0.0
 10
273.8484853540233
 20
972.5455633383718
 30
0.0
 10
273.8248174830895
 20
972.4981721240877
 30
0.0
 10
273.8080338313517
 20
972.4235660873143
 30
0.0
 10
273.7987608095202
 20
972.3452701969701
 30
0.0
 10
273.7937640723144
 20
972.2626927979843
 30
0.0
 10
273.7922553314693
 20
972.1965520558113
 30
0.0
 10
273.7922481370182
 20
972.1600998848685
 30
0.0
 10
273.7922468584729
 20
972.1536218709917
 30
0.0
  0
SPLINE
  5
261
330
1F
100
AcDbEntity
  8
0
  6
Continuous
 62
     7
370
    15
100
AcDbSpline
210
0.0
220
0.0
230
1.0
 70
     8
 71
     3
 72
    14
 73
    10
 74
     0
 42
0.00000001
 43
0.00000001
 12
1.0
 22
0.0
 32
0.0
 13
1.0
 23
0.0
 33
0.0
 40
0.0
 40
0.0
 40
0.0
 40
0.0
 40
0.0119801781243211
 40
0.0239915020015478
 40
0.0398818838890592
 40
0.0687359034047434
 40
0.167550149309891
 40
0.641138981377157
 40
1.0
 40
1.0
 40
1.0
 40
1.0
 10
273.7922468584729
 20
988.6925398893328
 30
0.0
 10
273.7924588599275
 20
988.663381523057
 30
0.0
 10
273.7928834139926
 20
988.6049889853489
 30
0.0
 10
273.7972964027446
 20
988.5192811409225
 30
0.0
 10
273.8065100513771
 20
988.4293294851389
 30
0.0
 10
273.8351387948646
 20
988.3007174384431
 30
0.0
 10
273.9630759785605
 20
988.2245415499597
 30
0.0
 10
274.1575625776194
 20
988.5754431575141
 30
0.0
 10
274.33022268951
 20
988.9250749126646
 30
0.0
 10
274.4046547812176
 20
989.0757977552386
 30
0.0
  0
LINE
  5
262
330
1F
100
AcDbEntity
  8
0
  6
Continuous
 62
     7
370
    15
100
AcDbLine
 10
274.4046547812
 20
989.0757977552
 30
0.0
 11
275.4999199313
 21
987.3531639166
 31
0.0
  0
LINE
  5
263
330
1F
100
AcDbEntity
  8
0
  6
Continuous
 62
     7
370
    15
100
AcDbLine
 10
275.4999199313
 20
973.4929978437
 30
0.0
 11
274.4046547812
 21
971.7703640051
 31
0.0
  0
LINE
  5
264
330
1F
100
AcDbEntity
  8
0
  6
Continuous
 62
     7
370
    15
100
AcDbLine
 10
842.176626007
 20
971.7703640051
 30
0.0
 11
841.0813608569
 21
973.4929978437
 31
0.0
  0
LINE
  5
265
330
1F
100
AcDbEntity
  8
0
  6
Continuous
 62
     7
370
    15
100
AcDbLine
 10
841.0813608569
 20
987.3531639166
 30
0.0
 11
842.176626007
 21
989.0757977552
 31
0.0
  0
SPLINE
  5
266
330
1F
100
AcDbEntity
  8
0
  6
Continuous
 62
     7
370
    15
100
AcDbSpline
210
0.0
220
0.0
230
1.0
 70
     8
 71
     3
 72
    19
 73
    15
 74
     0
 42
0.00000001
 43
0.00000001
 12
1.0
 22
0.0
 32
0.0
 13
1.0
 23
0.0
 33
0.0
 40
0.0
 40
0.0
 40
0.0
 40
0.0
 40
0.3243825813051378
 40
0.5392431303658873
 40
0.6822264822064484
 40
0.7780901921371456
 40
0.8430821432015014
 40
0.8878410864975776
 40
0.9311158895982578
 40
0.9564457477717817
 40
0.972584147702714
 40
0.9849286072964217
 40
0.9973134576501727
 40
1.0
 40
1.0
 40
1.0
 40
1.0
 10
842.1766260069562
 20
989.0757977552387
 30
0.0
 10
842.2439428322003
 20
988.9357147629335
 30
0.0
 10
842.355848149141
 20
988.7028453191497
 30
0.0
 10
842.4981204084796
 20
988.4571193177742
 30
0.0
 10
842.5932065242868
 20
988.3312336449629
 30
0.0
 10
842.6571507038229
 20
988.2810063722851
 30
0.0
 10
842.7005583578338
 20
988.2761923173966
 30
0.0
 10
842.7327954234836
 20
988.3005984455947
 30
0.0
 10
842.756463337163
 20
988.3479895651373
 30
0.0
 10
842.7732469002608
 20
988.4225957983734
 30
0.0
 10
842.7825200959662
 20
988.500891303342
 30
0.0
 10
842.7875154118507
 20
988.5834535920991
 30
0.0
 10
842.7890259245307
 20
988.6495888568375
 30
0.0
 10
842.7890327186238
 20
988.6860419622134
 30
0.0
 10
842.7890339297008
 20
988.6925398893328
 30
0.0
  0
SPLINE
  5
267
330
1F
100
AcDbEntity
  8
0
  6
Continuous
 62
     7
370
    15
100
AcDbSpline
210
0.0
220
0.0
230
1.0
 70
     8
 71
     3
 72
    14
 73
    10
 74
     0
 42
0.00000001
 43
0.00000001
 12
1.0
 22
0.0
 32
0.0
 13
1.0
 23
0.0
 33
0.0
 40
0.0
 40
0.0
 40
0.0
 40
0.0
 40
0.0127091178562358
 40
0.0254420343552227
 40
0.0421286528758413
 40
0.0735984043211179
 40
0.1869883494288312
 40
0.6362523971919949
 40
1.0
 40
1.0
 40
1.0
 40
1.0
 10
842.7890339297008
 20
972.1536218709917
 30
0.0
 10
842.7887810599135
 20
972.1845925504699
 30
0.0
 10
842.7882748468236
 20
972.246591904021
 30
0.0
 10
842.7833734915575
 20
972.3354881232209
 30
0.0
 10
842.773160712754
 20
972.427591319284
 30
0.0
 10
842.740584112833
 20
972.5599075056798
 30
0.0
 10
842.6140426398138
 20
972.5977934407422
 30
0.0
 10
842.4207654210265
 20
972.2687214310995
 30
0.0
 10
842.2520918478782
 20
971.9244110784642
 30
0.0
 10
842.1766260069561
 20
971.770364005086
 30
0.0
  0
ARC
  5
268
330
1F
100
AcDbEntity
  8
0
  6
Continuous
 62
     7
370
    15
100
AcDbCircle
 10
268.2906403941
 20
980.4230797844
 30
0.0
 40
10.00000000000002
100
AcDbArc
 50
316.1311450389
 51
43.8688549611
  0
ARC
  5
269
330
1F
100
AcDbEntity
  8
0
  6
Continuous
 62
     7
370
    15
100
AcDbCircle
 10
848.2906403941
 20
980.4230797844
 30
0.0
 40
10.00000000000002
100
AcDbArc
 50
136.1311450389
 51
223.8688549611
  0
SPLINE
  5
26A
330
1F
100
AcDbEntity
  8
0
  6
Continuous
 62
     7
370
    15
100
AcDbSpline
210
0.0
220
0.0
230
1.0
 70
     8
 71
     3
 72
    12
 73
     8
 74
     0
 42
0.00000001
 43
0.00000001
 12
1.0
 22
0.0
 32
0.0
 13
1.0
 23
0.0
 33
0.0
 40
0.0
 40
0.0
 40
0.0
 40
0.0
 40
0.2156067986636624
 40
0.431248658233191
 40
0.6462096419210696
 40
0.8603641238534167
 40
1.0
 40
1.0
 40
1.0
 40
1.0
 10
563.7922333915484
 20
963.8185083456011
 30
0.0
 10
563.8475535380496
 20
963.2541194126491
 30
0.0
 10
563.9582028269393
 20
962.1252497686223
 30
0.0
 10
564.8225842785142
 20
960.6218550060225
 30
0.0
 10
566.0938984233926
 20
959.4914133362827
 30
0.0
 10
567.4962951563903
 20
958.8976157123132
 30
0.0
 10
568.4195004425447
 20
958.8381633815114
 30
0.0
 10
568.7838760566664
 20
958.8146984167071
 30
0.0
  0
SPLINE
  5
26B
330
1F
100
AcDbEntity
  8
0
  6
Continuous
 62
     7
370
    15
100
AcDbSpline
210
0.0
220
0.0
230
1.0
 70
     8
 71
     3
 72
    12
 73
     8
 74
     0
 42
0.00000001
 43
0.00000001
 12
1.0
 22
0.0
 32
0.0
 13
1.0
 23
0.0
 33
0.0
 40
0.0
 40
0.0
 40
0.0
 40
0.0
 40
0.2138903683951605
 40
0.4277882968199269
 40
0.6416318079550613
 40
0.8559812207423776
 40
1.0
 40
1.0
 40
1.0
 40
1.0
 10
568.7838760566665
 20
1002.031463343618
 30
0.0
 10
568.2239164422463
 20
1001.976914048842
 30
0.0
 10
567.103977421438
 20
1001.867813531228
 30
0.0
 10
565.6109598544867
 20
1001.010249018472
 30
0.0
 10
564.4828641651982
 20
999.7468059457232
 30
0.0
 10
563.8794602035709
 20
998.3387039008603
 30
0.0
 10
563.817238616014
 20
997.403490968928
 30
0.0
 10
563.7922333915485
 20
997.0276534147235
 30
0.0
  0
SPLINE
  5
26C
330
1F
100
AcDbEntity
  8
0
  6
Continuous
 62
     7
370
    15
100
AcDbSpline
210
0.0
220
0.0
230
1.0
 70
     8
 71
     3
 72
    12
 73
     8
 74
     0
 42
0.00000001
 43
0.00000001
 12
1.0
 22
0.0
 32
0.0
 13
1.0
 23
0.0
 33
0.0
 40
0.0
 40
0.0
 40
0.0
 40
0.0
 40
0.2138902548195794
 40
0.4277880696647503
 40
0.6416314672491849
 40
0.8559737212883346
 40
1.0
 40
1.0
 40
1.0
 40
1.0
 10
547.7974047315073
 20
958.8146984167071
 30
0.0
 10
548.3573642026959
 20
958.869247763284
 30
0.0
 10
549.4773029370356
 20
958.9783483845033
 30
0.0
 10
550.9703226523761
 20
959.8359121202659
 30
0.0
 10
552.0983977960728
 20
961.0993442848572
 30
0.0
 10
552.7018361734031
 20
962.5074331412867
 30
0.0
 10
552.7640457292991
 20
963.4426499997738
 30
0.0
 10
552.7890473966253
 20
963.8185083456011
 30
0.0
  0
SPLINE
  5
26D
330
1F
100
AcDbEntity
  8
0
  6
Continuous
 62
     7
370
    15
100
AcDbSpline
210
0.0
220
0.0
230
1.0
 70
     8
 71
     3
 72
    12
 73
     8
 74
     0
 42
0.00000001
 43
0.00000001
 12
1.0
 22
0.0
 32
0.0
 13
1.0
 23
0.0
 33
0.0
 40
0.0
 40
0.0
 40
0.0
 40
0.0
 40
0.2156072413834172
 40
0.4312495437446935
 40
0.6462109688262321
 40
0.860363008138272
 40
1.0
 40
1.0
 40
1.0
 40
1.0
 10
552.7890473966253
 20
997.0276534147234
 30
0.0
 10
552.733727456339
 20
997.5920429790294
 30
0.0
 10
552.6230785799127
 20
998.7209138858667
 30
0.0
 10
551.7586940377336
 20
1000.224299186176
 30
0.0
 10
550.4873972704357
 20
1001.354771605791
 30
0.0
 10
549.0849690163857
 20
1001.948452010734
 30
0.0
 10
548.1617787109399
 20
1002.007971569221
 30
0.0
 10
547.7974047315073
 20
1002.031463343617
 30
0.0
  0
ARC
  5
26E
330
1F
100
AcDbEntity
  8
0
  6
Continuous
 62
     7
370
    15
100
AcDbCircle
 10
283.5438319099
 20
972.1784978977
 30
0.0
 40
10.61242064468141
100
AcDbArc
 50
213.2125857976
 51
268.8508071346
  0
LINE
  5
26F
330
1F
100
AcDbEntity
  8
0
  6
Continuous
 62
     7
370
    15
100
AcDbLine
 10
274.6650078696
 20
966.3655936308
 30
0.0
 11
274.4576433104
 21
966.7001545019
 31
0.0
  0
ARC
  5
270
330
1F
100
AcDbEntity
  8
0
  6
Continuous
 62
     7
370
    15
100
AcDbCircle
 10
833.0374488783
 20
988.6676616711
 30
0.0
 40
10.61242064468153
100
AcDbArc
 50
33.2125857976
 51
88.8508071346
  0
LINE
  5
271
330
1F
100
AcDbEntity
  8
0
  6
Continuous
 62
     7
370
    15
100
AcDbLine
 10
841.9162729186
 20
994.4805681295
 30
0.0
 11
842.1236374778
 21
994.1460072584
 31
0.0
  0
SPLINE
  5
272
330
1F
100
AcDbEntity
  8
0
  6
Continuous
 62
     7
370
    15
100
AcDbSpline
210
0.0
220
0.0
230
1.0
 70
     8
 71
     3
 72
    12
 73
     8
 74
     0
 42
0.00000001
 43
0.00000001
 12
1.0
 22
0.0
 32
0.0
 13
1.0
 23
0.0
 33
0.0
 40
0.0
 40
0.0
 40
0.0
 40
0.0
 40
0.2167536238205242
 40
0.4335416916108611
 40
0.6496452623047357
 40
0.8649494473505541
 40
1.0
 40
1.0
 40
1.0
 40
1.0
 10
448.79223642766
 20
964.2129122800799
 30
0.0
 10
448.8475554820226
 20
963.6485414370574
 30
0.0
 10
448.9582023814097
 20
962.519710067749
 30
0.0
 10
449.8225409382013
 20
961.0164048738241
 30
0.0
 10
451.0938771861781
 20
959.885874438629
 30
0.0
 10
452.4830938603479
 20
959.2980810088952
 30
0.0
 10
453.3918033420621
 20
959.2339872575661
 30
0.0
 10
453.7420818012906
 20
959.2092811651202
 30
0.0
  0
SPLINE
  5
273
330
1F
100
AcDbEntity
  8
0
  6
Continuous
 62
     7
370
    15
100
AcDbSpline
210
0.0
220
0.0
230
1.0
 70
     8
 71
     3
 72
    12
 73
     8
 74
     0
 42
0.00000001
 43
0.00000001
 12
1.0
 22
0.0
 32
0.0
 13
1.0
 23
0.0
 33
0.0
 40
0.0
 40
0.0
 40
0.0
 40
0.0
 40
0.2167536238205242
 40
0.4335416916108611
 40
0.6496452623047357
 40
0.8649494473505541
 40
1.0
 40
1.0
 40
1.0
 40
1.0
 10
667.7890443605137
 20
996.6332494802447
 30
0.0
 10
667.7337253061512
 20
997.1976203232673
 30
0.0
 10
667.6230784067641
 20
998.3264516925758
 30
0.0
 10
666.7587398499726
 20
999.8297568865004
 30
0.0
 10
665.4874036019955
 20
1000.960287321696
 30
0.0
 10
664.0981869278259
 20
1001.548080751429
 30
0.0
 10
663.1894774461117
 20
1001.612174502758
 30
0.0
 10
662.8391989868832
 20
1001.636880595204
 30
0.0
  0
SPLINE
  5
274
330
1F
100
AcDbEntity
  8
0
  6
Continuous
 62
     7
370
    15
100
AcDbSpline
210
0.0
220
0.0
230
1.0
 70
     8
 71
     3
 72
    12
 73
     8
 74
     0
 42
0.00000001
 43
0.00000001
 12
1.0
 22
0.0
 32
0.0
 13
1.0
 23
0.0
 33
0.0
 40
0.0
 40
0.0
 40
0.0
 40
0.0
 40
0.2150368723014752
 40
0.430076961755624
 40
0.6450764116438304
 40
0.8605894126035709
 40
1.0
 40
1.0
 40
1.0
 40
1.0
 10
453.7420818012906
 20
1001.636880595204
 30
0.0
 10
453.1825973312347
 20
1001.577606300147
 30
0.0
 10
452.0636200207123
 20
1001.459056823235
 30
0.0
 10
450.5778385289686
 20
1000.589040717669
 30
0.0
 10
449.4602047688185
 20
999.316089913061
 30
0.0
 10
448.8745754071049
 20
997.9162045001781
 30
0.0
 10
448.8154574106571
 20
996.9950644663517
 30
0.0
 10
448.79223642766
 20
996.6332494802447
 30
0.0
  0
SPLINE
  5
275
330
1F
100
AcDbEntity
  8
0
  6
Continuous
 62
     7
370
    15
100
AcDbSpline
210
0.0
220
0.0
230
1.0
 70
     8
 71
     3
 72
    12
 73
     8
 74
     0
 42
0.00000001
 43
0.00000001
 12
1.0
 22
0.0
 32
0.0
 13
1.0
 23
0.0
 33
0.0
 40
0.0
 40
0.0
 40
0.0
 40
0.0
 40
0.2150368723014752
 40
0.430076961755624
 40
0.6450764116438304
 40
0.8605894126035709
 40
1.0
 40
1.0
 40
1.0
 40
1.0
 10
662.8391989868832
 20
959.2092811651202
 30
0.0
 10
663.398683456939
 20
959.2685554601771
 30
0.0
 10
664.5176607674614
 20
959.3871049370898
 30
0.0
 10
666.0034422592051
 20
960.2571210426559
 30
0.0
 10
667.1210760193553
 20
961.5300718472632
 30
0.0
 10
667.7067053810689
 20
962.9299572601465
 30
0.0
 10
667.7658233775167
 20
963.8510972939729
 30
0.0
 10
667.7890443605137
 20
964.2129122800799
 30
0.0
  0
SPLINE
  5
276
330
1F
100
AcDbEntity
  8
0
  6
Continuous
 62
     7
370
    15
100
AcDbSpline
210
0.0
220
0.0
230
1.0
 70
     8
 71
     3
 72
    12
 73
     8
 74
     0
 42
0.00000001
 43
0.00000001
 12
1.0
 22
0.0
 32
0.0
 13
1.0
 23
0.0
 33
0.0
 40
0.0
 40
0.0
 40
0.0
 40
0.0
 40
0.2144734709231572
 40
0.4289831523546465
 40
0.6428095985919496
 40
0.8558279753234292
 40
1.0
 40
1.0
 40
1.0
 40
1.0
 10
678.7922331494045
 20
964.3891036100359
 30
0.0
 10
678.8475530890921
 20
963.8246968152829
 30
0.0
 10
678.9582023083782
 20
962.6957879344716
 30
0.0
 10
679.8226181325132
 20
961.1923117872285
 30
0.0
 10
681.0939399214786
 20
960.0619965333303
 30
0.0
 10
682.5095067062296
 20
959.4622603845804
 30
0.0
 10
683.4471910072099
 20
959.4075111934678
 30
0.0
 10
683.8256665867519
 20
959.3854128904314
 30
0.0
  0
SPLINE
  5
277
330
1F
100
AcDbEntity
  8
0
  6
Continuous
 62
     7
370
    15
100
AcDbSpline
210
0.0
220
0.0
230
1.0
 70
     8
 71
     3
 72
    12
 73
     8
 74
     0
 42
0.00000001
 43
0.00000001
 12
1.0
 22
0.0
 32
0.0
 13
1.0
 23
0.0
 33
0.0
 40
0.0
 40
0.0
 40
0.0
 40
0.0
 40
0.2144734709231572
 40
0.4289831523546465
 40
0.6428095985919496
 40
0.8558279753234292
 40
1.0
 40
1.0
 40
1.0
 40
1.0
 10
437.7890476387692
 20
996.4570581502886
 30
0.0
 10
437.7337276990817
 20
997.0214649450417
 30
0.0
 10
437.6230784797955
 20
998.1503738258526
 30
0.0
 10
436.7586626556605
 20
999.6538499730966
 30
0.0
 10
435.4873408666951
 20
1000.784165226994
 30
0.0
 10
434.0717740819442
 20
1001.383901375745
 30
0.0
 10
433.1340897809639
 20
1001.438650566857
 30
0.0
 10
432.7556142014218
 20
1001.460748869893
 30
0.0
  0
SPLINE
  5
278
330
1F
100
AcDbEntity
  8
0
  6
Continuous
 62
     7
370
    15
100
AcDbSpline
210
0.0
220
0.0
230
1.0
 70
     8
 71
     3
 72
    12
 73
     8
 74
     0
 42
0.00000001
 43
0.00000001
 12
1.0
 22
0.0
 32
0.0
 13
1.0
 23
0.0
 33
0.0
 40
0.0
 40
0.0
 40
0.0
 40
0.0
 40
0.2127585676330497
 40
0.4255230829189367
 40
0.6382312072076066
 40
0.8514216722576994
 40
1.0
 40
1.0
 40
1.0
 40
1.0
 10
432.7556142014218
 20
959.3854128904314
 30
0.0
 10
433.3160050772489
 20
959.4352722640049
 30
0.0
 10
434.436802494596
 20
959.5349924049669
 30
0.0
 10
435.9370347923092
 20
960.3799271418776
 30
0.0
 10
437.0754037337711
 20
961.6338721008956
 30
0.0
 10
437.6968272404526
 20
963.0499517373033
 30
0.0
 10
437.7621993388292
 20
963.9992337786257
 30
0.0
 10
437.7890476387692
 20
964.3891036100359
 30
0.0
  0
SPLINE
  5
279
330
1F
100
AcDbEntity
  8
0
  6
Continuous
 62
     7
370
    15
100
AcDbSpline
210
0.0
220
0.0
230
1.0
 70
     8
 71
     3
 72
    12
 73
     8
 74
     0
 42
0.00000001
 43
0.00000001
 12
1.0
 22
0.0
 32
0.0
 13
1.0
 23
0.0
 33
0.0
 40
0.0
 40
0.0
 40
0.0
 40
0.0
 40
0.2127585676330497
 40
0.4255230829189367
 40
0.6382312072076066
 40
0.8514216722576994
 40
1.0
 40
1.0
 40
1.0
 40
1.0
 10
683.8256665867519
 20
1001.460748869893
 30
0.0
 10
683.2652757109249
 20
1001.41088949632
 30
0.0
 10
682.1444782935778
 20
1001.311169355358
 30
0.0
 10
680.6442459958645
 20
1000.466234618447
 30
0.0
 10
679.5058770544027
 20
999.2122896594293
 30
0.0
 10
678.8844535477213
 20
997.7962100230212
 30
0.0
 10
678.8190814493446
 20
996.8469279816989
 30
0.0
 10
678.7922331494045
 20
996.4570581502886
 30
0.0
  0
ARC
  5
27A
330
1F
100
AcDbEntity
  8
0
  6
Continuous
 62
     7
370
    15
100
AcDbCircle
 10
558.2906403941
 20
14668.505759174
 30
0.0
 40
13709.69510003425
100
AcDbArc
 50
269.5630647268
 51
269.9561464964
  0
ARC
  5
27B
330
1F
100
AcDbEntity
  8
0
  6
Continuous
 62
     7
370
    15
100
AcDbCircle
 10
558.2906403941
 20
-12707.6595995875
 30
0.0
 40
13709.69510001654
100
AcDbArc
 50
89.5630647268
 51
89.9561464964
  0
ARC
  5
27C
330
1F
100
AcDbEntity
  8
0
  6
Continuous
 62
     7
370
    15
100
AcDbCircle
 10
558.2906403941
 20
14668.505759174
 30
0.0
 40
13709.69510003425
100
AcDbArc
 50
270.0438535036
 51
270.4369352732
  0
ARC
  5
27D
330
1F
100
AcDbEntity
  8
0
  6
Continuous
 62
     7
370
    15
100
AcDbCircle
 10
558.2906403941
 20
-12707.6595995875
 30
0.0
 40
13709.69510001654
100
AcDbArc
 50
90.0438535036
 51
90.4369352732
  0
ARC
  5
27E
330
1F
100
AcDbEntity
  8
0
  6
Continuous
 62
     7
370
    15
100
AcDbCircle
 10
833.0374488783
 20
972.1784978977
 30
0.0
 40
10.612420644681
100
AcDbArc
 50
271.1491928654
 51
326.7874142024
  0
LINE
  5
27F
330
1F
100
AcDbEntity
  8
0
  6
Continuous
 62
     7
370
    15
100
AcDbLine
 10
842.1236374778
 20
966.7001545019
 30
0.0
 11
841.9162729186
 21
966.3655936308
 31
0.0
  0
ARC
  5
280
330
1F
100
AcDbEntity
  8
0
  6
Continuous
 62
     7
370
    15
100
AcDbCircle
 10
283.5438319099
 20
988.6676616711
 30
0.0
 40
10.61242064468112
100
AcDbArc
 50
91.1491928654
 51
146.7874142024
  0
LINE
  5
281
330
1F
100
AcDbEntity
  8
0
  6
Continuous
 62
     7
370
    15
100
AcDbLine
 10
274.4576433104
 20
994.1460072584
 30
0.0
 11
274.6650078696
 21
994.4805681295
 31
0.0
  0
ARC
  5
282
330
1F
100
AcDbEntity
  8
0
  6
Continuous
 62
     7
370
    15
100
AcDbCircle
 10
558.2906403941
 20
-12707.6595995875
 30
0.0
 40
13709.69510001654
100
AcDbArc
 50
89.2076812253
 51
89.4753546315
  0
ARC
  5
283
330
1F
100
AcDbEntity
  8
0
  6
Continuous
 62
     7
370
    15
100
AcDbCircle
 10
558.2906403941
 20
14668.505759174
 30
0.0
 40
13709.69510003425
100
AcDbArc
 50
269.2076812253
 51
269.4753546315
  0
ARC
  5
284
330
1F
100
AcDbEntity
  8
0
  6
Continuous
 62
     7
370
    15
100
AcDbCircle
 10
558.2906403941
 20
-12707.6595995875
 30
0.0
 40
13709.69510001654
100
AcDbArc
 50
90.5246453685
 51
90.7923187747
  0
ARC
  5
285
330
1F
100
AcDbEntity
  8
0
  6
Continuous
 62
     7
370
    15
100
AcDbCircle
 10
558.2906403941
 20
14668.505759174
 30
0.0
 40
13709.69510003425
100
AcDbArc
 50
270.5246453685
 51
270.7923187747
  0
SPLINE
  5
286
330
1F
100
AcDbEntity
  8
0
  6
Continuous
 62
     7
370
    15
100
AcDbSpline
210
0.0
220
0.0
230
1.0
 70
     8
 71
     3
 72
    12
 73
     8
 74
     0
 42
0.00000001
 43
0.00000001
 12
1.0
 22
0.0
 32
0.0
 13
1.0
 23
0.0
 33
0.0
 40
0.0
 40
0.0
 40
0.0
 40
0.0
 40
0.2176144135227958
 40
0.4352548119678705
 40
0.6522144329008405
 40
0.8683736515192321
 40
1.0
 40
1.0
 40
1.0
 40
1.0
 10
363.7922355335904
 20
965.1247441358538
 30
0.0
 10
363.8475533904897
 20
964.5603703861256
 30
0.0
 10
363.9581957096881
 20
963.4315554958752
 30
0.0
 10
364.8225241664631
 20
961.9283149331366
 30
0.0
 10
366.0938335041116
 20
960.7976630788118
 30
0.0
 10
367.4733425604298
 20
960.2143653723012
 30
0.0
 10
368.3713243310319
 20
960.1469756327964
 30
0.0
 10
368.7111833494855
 20
960.1214706487627
 30
0.0
  0
SPLINE
  5
287
330
1F
100
AcDbEntity
  8
0
  6
Continuous
 62
     7
370
    15
100
AcDbSpline
210
0.0
220
0.0
230
1.0
 70
     8
 71
     3
 72
    12
 73
     8
 74
     0
 42
0.00000001
 43
0.00000001
 12
1.0
 22
0.0
 32
0.0
 13
1.0
 23
0.0
 33
0.0
 40
0.0
 40
0.0
 40
0.0
 40
0.0
 40
0.2158887075711415
 40
0.4317859133522706
 40
0.6476473576166176
 40
0.8640206568959058
 40
1.0
 40
1.0
 40
1.0
 40
1.0
 10
747.8700974386883
 20
960.1214706487627
 30
0.0
 10
748.4292031359565
 20
960.184206083348
 30
0.0
 10
749.5474365390438
 20
960.3096794220272
 30
0.0
 10
751.0277572086094
 20
961.1889618800766
 30
0.0
 10
752.137616853841
 20
962.4688452448337
 30
0.0
 10
752.7102531490592
 20
963.8625255856251
 30
0.0
 10
752.7671050600653
 20
964.7732708463401
 30
0.0
 10
752.7890452545834
 20
965.1247441358538
 30
0.0
  0
SPLINE
  5
288
330
1F
100
AcDbEntity
  8
0
  6
Continuous
 62
     7
370
    15
100
AcDbSpline
210
0.0
220
0.0
230
1.0
 70
     8
 71
     3
 72
    12
 73
     8
 74
     0
 42
0.00000001
 43
0.00000001
 12
1.0
 22
0.0
 32
0.0
 13
1.0
 23
0.0
 33
0.0
 40
0.0
 40
0.0
 40
0.0
 40
0.0
 40
0.2176144135227958
 40
0.4352548119678705
 40
0.6522144329008405
 40
0.8683736515192321
 40
1.0
 40
1.0
 40
1.0
 40
1.0
 10
752.7890452545834
 20
995.7214176244707
 30
0.0
 10
752.7337273976841
 20
996.2857913741991
 30
0.0
 10
752.6230850784856
 20
997.4146062644495
 30
0.0
 10
751.7587566217106
 20
998.9178468271878
 30
0.0
 10
750.4874472840621
 20
1000.048498681513
 30
0.0
 10
749.107938227744
 20
1000.631796388023
 30
0.0
 10
748.2099564571419
 20
1000.699186127528
 30
0.0
 10
747.8700974386883
 20
1000.724691111562
 30
0.0
  0
SPLINE
  5
289
330
1F
100
AcDbEntity
  8
0
  6
Continuous
 62
     7
370
    15
100
AcDbSpline
210
0.0
220
0.0
230
1.0
 70
     8
 71
     3
 72
    12
 73
     8
 74
     0
 42
0.00000001
 43
0.00000001
 12
1.0
 22
0.0
 32
0.0
 13
1.0
 23
0.0
 33
0.0
 40
0.0
 40
0.0
 40
0.0
 40
0.0
 40
0.2158887075711415
 40
0.4317859133522706
 40
0.6476473576166176
 40
0.8640206568959058
 40
1.0
 40
1.0
 40
1.0
 40
1.0
 10
368.7111833494855
 20
1000.724691111562
 30
0.0
 10
368.1520776522173
 20
1000.661955676976
 30
0.0
 10
367.03384424913
 20
1000.536482338297
 30
0.0
 10
365.5535235795644
 20
999.6571998802475
 30
0.0
 10
364.4436639343328
 20
998.3773165154912
 30
0.0
 10
363.8710276391145
 20
996.9836361746994
 30
0.0
 10
363.8141757281084
 20
996.0728909139841
 30
0.0
 10
363.7922355335904
 20
995.7214176244707
 30
0.0
  0
SPLINE
  5
28A
330
1F
100
AcDbEntity
  8
0
  6
Continuous
 62
     7
370
    15
100
AcDbSpline
210
0.0
220
0.0
230
1.0
 70
     8
 71
     3
 72
    12
 73
     8
 74
     0
 42
0.00000001
 43
0.00000001
 12
1.0
 22
0.0
 32
0.0
 13
1.0
 23
0.0
 33
0.0
 40
0.0
 40
0.0
 40
0.0
 40
0.0
 40
0.2119302179343887
 40
0.423865457803528
 40
0.63573610953606
 40
0.8480817398277699
 40
1.0
 40
1.0
 40
1.0
 40
1.0
 10
347.7247157496167
 20
960.4277789182635
 30
0.0
 10
348.2854072473529
 20
960.4741568801231
 30
0.0
 10
349.406803529067
 20
960.5669139028228
 30
0.0
 10
350.9122477233383
 20
961.4025435668508
 30
0.0
 10
352.0582322264839
 20
962.6493432390477
 30
0.0
 10
352.6930429463196
 20
964.0712226318674
 30
0.0
 10
352.7607969959929
 20
965.0309232078912
 30
0.0
 10
352.7890541952801
 20
965.4311716146441
 30
0.0
  0
SPLINE
  5
28B
330
1F
100
AcDbEntity
  8
0
  6
Continuous
 62
     7
370
    15
100
AcDbSpline
210
0.0
220
0.0
230
1.0
 70
     8
 71
     3
 72
    12
 73
     8
 74
     0
 42
0.00000001
 43
0.00000001
 12
1.0
 22
0.0
 32
0.0
 13
1.0
 23
0.0
 33
0.0
 40
0.0
 40
0.0
 40
0.0
 40
0.0
 40
0.2136449934060148
 40
0.4273196656216693
 40
0.6403202332460542
 40
0.8525080421784667
 40
1.0
 40
1.0
 40
1.0
 40
1.0
 10
763.7922265928936
 20
965.4311716146441
 30
0.0
 10
763.8475471454632
 20
964.8667447482015
 30
0.0
 10
763.9581959355385
 20
963.7378126071247
 30
0.0
 10
764.8226729580259
 20
962.2342919219396
 30
0.0
 10
766.0939626682945
 20
961.1040370627326
 30
0.0
 10
767.5192686625431
 20
960.499827119413
 30
0.0
 10
768.4676623235033
 20
960.44873144722
 30
0.0
 10
768.856565038557
 20
960.4277789182635
 30
0.0
  0
SPLINE
  5
28C
330
1F
100
AcDbEntity
  8
0
  6
Continuous
 62
     7
370
    15
100
AcDbSpline
210
0.0
220
0.0
230
1.0
 70
     8
 71
     3
 72
    12
 73
     8
 74
     0
 42
0.00000001
 43
0.00000001
 12
1.0
 22
0.0
 32
0.0
 13
1.0
 23
0.0
 33
0.0
 40
0.0
 40
0.0
 40
0.0
 40
0.0
 40
0.2136449934060148
 40
0.4273196656216693
 40
0.6403202332460542
 40
0.8525080421784667
 40
1.0
 40
1.0
 40
1.0
 40
1.0
 10
352.7890541952801
 20
995.4149901456805
 30
0.0
 10
352.7337336427105
 20
995.9794170121233
 30
0.0
 10
352.6230848526353
 20
997.1083491531997
 30
0.0
 10
351.7586078301478
 20
998.6118698383848
 30
0.0
 10
350.4873181198793
 20
999.742124697592
 30
0.0
 10
349.0620121256305
 20
1000.346334640911
 30
0.0
 10
348.1136184646705
 20
1000.397430313105
 30
0.0
 10
347.7247157496167
 20
1000.418382842061
 30
0.0
  0
SPLINE
  5
28D
330
1F
100
AcDbEntity
  8
0
  6
Continuous
 62
     7
370
    15
100
AcDbSpline
210
0.0
220
0.0
230
1.0
 70
     8
 71
     3
 72
    12
 73
     8
 74
     0
 42
0.00000001
 43
0.00000001
 12
1.0
 22
0.0
 32
0.0
 13
1.0
 23
0.0
 33
0.0
 40
0.0
 40
0.0
 40
0.0
 40
0.0
 40
0.2119302179343887
 40
0.423865457803528
 40
0.63573610953606
 40
0.8480817398277699
 40
1.0
 40
1.0
 40
1.0
 40
1.0
 10
768.856565038557
 20
1000.418382842061
 30
0.0
 10
768.2958735408209
 20
1000.372004880201
 30
0.0
 10
767.1744772591068
 20
1000.279247857502
 30
0.0
 10
765.6690330648355
 20
999.4436181934741
 30
0.0
 10
764.5230485616898
 20
998.196818521277
 30
0.0
 10
763.8882378418541
 20
996.7749391284576
 30
0.0
 10
763.8204837921809
 20
995.8152385524336
 30
0.0
 10
763.7922265928936
 20
995.4149901456805
 30
0.0
  0
ARC
  5
28E
330
1F
100
AcDbEntity
  8
0
  6
Continuous
 62
     7
370
    15
100
AcDbCircle
 10
558.2906403941
 20
-12707.6595995875
 30
0.0
 40
13709.69510001654
100
AcDbArc
 50
90.880035123
 51
91.1491928654
  0
ARC
  5
28F
330
1F
100
AcDbEntity
  8
0
  6
Continuous
 62
     7
370
    15
100
AcDbCircle
 10
558.2906403941
 20
14668.505759174
 30
0.0
 40
13709.69510003425
100
AcDbArc
 50
270.880035123
 51
271.1491928654
  0
ARC
  5
290
330
1F
100
AcDbEntity
  8
0
  6
Continuous
 62
     7
370
    15
100
AcDbCircle
 10
558.2906403941
 20
-12707.6595995875
 30
0.0
 40
13709.69510001654
100
AcDbArc
 50
88.8508071346
 51
89.119964877
  0
ARC
  5
291
330
1F
100
AcDbEntity
  8
0
  6
Continuous
 62
     7
370
    15
100
AcDbCircle
 10
558.2906403941
 20
14668.505759174
 30
0.0
 40
13709.69510003425
100
AcDbArc
 50
268.8508071346
 51
269.119964877
  0
SPLINE
  5
292
330
1F
100
AcDbEntity
  8
0
  6
Continuous
 62
     7
370
    15
100
AcDbSpline
210
0.0
220
0.0
230
1.0
 70
     8
 71
     3
 72
    12
 73
     8
 74
     0
 42
0.00000001
 43
0.00000001
 12
1.0
 22
0.0
 32
0.0
 13
1.0
 23
0.0
 33
0.0
 40
0.0
 40
0.0
 40
0.0
 40
0.0
 40
0.2406799381186928
 40
0.481494013822185
 40
0.7183687600625908
 40
0.9505623843350686
 40
1.0
 40
1.0
 40
1.0
 40
1.0
 10
273.9518084925366
 20
968.3578192777605
 30
0.0
 10
273.9471418070369
 20
968.3179925884037
 30
0.0
 10
273.9378058351649
 20
968.2383170131744
 30
0.0
 10
273.9918135207918
 20
967.8658747110212
 30
0.0
 10
274.1305251465036
 20
967.3687781192499
 30
0.0
 10
274.3114917621945
 20
966.9556616145602
 30
0.0
 10
274.4358188955078
 20
966.7383086871248
 30
0.0
 10
274.4576433104229
 20
966.7001545019123
 30
0.0
  0
SPLINE
  5
293
330
1F
100
AcDbEntity
  8
0
  6
Continuous
 62
     7
370
    15
100
AcDbSpline
210
0.0
220
0.0
230
1.0
 70
     8
 71
     3
 72
    12
 73
     8
 74
     0
 42
0.00000001
 43
0.00000001
 12
1.0
 22
0.0
 32
0.0
 13
1.0
 23
0.0
 33
0.0
 40
0.0
 40
0.0
 40
0.0
 40
0.0
 40
0.0403642560090335
 40
0.0805614001943609
 40
0.1538426152043059
 40
0.3585470429430765
 40
1.0
 40
1.0
 40
1.0
 40
1.0
 10
273.7922468584729
 20
969.0900027341814
 30
0.0
 10
273.7924879031151
 20
969.0621165692894
 30
0.0
 10
273.792968994452
 20
969.0064596908559
 30
0.0
 10
273.7976817469525
 20
968.9126699620153
 30
0.0
 10
273.8118523397459
 20
968.7623248817412
 30
0.0
 10
273.8635033024507
 20
968.511350598619
 30
0.0
 10
273.9137315689562
 20
968.4240215062573
 30
0.0
 10
273.9518084925366
 20
968.3578192777605
 30
0.0
  0
SPLINE
  5
294
330
1F
100
AcDbEntity
  8
0
  6
Continuous
 62
     7
370
    15
100
AcDbSpline
210
0.0
220
0.0
230
1.0
 70
     8
 71
     3
 72
    12
 73
     8
 74
     0
 42
0.00000001
 43
0.00000001
 12
1.0
 22
0.0
 32
0.0
 13
1.0
 23
0.0
 33
0.0
 40
0.0
 40
0.0
 40
0.0
 40
0.0
 40
0.2406799381186928
 40
0.481494013822185
 40
0.7183687600625908
 40
0.9505623843350686
 40
1.0
 40
1.0
 40
1.0
 40
1.0
 10
842.6294722956371
 20
992.488342482564
 30
0.0
 10
842.6341389811369
 20
992.5281691719211
 30
0.0
 10
842.643474953009
 20
992.6078447471502
 30
0.0
 10
842.5894672673819
 20
992.9802870493032
 30
0.0
 10
842.4507556416702
 20
993.4773836410751
 30
0.0
 10
842.2697890259793
 20
993.8905001457634
 30
0.0
 10
842.145461892666
 20
994.1078530732
 30
0.0
 10
842.1236374777509
 20
994.1460072584125
 30
0.0
  0
SPLINE
  5
295
330
1F
100
AcDbEntity
  8
0
  6
Continuous
 62
     7
370
    15
100
AcDbSpline
210
0.0
220
0.0
230
1.0
 70
     8
 71
     3
 72
    12
 73
     8
 74
     0
 42
0.00000001
 43
0.00000001
 12
1.0
 22
0.0
 32
0.0
 13
1.0
 23
0.0
 33
0.0
 40
0.0
 40
0.0
 40
0.0
 40
0.0
 40
0.0402743683263018
 40
0.0803871616606045
 40
0.153525495165864
 40
0.3575443814810605
 40
1.0
 40
1.0
 40
1.0
 40
1.0
 10
842.7890339297008
 20
991.7561590261431
 30
0.0
 10
842.7887931114755
 20
991.7839818889363
 30
0.0
 10
842.788312441153
 20
991.8395159931861
 30
0.0
 10
842.7835943576268
 20
991.9331635752966
 30
0.0
 10
842.7694959770033
 20
992.0832108776748
 30
0.0
 10
842.7178911920643
 20
992.3348052742442
 30
0.0
 10
842.6676239965814
 20
992.4220930054465
 30
0.0
 10
842.6294722956372
 20
992.4883424825641
 30
0.0
  0
SPLINE
  5
296
330
1F
100
AcDbEntity
  8
0
  6
Continuous
 62
     7
370
    15
100
AcDbSpline
210
0.0
220
0.0
230
1.0
 70
     8
 71
     3
 72
    12
 73
     8
 74
     0
 42
0.00000001
 43
0.00000001
 12
1.0
 22
0.0
 32
0.0
 13
1.0
 23
0.0
 33
0.0
 40
0.0
 40
0.0
 40
0.0
 40
0.0
 40
0.2431690130522459
 40
0.4869651590958585
 40
0.7196781880713163
 40
0.9552496516557559
 40
0.9999999999999999
 40
0.9999999999999999
 40
0.9999999999999999
 40
0.9999999999999999
 10
842.1236374777508
 20
966.7001545019122
 30
0.0
 10
842.2234703391773
 20
966.891437908705
 30
0.0
 10
842.4233935310239
 20
967.2744980422807
 30
0.0
 10
842.5739293068139
 20
967.8004825693408
 30
0.0
 10
842.6374547903695
 20
968.1806061315971
 30
0.0
 10
842.640084072454
 20
968.3264274547839
 30
0.0
 10
842.6309331426955
 20
968.3534977910724
 30
0.0
 10
842.6294722956371
 20
968.3578192777605
 30
0.0
  0
SPLINE
  5
297
330
1F
100
AcDbEntity
  8
0
  6
Continuous
 62
     7
370
    15
100
AcDbSpline
210
0.0
220
0.0
230
1.0
 70
     8
 71
     3
 72
    15
 73
    11
 74
     0
 42
0.00000001
 43
0.00000001
 12
1.0
 22
0.0
 32
0.0
 13
1.0
 23
0.0
 33
0.0
 40
0.0
 40
0.0
 40
0.0
 40
0.0
 40
0.3098112252031577
 40
0.5224493079557798
 40
0.6700834706852349
 40
0.821303342887439
 40
0.8849967479743559
 40
0.9493203183084045
 40
0.9897451429217796
 40
0.9999999999999999
 40
0.9999999999999999
 40
0.9999999999999999
 40
0.9999999999999999
 10
842.6294722956371
 20
968.3578192777605
 30
0.0
 10
842.6478578573182
 20
968.3897194167619
 30
0.0
 10
842.6788622987176
 20
968.4435141284739
 30
0.0
 10
842.7181115423856
 20
968.5476014208981
 30
0.0
 10
842.7473429032482
 20
968.6546446565798
 30
0.0
 10
842.7672910333177
 20
968.7591653195896
 30
0.0
 10
842.7806980844329
 20
968.8762994615674
 30
0.0
 10
842.7869986295678
 20
968.9700155750596
 30
0.0
 10
842.7889833950868
 20
969.0480516908955
 30
0.0
 10
842.7890254250785
 20
969.0829426667408
 30
0.0
 10
842.789033929701
 20
969.0900027341816
 30
0.0
  0
SPLINE
  5
298
330
1F
100
AcDbEntity
  8
0
  6
Continuous
 62
     7
370
    15
100
AcDbSpline
210
0.0
220
0.0
230
1.0
 70
     8
 71
     3
 72
    15
 73
    11
 74
     0
 42
0.00000001
 43
0.00000001
 12
1.0
 22
0.0
 32
0.0
 13
1.0
 23
0.0
 33
0.0
 40
0.0
 40
0.0
 40
0.0
 40
0.0
 40
0.3098112252031577
 40
0.5224493079557798
 40
0.6700834706852349
 40
0.821303342887439
 40
0.8849967479743559
 40
0.9493203183084045
 40
0.9897451429217796
 40
0.9999999999999999
 40
0.9999999999999999
 40
0.9999999999999999
 40
0.9999999999999999
 10
273.9518084925366
 20
992.488342482564
 30
0.0
 10
273.9334229308556
 20
992.4564423435628
 30
0.0
 10
273.9024184894562
 20
992.4026476318509
 30
0.0
 10
273.8631692457881
 20
992.2985603394264
 30
0.0
 10
273.8339378849256
 20
992.1915171037446
 30
0.0
 10
273.813989754856
 20
992.0869964407347
 30
0.0
 10
273.8005827037409
 20
991.9698622987573
 30
0.0
 10
273.7942821586059
 20
991.8761461852652
 30
0.0
 10
273.792297393087
 20
991.798110069429
 30
0.0
 10
273.7922553630953
 20
991.7632190935839
 30
0.0
 10
273.7922468584728
 20
991.7561590261432
 30
0.0
  0
SPLINE
  5
299
330
1F
100
AcDbEntity
  8
0
  6
Continuous
 62
     7
370
    15
100
AcDbSpline
210
0.0
220
0.0
230
1.0
 70
     8
 71
     3
 72
    12
 73
     8
 74
     0
 42
0.00000001
 43
0.00000001
 12
1.0
 22
0.0
 32
0.0
 13
1.0
 23
0.0
 33
0.0
 40
0.0
 40
0.0
 40
0.0
 40
0.0
 40
0.2431690130522459
 40
0.4869651590958585
 40
0.7196781880713163
 40
0.9552496516557559
 40
0.9999999999999999
 40
0.9999999999999999
 40
0.9999999999999999
 40
0.9999999999999999
 10
274.457643310423
 20
994.1460072584124
 30
0.0
 10
274.3578104489964
 20
993.9547238516195
 30
0.0
 10
274.1578872571499
 20
993.5716637180436
 30
0.0
 10
274.0073514813599
 20
993.0456791909838
 30
0.0
 10
273.9438259978044
 20
992.6655556287279
 30
0.0
 10
273.9411967157198
 20
992.5197343055398
 30
0.0
 10
273.9503476454781
 20
992.4926639692524
 30
0.0
 10
273.9518084925366
 20
992.488342482564
 30
0.0
  0
LINE
  5
29A
330
1F
100
AcDbEntity
  8
0
  6
Continuous
 62
     7
370
    15
100
AcDbLine
 10
274.3247845572
 20
992.1153366156
 30
0.0
 11
273.9519575041
 21
992.4882232733
 31
0.0
  0
ELLIPSE
  5
29B
330
1F
100
AcDbEntity
  8
0
  6
Continuous
 62
     7
370
    15
100
AcDbEllipse
 10
274.3171654634
 20
991.1191692551
 30
0.0
 11
0.0
 21
1.0
 31
0.0
210
0.0
220
0.0
230
1.0
 40
0.0874886635
 41
4.712388980384691
 42
6.195918844580187
  0
LINE
  5
29C
330
1F
100
AcDbEntity
  8
0
  6
Continuous
 62
     7
370
    15
100
AcDbLine
 10
274.4046547812
 20
989.0757977552
 30
0.0
 11
274.4046547812
 21
991.1191641874
 31
0.0
  0
ELLIPSE
  5
29D
330
1F
100
AcDbEntity
  8
0
  6
Continuous
 62
     7
370
    15
100
AcDbEllipse
 10
273.9672108093
 20
994.4805834218
 30
0.0
 11
0.0
 21
2.0
 31
0.0
210
0.0
220
0.0
230
1.0
 40
0.0874886635
 41
3.053409736769203
 42
3.054326190990206
  0
LINE
  5
29E
330
1F
100
AcDbEntity
  8
0
  6
Continuous
 62
     7
370
    15
100
AcDbLine
 10
842.256496231
 20
968.7308251448
 30
0.0
 11
842.629323284
 21
968.3579384871
 31
0.0
  0
ELLIPSE
  5
29F
330
1F
100
AcDbEntity
  8
0
  6
Continuous
 62
     7
370
    15
100
AcDbEllipse
 10
842.2641153248
 20
969.7269903137
 30
0.0
 11
0.0
 21
1.0
 31
0.0
210
0.0
220
0.0
230
1.0
 40
0.0874886635
 41
1.570796326794897
 42
3.054326190990658
  0
LINE
  5
2A0
330
1F
100
AcDbEntity
  8
0
  6
Continuous
 62
     7
370
    15
100
AcDbLine
 10
842.176626007
 20
969.7269975729
 30
0.0
 11
842.176626007
 21
971.7703640051
 31
0.0
  0
ELLIPSE
  5
2A1
330
1F
100
AcDbEntity
  8
0
  6
Continuous
 62
     7
370
    15
100
AcDbEllipse
 10
842.6140699789
 20
966.365576147
 30
0.0
 11
0.0
 21
2.0
 31
0.0
210
0.0
220
0.0
230
1.0
 40
0.0874886635
 41
6.195002390360166
 42
6.195918844579542
  0
LINE
  5
2A2
330
1F
100
AcDbEntity
  8
0
  6
Continuous
 62
     7
370
    15
100
AcDbLine
 10
842.176626007
 20
989.0757977552
 30
0.0
 11
842.176626007
 21
991.1191641874
 31
0.0
  0
ELLIPSE
  5
2A3
330
1F
100
AcDbEntity
  8
0
  6
Continuous
 62
     7
370
    15
100
AcDbEllipse
 10
842.2641153248
 20
991.1191692551
 30
0.0
 11
0.0
 21
1.0
 31
0.0
210
0.0
220
0.0
230
1.0
 40
0.0874886635
 41
0.0872664625978418
 42
1.570796326794897
  0
LINE
  5
2A4
330
1F
100
AcDbEntity
  8
0
  6
Continuous
 62
     7
370
    15
100
AcDbLine
 10
842.256496231
 20
992.1153366156
 30
0.0
 11
842.629323284
 21
992.4882232733
 31
0.0
  0
ELLIPSE
  5
2A5
330
1F
100
AcDbEntity
  8
0
  6
Continuous
 62
     7
370
    15
100
AcDbEllipse
 10
842.6140699789
 20
994.4805834218
 30
0.0
 11
0.0
 21
2.0
 31
0.0
210
0.0
220
0.0
230
1.0
 40
0.0874886635
 41
3.228859116190156
 42
3.229775570409531
  0
LINE
  5
2A6
330
1F
100
AcDbEntity
  8
0
  6
Continuous
 62
     7
370
    15
100
AcDbLine
 10
274.4046547812
 20
969.7269975729
 30
0.0
 11
274.4046547812
 21
971.7703640051
 31
0.0
  0
ELLIPSE
  5
2A7
330
1F
100
AcDbEntity
  8
0
  6
Continuous
 62
     7
370
    15
100
AcDbEllipse
 10
274.3171654634
 20
969.7269903137
 30
0.0
 11
0.0
 21
1.0
 31
0.0
210
0.0
220
0.0
230
1.0
 40
0.0874886635
 41
3.228859116188861
 42
4.712388980384691
  0
LINE
  5
2A8
330
1F
100
AcDbEntity
  8
0
  6
Continuous
 62
     7
370
    15
100
AcDbLine
 10
274.3247845572
 20
968.7308251448
 30
0.0
 11
273.9519575041
 21
968.3579384871
 31
0.0
  0
ELLIPSE
  5
2A9
330
1F
100
AcDbEntity
  8
0
  6
Continuous
 62
     7
370
    15
100
AcDbEllipse
 10
273.9672108093
 20
966.365576147
 30
0.0
 11
0.0
 21
2.0
 31
0.0
210
0.0
220
0.0
230
1.0
 40
0.0874886635
 41
0.0872664625995812
 42
0.0881829168192787
  0
CIRCLE
  5
2AA
330
1F
100
AcDbEntity
  8
0
  6
Continuous
 62
     7
370
    15
100
AcDbCircle
 10
948.2906403941
 20
980.4230797844
 30
0.0
 40
9.50000000000009
  0
CIRCLE
  5
2AB
330
1F
100
AcDbEntity
  8
0
  6
Continuous
 62
     7
370
    15
100
AcDbCircle
 10
168.2906403941
 20
980.4230797844
 30
0.0
 40
9.500000000000053
  0
LINE
  5
2AC
330
1F
100
AcDbEntity
  8
0
  6
Continuous
 62
     7
370
    15
100
AcDbLine
 10
223.3747938079
 20
227.7404471822
 30
0.0
 11
283.2064726752
 21
227.7404471822
 31
0.0
  0
LINE
  5
2AD
330
1F
100
AcDbEntity
  8
0
  6
Continuous
 62
     7
370
    15
100
AcDbLine
 10
958.2906463546
 20
117.8381546922
 30
0.0
 11
958.2906463546
 21
117.9199322648
 31
0.0
  0
LINE
  5
2AE
330
1F
100
AcDbEntity
  8
0
  6
Continuous
 62
     7
370
    15
100
AcDbLine
 10
158.2906344336
 20
117.9199322648
 30
0.0
 11
158.2906344336
 21
117.8381546922
 31
0.0
  0
ARC
  5
2AF
330
1F
100
AcDbEntity
  8
0
  6
Continuous
 62
     7
370
    15
100
AcDbCircle
 10
869.3090724421
 20
113.5642249883
 30
0.0
 40
11.35048014719268
100
AcDbArc
 50
159.922517738
 51
198.1244669127
  0
ARC
  5
2B0
330
1F
100
AcDbEntity
  8
0
  6
Continuous
 62
     7
370
    15
100
AcDbCircle
 10
827.2459741941
 20
112.9482863446
 30
0.0
 40
11.37512729623539
100
AcDbArc
 50
341.7177877644
 51
19.6087417246
  0
LINE
  5
2B1
330
1F
100
AcDbEntity
  8
0
  6
Continuous
 62
     7
370
    15
100
AcDbLine
 10
846.6562428874
 20
117.9199322648
 30
0.0
 11
846.9643690985
 21
105.1731586046
 31
0.0
  0
LWPOLYLINE
  5
2B2
330
1F
100
AcDbEntity
  8
0
  6
Continuous
 62
     7
370
    15
100
AcDbPolyline
 90
        9
 70
   128
 43
0.0
 10
846.9643690985
 20
105.1731586046
 10
847.0844128531
 20
104.9310668893
 10
847.4145331782
 20
104.7268241234
 10
847.9044535559
 20
104.5915141292
 10
848.4796085757
 20
104.545737762
 10
849.0524390143
 20
104.5964687653
 10
849.5357432765
 20
104.7359808869
 10
849.8559096259
 20
104.9430325217
 10
849.9642112654
 20
105.1861077137
  0
LINE
  5
2B3
330
1F
100
AcDbEntity
  8
0
  6
Continuous
 62
     7
370
    15
100
AcDbLine
 10
849.9642112654
 20
105.1861077137
 30
0.0
 11
849.6564128798
 21
117.9199322648
 31
0.0
  0
ARC
  5
2B4
330
1F
100
AcDbEntity
  8
0
  6
Continuous
 62
     7
370
    15
100
AcDbCircle
 10
849.1211878972
 20
105.6344692287
 30
0.0
 40
0.843553321530282
100
AcDbArc
 50
10.901332687
 51
25.1900929282
  0
LINE
  5
2B5
330
1F
100
AcDbEntity
  8
0
  6
Continuous
 62
     7
370
    15
100
AcDbLine
 10
836.8315496844
 20
106.4664527364
 30
0.0
 11
836.8285098475
 21
106.4848407693
 31
0.0
  0
LINE
  5
2B6
330
1F
100
AcDbEntity
  8
0
  6
Continuous
 62
     7
370
    15
100
AcDbLine
 10
849.9551215571
 20
105.562749464
 30
0.0
 11
849.9378064078
 21
105.5141567774
 31
0.0
  0
ARC
  5
2B7
330
1F
100
AcDbEntity
  8
0
  6
Continuous
 62
     7
370
    15
100
AcDbCircle
 10
579.3364668308
 20
113.2567045048
 30
0.0
 40
11.37278806537938
100
AcDbArc
 50
159.9581281237
 51
197.7085127112
  0
ARC
  5
2B8
330
1F
100
AcDbEntity
  8
0
  6
Continuous
 62
     7
370
    15
100
AcDbCircle
 10
537.1834647343
 20
113.260125666
 30
0.0
 40
11.43261838431592
100
AcDbArc
 50
341.0816466127
 51
22.7581842655
  0
LWPOLYLINE
  5
2B9
330
1F
100
AcDbEntity
  8
0
  6
Continuous
 62
     7
370
    15
100
AcDbPolyline
 90
        9
 70
   128
 43
0.0
 10
556.790640381
 20
105.1792606301
 10
556.9048211108
 20
104.9366622753
 10
557.2299802805
 20
104.7310038991
 10
557.7166152432
 20
104.5935853906
 10
558.2906403941
 20
104.54532798
 10
558.8646655449
 20
104.5935853906
 10
559.3513005077
 20
104.7310038991
 10
559.6764596774
 20
104.9366622753
 10
559.7906404071
 20
105.1792606301
  0
LINE
  5
2BA
330
1F
100
AcDbEntity
  8
0
  6
Continuous
 62
     7
370
    15
100
AcDbLine
 10
556.790640381
 20
117.9199322648
 30
0.0
 11
556.790640381
 21
105.1792606301
 31
0.0
  0
LINE
  5
2BB
330
1F
100
AcDbEntity
  8
0
  6
Continuous
 62
     7
370
    15
100
AcDbLine
 10
559.7906404071
 20
105.1792606301
 30
0.0
 11
559.7906404071
 21
117.9199322648
 31
0.0
  0
LINE
  5
2BC
330
1F
100
AcDbEntity
  8
0
  6
Continuous
 62
     7
370
    15
100
AcDbLine
 10
546.6730804545
 20
106.5059929676
 30
0.0
 11
546.6699391034
 21
106.5243437476
 31
0.0
  0
LINE
  5
2BD
330
1F
100
AcDbEntity
  8
0
  6
Continuous
 62
     7
370
    15
100
AcDbLine
 10
792.3906394643
 20
995.3671872206
 30
0.0
 11
795.8906391066
 21
995.3671872206
 31
0.0
  0
LINE
  5
2BE
330
1F
100
AcDbEntity
  8
0
  6
Continuous
 62
     7
370
    15
100
AcDbLine
 10
788.8906398219
 20
995.3671872206
 30
0.0
 11
792.3906394643
 21
995.3671872206
 31
0.0
  0
LINE
  5
2BF
330
1F
100
AcDbEntity
  8
0
  6
Continuous
 62
     7
370
    15
100
AcDbLine
 10
792.3906394643
 20
994.7671472616
 30
0.0
 11
795.6406423253
 21
994.7671472616
 31
0.0
  0
LINE
  5
2C0
330
1F
100
AcDbEntity
  8
0
  6
Continuous
 62
     7
370
    15
100
AcDbLine
 10
789.1406366032
 20
994.7671472616
 30
0.0
 11
792.3906394643
 21
994.7671472616
 31
0.0
  0
LINE
  5
2C1
330
1F
100
AcDbEntity
  8
0
  6
Continuous
 62
     7
370
    15
100
AcDbLine
 10
703.4350284737
 20
1001.2671529837
 30
0.0
 11
682.6217496198
 21
1001.2671529837
 31
0.0
  0
LINE
  5
2C2
330
1F
100
AcDbEntity
  8
0
  6
Continuous
 62
     7
370
    15
100
AcDbLine
 10
664.4974970621
 20
1001.2671529837
 30
0.0
 11
566.2583788288
 21
1001.2671529837
 31
0.0
  0
LINE
  5
2C3
330
1F
100
AcDbEntity
  8
0
  6
Continuous
 62
     7
370
    15
100
AcDbLine
 10
550.4468032521
 20
1001.2671529837
 30
0.0
 11
451.960089187
 21
1001.2671529837
 31
0.0
  0
LINE
  5
2C4
330
1F
100
AcDbEntity
  8
0
  6
Continuous
 62
     7
370
    15
100
AcDbLine
 10
434.0664320987
 20
1001.2671529837
 30
0.0
 11
413.1462523144
 21
1001.2671529837
 31
0.0
  0
LINE
  5
2C5
330
1F
100
AcDbEntity
  8
0
  6
Continuous
 62
     7
370
    15
100
AcDbLine
 10
807.6727190417
 20
999.7671424932
 30
0.0
 11
800.8906343383
 21
999.7671424932
 31
0.0
  0
LINE
  5
2C6
330
1F
100
AcDbEntity
  8
0
  6
Continuous
 62
     7
370
    15
100
AcDbLine
 10
800.8906343383
 20
999.8888551779
 30
0.0
 11
800.8906343383
 21
999.7671424932
 31
0.0
  0
ARC
  5
2C7
330
1F
100
AcDbEntity
  8
0
  6
Continuous
 62
     7
370
    15
100
AcDbCircle
 10
298.2906403941
 20
974.3788282461
 30
0.0
 40
4.999999999999987
100
AcDbArc
 50
46.9603019367
 51
106.9603019367
  0
LINE
  5
2C8
330
1F
100
AcDbEntity
  8
0
  6
Continuous
 62
     7
370
    15
100
AcDbLine
 10
299.5932796401
 20
980.0034343786
 30
0.0
 11
296.8320944709
 21
979.1613399572
 31
0.0
  0
SPLINE
  5
2C9
330
1F
100
AcDbEntity
  8
0
  6
Continuous
 62
     7
370
    15
100
AcDbSpline
210
0.0
220
0.0
230
1.0
 70
     8
 71
     3
 72
     9
 73
     5
 74
     0
 42
0.00000001
 43
0.00000001
 12
1.0
 22
0.0
 32
0.0
 13
1.0
 23
0.0
 33
0.0
 40
0.0
 40
0.0
 40
0.0
 40
0.0
 40
0.0701882484641003
 40
1.0
 40
1.0
 40
1.0
 40
1.0
 10
301.7031648558331
 20
978.0332624502154
 30
0.0
 10
301.6531528232221
 20
978.0799546321444
 30
0.0
 10
300.9406114262581
 20
978.7451967909244
 30
0.0
 10
300.2424439572746
 20
979.397196959695
 30
0.0
 10
299.5932796400738
 20
980.0034343786211
 30
0.0
  0
ARC
  5
2CA
330
1F
100
AcDbEntity
  8
0
  6
Continuous
 62
     7
370
    15
100
AcDbCircle
 10
298.2906403941
 20
974.3788282461
 30
0.0
 40
5.000000000000023
100
AcDbArc
 50
346.9603019367
 51
46.9603019367
  0
SPLINE
  5
2CB
330
1F
100
AcDbEntity
  8
0
  6
Continuous
 62
     7
370
    15
100
AcDbSpline
210
0.0
220
0.0
230
1.0
 70
     8
 71
     3
 72
     9
 73
     5
 74
     0
 42
0.00000001
 43
0.00000001
 12
1.0
 22
0.0
 32
0.0
 13
1.0
 23
0.0
 33
0.0
 40
0.0
 40
0.0
 40
0.0
 40
0.0
 40
0.2318483884055694
 40
1.0
 40
1.0
 40
1.0
 40
1.0
 10
303.1617203158093
 20
973.2507049627276
 30
0.0
 10
303.2128109660438
 20
973.4713352477445
 30
0.0
 10
303.4331732924154
 20
974.4229497339797
 30
0.0
 10
303.6480173005231
 20
975.3505179201187
 30
0.0
 10
303.8130500715923
 20
976.063030917165
 30
0.0
  0
LINE
  5
2CC
330
1F
100
AcDbEntity
  8
0
  6
Continuous
 62
     7
370
    15
100
AcDbLine
 10
303.8130500716
 20
976.0630309172
 30
0.0
 11
301.7031648558
 21
978.0332624502
 31
0.0
  0
SPLINE
  5
2CD
330
1F
100
AcDbEntity
  8
0
  6
Continuous
 62
     7
370
    15
100
AcDbSpline
210
0.0
220
0.0
230
1.0
 70
     8
 71
     3
 72
     9
 73
     5
 74
     0
 42
0.00000001
 43
0.00000001
 12
1.0
 22
0.0
 32
0.0
 13
1.0
 23
0.0
 33
0.0
 40
0.0
 40
0.0
 40
0.0
 40
0.0
 40
0.0701985378025668
 40
1.0
 40
1.0
 40
1.0
 40
1.0
 10
299.7491755884839
 20
969.5962845869036
 30
0.0
 10
299.8146323838448
 20
969.6162414510966
 30
0.0
 10
300.7470847882677
 20
969.9005331873312
 30
0.0
 10
301.6608087159876
 20
970.1792384487245
 30
0.0
 10
302.5103905600262
 20
970.4383790082903
 30
0.0
  0
ARC
  5
2CE
330
1F
100
AcDbEntity
  8
0
  6
Continuous
 62
     7
370
    15
100
AcDbCircle
 10
298.2906403941
 20
974.3788282461
 30
0.0
 40
5.000000000000023
100
AcDbArc
 50
286.9603019367
 51
346.9603019367
  0
SPLINE
  5
2CF
330
1F
100
AcDbEntity
  8
0
  6
Continuous
 62
     7
370
    15
100
AcDbSpline
210
0.0
220
0.0
230
1.0
 70
     8
 71
     3
 72
     9
 73
     5
 74
     0
 42
0.00000001
 43
0.00000001
 12
1.0
 22
0.0
 32
0.0
 13
1.0
 23
0.0
 33
0.0
 40
0.0
 40
0.0
 40
0.0
 40
0.0
 40
0.2109970175356445
 40
1.0
 40
1.0
 40
1.0
 40
1.0
 10
302.5103905600262
 20
970.4383790082903
 30
0.0
 10
302.555137611751
 20
970.6315932953408
 30
0.0
 10
302.7672119445897
 20
971.5473137605275
 30
0.0
 10
302.9877305100066
 20
972.4994592957203
 30
0.0
 10
303.1617203158092
 20
973.2507049627277
 30
0.0
  0
SPLINE
  5
2D0
330
1F
100
AcDbEntity
  8
0
  6
Continuous
 62
     7
370
    15
100
AcDbSpline
210
0.0
220
0.0
230
1.0
 70
     8
 71
     3
 72
     9
 73
     5
 74
     0
 42
0.00000001
 43
0.00000001
 12
1.0
 22
0.0
 32
0.0
 13
1.0
 23
0.0
 33
0.0
 40
0.0
 40
0.0
 40
0.0
 40
0.0
 40
0.0702086299667932
 40
1.0
 40
1.0
 40
1.0
 40
1.0
 10
294.8781052035046
 20
970.7244216985674
 30
0.0
 10
294.9281270114687
 20
970.6777094495242
 30
0.0
 10
295.6406007912277
 20
970.0123745887626
 30
0.0
 10
296.3388056070224
 20
969.3603950832143
 30
0.0
 10
296.9879904192638
 20
968.754190165517
 30
0.0
  0
ARC
  5
2D1
330
1F
100
AcDbEntity
  8
0
  6
Continuous
 62
     7
370
    15
100
AcDbCircle
 10
298.2906403941
 20
974.3788282461
 30
0.0
 40
5.000000000000229
100
AcDbArc
 50
226.9603019367
 51
286.9603019367
  0
LINE
  5
2D2
330
1F
100
AcDbEntity
  8
0
  6
Continuous
 62
     7
370
    15
100
AcDbLine
 10
296.9879904193
 20
968.7541901655
 30
0.0
 11
299.7491755885
 21
969.5962845869
 31
0.0
  0
ARC
  5
2D3
330
1F
100
AcDbEntity
  8
0
  6
Continuous
 62
     7
370
    15
100
AcDbCircle
 10
298.2906403941
 20
974.3788282461
 30
0.0
 40
4.999999999999997
100
AcDbArc
 50
106.9603019367
 51
166.9603019367
  0
SPLINE
  5
2D4
330
1F
100
AcDbEntity
  8
0
  6
Continuous
 62
     7
370
    15
100
AcDbSpline
210
0.0
220
0.0
230
1.0
 70
     8
 71
     3
 72
     9
 73
     5
 74
     0
 42
0.00000001
 43
0.00000001
 12
1.0
 22
0.0
 32
0.0
 13
1.0
 23
0.0
 33
0.0
 40
0.0
 40
0.0
 40
0.0
 40
0.0
 40
0.7681470928204296
 40
1.0
 40
1.0
 40
1.0
 40
1.0
 10
294.0709093016339
 20
978.3192455358477
 30
0.0
 10
293.9058748778436
 20
977.6067529006231
 30
0.0
 10
293.6910274543062
 20
976.6792057655962
 30
0.0
 10
293.4706700505339
 20
975.7276095379063
 30
0.0
 10
293.4195795458508
 20
975.5069791860552
 30
0.0
  0
SPLINE
  5
2D5
330
1F
100
AcDbEntity
  8
0
  6
Continuous
 62
     7
370
    15
100
AcDbSpline
210
0.0
220
0.0
230
1.0
 70
     8
 71
     3
 72
     9
 73
     5
 74
     0
 42
0.00000001
 43
0.00000001
 12
1.0
 22
0.0
 32
0.0
 13
1.0
 23
0.0
 33
0.0
 40
0.0
 40
0.0
 40
0.0
 40
0.0
 40
0.0701992131338165
 40
1.0
 40
1.0
 40
1.0
 40
1.0
 10
296.8320944708539
 20
979.1613399572344
 30
0.0
 10
296.7666376723137
 20
979.1413831001023
 30
0.0
 10
295.8341941929901
 20
978.8570941994003
 30
0.0
 10
294.9204807654919
 20
978.5783873674758
 30
0.0
 10
294.0709093016339
 20
978.3192455358477
 30
0.0
  0
SPLINE
  5
2D6
330
1F
100
AcDbEntity
  8
0
  6
Continuous
 62
     7
370
    15
100
AcDbSpline
210
0.0
220
0.0
230
1.0
 70
     8
 71
     3
 72
     9
 73
     5
 74
     0
 42
0.00000001
 43
0.00000001
 12
1.0
 22
0.0
 32
0.0
 13
1.0
 23
0.0
 33
0.0
 40
0.0
 40
0.0
 40
0.0
 40
0.0
 40
0.7890029824643555
 40
1.0
 40
1.0
 40
1.0
 40
1.0
 10
293.4195795458508
 20
975.5069791860553
 30
0.0
 10
293.2455897400481
 20
974.755733519048
 30
0.0
 10
293.0250711746312
 20
973.8035879838553
 30
0.0
 10
292.8129968417925
 20
972.8878675186686
 30
0.0
 10
292.7682497900677
 20
972.6946532316181
 30
0.0
  0
ARC
  5
2D7
330
1F
100
AcDbEntity
  8
0
  6
Continuous
 62
     7
370
    15
100
AcDbCircle
 10
298.2906403941
 20
974.3788282461
 30
0.0
 40
5.000000000000229
100
AcDbArc
 50
166.9603019367
 51
226.9603019367
  0
LINE
  5
2D8
330
1F
100
AcDbEntity
  8
0
  6
Continuous
 62
     7
370
    15
100
AcDbLine
 10
292.7682497901
 20
972.6946532316
 30
0.0
 11
294.8781052035
 21
970.7244216986
 31
0.0
  0
ARC
  5
2D9
330
1F
100
AcDbEntity
  8
0
  6
Continuous
 62
     7
370
    15
100
AcDbCircle
 10
558.2906403941
 20
974.3788282461
 30
0.0
 40
10.00000000000001
100
AcDbArc
 50
123.3779429051
 51
236.6220570949
  0
ARC
  5
2DA
330
1F
100
AcDbEntity
  8
0
  6
Continuous
 62
     7
370
    15
100
AcDbCircle
 10
558.2906403941
 20
974.3788282461
 30
0.0
 40
9.999999999999947
100
AcDbArc
 50
303.3779429052
 51
56.6220570948
  0
ARC
  5
2DB
330
1F
100
AcDbEntity
  8
0
  6
Continuous
 62
     7
370
    15
100
AcDbCircle
 10
358.2906403941
 20
974.3788282461
 30
0.0
 40
9.999999999999938
100
AcDbArc
 50
123.3779429051
 51
236.6220570949
  0
ARC
  5
2DC
330
1F
100
AcDbEntity
  8
0
  6
Continuous
 62
     7
370
    15
100
AcDbCircle
 10
358.2906403941
 20
974.3788282461
 30
0.0
 40
9.999999999999876
100
AcDbArc
 50
303.3779429052
 51
56.6220570948
  0
CIRCLE
  5
2DD
330
1F
100
AcDbEntity
  8
0
  6
Continuous
 62
     7
370
    15
100
AcDbCircle
 10
518.2906403941
 20
974.3788282461
 30
0.0
 40
10.0
  0
CIRCLE
  5
2DE
330
1F
100
AcDbEntity
  8
0
  6
Continuous
 62
     7
370
    15
100
AcDbCircle
 10
478.2906403941
 20
974.3788282461
 30
0.0
 40
10.0
  0
ARC
  5
2DF
330
1F
100
AcDbEntity
  8
0
  6
Continuous
 62
     7
370
    15
100
AcDbCircle
 10
438.2906403941
 20
974.3788282461
 30
0.0
 40
10.00000000000005
100
AcDbArc
 50
92.8751231729
 51
267.1248768271
  0
CIRCLE
  5
2E0
330
1F
100
AcDbEntity
  8
0
  6
Continuous
 62
     7
370
    15
100
AcDbCircle
 10
398.2906403941
 20
974.3788282461
 30
0.0
 40
10.0
  0
CIRCLE
  5
2E1
330
1F
100
AcDbEntity
  8
0
  6
Continuous
 62
     7
370
    15
100
AcDbCircle
 10
598.2906403941
 20
974.3788282461
 30
0.0
 40
10.0
  0
CIRCLE
  5
2E2
330
1F
100
AcDbEntity
  8
0
  6
Continuous
 62
     7
370
    15
100
AcDbCircle
 10
638.2906403941
 20
974.3788282461
 30
0.0
 40
10.00000000000011
  0
ARC
  5
2E3
330
1F
100
AcDbEntity
  8
0
  6
Continuous
 62
     7
370
    15
100
AcDbCircle
 10
678.2906403941
 20
974.3788282461
 30
0.0
 40
10.00000000000008
100
AcDbArc
 50
272.875123173
 51
87.1248768271
  0
CIRCLE
  5
2E4
330
1F
100
AcDbEntity
  8
0
  6
Continuous
 62
     7
370
    15
100
AcDbCircle
 10
718.2906403941
 20
974.3788282461
 30
0.0
 40
10.0
  0
ARC
  5
2E5
330
1F
100
AcDbEntity
  8
0
  6
Continuous
 62
     7
370
    15
100
AcDbCircle
 10
758.2906403941
 20
974.3788282461
 30
0.0
 40
9.999999999999972
100
AcDbArc
 50
123.3779429051
 51
236.6220570949
  0
ARC
  5
2E6
330
1F
100
AcDbEntity
  8
0
  6
Continuous
 62
     7
370
    15
100
AcDbCircle
 10
758.2906403941
 20
974.3788282461
 30
0.0
 40
10.0
100
AcDbArc
 50
303.3779429052
 51
56.6220570948
  0
CIRCLE
  5
2E7
330
1F
100
AcDbEntity
  8
0
  6
Continuous
 62
     7
370
    15
100
AcDbCircle
 10
818.2906403941
 20
993.7788282461
 30
0.0
 40
2.199999999999932
  0
CIRCLE
  5
2E8
330
1F
100
AcDbEntity
  8
0
  6
Continuous
 62
     7
370
    15
100
AcDbCircle
 10
298.2906403941
 20
993.7788282461
 30
0.0
 40
2.199999999999932
  0
LINE
  5
2E9
330
1F
100
AcDbEntity
  8
0
  6
Continuous
 62
     7
370
    15
100
AcDbLine
 10
828.1744518679
 20
999.3788182325
 30
0.0
 11
795.8906391066
 21
999.3788182325
 31
0.0
  0
LINE
  5
2EA
330
1F
100
AcDbEntity
  8
0
  6
Continuous
 62
     7
370
    15
100
AcDbLine
 10
788.8906398219
 20
999.3788182325
 30
0.0
 11
765.7358744544
 21
999.3788182325
 31
0.0
  0
LINE
  5
2EB
330
1F
100
AcDbEntity
  8
0
  6
Continuous
 62
     7
370
    15
100
AcDbLine
 10
751.1022934121
 20
999.3788182325
 30
0.0
 11
679.7797554535
 21
999.3788182325
 31
0.0
  0
LINE
  5
2EC
330
1F
100
AcDbEntity
  8
0
  6
Continuous
 62
     7
370
    15
100
AcDbLine
 10
666.905845086
 20
999.3788182325
 30
0.0
 11
564.4279350889
 21
999.3788182325
 31
0.0
  0
LINE
  5
2ED
330
1F
100
AcDbEntity
  8
0
  6
Continuous
 62
     7
370
    15
100
AcDbLine
 10
552.1244700429
 20
999.3788182325
 30
0.0
 11
449.6364393634
 21
999.3788182325
 31
0.0
  0
LINE
  5
2EE
330
1F
100
AcDbEntity
  8
0
  6
Continuous
 62
     7
370
    15
100
AcDbLine
 10
436.8082383078
 20
999.3788182325
 30
0.0
 11
365.4318997067
 21
999.3788182325
 31
0.0
  0
LINE
  5
2EF
330
1F
100
AcDbEntity
  8
0
  6
Continuous
 62
     7
370
    15
100
AcDbLine
 10
350.7574298781
 20
999.3788182325
 30
0.0
 11
288.4068289202
 21
999.3788182325
 31
0.0
  0
ENDSEC
  0
SECTION
  2
OBJECTS
  0
DICTIONARY
  5
C
330
0
100
AcDbDictionary
281
     1
  3
ACAD_GROUP
350
D
  3
ACAD_LAYOUT
350
1A
  3
ACAD_MLINESTYLE
350
17
  3
ACAD_PLOTSETTINGS
350
19
  3
ACAD_PLOTSTYLENAME
350
E
  0
DICTIONARY
  5
D
102
{ACAD_REACTORS
330
C
102
}
330
C
100
AcDbDictionary
281
     1
  0
DICTIONARY
  5
1A
102
{ACAD_REACTORS
330
C
102
}
330
C
100
AcDbDictionary
281
     1
  3
Layout1
350
1E
  3
Layout2
350
26
  3
Model
350
22
  0
DICTIONARY
  5
17
102
{ACAD_REACTORS
330
C
102
}
330
C
100
AcDbDictionary
281
     1
  3
Standard
350
18
  0
DICTIONARY
  5
19
102
{ACAD_REACTORS
330
C
102
}
330
C
100
AcDbDictionary
281
     1
  0
ACDBDICTIONARYWDFLT
  5
E
102
{ACAD_REACTORS
330
C
102
}
330
C
100
AcDbDictionary
281
     1
  3
Normal
350
F
100
AcDbDictionaryWithDefault
340
F
  0
LAYOUT
  5
1E
102
{ACAD_REACTORS
330
1A
102
}
330
1A
100
AcDbPlotSettings
  1

  2
none_device
  4

  6

 40
0.0
 41
0.0
 42
0.0
 43
0.0
 44
0.0
 45
0.0
 46
0.0
 47
0.0
 48
0.0
 49
0.0
140
0.0
141
0.0
142
1.0
143
1.0
 70
   688
 72
     0
 73
     0
 74
     5
  7

 75
    16
147
1.0
148
0.0
149
0.0
100
AcDbLayout
  1
Layout1
 70
     1
 71
     1
 10
0.0
 20
0.0
 11
420.0
 21
297.0
 12
0.0
 22
0.0
 32
0.0
 14
1.0000000000E+20
 24
1.0000000000E+20
 34
1.0000000000E+20
 15
-1.0000000000E+20
 25
-1.0000000000E+20
 35
-1.0000000000E+20
146
0.0
 13
0.0
 23
0.0
 33
0.0
 16
1.0
 26
0.0
 36
0.0
 17
0.0
 27
1.0
 37
0.0
 76
     0
330
1B
  0
LAYOUT
  5
26
102
{ACAD_REACTORS
330
1A
102
}
330
1A
100
AcDbPlotSettings
  1

  2
none_device
  4

  6

 40
0.0
 41
0.0
 42
0.0
 43
0.0
 44
0.0
 45
0.0
 46
0.0
 47
0.0
 48
0.0
 49
0.0
140
0.0
141
0.0
142
1.0
143
1.0
 70
   688
 72
     0
 73
     0
 74
     5
  7

 75
    16
147
1.0
148
0.0
149
0.0
100
AcDbLayout
  1
Layout2
 70
     1
 71
     2
 10
0.0
 20
0.0
 11
0.0
 21
0.0
 12
0.0
 22
0.0
 32
0.0
 14
0.0
 24
0.0
 34
0.0
 15
0.0
 25
0.0
 35
0.0
146
0.0
 13
0.0
 23
0.0
 33
0.0
 16
1.0
 26
0.0
 36
0.0
 17
0.0
 27
1.0
 37
0.0
 76
     0
330
23
  0
LAYOUT
  5
22
102
{ACAD_REACTORS
330
1A
102
}
330
1A
100
AcDbPlotSettings
  1

  2
none_device
  4

  6

 40
0.0
 41
0.0
 42
0.0
 43
0.0
 44
0.0
 45
0.0
 46
0.0
 47
0.0
 48
0.0
 49
0.0
140
0.0
141
0.0
142
1.0
143
1.0
 70
  1712
 72
     0
 73
     0
 74
     0
  7

 75
     0
147
1.0
148
0.0
149
0.0
100
AcDbLayout
  1
Model
 70
     1
 71
     0
 10
0.0
 20
0.0
 11
1100.0
 21
1100.0
 12
0.0
 22
0.0
 32
0.0
 14
0.0
 24
0.0
 34
0.0
 15
1100.0
 25
1100.0
 35
0.0
146
0.0
 13
0.0
 23
0.0
 33
0.0
 16
1.0
 26
0.0
 36
0.0
 17
0.0
 27
1.0
 37
0.0
 76
     0
330
1F
331
29
  0
MLINESTYLE
  5
18
102
{ACAD_REACTORS
330
17
102
}
330
17
100
AcDbMlineStyle
  2
Standard
 70
     0
  3

 62
   256
 51
90.0
 52
90.0
 71
     2
 49
0.5
 62
   256
  6
BYLAYER
 49
-0.5
 62
   256
  6
BYLAYER
  0
ACDBPLACEHOLDER
  5
F
102
{ACAD_REACTORS
330
E
102
}
330
E
  0
ENDSEC
  0
EOF
