  0
SECTION
  2
HEADER
  9
$ACADVER
  1
AC1015
  9
$ACADMAINTVER
 70
     6
  9
$DWGCODEPAGE
  3
ANSI_1252
  9
$INSBASE
 10
0.0
 20
0.0
 30
0.0
  9
$EXTMIN
 10
0.0
 20
0.0
 30
0.0
  9
$EXTMAX
 10
1100.0
 20
1100.0
 30
0.0
  9
$LIMMIN
 10
0.0
 20
0.0
  9
$LIMMAX
 10
1100.0
 20
1100.0
  9
$ORTHOMODE
 70
     0
  9
$REGENMODE
 70
     1
  9
$FILLMODE
 70
     1
  9
$QTEXTMODE
 70
     0
  9
$MIRRTEXT
 70
     1
  9
$LTSCALE
 40
1.0
  9
$ATTMODE
 70
     1
  9
$TEXTSIZE
 40
3.5
  9
$TRACEWID
 40
1.0
  9
$TEXTSTYLE
  7
Standard
  9
$CLAYER
  8
0
  9
$CELTYPE
  6
ByLayer
  9
$CECOLOR
 62
   256
  9
$CELTSCALE
 40
1.0
  9
$DISPSILH
 70
     0
  9
$DIMSCALE
 40
1.0
  9
$DIMASZ
 40
3.302
  9
$DIMEXO
 40
1.0
  9
$DIMDLI
 40
3.75
  9
$DIMRND
 40
0.0
  9
$DIMDLE
 40
0.0
  9
$DIMEXE
 40
1.0
  9
$DIMTP
 40
0.0
  9
$DIMTM
 40
0.0
  9
$DIMTXT
 40
3.5
  9
$DIMCEN
 40
2.5
  9
$DIMTSZ
 40
0.0
  9
$DIMTOL
 70
     0
  9
$DIMLIM
 70
     0
  9
$DIMTIH
 70
     1
  9
$DIMTOH
 70
     1
  9
$DIMSE1
 70
     0
  9
$DIMSE2
 70
     0
  9
$DIMTAD
 70
     1
  9
$DIMZIN
 70
     0
  9
$DIMBLK
  1

  9
$DIMASO
 70
     1
  9
$DIMSHO
 70
     1
  9
$DIMPOST
  1

  9
$DIMAPOST
  1

  9
$DIMALT
 70
     0
  9
$DIMALTD
 70
     3
  9
$DIMALTF
 40
0.0393700787
  9
$DIMLFAC
 40
1.0
  9
$DIMTOFL
 70
     1
  9
$DIMTVP
 40
0.0
  9
$DIMTIX
 70
     0
  9
$DIMSOXD
 70
     0
  9
$DIMSAH
 70
     0
  9
$DIMBLK1
  1

  9
$DIMBLK2
  1

  9
$DIMSTYLE
  2
ISO-25
  9
$DIMCLRD
 70
     0
  9
$DIMCLRE
 70
     0
  9
$DIMCLRT
 70
     0
  9
$DIMTFAC
 40
1.0
  9
$DIMGAP
 40
1.524
  9
$DIMJUST
 70
     0
  9
$DIMSD1
 70
     0
  9
$DIMSD2
 70
     0
  9
$DIMTOLJ
 70
     0
  9
$DIMTZIN
 70
     0
  9
$DIMALTZ
 70
     0
  9
$DIMALTTZ
 70
     0
  9
$DIMUPT
 70
     0
  9
$DIMDEC
 70
     1
  9
$DIMTDEC
 70
     1
  9
$DIMALTU
 70
     2
  9
$DIMALTTD
 70
     3
  9
$DIMTXSTY
  7
Standard
  9
$DIMAUNIT
 70
     0
  9
$DIMADEC
 70
     1
  9
$DIMALTRND
 40
0.0
  9
$DIMAZIN
 70
     0
  9
$DIMDSEP
 70
    44
  9
$DIMATFIT
 70
     3
  9
$DIMFRAC
 70
     0
  9
$DIMLDRBLK
  1

  9
$DIMLUNIT
 70
     2
  9
$DIMLWD
 70
    -2
  9
$DIMLWE
 70
    -2
  9
$DIMTMOVE
 70
     0
  9
$LUNITS
 70
     2
  9
$LUPREC
 70
     1
  9
$SKETCHINC
 40
1.0
  9
$FILLETRAD
 40
10.0
  9
$AUNITS
 70
     0
  9
$AUPREC
 70
     1
  9
$MENU
  1
.
  9
$ELEVATION
 40
0.0
  9
$PELEVATION
 40
0.0
  9
$THICKNESS
 40
0.0
  9
$LIMCHECK
 70
     0
  9
$CHAMFERA
 40
10.0
  9
$CHAMFERB
 40
10.0
  9
$CHAMFERC
 40
20.0
  9
$CHAMFERD
 40
0.0
  9
$SKPOLY
 70
     0
  9
$TDCREATE
 40
2457420.480578993
  9
$TDUCREATE
 40
2457420.480578993
  9
$TDUPDATE
 40
2457420.480581331
  9
$TDUUPDATE
 40
2457420.480581331
  9
$TDINDWG
 40
0.0000000116
  9
$TDUSRTIMER
 40
0.0000000116
  9
$USRTIMER
 70
     1
  9
$ANGBASE
 50
0.0
  9
$ANGDIR
 70
     0
  9
$PDMODE
 70
     0
  9
$PDSIZE
 40
-1.0
  9
$PLINEWID
 40
0.0
  9
$SPLFRAME
 70
     0
  9
$SPLINETYPE
 70
     6
  9
$SPLINESEGS
 70
     8
  9
$HANDSEED
  5
294
  9
$SURFTAB1
 70
     6
  9
$SURFTAB2
 70
     6
  9
$SURFTYPE
 70
     6
  9
$SURFU
 70
     6
  9
$SURFV
 70
     6
  9
$UCSBASE
  2

  9
$UCSNAME
  2

  9
$UCSORG
 10
0.0
 20
0.0
 30
0.0
  9
$UCSXDIR
 10
1.0
 20
0.0
 30
0.0
  9
$UCSYDIR
 10
0.0
 20
1.0
 30
0.0
  9
$UCSORTHOREF
  2

  9
$UCSORTHOVIEW
 70
     0
  9
$UCSORGTOP
 10
0.0
 20
0.0
 30
0.0
  9
$UCSORGBOTTOM
 10
0.0
 20
0.0
 30
0.0
  9
$UCSORGLEFT
 10
0.0
 20
0.0
 30
0.0
  9
$UCSORGRIGHT
 10
0.0
 20
0.0
 30
0.0
  9
$UCSORGFRONT
 10
0.0
 20
0.0
 30
0.0
  9
$UCSORGBACK
 10
0.0
 20
0.0
 30
0.0
  9
$PUCSBASE
  2

  9
$PUCSNAME
  2

  9
$PUCSORG
 10
0.0
 20
0.0
 30
0.0
  9
$PUCSXDIR
 10
1.0
 20
0.0
 30
0.0
  9
$PUCSYDIR
 10
0.0
 20
1.0
 30
0.0
  9
$PUCSORTHOREF
  2

  9
$PUCSORTHOVIEW
 70
     0
  9
$PUCSORGTOP
 10
0.0
 20
0.0
 30
0.0
  9
$PUCSORGBOTTOM
 10
0.0
 20
0.0
 30
0.0
  9
$PUCSORGLEFT
 10
0.0
 20
0.0
 30
0.0
  9
$PUCSORGRIGHT
 10
0.0
 20
0.0
 30
0.0
  9
$PUCSORGFRONT
 10
0.0
 20
0.0
 30
0.0
  9
$PUCSORGBACK
 10
0.0
 20
0.0
 30
0.0
  9
$USERI1
 70
     0
  9
$USERI2
 70
     0
  9
$USERI3
 70
     0
  9
$USERI4
 70
     0
  9
$USERI5
 70
     0
  9
$USERR1
 40
0.0
  9
$USERR2
 40
0.0
  9
$USERR3
 40
0.0
  9
$USERR4
 40
0.0
  9
$USERR5
 40
0.0
  9
$WORLDVIEW
 70
     1
  9
$SHADEDGE
 70
     3
  9
$SHADEDIF
 70
    70
  9
$TILEMODE
 70
     1
  9
$MAXACTVP
 70
    64
  9
$PINSBASE
 10
0.0
 20
0.0
 30
0.0
  9
$PLIMCHECK
 70
     0
  9
$PEXTMIN
 10
1.0000000000E+20
 20
1.0000000000E+20
 30
1.0000000000E+20
  9
$PEXTMAX
 10
-1.0000000000E+20
 20
-1.0000000000E+20
 30
-1.0000000000E+20
  9
$PLIMMIN
 10
0.0
 20
0.0
  9
$PLIMMAX
 10
420.0
 20
297.0
  9
$UNITMODE
 70
     0
  9
$VISRETAIN
 70
     1
  9
$PLINEGEN
 70
     0
  9
$PSLTSCALE
 70
     1
  9
$TREEDEPTH
 70
  3020
  9
$CMLSTYLE
  2
Standard
  9
$CMLJUST
 70
     0
  9
$CMLSCALE
 40
20.0
  9
$PROXYGRAPHICS
 70
     1
  9
$MEASUREMENT
 70
     1
  9
$CELWEIGHT
370
    -1
  9
$ENDCAPS
280
     0
  9
$JOINSTYLE
280
     0
  9
$LWDISPLAY
290
     1
  9
$INSUNITS
 70
     4
  9
$HYPERLINKBASE
  1

  9
$STYLESHEET
  1

  9
$XEDIT
290
     1
  9
$CEPSNTYPE
380
     0
  9
$PSTYLEMODE
290
     1
  9
$FINGERPRINTGUID
  2
{5FDF7F08-F274-40FE-B90F-3DB7278740AD}
  9
$VERSIONGUID
  2
{FAEB1C32-E019-11D5-929B-00C0DF256EC4}
  9
$EXTNAMES
290
     1
  9
$PSVPSCALE
 40
0.0
  9
$OLESTARTUP
290
     0
  0
ENDSEC
  0
SECTION
  2
CLASSES
  0
CLASS
  1
ACDBDICTIONARYWDFLT
  2
AcDbDictionaryWithDefault
  3
ObjectDBX Classes
 90
        0
280
     0
281
     0
  0
CLASS
  1
VISUALSTYLE
  2
AcDbVisualStyle
  3
ObjectDBX Classes
 90
     4095
280
     0
281
     0
  0
CLASS
  1
MATERIAL
  2
AcDbMaterial
  3
ObjectDBX Classes
 90
     1153
280
     0
281
     0
  0
CLASS
  1
ACDBPLACEHOLDER
  2
AcDbPlaceHolder
  3
ObjectDBX Classes
 90
        0
280
     0
281
     0
  0
CLASS
  1
LAYOUT
  2
AcDbLayout
  3
ObjectDBX Classes
 90
        0
280
     0
281
     0
  0
ENDSEC
  0
SECTION
  2
TABLES
  0
TABLE
  2
VPORT
  5
8
330
0
100
AcDbSymbolTable
 70
     1
  0
VPORT
  5
29
330
8
100
AcDbSymbolTableRecord
100
AcDbViewportTableRecord
  2
*Active
 70
     0
 10
0.0
 20
0.0
 11
1.0
 21
1.0
 12
550.0
 22
550.0
 13
0.0
 23
0.0
 14
10.0
 24
10.0
 15
10.0
 25
10.0
 16
0.0
 26
0.0
 36
1.0
 17
0.0
 27
0.0
 37
0.0
 40
1100.0
 41
1.0
 42
50.0
 43
0.0
 44
0.0
 50
0.0
 51
0.0
 71
     0
 72
  2000
 73
     1
 74
     3
 75
     0
 76
     0
 77
     0
 78
     0
281
     0
 65
     1
110
0.0
120
0.0
130
0.0
111
1.0
121
0.0
131
0.0
112
0.0
122
1.0
132
0.0
 79
     0
146
0.0
  0
ENDTAB
  0
TABLE
  2
LTYPE
  5
5
330
0
100
AcDbSymbolTable
 70
     6
  0
LTYPE
  5
14
330
5
100
AcDbSymbolTableRecord
100
AcDbLinetypeTableRecord
  2
ByBlock
 70
     0
  3

 72
    65
 73
     0
 40
0.0
  0
LTYPE
  5
15
330
5
100
AcDbSymbolTableRecord
100
AcDbLinetypeTableRecord
  2
ByLayer
 70
     0
  3

 72
    65
 73
     0
 40
0.0
  0
LTYPE
  5
16
330
5
100
AcDbSymbolTableRecord
100
AcDbLinetypeTableRecord
  2
Continuous
 70
     0
  3
Solid line
 72
    65
 73
     0
 40
0.0
  0
LTYPE
  5
3F
330
5
100
AcDbSymbolTableRecord
100
AcDbLinetypeTableRecord
  2
HIDDEN
 70
     0
  3
Hidden __ __ __ __ __ __ __ __ __ __ __ __ __ __
 72
    65
 73
     2
 40
1.905
 49
1.27
 74
     0
 49
-0.635
 74
     0
  0
LTYPE
  5
40
330
5
100
AcDbSymbolTableRecord
100
AcDbLinetypeTableRecord
  2
PHANTOM
 70
     0
  3
Phantom ______  __  __  ______  __  __  ______
 72
    65
 73
     6
 40
12.7
 49
6.35
 74
     0
 49
-1.27
 74
     0
 49
1.27
 74
     0
 49
-1.27
 74
     0
 49
1.27
 74
     0
 49
-1.27
 74
     0
  0
LTYPE
  5
41
330
5
100
AcDbSymbolTableRecord
100
AcDbLinetypeTableRecord
  2
CENTER
 70
     0
  3
Center ____ _ ____ _ ____ _ ____ _ ____ _ ____
 72
    65
 73
     4
 40
10.16
 49
6.35
 74
     0
 49
-1.27
 74
     0
 49
1.27
 74
     0
 49
-1.27
 74
     0
  0
LTYPE
  5
42
330
5
100
AcDbSymbolTableRecord
100
AcDbLinetypeTableRecord
  2
CENTERX2
 70
     0
  3
Center (2x) ________  __  ________  __  _____
 72
    65
 73
     4
 40
20.32
 49
12.7
 74
     0
 49
-2.54
 74
     0
 49
2.54
 74
     0
 49
-2.54
 74
     0
  0
LTYPE
  5
43
330
5
100
AcDbSymbolTableRecord
100
AcDbLinetypeTableRecord
  2
DOT2
 70
     0
  3
Dot (.5x) ........................................
 72
    65
 73
     2
 40
0.635
 49
0.0
 74
     0
 49
-0.635
 74
     0
  0
ENDTAB
  0
TABLE
  2
LAYER
  5
2
330
0
100
AcDbSymbolTable
 70
     4
  0
LAYER
  5
10
330
2
100
AcDbSymbolTableRecord
100
AcDbLayerTableRecord
  2
0
 70
     0
 62
     7
  6
Continuous
370
    -3
390
F
  0
LAYER
  5
44
330
2
100
AcDbSymbolTableRecord
100
AcDbLayerTableRecord
  2
FORMAT
 70
     0
 62
     7
  6
Continuous
370
    -3
390
F
  0
LAYER
  5
45
330
2
100
AcDbSymbolTableRecord
100
AcDbLayerTableRecord
  2
SLD-0
 70
     0
 62
     1
  6
Continuous
370
    -3
390
F
  0
LAYER
  5
46
330
2
100
AcDbSymbolTableRecord
100
AcDbLayerTableRecord
  2
WATERMARK
 70
     0
 62
     1
  6
Continuous
370
    -3
390
F
  0
ENDTAB
  0
TABLE
  2
STYLE
  5
3
330
0
100
AcDbSymbolTable
 70
     1
  0
STYLE
  5
11
330
3
100
AcDbSymbolTableRecord
100
AcDbTextStyleTableRecord
  2
Standard
 70
     0
 40
0.0
 41
1.0
 50
0.0
 71
     0
 42
3.5
  3
txt
  4

  0
ENDTAB
  0
TABLE
  2
VIEW
  5
6
330
0
100
AcDbSymbolTable
 70
     0
  0
ENDTAB
  0
TABLE
  2
UCS
  5
7
330
0
100
AcDbSymbolTable
 70
     0
  0
ENDTAB
  0
TABLE
  2
APPID
  5
9
330
0
100
AcDbSymbolTable
 70
     1
  0
APPID
  5
12
330
9
100
AcDbSymbolTableRecord
100
AcDbRegAppTableRecord
  2
ACAD
 70
     0
  0
ENDTAB
  0
TABLE
  2
DIMSTYLE
  5
A
330
0
100
AcDbSymbolTable
 70
     1
100
AcDbDimStyleTable
  0
DIMSTYLE
105
27
330
A
100
AcDbSymbolTableRecord
100
AcDbDimStyleTableRecord
  2
ISO-25
 70
     0
 41
2.5
 42
0.625
 43
3.75
 44
1.25
 73
     0
 74
     0
 77
     1
 78
     8
140
2.5
141
2.5
143
0.0393700787
147
0.625
171
     3
172
     1
178
     0
271
     2
272
     2
274
     3
278
    44
283
     0
284
     8
340
11
  0
ENDTAB
  0
TABLE
  2
BLOCK_RECORD
  5
1
330
0
100
AcDbSymbolTable
 70
     1
  0
BLOCK_RECORD
  5
1F
330
1
100
AcDbSymbolTableRecord
100
AcDbBlockTableRecord
  2
*Model_Space
340
22
  0
BLOCK_RECORD
  5
1B
330
1
100
AcDbSymbolTableRecord
100
AcDbBlockTableRecord
  2
*Paper_Space
340
1E
  0
BLOCK_RECORD
  5
23
330
1
100
AcDbSymbolTableRecord
100
AcDbBlockTableRecord
  2
*Paper_Space0
340
26
  0
ENDTAB
  0
ENDSEC
  0
SECTION
  2
BLOCKS
  0
BLOCK
  5
20
330
1F
100
AcDbEntity
  8
0
100
AcDbBlockBegin
  2
*Model_Space
 70
     0
 10
0.0
 20
0.0
 30
0.0
  3
*Model_Space
  1

  0
ENDBLK
  5
21
330
1F
100
AcDbEntity
  8
0
100
AcDbBlockEnd
  0
BLOCK
  5
1C
330
1B
100
AcDbEntity
 67
     1
  8
0
100
AcDbBlockBegin
  2
*Paper_Space
 70
     0
 10
0.0
 20
0.0
 30
0.0
  3
*Paper_Space
  1

  0
ENDBLK
  5
1D
330
1B
100
AcDbEntity
 67
     1
  8
0
100
AcDbBlockEnd
  0
BLOCK
  5
24
330
23
100
AcDbEntity
  8
0
100
AcDbBlockBegin
  2
*Paper_Space0
 70
     0
 10
0.0
 20
0.0
 30
0.0
  3
*Paper_Space0
  1

  0
ENDBLK
  5
25
330
23
100
AcDbEntity
  8
0
100
AcDbBlockEnd
  0
ENDSEC
  0
SECTION
  2
ENTITIES
  0
LINE
  5
47
330
1F
100
AcDbEntity
  8
0
  6
Continuous
 62
     7
370
    15
100
AcDbLine
 10
129.90598006
 20
994.3604999133
 30
0.0
 11
129.90598006
 21
1003.8604968139
 31
0.0
  0
LINE
  5
48
330
1F
100
AcDbEntity
  8
0
  6
Continuous
 62
     7
370
    15
100
AcDbLine
 10
110.9059862588
 20
1003.8604968139
 30
0.0
 11
110.9059862588
 21
994.3604999133
 31
0.0
  0
ARC
  5
49
330
1F
100
AcDbEntity
  8
0
  6
Continuous
 62
     7
370
    15
100
AcDbCircle
 10
112.9059842552
 20
1003.8605010101
 30
0.0
 40
2.0
100
AcDbArc
 50
90.0
 51
180.0
  0
ARC
  5
4A
330
1F
100
AcDbEntity
  8
0
  6
Continuous
 62
     7
370
    15
100
AcDbCircle
 10
127.9059842552
 20
1003.8605010101
 30
0.0
 40
2.0
100
AcDbArc
 50
0.0
 51
90.0
  0
ARC
  5
4B
330
1F
100
AcDbEntity
  8
0
  6
Continuous
 62
     7
370
    15
100
AcDbCircle
 10
950.2700523066
 20
870.432863915
 30
0.0
 40
2.000000000000051
100
AcDbArc
 50
205.0
 51
292.0
  0
ARC
  5
4C
330
1F
100
AcDbEntity
  8
0
  6
Continuous
 62
     7
370
    15
100
AcDbCircle
 10
970.4694548458
 20
827.1151053796
 30
0.0
 40
2.000000000000042
100
AcDbArc
 50
118.0
 51
205.0
  0
LINE
  5
4D
330
1F
100
AcDbEntity
  8
0
  6
Continuous
 62
     7
370
    15
100
AcDbLine
 10
969.5305116271
 20
828.8810037919
 30
0.0
 11
970.5072156881
 21
829.4003241607
 31
0.0
  0
LINE
  5
4E
330
1F
100
AcDbEntity
  8
0
  6
Continuous
 62
     7
370
    15
100
AcDbLine
 10
952.0449079369
 20
868.9928882667
 30
0.0
 11
951.0192684625
 21
868.578501875
 31
0.0
  0
LINE
  5
4F
330
1F
100
AcDbEntity
  8
0
  6
Continuous
 62
     7
370
    15
100
AcDbLine
 10
981.4957864379
 20
786.9056508788
 30
0.0
 11
981.9378666376
 21
787.140709246
 31
0.0
  0
LINE
  5
50
330
1F
100
AcDbEntity
  8
0
  6
Continuous
 62
     7
370
    15
100
AcDbLine
 10
971.2905995344
 20
812.3400443145
 30
0.0
 11
973.5929406975
 21
814.50125658
 31
0.0
  0
LINE
  5
51
330
1F
100
AcDbEntity
  8
0
  6
Continuous
 62
     7
370
    15
100
AcDbLine
 10
967.9721183871
 20
826.5551485964
 30
0.0
 11
964.8366160487
 21
826.1806600639
 31
0.0
  0
LINE
  5
52
330
1F
100
AcDbEntity
  8
0
  6
Continuous
 62
     7
370
    15
100
AcDbLine
 10
975.0111512636
 20
819.7416000911
 30
0.0
 11
982.3837615346
 21
827.5930144736
 31
0.0
  0
LINE
  5
53
330
1F
100
AcDbEntity
  8
0
  6
Continuous
 62
     7
370
    15
100
AcDbLine
 10
958.2945219968
 20
879.2525612661
 30
0.0
 11
947.5409686361
 21
878.6516123363
 31
0.0
  0
LINE
  5
54
330
1F
100
AcDbEntity
  8
0
  6
Continuous
 62
     7
370
    15
100
AcDbLine
 10
958.7944708561
 20
879.2592965909
 30
0.0
 11
958.2945219968
 21
879.2525612661
 31
0.0
  0
LINE
  5
55
330
1F
100
AcDbEntity
  8
0
  6
Continuous
 62
     7
370
    15
100
AcDbLine
 10
982.3837615346
 20
827.5930144736
 30
0.0
 11
996.2840936874
 21
843.7124797055
 31
0.0
  0
ARC
  5
56
330
1F
100
AcDbEntity
  8
0
  6
Continuous
 62
     7
370
    15
100
AcDbCircle
 10
995.5267844047
 20
844.3655362256
 30
0.0
 40
1.000000000000062
100
AcDbArc
 50
319.227745318
 51
25.0
  0
LINE
  5
57
330
1F
100
AcDbEntity
  8
0
  6
Continuous
 62
     7
370
    15
100
AcDbLine
 10
958.9874930476
 20
879.2619042941
 30
0.0
 11
958.8015191053
 21
879.2593859979
 31
0.0
  0
LINE
  5
58
330
1F
100
AcDbEntity
  8
0
  6
Continuous
 62
     7
370
    15
100
AcDbLine
 10
926.9874207471
 20
904.2724602767
 30
0.0
 11
926.8967918848
 21
904.2302005836
 31
0.0
  0
LINE
  5
59
330
1F
100
AcDbEntity
  8
0
  6
Continuous
 62
     7
370
    15
100
AcDbLine
 10
830.4502367769
 20
629.9605005332
 30
0.0
 11
830.4502367769
 21
633.9605011889
 31
0.0
  0
LINE
  5
5A
330
1F
100
AcDbEntity
  8
0
  6
Continuous
 62
     7
370
    15
100
AcDbLine
 10
773.4502367471
 20
633.9605011889
 30
0.0
 11
773.4502367471
 21
629.9605005332
 31
0.0
  0
ARC
  5
5B
330
1F
100
AcDbEntity
  8
0
  6
Continuous
 62
     7
370
    15
100
AcDbCircle
 10
828.4502357935
 20
629.9605010101
 30
0.0
 40
2.0
100
AcDbArc
 50
270.0
 51
0.0
  0
ARC
  5
5C
330
1F
100
AcDbEntity
  8
0
  6
Continuous
 62
     7
370
    15
100
AcDbCircle
 10
775.4502357935
 20
629.9605010101
 30
0.0
 40
2.0
100
AcDbArc
 50
180.0
 51
270.0
  0
LINE
  5
5D
330
1F
100
AcDbEntity
  8
0
  6
Continuous
 62
     7
370
    15
100
AcDbLine
 10
251.4502219652
 20
629.9605005332
 30
0.0
 11
251.4502219652
 21
633.9605011889
 31
0.0
  0
LINE
  5
5E
330
1F
100
AcDbEntity
  8
0
  6
Continuous
 62
     7
370
    15
100
AcDbLine
 10
194.4502405618
 20
633.9605011889
 30
0.0
 11
194.4502405618
 21
629.9605005332
 31
0.0
  0
ARC
  5
5F
330
1F
100
AcDbEntity
  8
0
  6
Continuous
 62
     7
370
    15
100
AcDbCircle
 10
249.4502357935
 20
629.9605010101
 30
0.0
 40
2.0
100
AcDbArc
 50
270.0
 51
0.0
  0
ARC
  5
60
330
1F
100
AcDbEntity
  8
0
  6
Continuous
 62
     7
370
    15
100
AcDbCircle
 10
196.4502357935
 20
629.9605010101
 30
0.0
 40
2.0
100
AcDbArc
 50
180.0
 51
270.0
  0
LINE
  5
61
330
1F
100
AcDbEntity
  8
0
  6
Continuous
 62
     7
370
    15
100
AcDbLine
 10
830.2502371167
 20
633.9605011889
 30
0.0
 11
830.2502371167
 21
662.9605003544
 31
0.0
  0
LINE
  5
62
330
1F
100
AcDbEntity
  8
0
  6
Continuous
 62
     7
370
    15
100
AcDbLine
 10
773.6502326821
 20
662.9605003544
 30
0.0
 11
773.6502326821
 21
633.9605011889
 31
0.0
  0
LINE
  5
63
330
1F
100
AcDbEntity
  8
0
  6
Continuous
 62
     7
370
    15
100
AcDbLine
 10
251.250248382
 20
633.9605011889
 30
0.0
 11
251.250248382
 21
662.9605003544
 31
0.0
  0
LINE
  5
64
330
1F
100
AcDbEntity
  8
0
  6
Continuous
 62
     7
370
    15
100
AcDbLine
 10
194.650214145
 20
662.9605003544
 30
0.0
 11
194.650214145
 21
633.9605011889
 31
0.0
  0
ARC
  5
65
330
1F
100
AcDbEntity
  8
0
  6
Continuous
 62
     7
370
    15
100
AcDbCircle
 10
835.3502357935
 20
724.4605010101
 30
0.0
 40
1.5
100
AcDbArc
 50
90.0
 51
180.0
  0
ARC
  5
66
330
1F
100
AcDbEntity
  8
0
  6
Continuous
 62
     7
370
    15
100
AcDbCircle
 10
768.5502357935
 20
724.4605010101
 30
0.0
 40
1.5
100
AcDbArc
 50
0.0
 51
90.0
  0
ARC
  5
67
330
1F
100
AcDbEntity
  8
0
  6
Continuous
 62
     7
370
    15
100
AcDbCircle
 10
829.1502357935
 20
668.9930669557
 30
0.0
 40
4.699999999999932
100
AcDbArc
 50
350.5402980318
 51
0.0
  0
ARC
  5
68
330
1F
100
AcDbEntity
  8
0
  6
Continuous
 62
     7
370
    15
100
AcDbCircle
 10
774.7502357935
 20
668.9930669557
 30
0.0
 40
4.700000000000045
100
AcDbArc
 50
180.0
 51
189.4597019682
  0
LINE
  5
69
330
1F
100
AcDbEntity
  8
0
  6
Continuous
 62
     7
370
    15
100
AcDbLine
 10
833.8502347265
 20
668.9930678257
 30
0.0
 11
833.8502347265
 21
724.4605011218
 31
0.0
  0
LINE
  5
6A
330
1F
100
AcDbEntity
  8
0
  6
Continuous
 62
     7
370
    15
100
AcDbLine
 10
770.0502387975
 20
724.4605011218
 30
0.0
 11
770.0502387975
 21
668.9930678257
 31
0.0
  0
LINE
  5
6B
330
1F
100
AcDbEntity
  8
0
  6
Continuous
 62
     7
370
    15
100
AcDbLine
 10
770.1141498779
 20
668.2206028053
 30
0.0
 11
770.9905840252
 21
662.9605003544
 31
0.0
  0
LINE
  5
6C
330
1F
100
AcDbEntity
  8
0
  6
Continuous
 62
     7
370
    15
100
AcDbLine
 10
832.9098857735
 20
662.9605003544
 30
0.0
 11
833.7863236462
 21
668.2206028053
 31
0.0
  0
ARC
  5
6D
330
1F
100
AcDbEntity
  8
0
  6
Continuous
 62
     7
370
    15
100
AcDbCircle
 10
256.3502357935
 20
724.4605010101
 30
0.0
 40
1.5
100
AcDbArc
 50
90.0
 51
180.0
  0
ARC
  5
6E
330
1F
100
AcDbEntity
  8
0
  6
Continuous
 62
     7
370
    15
100
AcDbCircle
 10
189.5502357935
 20
724.4605010101
 30
0.0
 40
1.5
100
AcDbArc
 50
0.0
 51
90.0
  0
ARC
  5
6F
330
1F
100
AcDbEntity
  8
0
  6
Continuous
 62
     7
370
    15
100
AcDbCircle
 10
250.1502357935
 20
668.9930669557
 30
0.0
 40
4.700000000000045
100
AcDbArc
 50
350.5402980318
 51
0.0
  0
ARC
  5
70
330
1F
100
AcDbEntity
  8
0
  6
Continuous
 62
     7
370
    15
100
AcDbCircle
 10
195.7502357935
 20
668.9930669557
 30
0.0
 40
4.700000000000045
100
AcDbArc
 50
180.0
 51
189.4597019682
  0
LINE
  5
71
330
1F
100
AcDbEntity
  8
0
  6
Continuous
 62
     7
370
    15
100
AcDbLine
 10
254.8502497171
 20
668.9930678257
 30
0.0
 11
254.8502497171
 21
724.4605011218
 31
0.0
  0
LINE
  5
72
330
1F
100
AcDbEntity
  8
0
  6
Continuous
 62
     7
370
    15
100
AcDbLine
 10
191.0502128099
 20
724.4605011218
 30
0.0
 11
191.0502128099
 21
668.9930678257
 31
0.0
  0
LINE
  5
73
330
1F
100
AcDbEntity
  8
0
  6
Continuous
 62
     7
370
    15
100
AcDbLine
 10
191.1141685937
 20
668.2206028053
 30
0.0
 11
191.9905952905
 21
662.9605003544
 31
0.0
  0
LINE
  5
74
330
1F
100
AcDbEntity
  8
0
  6
Continuous
 62
     7
370
    15
100
AcDbLine
 10
253.9098672365
 20
662.9605003544
 30
0.0
 11
254.7862939333
 21
668.2206028053
 31
0.0
  0
SPLINE
  5
75
330
1F
100
AcDbEntity
  8
0
  6
Continuous
 62
     7
370
    15
100
AcDbSpline
210
0.0
220
0.0
230
1.0
 70
     8
 71
     3
 72
    12
 73
     8
 74
     0
 42
0.00000001
 43
0.00000001
 12
1.0
 22
0.0
 32
0.0
 13
1.0
 23
0.0
 33
0.0
 40
0.0
 40
0.0
 40
0.0
 40
0.0
 40
0.1763538798337369
 40
0.3958892504914884
 40
0.6217336561437944
 40
0.8408256297474197
 40
1.0
 40
1.0
 40
1.0
 40
1.0
 10
128.9502791856368
 20
715.8604328432143
 30
0.0
 10
128.9501584866161
 20
715.8606860403996
 30
0.0
 10
128.9498875345688
 20
715.8612544318862
 30
0.0
 10
128.9773291092952
 20
715.8315026541295
 30
0.0
 10
129.0062359149179
 20
715.7685123677185
 30
0.0
 10
129.0263205994946
 20
715.688864984134
 30
0.0
 10
129.026959804681
 20
715.6336349394811
 30
0.0
 10
129.0272287820419
 20
715.6103941523493
 30
0.0
  0
ARC
  5
76
330
1F
100
AcDbEntity
  8
0
  6
Continuous
 62
     7
370
    15
100
AcDbCircle
 10
129.278713009
 20
710.5105010101
 30
0.0
 40
0.2499999999999716
100
AcDbArc
 50
180.0
 51
270.0
  0
LINE
  5
77
330
1F
100
AcDbEntity
  8
0
  6
Continuous
 62
     7
370
    15
100
AcDbLine
 10
129.0287188982
 20
715.6105012544
 30
0.0
 11
129.0287188982
 21
710.5105006048
 31
0.0
  0
ARC
  5
78
330
1F
100
AcDbEntity
  8
0
  6
Continuous
 62
     7
370
    15
100
AcDbCircle
 10
134.5282360914
 20
710.5105010101
 30
0.0
 40
0.2499999999999716
100
AcDbArc
 50
270.0
 51
0.0
  0
LINE
  5
79
330
1F
100
AcDbEntity
  8
0
  6
Continuous
 62
     7
370
    15
100
AcDbLine
 10
134.7782425378
 20
710.5105006048
 30
0.0
 11
134.7782425378
 21
715.6105012544
 31
0.0
  0
ARC
  5
7A
330
1F
100
AcDbEntity
  8
0
  6
Continuous
 62
     7
370
    15
100
AcDbCircle
 10
134.9002357935
 20
716.8105010101
 30
0.0
 40
0.2500000000000853
100
AcDbArc
 50
0.0
 51
90.0
  0
ARC
  5
7B
330
1F
100
AcDbEntity
  8
0
  6
Continuous
 62
     7
370
    15
100
AcDbCircle
 10
134.9002357935
 20
716.1105010101
 30
0.0
 40
0.2500000000000853
100
AcDbArc
 50
270.0
 51
0.0
  0
LINE
  5
7C
330
1F
100
AcDbEntity
  8
0
  6
Continuous
 62
     7
370
    15
100
AcDbLine
 10
135.1502351259
 20
716.1105013364
 30
0.0
 11
135.1502351259
 21
716.8105010786
 31
0.0
  0
LINE
  5
7D
330
1F
100
AcDbEntity
  8
0
  6
Continuous
 62
     7
370
    15
100
AcDbLine
 10
118.1222609972
 20
714.6605010056
 30
0.0
 11
118.1222609972
 21
710.5105006048
 31
0.0
  0
ARC
  5
7E
330
1F
100
AcDbEntity
  8
0
  6
Continuous
 62
     7
370
    15
100
AcDbCircle
 10
118.3722354955
 20
710.5105010101
 30
0.0
 40
0.2500000000001137
100
AcDbArc
 50
180.0
 51
270.0
  0
ARC
  5
7F
330
1F
100
AcDbEntity
  8
0
  6
Continuous
 62
     7
370
    15
100
AcDbCircle
 10
134.9002357935
 20
714.9105010101
 30
0.0
 40
0.2500000000000853
100
AcDbArc
 50
270.0
 51
0.0
  0
ARC
  5
80
330
1F
100
AcDbEntity
  8
0
  6
Continuous
 62
     7
370
    15
100
AcDbCircle
 10
134.9002357935
 20
715.6105010101
 30
0.0
 40
0.2500000000000853
100
AcDbArc
 50
0.0
 51
90.0
  0
LINE
  5
81
330
1F
100
AcDbEntity
  8
0
  6
Continuous
 62
     7
370
    15
100
AcDbLine
 10
135.1502351259
 20
714.9105005809
 30
0.0
 11
135.1502351259
 21
715.6105012544
 31
0.0
  0
SPLINE
  5
82
330
1F
100
AcDbEntity
  8
0
  6
Continuous
 62
     7
370
    15
100
AcDbSpline
210
0.0
220
0.0
230
1.0
 70
     8
 71
     3
 72
    13
 73
     9
 74
     0
 42
0.00000001
 43
0.00000001
 12
1.0
 22
0.0
 32
0.0
 13
1.0
 23
0.0
 33
0.0
 40
0.0
 40
0.0
 40
0.0
 40
0.0
 40
0.1520818967406811
 40
0.4375251442199458
 40
0.6441160403993241
 40
0.8171237273053726
 40
0.974592828916773
 40
1.0
 40
1.0
 40
1.0
 40
1.0
 10
121.1818866227706
 20
715.8640286796749
 30
0.0
 10
121.1698486113567
 20
715.8635469033779
 30
0.0
 10
121.1352163981025
 20
715.8621608788192
 30
0.0
 10
121.0819750005031
 20
715.8909060001378
 30
0.0
 10
121.0283418364423
 20
715.9502874862976
 30
0.0
 10
120.9976971146537
 20
716.0213288237231
 30
0.0
 10
120.9858366109208
 20
716.0774328712545
 30
0.0
 10
120.9877820379673
 20
716.1062810855448
 30
0.0
 10
120.9880523179611
 20
716.1102889948547
 30
0.0
  0
ARC
  5
83
330
1F
100
AcDbEntity
  8
0
  6
Continuous
 62
     7
370
    15
100
AcDbCircle
 10
120.7371214453
 20
721.2105010101
 30
0.0
 40
0.2500000000001137
100
AcDbArc
 50
0.0
 51
90.0
  0
LINE
  5
84
330
1F
100
AcDbEntity
  8
0
  6
Continuous
 62
     7
370
    15
100
AcDbLine
 10
120.9870986436
 20
716.1105013364
 30
0.0
 11
120.9870986436
 21
721.2105010548
 31
0.0
  0
ARC
  5
85
330
1F
100
AcDbEntity
  8
0
  6
Continuous
 62
     7
370
    15
100
AcDbCircle
 10
116.8567316718
 20
721.2105010101
 30
0.0
 40
0.2500000000001137
100
AcDbArc
 50
90.0
 51
180.0
  0
LINE
  5
86
330
1F
100
AcDbEntity
  8
0
  6
Continuous
 62
     7
370
    15
100
AcDbLine
 10
116.6067532991
 20
721.2105010548
 30
0.0
 11
116.6067532991
 21
716.1105013364
 31
0.0
  0
LINE
  5
87
330
1F
100
AcDbEntity
  8
0
  6
Continuous
 62
     7
370
    15
100
AcDbLine
 10
136.2937502359
 20
716.1105013364
 30
0.0
 11
136.2937502359
 21
721.2105010548
 31
0.0
  0
ARC
  5
88
330
1F
100
AcDbEntity
  8
0
  6
Continuous
 62
     7
370
    15
100
AcDbCircle
 10
136.0437399151
 20
721.2105010101
 30
0.0
 40
0.25
100
AcDbArc
 50
0.0
 51
90.0
  0
LINE
  5
89
330
1F
100
AcDbEntity
  8
0
  6
Continuous
 62
     7
370
    15
100
AcDbLine
 10
131.9133452867
 20
717.3278805711
 30
0.0
 11
131.9133452867
 21
717.0605006539
 31
0.0
  0
LINE
  5
8A
330
1F
100
AcDbEntity
  8
0
  6
Continuous
 62
     7
370
    15
100
AcDbLine
 10
121.4502267335
 20
722.2605011337
 30
0.0
 11
120.8917908166
 21
721.9380735331
 31
0.0
  0
LINE
  5
8B
330
1F
100
AcDbEntity
  8
0
  6
Continuous
 62
     7
370
    15
100
AcDbLine
 10
120.9870986436
 20
717.3278805711
 30
0.0
 11
121.4502267335
 21
717.0605006539
 31
0.0
  0
LINE
  5
8C
330
1F
100
AcDbEntity
  8
0
  6
Continuous
 62
     7
370
    15
100
AcDbLine
 10
132.0087127184
 20
721.9380735331
 30
0.0
 11
131.4502171968
 21
722.2605011337
 31
0.0
  0
LINE
  5
8D
330
1F
100
AcDbEntity
  8
0
  6
Continuous
 62
     7
370
    15
100
AcDbLine
 10
131.4502171968
 20
717.0605006539
 30
0.0
 11
132.0087127184
 21
717.3829282546
 31
0.0
  0
LINE
  5
8E
330
1F
100
AcDbEntity
  8
0
  6
Continuous
 62
     7
370
    15
100
AcDbLine
 10
123.450260589
 20
722.5105011747
 30
0.0
 11
123.450260589
 21
722.2605011337
 31
0.0
  0
LINE
  5
8F
330
1F
100
AcDbEntity
  8
0
  6
Continuous
 62
     7
370
    15
100
AcDbLine
 10
129.450242946
 20
722.2605011337
 30
0.0
 11
129.450242946
 21
722.5105011747
 31
0.0
  0
LINE
  5
90
330
1F
100
AcDbEntity
  8
0
  6
Continuous
 62
     7
370
    15
100
AcDbLine
 10
108.6002401804
 20
716.4605007418
 30
0.0
 11
108.6002401804
 21
714.0605010935
 31
0.0
  0
LINE
  5
91
330
1F
100
AcDbEntity
  8
0
  6
Continuous
 62
     7
370
    15
100
AcDbLine
 10
138.300221393
 20
714.0605010935
 30
0.0
 11
138.300221393
 21
716.4605007418
 31
0.0
  0
LINE
  5
92
330
1F
100
AcDbEntity
  8
0
  6
Continuous
 62
     7
370
    15
100
AcDbLine
 10
108.6002401804
 20
710.160500268
 30
0.0
 11
108.6002401804
 21
700.9605009952
 31
0.0
  0
LINE
  5
93
330
1F
100
AcDbEntity
  8
0
  6
Continuous
 62
     7
370
    15
100
AcDbLine
 10
138.300221393
 20
700.9605009952
 30
0.0
 11
138.300221393
 21
710.160500268
 31
0.0
  0
ARC
  5
94
330
1F
100
AcDbEntity
  8
0
  6
Continuous
 62
     7
370
    15
100
AcDbCircle
 10
113.6002357935
 20
700.9605010101
 30
0.0
 40
5.000000000000014
100
AcDbArc
 50
180.0
 51
270.0
  0
ARC
  5
95
330
1F
100
AcDbEntity
  8
0
  6
Continuous
 62
     7
370
    15
100
AcDbCircle
 10
133.3002357935
 20
700.9605010101
 30
0.0
 40
5.0
100
AcDbArc
 50
270.0
 51
0.0
  0
LINE
  5
96
330
1F
100
AcDbEntity
  8
0
  6
Continuous
 62
     7
370
    15
100
AcDbLine
 10
137.4502591585
 20
716.4605007418
 30
0.0
 11
137.4502591585
 21
721.9605011777
 31
0.0
  0
LINE
  5
97
330
1F
100
AcDbEntity
  8
0
  6
Continuous
 62
     7
370
    15
100
AcDbLine
 10
109.4502620195
 20
721.9605011777
 30
0.0
 11
109.4502620195
 21
716.4605007418
 31
0.0
  0
LINE
  5
98
330
1F
100
AcDbEntity
  8
0
  6
Continuous
 62
     7
370
    15
100
AcDbLine
 10
136.4502124284
 20
721.9605011777
 30
0.0
 11
136.4502124284
 21
723.9605010399
 31
0.0
  0
LINE
  5
99
330
1F
100
AcDbEntity
  8
0
  6
Continuous
 62
     7
370
    15
100
AcDbLine
 10
110.4502491449
 20
723.9605010399
 30
0.0
 11
110.4502491449
 21
721.9605011777
 31
0.0
  0
LINE
  5
9A
330
1F
100
AcDbEntity
  8
0
  6
Continuous
 62
     7
370
    15
100
AcDbLine
 10
140.2002386545
 20
723.9605010399
 30
0.0
 11
140.2002386545
 21
727.160500959
 31
0.0
  0
LINE
  5
9B
330
1F
100
AcDbEntity
  8
0
  6
Continuous
 62
     7
370
    15
100
AcDbLine
 10
106.7002229189
 20
727.160500959
 30
0.0
 11
106.7002229189
 21
723.9605010399
 31
0.0
  0
LINE
  5
9C
330
1F
100
AcDbEntity
  8
0
  6
Continuous
 62
     7
370
    15
100
AcDbLine
 10
983.8034994696
 20
857.6752030202
 30
0.0
 11
982.4440367316
 21
857.0412778207
 31
0.0
  0
LWPOLYLINE
  5
9D
330
1F
100
AcDbEntity
  8
0
  6
Continuous
 62
     7
370
    15
100
AcDbPolyline
 90
        9
 70
   128
 43
0.0
 10
982.4440367316
 20
857.0412778207
 10
982.3628328537
 20
857.2154127904
 10
982.1223355626
 20
857.7311568805
 10
981.7317984794
 20
858.5686766454
 10
981.2062121724
 20
859.6957855769
 10
980.5657900666
 20
861.0691809007
 10
979.8351414298
 20
862.6360678026
 10
979.0423400496
 20
864.3362306901
 10
978.2178513502
 20
866.1043428727
  0
LWPOLYLINE
  5
9E
330
1F
100
AcDbEntity
  8
0
  6
Continuous
 62
     7
370
    15
100
AcDbPolyline
 90
        9
 70
   128
 43
0.0
 10
979.5773140882
 20
866.7382829734
 10
980.4018027876
 20
864.9701558896
 10
981.1946041678
 20
863.2699930021
 10
981.9252528046
 20
861.7031061002
 10
982.5656749104
 20
860.3297107765
 10
983.0912537669
 20
859.2026018449
 10
983.4817983006
 20
858.36508208
 10
983.7222881411
 20
857.8493379899
 10
983.8034994696
 20
857.6752030202
  0
LWPOLYLINE
  5
9F
330
1F
100
AcDbEntity
  8
0
  6
Continuous
 62
     7
370
    15
100
AcDbPolyline
 90
        9
 70
   128
 43
0.0
 10
975.178930888
 20
804.0014960715
 10
975.5911715125
 20
803.1174325296
 10
975.9875796531
 20
802.2673510858
 10
976.3529039715
 20
801.4839076349
 10
976.6731150244
 20
800.797209973
 10
976.9359044527
 20
800.2336555072
 10
977.1311692689
 20
799.8148956248
 10
977.2514216398
 20
799.5570235797
 10
977.2920198535
 20
799.4699560949
  0
LINE
  5
A0
330
1F
100
AcDbEntity
  8
0
  6
Continuous
 62
     7
370
    15
100
AcDbLine
 10
977.2920198535
 20
799.4699560949
 30
0.0
 11
975.9325571154
 21
798.8360234448
 31
0.0
  0
LINE
  5
A1
330
1F
100
AcDbEntity
  8
0
  6
Continuous
 62
     7
370
    15
100
AcDbLine
 10
939.7553354298
 20
882.925384576
 30
0.0
 11
963.7271798943
 21
894.1036396571
 31
0.0
  0
LINE
  5
A2
330
1F
100
AcDbEntity
  8
0
  6
Continuous
 62
     7
370
    15
100
AcDbLine
 10
940.3892643546
 20
881.5659218379
 30
0.0
 11
964.3611050938
 21
892.7441769191
 31
0.0
  0
LINE
  5
A3
330
1F
100
AcDbEntity
  8
0
  6
Continuous
 62
     7
370
    15
100
AcDbLine
 10
966.0887084697
 20
892.1153777191
 30
0.0
 11
978.2178513502
 21
866.1043428727
 31
0.0
  0
LINE
  5
A4
330
1F
100
AcDbEntity
  8
0
  6
Continuous
 62
     7
370
    15
100
AcDbLine
 10
967.4481712078
 20
892.7493178197
 30
0.0
 11
979.5773140882
 21
866.7382829734
 31
0.0
  0
ARC
  5
A5
330
1F
100
AcDbEntity
  8
0
  6
Continuous
 62
     7
370
    15
100
AcDbCircle
 10
940.9175363335
 20
880.4330424152
 30
0.0
 40
2.750000000000021
100
AcDbArc
 50
115.0
 51
205.0
  0
ARC
  5
A6
330
1F
100
AcDbEntity
  8
0
  6
Continuous
 62
     7
370
    15
100
AcDbCircle
 10
940.9175363335
 20
880.4330424152
 30
0.0
 40
1.25000000000008
100
AcDbArc
 50
115.0
 51
205.0
  0
LINE
  5
A7
330
1F
100
AcDbEntity
  8
0
  6
Continuous
 62
     7
370
    15
100
AcDbLine
 10
975.178930888
 20
804.0014960715
 30
0.0
 11
939.7846497391
 21
879.9047701904
 31
0.0
  0
ARC
  5
A8
330
1F
100
AcDbEntity
  8
0
  6
Continuous
 62
     7
370
    15
100
AcDbCircle
 10
964.9105082137
 20
891.5659800489
 30
0.0
 40
1.300000000000062
100
AcDbArc
 50
25.0
 51
115.0
  0
ARC
  5
A9
330
1F
100
AcDbEntity
  8
0
  6
Continuous
 62
     7
370
    15
100
AcDbCircle
 10
964.9105082137
 20
891.5659800489
 30
0.0
 40
2.800000000000058
100
AcDbArc
 50
25.0
 51
115.0
  0
ARC
  5
AA
330
1F
100
AcDbEntity
  8
0
  6
Continuous
 62
     7
370
    15
100
AcDbCircle
 10
158.1559842552
 20
976.6105010101
 30
0.0
 40
4.250000000000085
100
AcDbArc
 50
180.0
 51
211.9657187507
  0
ARC
  5
AB
330
1F
100
AcDbEntity
  8
0
  6
Continuous
 62
     7
370
    15
100
AcDbCircle
 10
158.1559842552
 20
976.6105010101
 30
0.0
 40
2.250000000000085
100
AcDbArc
 50
180.0
 51
270.0
  0
LWPOLYLINE
  5
AC
330
1F
100
AcDbEntity
  8
0
  6
Continuous
 62
     7
370
    15
100
AcDbPolyline
 90
        3
 70
   128
 43
0.0
 10
155.9060029481
 20
988.1105058738
 10
155.8243445848
 20
988.939636285
 10
155.6559614633
 20
989.5466499873
  0
LWPOLYLINE
  5
AD
330
1F
100
AcDbEntity
  8
0
  6
Continuous
 62
     7
370
    15
100
AcDbPolyline
 90
        3
 70
   128
 43
0.0
 10
153.6559872125
 20
991.8605022975
 10
153.2823852991
 20
992.0369916507
 10
153.0560068582
 20
992.1232991763
  0
ARC
  5
AE
330
1F
100
AcDbEntity
  8
0
  6
Continuous
 62
     7
370
    15
100
AcDbCircle
 10
151.6559842552
 20
988.1105010101
 30
0.0
 40
2.250000000000075
100
AcDbArc
 50
30.9463951584
 51
51.5214048663
  0
LINE
  5
AF
330
1F
100
AcDbEntity
  8
0
  6
Continuous
 62
     7
370
    15
100
AcDbLine
 10
153.9059690927
 20
976.6105049201
 30
0.0
 11
153.9059690927
 21
976.7261826345
 31
0.0
  0
LINE
  5
B0
330
1F
100
AcDbEntity
  8
0
  6
Continuous
 62
     7
370
    15
100
AcDbLine
 10
155.9060029481
 20
976.6105049201
 30
0.0
 11
155.9060029481
 21
978.6104940721
 31
0.0
  0
LINE
  5
B1
330
1F
100
AcDbEntity
  8
0
  6
Continuous
 62
     7
370
    15
100
AcDbLine
 10
87.1559791063
 20
992.3604958602
 30
0.0
 11
153.6559872125
 21
992.3604958602
 31
0.0
  0
LINE
  5
B2
330
1F
100
AcDbEntity
  8
0
  6
Continuous
 62
     7
370
    15
100
AcDbLine
 10
87.1559791063
 20
994.3604999133
 30
0.0
 11
153.6559872125
 21
994.3604999133
 31
0.0
  0
ARC
  5
B3
330
1F
100
AcDbEntity
  8
0
  6
Continuous
 62
     7
370
    15
100
AcDbCircle
 10
160.1559842552
 20
978.6105010101
 30
0.0
 40
2.25
100
AcDbArc
 50
180.0
 51
270.0
  0
ARC
  5
B4
330
1F
100
AcDbEntity
  8
0
  6
Continuous
 62
     7
370
    15
100
AcDbCircle
 10
160.1559842552
 20
978.6105010101
 30
0.0
 40
4.25
100
AcDbArc
 50
180.0
 51
270.0
  0
ARC
  5
B5
330
1F
100
AcDbEntity
  8
0
  6
Continuous
 62
     7
370
    15
100
AcDbCircle
 10
153.6559842552
 20
990.1105010101
 30
0.0
 40
4.249999999999972
100
AcDbArc
 50
0.0
 51
90.0
  0
ARC
  5
B6
330
1F
100
AcDbEntity
  8
0
  6
Continuous
 62
     7
370
    15
100
AcDbCircle
 10
153.6559842552
 20
990.1105010101
 30
0.0
 40
2.249999999999972
100
AcDbArc
 50
0.0
 51
90.0
  0
LINE
  5
B7
330
1F
100
AcDbEntity
  8
0
  6
Continuous
 62
     7
370
    15
100
AcDbLine
 10
157.9059771989
 20
990.1105099269
 30
0.0
 11
157.9059771989
 21
978.6104940721
 31
0.0
  0
LINE
  5
B8
330
1F
100
AcDbEntity
  8
0
  6
Continuous
 62
     7
370
    15
100
AcDbLine
 10
155.9060029481
 20
990.1105099269
 30
0.0
 11
155.9060029481
 21
978.6104940721
 31
0.0
  0
LINE
  5
B9
330
1F
100
AcDbEntity
  8
0
  6
Continuous
 62
     7
370
    15
100
AcDbLine
 10
160.1559929346
 20
976.3605081388
 30
0.0
 11
194.6591548418
 21
976.3605081388
 31
0.0
  0
LINE
  5
BA
330
1F
100
AcDbEntity
  8
0
  6
Continuous
 62
     7
370
    15
100
AcDbLine
 10
194.6591548418
 20
974.3605040857
 30
0.0
 11
194.6591548418
 21
976.3605081388
 31
0.0
  0
LINE
  5
BB
330
1F
100
AcDbEntity
  8
0
  6
Continuous
 62
     7
370
    15
100
AcDbLine
 10
160.1559929346
 20
974.3605040857
 30
0.0
 11
194.6591548418
 21
974.3605040857
 31
0.0
  0
ARC
  5
BC
330
1F
100
AcDbEntity
  8
0
  6
Continuous
 62
     7
370
    15
100
AcDbCircle
 10
87.1559842552
 20
978.6105010101
 30
0.0
 40
2.250000000000085
100
AcDbArc
 50
180.0
 51
270.0
  0
ARC
  5
BD
330
1F
100
AcDbEntity
  8
0
  6
Continuous
 62
     7
370
    15
100
AcDbCircle
 10
87.1559842552
 20
978.6105010101
 30
0.0
 40
4.25
100
AcDbArc
 50
180.0
 51
270.0
  0
LINE
  5
BE
330
1F
100
AcDbEntity
  8
0
  6
Continuous
 62
     7
370
    15
100
AcDbLine
 10
84.9059633707
 20
978.6104940721
 30
0.0
 11
84.9059633707
 21
990.1105099269
 31
0.0
  0
LINE
  5
BF
330
1F
100
AcDbEntity
  8
0
  6
Continuous
 62
     7
370
    15
100
AcDbLine
 10
82.9059891199
 20
978.6104940721
 30
0.0
 11
82.9059891199
 21
990.1105099269
 31
0.0
  0
LINE
  5
C0
330
1F
100
AcDbEntity
  8
0
  6
Continuous
 62
     7
370
    15
100
AcDbLine
 10
97.9059748148
 20
974.6801488944
 30
0.0
 11
97.9059748148
 21
974.3605040857
 31
0.0
  0
LINE
  5
C1
330
1F
100
AcDbEntity
  8
0
  6
Continuous
 62
     7
370
    15
100
AcDbLine
 10
95.906000564
 20
976.3605081388
 30
0.0
 11
96.4647345041
 21
976.3605081388
 31
0.0
  0
LINE
  5
C2
330
1F
100
AcDbEntity
  8
0
  6
Continuous
 62
     7
370
    15
100
AcDbLine
 10
97.9059748148
 20
974.3605040857
 30
0.0
 11
95.906000564
 21
974.3605040857
 31
0.0
  0
LINE
  5
C3
330
1F
100
AcDbEntity
  8
0
  6
Continuous
 62
     7
370
    15
100
AcDbLine
 10
95.906000564
 20
976.3605081388
 30
0.0
 11
87.1559791063
 21
976.3605081388
 31
0.0
  0
LINE
  5
C4
330
1F
100
AcDbEntity
  8
0
  6
Continuous
 62
     7
370
    15
100
AcDbLine
 10
95.906000564
 20
974.3605040857
 30
0.0
 11
87.1559791063
 21
974.3605040857
 31
0.0
  0
ARC
  5
C5
330
1F
100
AcDbEntity
  8
0
  6
Continuous
 62
     7
370
    15
100
AcDbCircle
 10
87.1559842552
 20
990.1105010101
 30
0.0
 40
2.250000000000085
100
AcDbArc
 50
90.0
 51
180.0
  0
ARC
  5
C6
330
1F
100
AcDbEntity
  8
0
  6
Continuous
 62
     7
370
    15
100
AcDbCircle
 10
87.1559842552
 20
990.1105010101
 30
0.0
 40
4.249999999999972
100
AcDbArc
 50
90.0
 51
180.0
  0
LINE
  5
C7
330
1F
100
AcDbEntity
  8
0
  6
Continuous
 62
     7
370
    15
100
AcDbLine
 10
194.6591548418
 20
974.3605040857
 30
0.0
 11
915.3591282462
 21
974.3605040857
 31
0.0
  0
LINE
  5
C8
330
1F
100
AcDbEntity
  8
0
  6
Continuous
 62
     7
370
    15
100
AcDbLine
 10
194.6591548418
 20
976.3605081388
 30
0.0
 11
915.3591282462
 21
976.3605081388
 31
0.0
  0
LINE
  5
C9
330
1F
100
AcDbEntity
  8
0
  6
Continuous
 62
     7
370
    15
100
AcDbLine
 10
915.3591282462
 20
974.3605040857
 30
0.0
 11
915.3591282462
 21
976.3605081388
 31
0.0
  0
LINE
  5
CA
330
1F
100
AcDbEntity
  8
0
  6
Continuous
 62
     7
370
    15
100
AcDbLine
 10
961.5424535965
 20
922.5222104141
 30
0.0
 11
943.9960643445
 21
914.3401914188
 31
0.0
  0
LINE
  5
CB
330
1F
100
AcDbEntity
  8
0
  6
Continuous
 62
     7
370
    15
100
AcDbLine
 10
960.6972150301
 20
924.3348323652
 30
0.0
 11
943.1508295034
 21
916.1528133699
 31
0.0
  0
LINE
  5
CC
330
1F
100
AcDbEntity
  8
0
  6
Continuous
 62
     7
370
    15
100
AcDbLine
 10
981.7848242615
 20
959.289082224
 30
0.0
 11
967.3467241024
 21
928.3264958211
 31
0.0
  0
LINE
  5
CD
330
1F
100
AcDbEntity
  8
0
  6
Continuous
 62
     7
370
    15
100
AcDbLine
 10
979.972209761
 20
960.1343207904
 30
0.0
 11
965.5341096018
 21
929.1717194864
 31
0.0
  0
ARC
  5
CE
330
1F
100
AcDbEntity
  8
0
  6
Continuous
 62
     7
370
    15
100
AcDbCircle
 10
956.471034059
 20
933.3979075967
 30
0.0
 40
12.00000000000005
100
AcDbArc
 50
295.0
 51
335.0
  0
ARC
  5
CF
330
1F
100
AcDbEntity
  8
0
  6
Continuous
 62
     7
370
    15
100
AcDbCircle
 10
956.471034059
 20
933.3979075967
 30
0.0
 40
10.00000000000003
100
AcDbArc
 50
295.0
 51
335.0
  0
ARC
  5
D0
330
1F
100
AcDbEntity
  8
0
  6
Continuous
 62
     7
370
    15
100
AcDbCircle
 10
970.909128484
 20
964.3605010101
 30
0.0
 40
12.00000000000011
100
AcDbArc
 50
335.0
 51
90.0
  0
ARC
  5
D1
330
1F
100
AcDbEntity
  8
0
  6
Continuous
 62
     7
370
    15
100
AcDbCircle
 10
970.909128484
 20
964.3605010101
 30
0.0
 40
10.00000000000011
100
AcDbArc
 50
335.0
 51
90.0
  0
LINE
  5
D2
330
1F
100
AcDbEntity
  8
0
  6
Continuous
 62
     7
370
    15
100
AcDbLine
 10
915.3591282462
 20
976.3605081388
 30
0.0
 11
970.9091298078
 21
976.3605081388
 31
0.0
  0
LINE
  5
D3
330
1F
100
AcDbEntity
  8
0
  6
Continuous
 62
     7
370
    15
100
AcDbLine
 10
915.3591282462
 20
974.3605040857
 30
0.0
 11
970.9091298078
 21
974.3605040857
 31
0.0
  0
LINE
  5
D4
330
1F
100
AcDbEntity
  8
0
  6
Continuous
 62
     7
370
    15
100
AcDbLine
 10
942.183449844
 20
913.4949677535
 30
0.0
 11
941.3382112776
 21
915.3075748035
 31
0.0
  0
LWPOLYLINE
  5
D5
330
1F
100
AcDbEntity
  8
0
  6
Continuous
 62
     7
370
    15
100
AcDbPolyline
 90
        9
 70
   128
 43
0.0
 10
943.9960643445
 20
914.3401914188
 10
943.6424411629
 20
914.175295169
 10
943.3024078404
 20
914.0167468139
 10
942.9890289699
 20
913.8706111261
 10
942.7143521403
 20
913.7425207444
 10
942.488931099
 20
913.6374079534
 10
942.3214271461
 20
913.5592960664
 10
942.218277583
 20
913.5112100192
 10
942.183449844
 20
913.4949677535
  0
LWPOLYLINE
  5
D6
330
1F
100
AcDbEntity
  8
0
  6
Continuous
 62
     7
370
    15
100
AcDbPolyline
 90
        9
 70
   128
 43
0.0
 10
941.3382112776
 20
915.3075748035
 10
941.3730427419
 20
915.3238170692
 10
941.4761885797
 20
915.3719180175
 10
941.6436925326
 20
915.4500299045
 10
941.8691135739
 20
915.5551426956
 10
942.1437941288
 20
915.6832330772
 10
942.457169274
 20
915.8293538638
 10
942.7972025965
 20
915.9879171201
 10
943.1508295034
 20
916.1528133699
  0
LINE
  5
D7
330
1F
100
AcDbEntity
  8
0
  6
Continuous
 62
     7
370
    15
100
AcDbLine
 10
150.4710130189
 20
1027.9072754928
 30
0.0
 11
153.4060053323
 21
994.3604999133
 31
0.0
  0
LINE
  5
D8
330
1F
100
AcDbEntity
  8
0
  6
Continuous
 62
     7
370
    15
100
AcDbLine
 10
87.4059609865
 20
994.3604999133
 30
0.0
 11
91.5744714235
 21
1042.0062177726
 31
0.0
  0
ARC
  5
D9
330
1F
100
AcDbEntity
  8
0
  6
Continuous
 62
     7
370
    15
100
AcDbCircle
 10
148.4786328095
 20
1027.732959257
 30
0.0
 40
2.000000000000063
100
AcDbArc
 50
5.0
 51
75.6
  0
LINE
  5
DA
330
1F
100
AcDbEntity
  8
0
  6
Continuous
 62
     7
370
    15
100
AcDbLine
 10
94.0642170404
 20
1043.7690847465
 30
0.0
 11
148.9760093187
 21
1029.6701126643
 31
0.0
  0
ARC
  5
DB
330
1F
100
AcDbEntity
  8
0
  6
Continuous
 62
     7
370
    15
100
AcDbCircle
 10
93.566834302
 20
1041.831912783
 30
0.0
 40
2.000000000000258
100
AcDbArc
 50
75.6
 51
175.0
  0
LINE
  5
DC
330
1F
100
AcDbEntity
  8
0
  6
Continuous
 62
     7
370
    15
100
AcDbLine
 10
112.9059605096
 20
1005.860500867
 30
0.0
 11
127.9060058092
 21
1005.860500867
 31
0.0
  0
LINE
  5
DD
330
1F
100
AcDbEntity
  8
0
  6
Continuous
 62
     7
370
    15
100
AcDbLine
 10
142.6560096239
 20
976.9605033943
 30
0.0
 11
142.6560096239
 21
974.6604942628
 31
0.0
  0
LINE
  5
DE
330
1F
100
AcDbEntity
  8
0
  6
Continuous
 62
     7
370
    15
100
AcDbLine
 10
85.1560048555
 20
974.6604942628
 30
0.0
 11
85.5875424837
 21
974.6604942628
 31
0.0
  0
LINE
  5
DF
330
1F
100
AcDbEntity
  8
0
  6
Continuous
 62
     7
370
    15
100
AcDbLine
 10
97.9059748148
 20
974.6604942628
 30
0.0
 11
142.6560096239
 21
974.6604942628
 31
0.0
  0
LINE
  5
E0
330
1F
100
AcDbEntity
  8
0
  6
Continuous
 62
     7
370
    15
100
AcDbLine
 10
85.1560048555
 20
974.6604942628
 30
0.0
 11
85.1560048555
 21
974.8604976484
 31
0.0
  0
ARC
  5
E1
330
1F
100
AcDbEntity
  8
0
  6
Continuous
 62
     7
370
    15
100
AcDbCircle
 10
87.1559842552
 20
990.3605010101
 30
0.0
 40
2.000000000000014
100
AcDbArc
 50
90.0
 51
180.0
  0
LINE
  5
E2
330
1F
100
AcDbEntity
  8
0
  6
Continuous
 62
     7
370
    15
100
AcDbLine
 10
87.1559791063
 20
989.4604914733
 30
0.0
 11
87.1559791063
 21
992.3604958602
 31
0.0
  0
ARC
  5
E3
330
1F
100
AcDbEntity
  8
0
  6
Continuous
 62
     7
370
    15
100
AcDbCircle
 10
87.4559842552
 20
989.4605010101
 30
0.0
 40
0.3000000000000682
100
AcDbArc
 50
180.0
 51
0.0
  0
LINE
  5
E4
330
1F
100
AcDbEntity
  8
0
  6
Continuous
 62
     7
370
    15
100
AcDbLine
 10
87.7559594606
 20
990.06050163
 30
0.0
 11
87.7559594606
 21
989.4604914733
 31
0.0
  0
LINE
  5
E5
330
1F
100
AcDbEntity
  8
0
  6
Continuous
 62
     7
370
    15
100
AcDbLine
 10
153.0560068582
 20
989.4604914733
 30
0.0
 11
153.0560068582
 21
990.06050163
 31
0.0
  0
ARC
  5
E6
330
1F
100
AcDbEntity
  8
0
  6
Continuous
 62
     7
370
    15
100
AcDbCircle
 10
153.3559842552
 20
989.4605010101
 30
0.0
 40
0.3000000000000682
100
AcDbArc
 50
180.0
 51
0.0
  0
LINE
  5
E7
330
1F
100
AcDbEntity
  8
0
  6
Continuous
 62
     7
370
    15
100
AcDbLine
 10
153.6559872125
 20
992.3604958602
 30
0.0
 11
153.6559872125
 21
989.4604914733
 31
0.0
  0
ARC
  5
E8
330
1F
100
AcDbEntity
  8
0
  6
Continuous
 62
     7
370
    15
100
AcDbCircle
 10
153.6559842552
 20
990.3605010101
 30
0.0
 40
2.0
100
AcDbArc
 50
0.0
 51
90.0
  0
LINE
  5
E9
330
1F
100
AcDbEntity
  8
0
  6
Continuous
 62
     7
370
    15
100
AcDbLine
 10
155.6559614633
 20
978.7104957649
 30
0.0
 11
155.6559614633
 21
990.3604918071
 31
0.0
  0
ARC
  5
EA
330
1F
100
AcDbEntity
  8
0
  6
Continuous
 62
     7
370
    15
100
AcDbCircle
 10
153.6559842552
 20
978.7105010101
 30
0.0
 40
2.0
100
AcDbArc
 50
270.0
 51
0.0
  0
LINE
  5
EB
330
1F
100
AcDbEntity
  8
0
  6
Continuous
 62
     7
370
    15
100
AcDbLine
 10
143.2559899782
 20
976.7105066129
 30
0.0
 11
153.6559872125
 21
976.7105066129
 31
0.0
  0
LINE
  5
EC
330
1F
100
AcDbEntity
  8
0
  6
Continuous
 62
     7
370
    15
100
AcDbLine
 10
143.2559899782
 20
977.5604986497
 30
0.0
 11
143.2559899782
 21
976.7105066129
 31
0.0
  0
ARC
  5
ED
330
1F
100
AcDbEntity
  8
0
  6
Continuous
 62
     7
370
    15
100
AcDbCircle
 10
142.9559842563
 20
977.5605010101
 30
0.0
 40
0.2999999999999829
100
AcDbArc
 50
0.0
 51
180.0
  0
LINE
  5
EE
330
1F
100
AcDbEntity
  8
0
  6
Continuous
 62
     7
370
    15
100
AcDbLine
 10
142.6560096239
 20
976.9605033943
 30
0.0
 11
142.6560096239
 21
977.5604986497
 31
0.0
  0
LINE
  5
EF
330
1F
100
AcDbEntity
  8
0
  6
Continuous
 62
     7
370
    15
100
AcDbLine
 10
85.1560048555
 20
990.3604918071
 30
0.0
 11
85.1560048555
 21
976.9605033943
 31
0.0
  0
LINE
  5
F0
330
1F
100
AcDbEntity
  8
0
  6
Continuous
 62
     7
370
    15
100
AcDbLine
 10
87.7559594606
 20
990.06050163
 30
0.0
 11
87.7559594606
 21
992.3604958602
 31
0.0
  0
LINE
  5
F1
330
1F
100
AcDbEntity
  8
0
  6
Continuous
 62
     7
370
    15
100
AcDbLine
 10
153.0560068582
 20
992.3604958602
 30
0.0
 11
153.0560068582
 21
990.06050163
 31
0.0
  0
LINE
  5
F2
330
1F
100
AcDbEntity
  8
0
  6
Continuous
 62
     7
370
    15
100
AcDbLine
 10
892.9508137313
 20
726.3050450855
 30
0.0
 11
951.580110917
 21
726.3050450855
 31
0.0
  0
LINE
  5
F3
330
1F
100
AcDbEntity
  8
0
  6
Continuous
 62
     7
370
    15
100
AcDbLine
 10
892.9508137313
 20
727.1050451235
 30
0.0
 11
951.580110917
 21
727.1050451235
 31
0.0
  0
ARC
  5
F4
330
1F
100
AcDbEntity
  8
0
  6
Continuous
 62
     7
370
    15
100
AcDbCircle
 10
972.19090978
 20
781.3050451797
 30
0.0
 40
10.79999999999995
100
AcDbArc
 50
335.0
 51
25.0
  0
ARC
  5
F5
330
1F
100
AcDbEntity
  8
0
  6
Continuous
 62
     7
370
    15
100
AcDbCircle
 10
972.19090978
 20
781.3050451797
 30
0.0
 40
9.999999999999922
100
AcDbArc
 50
335.0
 51
25.0
  0
LINE
  5
F6
330
1F
100
AcDbEntity
  8
0
  6
Continuous
 62
     7
370
    15
100
AcDbLine
 10
926.3386800681
 20
908.1481926986
 30
0.0
 11
938.9816745912
 21
914.0437179157
 31
0.0
  0
LINE
  5
F7
330
1F
100
AcDbEntity
  8
0
  6
Continuous
 62
     7
370
    15
100
AcDbLine
 10
926.6767762397
 20
907.4231468984
 30
0.0
 11
939.3197707628
 21
913.3186721155
 31
0.0
  0
ARC
  5
F8
330
1F
100
AcDbEntity
  8
0
  6
Continuous
 62
     7
370
    15
100
AcDbCircle
 10
927.2050489877
 20
906.2902640509
 30
0.0
 40
1.249999999999874
100
AcDbArc
 50
115.0
 51
205.0
  0
ARC
  5
F9
330
1F
100
AcDbEntity
  8
0
  6
Continuous
 62
     7
370
    15
100
AcDbCircle
 10
927.2050489877
 20
906.2902640509
 30
0.0
 40
2.049999999999954
100
AcDbArc
 50
115.0
 51
205.0
  0
LINE
  5
FA
330
1F
100
AcDbEntity
  8
0
  6
Continuous
 62
     7
370
    15
100
AcDbLine
 10
960.6431908701
 20
732.8788625454
 30
0.0
 11
981.2539852952
 21
777.0788640627
 31
0.0
  0
LINE
  5
FB
330
1F
100
AcDbEntity
  8
0
  6
Continuous
 62
     7
370
    15
100
AcDbLine
 10
961.3682366704
 20
732.5407680036
 30
0.0
 11
981.9790310954
 21
776.7407678911
 31
0.0
  0
LINE
  5
FC
330
1F
100
AcDbEntity
  8
0
  6
Continuous
 62
     7
370
    15
100
AcDbLine
 10
890.9508138691
 20
726.3050450855
 30
0.0
 11
890.9508138691
 21
727.1050451235
 31
0.0
  0
LINE
  5
FD
330
1F
100
AcDbEntity
  8
0
  6
Continuous
 62
     7
370
    15
100
AcDbLine
 10
892.9508137313
 20
726.3050450855
 30
0.0
 11
890.9508138691
 21
726.3050450855
 31
0.0
  0
LINE
  5
FE
330
1F
100
AcDbEntity
  8
0
  6
Continuous
 62
     7
370
    15
100
AcDbLine
 10
890.9508138691
 20
727.1050451235
 30
0.0
 11
892.9508137313
 21
727.1050451235
 31
0.0
  0
LINE
  5
FF
330
1F
100
AcDbEntity
  8
0
  6
Continuous
 62
     7
370
    15
100
AcDbLine
 10
940.7942890917
 20
914.8889564821
 30
0.0
 11
941.1323852633
 21
914.1639106818
 31
0.0
  0
LWPOLYLINE
  5
100
330
1F
100
AcDbEntity
  8
0
  6
Continuous
 62
     7
370
    15
100
AcDbPolyline
 90
        9
 70
   128
 43
0.0
 10
941.1323852633
 20
914.1639106818
 10
941.0975575243
 20
914.1476684161
 10
940.9944079612
 20
914.0995674678
 10
940.8269040083
 20
914.0214555808
 10
940.601482967
 20
913.9163427898
 10
940.3268061374
 20
913.7882673093
 10
940.0134272669
 20
913.6421316215
 10
939.6733939444
 20
913.4835683652
 10
939.3197707628
 20
913.3186721155
  0
LWPOLYLINE
  5
101
330
1F
100
AcDbEntity
  8
0
  6
Continuous
 62
     7
370
    15
100
AcDbPolyline
 90
        9
 70
   128
 43
0.0
 10
938.9816745912
 20
914.0437179157
 10
939.3352977727
 20
914.2086141654
 10
939.6753348206
 20
914.3671774217
 10
939.9887099658
 20
914.5133131095
 10
940.2633867954
 20
914.64138859
 10
940.4888115619
 20
914.746501381
 10
940.6563117896
 20
914.824613268
 10
940.7594613527
 20
914.8727142164
 10
940.7942890917
 20
914.8889564821
  0
LINE
  5
102
330
1F
100
AcDbEntity
  8
0
  6
Continuous
 62
     7
370
    15
100
AcDbLine
 10
981.9790310954
 20
785.8693235465
 30
0.0
 11
926.0721653496
 21
905.7619952508
 31
0.0
  0
LINE
  5
103
330
1F
100
AcDbEntity
  8
0
  6
Continuous
 62
     7
370
    15
100
AcDbLine
 10
981.2539852952
 20
785.5312273749
 30
0.0
 11
925.3471195494
 21
905.4239028045
 31
0.0
  0
ARC
  5
104
330
1F
100
AcDbEntity
  8
0
  6
Continuous
 62
     7
370
    15
100
AcDbCircle
 10
951.5801112896
 20
737.1050451797
 30
0.0
 40
10.00000000000014
100
AcDbArc
 50
270.0
 51
335.0
  0
ARC
  5
105
330
1F
100
AcDbEntity
  8
0
  6
Continuous
 62
     7
370
    15
100
AcDbCircle
 10
951.5801112896
 20
737.1050451797
 30
0.0
 40
10.80000000000007
100
AcDbArc
 50
270.0
 51
335.0
  0
LINE
  5
106
330
1F
100
AcDbEntity
  8
0
  6
Continuous
 62
     7
370
    15
100
AcDbLine
 10
940.8771507238
 20
915.0666528293
 30
0.0
 11
940.7942890917
 21
914.8889564821
 31
0.0
  0
ARC
  5
107
330
1F
100
AcDbEntity
  8
0
  6
Continuous
 62
     7
370
    15
100
AcDbCircle
 10
938.5375880804
 20
915.4917054285
 30
0.0
 40
1.500000000000092
100
AcDbArc
 50
295.0
 51
318.6546755584
  0
LWPOLYLINE
  5
108
330
1F
100
AcDbEntity
  8
0
  6
Continuous
 62
     7
370
    15
100
AcDbPolyline
 90
       22
 70
   128
 43
0.0
 10
947.6346559619
 20
871.3520848104
 10
948.1993242894
 20
870.1411568471
 10
948.8968699967
 20
868.6452590772
 10
949.7183449362
 20
866.8835990974
 10
950.6532065366
 20
864.8787819692
 10
951.6894630884
 20
862.6565270969
 10
952.8138227557
 20
860.2453255006
 10
954.0118612145
 20
857.6761268922
 10
955.2682079171
 20
854.9818777391
 10
956.5667547082
 20
852.1971412846
 10
957.8908271884
 20
849.3576579639
 10
959.2234454845
 20
846.4998387643
 10
960.5475254153
 20
843.6603554436
 10
961.8460647558
 20
840.8756189891
 10
963.1024114584
 20
838.1813772866
 10
964.3004499172
 20
835.6121712276
 10
965.4248095845
 20
833.2009696313
 10
966.4610735868
 20
830.9787073084
 10
967.3959351872
 20
828.9738901802
 10
968.2174064015
 20
827.212237651
 10
968.9149521087
 20
825.7163473316
 10
969.4796241616
 20
824.5054044672
  0
SPLINE
  5
109
330
1F
100
AcDbEntity
  8
0
  6
Continuous
 62
     7
370
    15
100
AcDbSpline
210
0.0
220
0.0
230
1.0
 70
     8
 71
     3
 72
    11
 73
     7
 74
     0
 42
0.00000001
 43
0.00000001
 12
1.0
 22
0.0
 32
0.0
 13
1.0
 23
0.0
 33
0.0
 40
0.0
 40
0.0
 40
0.0
 40
0.0
 40
0.1499515008412425
 40
0.4331752899816211
 40
0.7165926328517808
 40
1.0
 40
1.0
 40
1.0
 40
1.0
 10
971.0467941855034
 20
821.1446040221513
 30
0.0
 10
970.9466701400721
 20
821.3593184238472
 30
0.0
 10
970.6574348728655
 20
821.9795787926732
 30
0.0
 10
970.201100252071
 20
822.9582012229483
 30
0.0
 10
969.7433320704976
 20
823.939882259374
 30
0.0
 10
969.567525766533
 20
824.3168992763581
 30
0.0
 10
969.4796241615852
 20
824.5054044672311
 30
0.0
  0
SPLINE
  5
10A
330
1F
100
AcDbEntity
  8
0
  6
Continuous
 62
     7
370
    15
100
AcDbSpline
210
0.0
220
0.0
230
1.0
 70
     8
 71
     3
 72
    11
 73
     7
 74
     0
 42
0.00000001
 43
0.00000001
 12
1.0
 22
0.0
 32
0.0
 13
1.0
 23
0.0
 33
0.0
 40
0.0
 40
0.0
 40
0.0
 40
0.0
 40
0.1499516594112199
 40
0.4331766522557651
 40
0.7165941667329359
 40
1.0
 40
1.0
 40
1.0
 40
1.0
 10
947.6346559618553
 20
871.3520848103822
 30
0.0
 10
947.5924967090194
 20
871.4424933772617
 30
0.0
 10
947.4707081000988
 20
871.703663413591
 30
0.0
 10
947.1407758773227
 20
872.4112292540707
 30
0.0
 10
946.637444345875
 20
873.4906137718485
 30
0.0
 10
946.2574694637167
 20
874.3054719922322
 30
0.0
 10
946.0674859379371
 20
874.7128927060426
 30
0.0
  0
LINE
  5
10B
330
1F
100
AcDbEntity
  8
0
  6
Continuous
 62
     7
370
    15
100
AcDbLine
 10
932.9432397877
 20
891.1506616422
 30
0.0
 11
933.3589151298
 21
891.31861263
 31
0.0
  0
SPLINE
  5
10C
330
1F
100
AcDbEntity
  8
0
  6
Continuous
 62
     7
370
    15
100
AcDbSpline
210
0.0
220
0.0
230
1.0
 70
     8
 71
     3
 72
    14
 73
    10
 74
     0
 42
0.00000001
 43
0.00000001
 12
1.0
 22
0.0
 32
0.0
 13
1.0
 23
0.0
 33
0.0
 40
0.0
 40
0.0
 40
0.0
 40
0.0
 40
0.0000061830951494
 40
0.0730557968663342
 40
0.2154935725029163
 40
0.4037787107900535
 40
0.5887471630613488
 40
0.888236297466895
 40
1.0
 40
1.0
 40
1.0
 40
1.0
 10
933.3589151297649
 20
891.3186126300157
 30
0.0
 10
933.3589337562287
 20
891.3186175970175
 30
0.0
 10
933.5790130413845
 20
891.3773047531995
 30
0.0
 10
934.2129010120706
 20
891.614638531569
 30
0.0
 10
935.5028010509039
 20
891.5847117021409
 30
0.0
 10
937.0695818112584
 20
891.1251477006085
 30
0.0
 10
938.7628297365324
 20
889.8135676960344
 30
0.0
 10
939.7551047484685
 20
888.2036306969298
 30
0.0
 10
940.3102670075591
 20
887.0494188062202
 30
0.0
 10
940.4611401055893
 20
886.7357456036867
 30
0.0
  0
SPLINE
  5
10D
330
1F
100
AcDbEntity
  8
0
  6
Continuous
 62
     7
370
    15
100
AcDbSpline
210
0.0
220
0.0
230
1.0
 70
     8
 71
     3
 72
    15
 73
    11
 74
     0
 42
0.00000001
 43
0.00000001
 12
1.0
 22
0.0
 32
0.0
 13
1.0
 23
0.0
 33
0.0
 40
0.0
 40
0.0
 40
0.0
 40
0.0
 40
0.0125284394107086
 40
0.2274809379183538
 40
0.4424415682599156
 40
0.4999984736796715
 40
0.7148757780145739
 40
0.9297499094118263
 40
0.9874742522055301
 40
0.9999999999999999
 40
0.9999999999999999
 40
0.9999999999999999
 40
0.9999999999999999
 10
933.787323514088
 20
889.340528185016
 30
0.0
 10
933.7821207315218
 20
889.3524885282768
 30
0.0
 10
933.6876529515241
 20
889.5696544508312
 30
0.0
 10
933.5011313751698
 20
889.9926533729789
 30
0.0
 10
933.3164133574763
 20
890.4003839144029
 30
0.0
 10
933.1588145829458
 20
890.740333069879
 30
0.0
 10
933.0289998477203
 20
891.0111998762874
 30
0.0
 10
932.9605333160439
 20
891.1359876069051
 30
0.0
 10
932.9455511723323
 20
891.1510069685924
 30
0.0
 10
932.9435927109955
 20
891.1507138974398
 30
0.0
 10
932.9432435129722
 20
891.1506616421998
 30
0.0
  0
SPLINE
  5
10E
330
1F
100
AcDbEntity
  8
0
  6
Continuous
 62
     7
370
    15
100
AcDbSpline
210
0.0
220
0.0
230
1.0
 70
     8
 71
     3
 72
     9
 73
     5
 74
     0
 42
0.00000001
 43
0.00000001
 12
1.0
 22
0.0
 32
0.0
 13
1.0
 23
0.0
 33
0.0
 40
0.0
 40
0.0
 40
0.0
 40
0.0
 40
0.00002207402512
 40
1.0
 40
1.0
 40
1.0
 40
1.0
 10
982.9924069140991
 20
795.5271386452973
 30
0.0
 10
982.9924168482378
 20
795.5271212606241
 30
0.0
 10
983.4424543316504
 20
794.7395588102327
 30
0.0
 10
983.7000485494015
 20
793.861200825166
 30
0.0
 10
983.9576370810112
 20
792.9828622289956
 30
0.0
  0
LINE
  5
10F
330
1F
100
AcDbEntity
  8
0
  6
Continuous
 62
     7
370
    15
100
AcDbLine
 10
932.9432397877
 20
891.1506616422
 30
0.0
 11
932.8946843539
 21
891.1310517141
 31
0.0
  0
LINE
  5
110
330
1F
100
AcDbEntity
  8
0
  6
Continuous
 62
     7
370
    15
100
AcDbLine
 10
940.4611401056
 20
886.7357456037
 30
0.0
 11
941.7945295368
 21
883.8762872764
 31
0.0
  0
LINE
  5
111
330
1F
100
AcDbEntity
  8
0
  6
Continuous
 62
     7
370
    15
100
AcDbLine
 10
942.4284547363
 20
882.5168245384
 30
0.0
 11
946.0674859379
 21
874.712892706
 31
0.0
  0
LINE
  5
112
330
1F
100
AcDbEntity
  8
0
  6
Continuous
 62
     7
370
    15
100
AcDbLine
 10
971.0467941855
 20
821.1446040222
 30
0.0
 11
982.9924069141
 21
795.5271386453
 31
0.0
  0
SPLINE
  5
113
330
1F
100
AcDbEntity
  8
0
  6
Continuous
 62
     7
370
    15
100
AcDbSpline
210
0.0
220
0.0
230
1.0
 70
     8
 71
     3
 72
    20
 73
    16
 74
     0
 42
0.00000001
 43
0.00000001
 12
1.0
 22
0.0
 32
0.0
 13
1.0
 23
0.0
 33
0.0
 40
0.0
 40
0.0
 40
0.0
 40
0.0
 40
0.2070577195708388
 40
0.4203771944646242
 40
0.7011166079962189
 40
0.8834530644420885
 40
0.9282288205705844
 40
0.9524790288535133
 40
0.9675018450537426
 40
0.9773827527365413
 40
0.9840938412057808
 40
0.9887394999894072
 40
0.9919933575723838
 40
0.9977340976269279
 40
1.0
 40
1.0
 40
1.0
 40
1.0
 10
983.9576370810112
 20
792.9828622289956
 30
0.0
 10
984.0624996723855
 20
792.4937475857723
 30
0.0
 10
984.2753960669636
 20
791.5007266932599
 30
0.0
 10
984.0769777681646
 20
789.7919657560464
 30
0.0
 10
983.4428808703376
 20
788.4951529523365
 30
0.0
 10
982.7721250231707
 20
787.7274656259033
 30
0.0
 10
982.3617767088415
 20
787.4059416467651
 30
0.0
 10
982.2162906116712
 20
787.3058485482802
 30
0.0
 10
982.1284022407259
 20
787.2499718323377
 30
0.0
 10
982.070723345526
 20
787.215203982445
 30
0.0
 10
982.0314785052159
 20
787.1923823536307
 30
0.0
 10
982.0042297907427
 20
787.1769550483941
 30
0.0
 10
981.9786523116487
 20
787.1627166389887
 30
0.0
 10
981.9573908361333
 20
787.151126053619
 30
0.0
 10
981.9421732557186
 20
787.1430069696826
 30
0.0
 10
981.9378666375717
 20
787.1407092460454
 30
0.0
  0
SPLINE
  5
114
330
1F
100
AcDbEntity
  8
0
  6
Continuous
 62
     7
370
    15
100
AcDbSpline
210
0.0
220
0.0
230
1.0
 70
     8
 71
     3
 72
    10
 73
     6
 74
     0
 42
0.00000001
 43
0.00000001
 12
1.0
 22
0.0
 32
0.0
 13
1.0
 23
0.0
 33
0.0
 40
0.0
 40
0.0
 40
0.0
 40
0.0
 40
0.4527378652107222
 40
0.9055954628016788
 40
1.0
 40
1.0
 40
1.0
 40
1.0
 10
984.0797148440918
 20
790.1859366246522
 30
0.0
 10
984.087338383374
 20
790.2384369569158
 30
0.0
 10
984.1025874780821
 20
790.3434515058347
 30
0.0
 10
984.2259599796898
 20
790.82612004023
 30
0.0
 10
984.1839274509007
 20
791.3025652814644
 30
0.0
 10
984.1766766999801
 20
791.3847536691487
 30
0.0
  0
SPLINE
  5
115
330
1F
100
AcDbEntity
  8
0
  6
Continuous
 62
     7
370
    15
100
AcDbSpline
210
0.0
220
0.0
230
1.0
 70
     8
 71
     3
 72
    12
 73
     8
 74
     0
 42
0.00000001
 43
0.00000001
 12
1.0
 22
0.0
 32
0.0
 13
1.0
 23
0.0
 33
0.0
 40
0.0
 40
0.0
 40
0.0
 40
0.0
 40
0.4616922903651399
 40
0.730775138380321
 40
0.9175866398854953
 40
0.9719388523166957
 40
1.0
 40
1.0
 40
1.0
 40
1.0
 10
983.9365817402443
 20
793.0582472034753
 30
0.0
 10
983.9065678794168
 20
793.1668074620444
 30
0.0
 10
983.8590613826499
 20
793.3386386570501
 30
0.0
 10
983.7874380306348
 20
793.5627365722527
 30
0.0
 10
983.7459500589343
 20
793.6871070865989
 30
0.0
 10
983.7234593517298
 20
793.7527773215285
 30
0.0
 10
983.7165161997001
 20
793.7728628484872
 30
0.0
 10
983.7141521071037
 20
793.7797018238366
 30
0.0
  0
LINE
  5
116
330
1F
100
AcDbEntity
  8
0
  6
Continuous
 62
     7
370
    15
100
AcDbLine
 10
939.0912987088
 20
888.9968925067
 30
0.0
 11
938.6456869339
 21
889.7317730733
 31
0.0
  0
LINE
  5
117
330
1F
100
AcDbEntity
  8
0
  6
Continuous
 62
     7
370
    15
100
AcDbLine
 10
983.0385930632
 20
795.4275914379
 30
0.0
 11
982.9965568875
 21
795.5182426521
 31
0.0
  0
SPLINE
  5
118
330
1F
100
AcDbEntity
  8
0
  6
Continuous
 62
     7
370
    15
100
AcDbSpline
210
0.0
220
0.0
230
1.0
 70
     8
 71
     3
 72
    13
 73
     9
 74
     0
 42
0.00000001
 43
0.00000001
 12
1.0
 22
0.0
 32
0.0
 13
1.0
 23
0.0
 33
0.0
 40
0.0
 40
0.0
 40
0.0
 40
0.0
 40
0.1254665358444507
 40
0.2502449640659365
 40
0.376069949960101
 40
0.5019140066086286
 40
0.7508312476641962
 40
0.9999999999999999
 40
0.9999999999999999
 40
0.9999999999999999
 40
0.9999999999999999
 10
938.6456869338592
 20
889.7317730733216
 30
0.0
 10
938.5580106309206
 20
889.8290484448296
 30
0.0
 10
938.3831388762285
 20
890.0230656916092
 30
0.0
 10
938.1094561987679
 20
890.2824663978568
 30
0.0
 10
937.8424486147568
 20
890.5059255353003
 30
0.0
 10
937.5175990647842
 20
890.7444102665422
 30
0.0
 10
937.1849080410678
 20
890.9419677122074
 30
0.0
 10
937.1319926132118
 20
890.9689264538539
 30
0.0
 10
937.1055215393146
 20
890.9824126311601
 30
0.0
  0
SPLINE
  5
119
330
1F
100
AcDbEntity
  8
0
  6
Continuous
 62
     7
370
    15
100
AcDbSpline
210
0.0
220
0.0
230
1.0
 70
     8
 71
     3
 72
     9
 73
     5
 74
     0
 42
0.00000001
 43
0.00000001
 12
1.0
 22
0.0
 32
0.0
 13
1.0
 23
0.0
 33
0.0
 40
0.0
 40
0.0
 40
0.0
 40
0.0
 40
0.5000182574855071
 40
1.0
 40
1.0
 40
1.0
 40
1.0
 10
983.5064001177391
 20
794.3399556824029
 30
0.0
 10
983.4384288961098
 20
794.5086741899545
 30
0.0
 10
983.3024914166044
 20
794.8460988840048
 30
0.0
 10
983.1265570396015
 20
795.2337653051723
 30
0.0
 10
983.0385930632194
 20
795.4275914379418
 30
0.0
  0
SPLINE
  5
11A
330
1F
100
AcDbEntity
  8
0
  6
Continuous
 62
     7
370
    15
100
AcDbSpline
210
0.0
220
0.0
230
1.0
 70
     8
 71
     3
 72
     9
 73
     5
 74
     0
 42
0.00000001
 43
0.00000001
 12
1.0
 22
0.0
 32
0.0
 13
1.0
 23
0.0
 33
0.0
 40
0.0
 40
0.0
 40
0.0
 40
0.0
 40
0.8821742730731605
 40
1.0
 40
1.0
 40
1.0
 40
1.0
 10
984.1958544944366
 20
791.1770761855901
 30
0.0
 10
984.2028676015319
 20
791.1877644915531
 30
0.0
 10
984.2108173993321
 20
791.199880358326
 30
0.0
 10
984.1911196913707
 20
791.4502320725878
 30
0.0
 10
984.1887987946113
 20
791.479729945308
 30
0.0
  0
SPLINE
  5
11B
330
1F
100
AcDbEntity
  8
0
  6
Continuous
 62
     7
370
    15
100
AcDbSpline
210
0.0
220
0.0
230
1.0
 70
     8
 71
     3
 72
     9
 73
     5
 74
     0
 42
0.00000001
 43
0.00000001
 12
1.0
 22
0.0
 32
0.0
 13
1.0
 23
0.0
 33
0.0
 40
0.0
 40
0.0
 40
0.0
 40
0.0
 40
0.0370167737458647
 40
1.0
 40
1.0
 40
1.0
 40
1.0
 10
983.9495904539665
 20
793.0040591307938
 30
0.0
 10
983.9470276096333
 20
793.0169352463963
 30
0.0
 10
983.8777929337366
 20
793.364780676977
 30
0.0
 10
983.688594772983
 20
793.8615628157052
 30
0.0
 10
983.5064001177391
 20
794.3399556824029
 30
0.0
  0
LINE
  5
11C
330
1F
100
AcDbEntity
  8
0
  6
Continuous
 62
     7
370
    15
100
AcDbLine
 10
983.7141521071
 20
793.7797018238
 30
0.0
 11
983.5450462793
 21
794.2247995087
 31
0.0
  0
LWPOLYLINE
  5
11D
330
1F
100
AcDbEntity
  8
0
  6
Continuous
 62
     7
370
    15
100
AcDbPolyline
 90
       16
 70
   128
 43
0.0
 10
967.9721183871
 20
826.5551485964
 10
967.9768718575
 20
826.5449562022
 10
968.0901877378
 20
826.301955516
 10
968.3486409281
 20
825.7476919242
 10
968.7383137439
 20
824.9120497056
 10
969.2381880973
 20
823.8400676199
 10
969.8213152383
 20
822.5895398208
 10
970.4562611674
 20
821.2278940626
 10
971.1087979172
 20
819.8285185643
 10
971.7437512969
 20
818.4668653556
 10
972.3268784379
 20
817.2163450071
 10
972.8267527913
 20
816.1443629214
 10
973.2164181565
 20
815.3087132522
 10
973.4748787974
 20
814.754457111
 10
973.5881872271
 20
814.5114564248
 10
973.5929406975
 20
814.50125658
  0
LWPOLYLINE
  5
11E
330
1F
100
AcDbEntity
  8
0
  6
Continuous
 62
     7
370
    15
100
AcDbPolyline
 90
       31
 70
   128
 43
0.0
 10
975.0111512636
 20
819.7416000911
 10
974.9359153007
 20
819.9029573151
 10
974.7110120748
 20
820.3852631995
 10
974.3389151786
 20
821.183227832
 10
973.8236926292
 20
822.2881191322
 10
973.1709994172
 20
823.687822456
 10
972.3879880999
 20
825.3670045086
 10
971.4832268451
 20
827.3072698065
 10
970.4666323756
 20
829.4873618432
 10
969.3493433093
 20
831.8833866068
 10
968.1436084007
 20
834.4691031524
 10
966.8626300787
 20
837.216176922
 10
965.5204377864
 20
840.0945075699
 10
964.1317464207
 20
843.0725642392
 10
962.7117700671
 20
846.1177133867
 10
961.2760580872
 20
849.1966062137
 10
959.8403535579
 20
852.2754915901
 10
958.4203772043
 20
855.3206407377
 10
957.0316858386
 20
858.2986974069
 10
955.6894935464
 20
861.1770355054
 10
954.4085152243
 20
863.924109275
 10
953.2027728652
 20
866.50981837
 10
952.0854912494
 20
868.9058505842
 10
951.0688967799
 20
871.0859351703
 10
950.1641355251
 20
873.0262004682
 10
949.3811204825
 20
874.7053825208
 10
948.7284272705
 20
876.1050932952
 10
948.2132121717
 20
877.2099696943
 10
947.8411115502
 20
878.0079417774
 10
947.6162083243
 20
878.4902476617
 10
947.5409686361
 20
878.6516123363
  0
LWPOLYLINE
  5
11F
330
1F
100
AcDbEntity
  8
0
  6
Continuous
 62
     7
370
    15
100
AcDbPolyline
 90
        6
 70
   128
 43
0.0
 10
960.3231809829
 20
874.9020778486
 10
959.6065021847
 20
876.4389985153
 10
959.0385220741
 20
877.6570343324
 10
958.6271084641
 20
878.5393171855
 10
958.3779535984
 20
879.0736281225
 10
958.2945219968
 20
879.2525612661
  0
LWPOLYLINE
  5
120
330
1F
100
AcDbEntity
  8
0
  6
Continuous
 62
     7
370
    15
100
AcDbPolyline
 90
        6
 70
   128
 43
0.0
 10
982.3837615346
 20
827.5930144736
 10
982.3003224825
 20
827.7719401666
 10
982.0511750673
 20
828.3062511035
 10
981.6397540067
 20
829.1885339567
 10
981.0717738961
 20
830.4065772244
 10
980.3550950979
 20
831.9434904405
  0
SPLINE
  5
121
330
1F
100
AcDbEntity
  8
0
  6
Continuous
 62
     7
370
    15
100
AcDbSpline
210
0.0
220
0.0
230
1.0
 70
     8
 71
     3
 72
    13
 73
     9
 74
     0
 42
0.00000001
 43
0.00000001
 12
1.0
 22
0.0
 32
0.0
 13
1.0
 23
0.0
 33
0.0
 40
0.0
 40
0.0
 40
0.0
 40
0.0
 40
0.1250764510411122
 40
0.2500026271925672
 40
0.3706872560583365
 40
0.4999274205074536
 40
0.7494730714291019
 40
1.0
 40
1.0
 40
1.0
 40
1.0
 10
967.1338610147079
 20
848.2780986377061
 30
0.0
 10
967.1043490334421
 20
848.3514379867103
 30
0.0
 10
967.0453605285023
 20
848.4980285701096
 30
0.0
 10
967.024722052459
 20
848.735539173427
 30
0.0
 10
967.0706199830495
 20
848.9679646506809
 30
0.0
 10
967.2157908129544
 20
849.2399052699888
 30
0.0
 10
967.4943677327384
 20
849.5010834914161
 30
0.0
 10
967.7516349344554
 20
849.642903186675
 30
0.0
 10
967.8805209492286
 20
849.7139521786034
 30
0.0
  0
SPLINE
  5
122
330
1F
100
AcDbEntity
  8
0
  6
Continuous
 62
     7
370
    15
100
AcDbSpline
210
0.0
220
0.0
230
1.0
 70
     8
 71
     3
 72
    12
 73
     8
 74
     0
 42
0.00000001
 43
0.00000001
 12
1.0
 22
0.0
 32
0.0
 13
1.0
 23
0.0
 33
0.0
 40
0.0
 40
0.0
 40
0.0
 40
0.0
 40
0.1252308297275637
 40
0.2504085223655831
 40
0.5001687056985746
 40
0.7499172325890074
 40
1.0
 40
1.0
 40
1.0
 40
1.0
 10
967.7182026003441
 20
847.8055008598626
 30
0.0
 10
967.6873424149913
 20
847.812121681622
 30
0.0
 10
967.6256351386689
 20
847.825360515839
 30
0.0
 10
967.5058881227097
 20
847.8688277942447
 30
0.0
 10
967.3669203932465
 20
847.9536933905097
 30
0.0
 10
967.2280564280535
 20
848.0986710849241
 30
0.0
 10
967.1652734802818
 20
848.2182627961872
 30
0.0
 10
967.1338610147079
 20
848.2780986377061
 30
0.0
  0
LINE
  5
123
330
1F
100
AcDbEntity
  8
0
  6
Continuous
 62
     7
370
    15
100
AcDbLine
 10
967.9512493108
 20
847.829730148
 30
0.0
 11
967.7182026003
 21
847.8055008599
 31
0.0
  0
SPLINE
  5
124
330
1F
100
AcDbEntity
  8
0
  6
Continuous
 62
     7
370
    15
100
AcDbSpline
210
0.0
220
0.0
230
1.0
 70
     8
 71
     3
 72
     9
 73
     5
 74
     0
 42
0.00000001
 43
0.00000001
 12
1.0
 22
0.0
 32
0.0
 13
1.0
 23
0.0
 33
0.0
 40
0.0
 40
0.0
 40
0.0
 40
0.0
 40
0.7561483294055907
 40
1.0
 40
1.0
 40
1.0
 40
1.0
 10
967.8805209492286
 20
849.7139521786034
 30
0.0
 10
968.010585319659
 20
849.7850556199769
 30
0.0
 10
968.1825943890075
 20
849.8790893414151
 30
0.0
 10
968.3740347845546
 20
849.9064433321917
 30
0.0
 10
968.420717844828
 20
849.9131136485398
 30
0.0
  0
SPLINE
  5
125
330
1F
100
AcDbEntity
  8
0
  6
Continuous
 62
     7
370
    15
100
AcDbSpline
210
0.0
220
0.0
230
1.0
 70
     8
 71
     3
 72
    10
 73
     6
 74
     0
 42
0.00000001
 43
0.00000001
 12
1.0
 22
0.0
 32
0.0
 13
1.0
 23
0.0
 33
0.0
 40
0.0
 40
0.0
 40
0.0
 40
0.0
 40
0.203245992536688
 40
0.6009809181995505
 40
0.9999999999999999
 40
0.9999999999999999
 40
0.9999999999999999
 40
0.9999999999999999
 10
968.5189388488373
 20
846.5369054027856
 30
0.0
 10
968.5428484881313
 20
846.5274465929035
 30
0.0
 10
968.613547234992
 20
846.4994777056596
 30
0.0
 10
968.7429694515499
 20
846.5008081007597
 30
0.0
 10
968.835605509428
 20
846.5410091967301
 30
0.0
 10
968.8819981907448
 20
846.5611421414674
 30
0.0
  0
SPLINE
  5
126
330
1F
100
AcDbEntity
  8
0
  6
Continuous
 62
     7
370
    15
100
AcDbSpline
210
0.0
220
0.0
230
1.0
 70
     8
 71
     3
 72
     9
 73
     5
 74
     0
 42
0.00000001
 43
0.00000001
 12
1.0
 22
0.0
 32
0.0
 13
1.0
 23
0.0
 33
0.0
 40
0.0
 40
0.0
 40
0.0
 40
0.0
 40
0.6957146383647048
 40
1.0
 40
1.0
 40
1.0
 40
1.0
 10
969.3574569915374
 20
847.1086704083741
 30
0.0
 10
969.2162817581014
 20
847.1602363525869
 30
0.0
 10
969.0133605808675
 20
847.2343557420165
 30
0.0
 10
968.8006132903193
 20
847.2378791417347
 30
0.0
 10
968.7358774040779
 20
847.2389512606919
 30
0.0
  0
LINE
  5
127
330
1F
100
AcDbEntity
  8
0
  6
Continuous
 62
     7
370
    15
100
AcDbLine
 10
970.3648127411
 20
846.7560493299
 30
0.0
 11
969.3574569915
 21
847.1086704084
 31
0.0
  0
LINE
  5
128
330
1F
100
AcDbEntity
  8
0
  6
Continuous
 62
     7
370
    15
100
AcDbLine
 10
969.427157173
 20
848.2804232189
 30
0.0
 11
969.8038287257
 21
848.4884657809
 31
0.0
  0
LINE
  5
129
330
1F
100
AcDbEntity
  8
0
  6
Continuous
 62
     7
370
    15
100
AcDbLine
 10
969.8206372355
 20
847.445354695
 30
0.0
 11
969.427157173
 21
848.2804232189
 31
0.0
  0
SPLINE
  5
12A
330
1F
100
AcDbEntity
  8
0
  6
Continuous
 62
     7
370
    15
100
AcDbSpline
210
0.0
220
0.0
230
1.0
 70
     8
 71
     3
 72
     9
 73
     5
 74
     0
 42
0.00000001
 43
0.00000001
 12
1.0
 22
0.0
 32
0.0
 13
1.0
 23
0.0
 33
0.0
 40
0.0
 40
0.0
 40
0.0
 40
0.0
 40
0.7887127684431255
 40
1.0
 40
1.0
 40
1.0
 40
1.0
 10
968.2535044644912
 20
847.6074867793382
 30
0.0
 10
968.3484535283436
 20
847.6505693844582
 30
0.0
 10
968.4688383726766
 20
847.705193332293
 30
0.0
 10
968.5979001263538
 20
847.7044309111457
 30
0.0
 10
968.6251692269882
 20
847.7042698212922
 30
0.0
  0
SPLINE
  5
12B
330
1F
100
AcDbEntity
  8
0
  6
Continuous
 62
     7
370
    15
100
AcDbSpline
210
0.0
220
0.0
230
1.0
 70
     8
 71
     3
 72
    12
 73
     8
 74
     0
 42
0.00000001
 43
0.00000001
 12
1.0
 22
0.0
 32
0.0
 13
1.0
 23
0.0
 33
0.0
 40
0.0
 40
0.0
 40
0.0
 40
0.0
 40
0.2500422315518221
 40
0.3753019435592926
 40
0.5008928004345142
 40
0.7506627670755187
 40
1.0
 40
1.0
 40
1.0
 40
1.0
 10
967.9667465184768
 20
846.5203800150216
 30
0.0
 10
967.9295354281292
 20
846.6185584623863
 30
0.0
 10
967.8736832849022
 20
846.7659198176378
 30
0.0
 10
967.8684566204771
 20
846.9786146519308
 30
0.0
 10
967.9031743717616
 20
847.1849717697404
 30
0.0
 10
968.0160954835628
 20
847.4269895889322
 30
0.0
 10
968.1744138923574
 20
847.5473558356732
 30
0.0
 10
968.2535044644912
 20
847.6074867793382
 30
0.0
  0
SPLINE
  5
12C
330
1F
100
AcDbEntity
  8
0
  6
Continuous
 62
     7
370
    15
100
AcDbSpline
210
0.0
220
0.0
230
1.0
 70
     8
 71
     3
 72
    12
 73
     8
 74
     0
 42
0.00000001
 43
0.00000001
 12
1.0
 22
0.0
 32
0.0
 13
1.0
 23
0.0
 33
0.0
 40
0.0
 40
0.0
 40
0.0
 40
0.0
 40
0.1677618118619046
 40
0.3337998420519659
 40
0.5008712904840494
 40
0.6675144602853205
 40
1.0
 40
1.0
 40
1.0
 40
1.0
 10
968.7674529646476
 20
846.0263394662202
 30
0.0
 10
968.7126848626135
 20
846.0224313244115
 30
0.0
 10
968.6037114102793
 20
846.0146551976278
 30
0.0
 10
968.442034286954
 20
846.0516127196289
 30
0.0
 10
968.2916141087466
 20
846.1224154527554
 30
0.0
 10
968.1120020685006
 20
846.2630723444164
 30
0.0
 10
968.0248207638267
 20
846.4175065014748
 30
0.0
 10
967.9667465184768
 20
846.5203800150216
 30
0.0
  0
LINE
  5
12D
330
1F
100
AcDbEntity
  8
0
  6
Continuous
 62
     7
370
    15
100
AcDbLine
 10
968.983802924
 20
844.4389634677
 30
0.0
 11
968.6743803118
 21
845.1027356931
 31
0.0
  0
LINE
  5
12E
330
1F
100
AcDbEntity
  8
0
  6
Continuous
 62
     7
370
    15
100
AcDbLine
 10
968.6743803118
 20
845.1027356931
 30
0.0
 11
970.8028174733
 21
846.3515126058
 31
0.0
  0
SPLINE
  5
12F
330
1F
100
AcDbEntity
  8
0
  6
Continuous
 62
     7
370
    15
100
AcDbSpline
210
0.0
220
0.0
230
1.0
 70
     8
 71
     3
 72
    13
 73
     9
 74
     0
 42
0.00000001
 43
0.00000001
 12
1.0
 22
0.0
 32
0.0
 13
1.0
 23
0.0
 33
0.0
 40
0.0
 40
0.0
 40
0.0
 40
0.0
 40
0.1250626416290229
 40
0.2499935090702084
 40
0.3704589246919557
 40
0.4998874493840946
 40
0.7494578034237227
 40
1.0
 40
1.0
 40
1.0
 40
1.0
 10
977.5382168387016
 20
825.9633266278565
 30
0.0
 10
977.5279376308122
 20
825.99584103187
 30
0.0
 10
977.5073900458797
 20
826.0608355805919
 30
0.0
 10
977.5295704673898
 20
826.2056765230534
 30
0.0
 10
977.6023581025963
 20
826.3825658891097
 30
0.0
 10
977.7552097399152
 20
826.6362432543848
 30
0.0
 10
978.0100023277976
 20
826.9511699537042
 30
0.0
 10
978.2292502233772
 20
827.1754158867255
 30
0.0
 10
978.3390871976455
 20
827.2877567359269
 30
0.0
  0
SPLINE
  5
130
330
1F
100
AcDbEntity
  8
0
  6
Continuous
 62
     7
370
    15
100
AcDbSpline
210
0.0
220
0.0
230
1.0
 70
     8
 71
     3
 72
    13
 73
     9
 74
     0
 42
0.00000001
 43
0.00000001
 12
1.0
 22
0.0
 32
0.0
 13
1.0
 23
0.0
 33
0.0
 40
0.0
 40
0.0
 40
0.0
 40
0.0
 40
0.2765873436941641
 40
0.552135805525062
 40
0.6902134545460585
 40
0.8279935419984427
 40
0.9658034707510829
 40
1.0
 40
1.0
 40
1.0
 40
1.0
 10
978.3390871976455
 20
827.2877567359269
 30
0.0
 10
978.4497547307027
 20
827.3968326085153
 30
0.0
 10
978.6706741216403
 20
827.6145746569059
 30
0.0
 10
978.9601788583253
 20
827.8461002819575
 30
0.0
 10
979.1799660998358
 20
827.9717593977763
 30
0.0
 10
979.3216279495679
 20
828.0126774632528
 30
0.0
 10
979.4026176524594
 20
828.0011736808384
 30
0.0
 10
979.4252734933386
 20
827.9709365383856
 30
0.0
 10
979.4297776912292
 20
827.9649251052201
 30
0.0
  0
SPLINE
  5
131
330
1F
100
AcDbEntity
  8
0
  6
Continuous
 62
     7
370
    15
100
AcDbSpline
210
0.0
220
0.0
230
1.0
 70
     8
 71
     3
 72
    12
 73
     8
 74
     0
 42
0.00000001
 43
0.00000001
 12
1.0
 22
0.0
 32
0.0
 13
1.0
 23
0.0
 33
0.0
 40
0.0
 40
0.0
 40
0.0
 40
0.0
 40
0.1252387325224132
 40
0.2503989843956808
 40
0.5002546005032553
 40
0.7500797444616257
 40
0.9999999999999999
 40
0.9999999999999999
 40
0.9999999999999999
 40
0.9999999999999999
 10
978.6570854281028
 20
826.3794788070977
 30
0.0
 10
978.6660415931101
 20
826.4021522065835
 30
0.0
 10
978.6839483107582
 20
826.4474847973061
 30
0.0
 10
978.7322048608902
 20
826.5453992046572
 30
0.0
 10
978.8122163916968
 20
826.6762055493573
 30
0.0
 10
978.9321710083423
 20
826.83698093043
 30
0.0
 10
979.0247442539771
 20
826.9361423861845
 30
0.0
 10
979.0710396860679
 20
826.9857325502694
 30
0.0
  0
SPLINE
  5
132
330
1F
100
AcDbEntity
  8
0
  6
Continuous
 62
     7
370
    15
100
AcDbSpline
210
0.0
220
0.0
230
1.0
 70
     8
 71
     3
 72
    11
 73
     7
 74
     0
 42
0.00000001
 43
0.00000001
 12
1.0
 22
0.0
 32
0.0
 13
1.0
 23
0.0
 33
0.0
 40
0.0
 40
0.0
 40
0.0
 40
0.0
 40
0.1252734881439287
 40
0.2505007967558875
 40
0.5003998431800236
 40
0.9999999999999999
 40
0.9999999999999999
 40
0.9999999999999999
 40
0.9999999999999999
 10
978.2476387713989
 20
826.0810234495461
 30
0.0
 10
978.2652168814607
 20
826.0985831804197
 30
0.0
 10
978.3003666217706
 20
826.133696169128
 30
0.0
 10
978.3718979336833
 20
826.1986911856492
 30
0.0
 10
978.4980601635714
 20
826.2983234354729
 30
0.0
 10
978.5934803622142
 20
826.3470192304725
 30
0.0
 10
978.6570854281028
 20
826.3794788070977
 30
0.0
  0
SPLINE
  5
133
330
1F
100
AcDbEntity
  8
0
  6
Continuous
 62
     7
370
    15
100
AcDbSpline
210
0.0
220
0.0
230
1.0
 70
     8
 71
     3
 72
    13
 73
     9
 74
     0
 42
0.00000001
 43
0.00000001
 12
1.0
 22
0.0
 32
0.0
 13
1.0
 23
0.0
 33
0.0
 40
0.0
 40
0.0
 40
0.0
 40
0.0
 40
0.2497755962679965
 40
0.3767709600152178
 40
0.5003158982194483
 40
0.6250356128506356
 40
0.7510969800421755
 40
0.9999999999999999
 40
0.9999999999999999
 40
0.9999999999999999
 40
0.9999999999999999
 10
977.8558052872261
 20
825.3069751807511
 30
0.0
 10
977.8460894271892
 20
825.343939281509
 30
0.0
 10
977.8314336562968
 20
825.39969732968
 30
0.0
 10
977.8633470546529
 20
825.5196468939274
 30
0.0
 10
977.9070553950008
 20
825.6227165941914
 30
0.0
 10
977.9714174010335
 20
825.7357915141713
 30
0.0
 10
978.0773669446722
 20
825.893255007031
 30
0.0
 10
978.1797057917254
 20
826.006109883198
 30
0.0
 10
978.2476387713989
 20
826.0810234495461
 30
0.0
  0
SPLINE
  5
134
330
1F
100
AcDbEntity
  8
0
  6
Continuous
 62
     7
370
    15
100
AcDbSpline
210
0.0
220
0.0
230
1.0
 70
     8
 71
     3
 72
    13
 73
     9
 74
     0
 42
0.00000001
 43
0.00000001
 12
1.0
 22
0.0
 32
0.0
 13
1.0
 23
0.0
 33
0.0
 40
0.0
 40
0.0
 40
0.0
 40
0.0
 40
0.2909344174455081
 40
0.4404753805287653
 40
0.5851249021086373
 40
0.7300361242469217
 40
0.8783576542992708
 40
1.0
 40
1.0
 40
1.0
 40
1.0
 10
979.0710396860679
 20
826.9857325502694
 30
0.0
 10
979.1523655353591
 20
827.0622862828965
 30
0.0
 10
979.2754930591766
 20
827.1781888110535
 30
0.0
 10
979.432813567008
 20
827.2812305250237
 30
0.0
 10
979.5404585368997
 20
827.334942494739
 30
0.0
 10
979.6298928082666
 20
827.3575838018263
 30
0.0
 10
979.6979449524507
 20
827.354330346702
 30
0.0
 10
979.7186758836485
 20
827.3264129829377
 30
0.0
 10
979.7280169819435
 20
827.3138337680161
 30
0.0
  0
LINE
  5
135
330
1F
100
AcDbEntity
  8
0
  6
Continuous
 62
     7
370
    15
100
AcDbLine
 10
978.2158396934
 20
824.6947311708
 30
0.0
 11
978.1269915198
 21
824.8863004991
 31
0.0
  0
LINE
  5
136
330
1F
100
AcDbEntity
  8
0
  6
Continuous
 62
     7
370
    15
100
AcDbLine
 10
978.1269915198
 20
824.8863004991
 30
0.0
 11
979.9417815898
 21
826.7641075798
 31
0.0
  0
SPLINE
  5
137
330
1F
100
AcDbEntity
  8
0
  6
Continuous
 62
     7
370
    15
100
AcDbSpline
210
0.0
220
0.0
230
1.0
 70
     8
 71
     3
 72
     9
 73
     5
 74
     0
 42
0.00000001
 43
0.00000001
 12
1.0
 22
0.0
 32
0.0
 13
1.0
 23
0.0
 33
0.0
 40
0.0
 40
0.0
 40
0.0
 40
0.0
 40
0.500324455235842
 40
1.0
 40
1.0
 40
1.0
 40
1.0
 10
957.0780657027801
 20
869.8449813672364
 30
0.0
 10
957.0567298094948
 20
869.8989956951175
 30
0.0
 10
957.0140856951366
 20
870.0069542954132
 30
0.0
 10
957.0337656998585
 20
870.1136913613763
 30
0.0
 10
957.0435993169388
 20
870.1670252629578
 30
0.0
  0
SPLINE
  5
138
330
1F
100
AcDbEntity
  8
0
  6
Continuous
 62
     7
370
    15
100
AcDbSpline
210
0.0
220
0.0
230
1.0
 70
     8
 71
     3
 72
    12
 73
     8
 74
     0
 42
0.00000001
 43
0.00000001
 12
1.0
 22
0.0
 32
0.0
 13
1.0
 23
0.0
 33
0.0
 40
0.0
 40
0.0
 40
0.0
 40
0.0
 40
0.1252304876248251
 40
0.2503926377367729
 40
0.5001494521203416
 40
0.7499825162145543
 40
1.0
 40
1.0
 40
1.0
 40
1.0
 10
957.6345048640808
 20
869.4339924403489
 30
0.0
 10
957.6023408340009
 20
869.4432949549634
 30
0.0
 10
957.5380303255561
 20
869.4618949078667
 30
0.0
 10
957.4160547027441
 20
869.5103705300672
 30
0.0
 10
957.2789032819599
 20
869.5893619438907
 30
0.0
 10
957.1521302416437
 20
869.7096338163229
 30
0.0
 10
957.1027599541183
 20
869.7998544213114
 30
0.0
 10
957.0780657027801
 20
869.8449813672364
 30
0.0
  0
SPLINE
  5
139
330
1F
100
AcDbEntity
  8
0
  6
Continuous
 62
     7
370
    15
100
AcDbSpline
210
0.0
220
0.0
230
1.0
 70
     8
 71
     3
 72
     9
 73
     5
 74
     0
 42
0.00000001
 43
0.00000001
 12
1.0
 22
0.0
 32
0.0
 13
1.0
 23
0.0
 33
0.0
 40
0.0
 40
0.0
 40
0.0
 40
0.0
 40
0.5016211978613638
 40
1.0
 40
1.0
 40
1.0
 40
1.0
 10
958.6996994708618
 20
869.4544964381516
 30
0.0
 10
958.5255479536842
 20
869.4248913640067
 30
0.0
 10
958.1783706056772
 20
869.3658725779758
 30
0.0
 10
957.8154011477402
 20
869.4113349552305
 30
0.0
 10
957.6345048640808
 20
869.4339924403489
 30
0.0
  0
SPLINE
  5
13A
330
1F
100
AcDbEntity
  8
0
  6
Continuous
 62
     7
370
    15
100
AcDbSpline
210
0.0
220
0.0
230
1.0
 70
     8
 71
     3
 72
    12
 73
     8
 74
     0
 42
0.00000001
 43
0.00000001
 12
1.0
 22
0.0
 32
0.0
 13
1.0
 23
0.0
 33
0.0
 40
0.0
 40
0.0
 40
0.0
 40
0.0
 40
0.1427790528842456
 40
0.2855480299714172
 40
0.4284647470934473
 40
0.713593043374173
 40
1.0
 40
1.0
 40
1.0
 40
1.0
 10
959.7442932222923
 20
870.155581171161
 30
0.0
 10
959.7459490053044
 20
870.1008776477835
 30
0.0
 10
959.7492604544816
 20
869.9914744614096
 30
0.0
 10
959.6608323180798
 20
869.8403963503507
 30
0.0
 10
959.4702941881517
 20
869.6761062234697
 30
0.0
 10
959.1387920066663
 20
869.5396805981671
 30
0.0
 10
958.8462817877819
 20
869.4829334770941
 30
0.0
 10
958.6996994708618
 20
869.4544964381516
 30
0.0
  0
LINE
  5
13B
330
1F
100
AcDbEntity
  8
0
  6
Continuous
 62
     7
370
    15
100
AcDbLine
 10
959.2137671803
 20
868.1794487783
 30
0.0
 11
957.7476270293
 21
868.4214287349
 31
0.0
  0
SPLINE
  5
13C
330
1F
100
AcDbEntity
  8
0
  6
Continuous
 62
     7
370
    15
100
AcDbSpline
210
0.0
220
0.0
230
1.0
 70
     8
 71
     3
 72
     9
 73
     5
 74
     0
 42
0.00000001
 43
0.00000001
 12
1.0
 22
0.0
 32
0.0
 13
1.0
 23
0.0
 33
0.0
 40
0.0
 40
0.0
 40
0.0
 40
0.0
 40
0.4985450916277304
 40
1.0
 40
1.0
 40
1.0
 40
1.0
 10
959.8675630782684
 20
868.1441181250872
 30
0.0
 10
959.7592927801246
 20
868.1351464641712
 30
0.0
 10
959.5421202515771
 20
868.1171507781908
 30
0.0
 10
959.3234303199391
 20
868.1586425337804
 30
0.0
 10
959.2137671803077
 20
868.1794487782777
 30
0.0
  0
SPLINE
  5
13D
330
1F
100
AcDbEntity
  8
0
  6
Continuous
 62
     7
370
    15
100
AcDbSpline
210
0.0
220
0.0
230
1.0
 70
     8
 71
     3
 72
    10
 73
     6
 74
     0
 42
0.00000001
 43
0.00000001
 12
1.0
 22
0.0
 32
0.0
 13
1.0
 23
0.0
 33
0.0
 40
0.0
 40
0.0
 40
0.0
 40
0.0
 40
0.2031670995424751
 40
0.6018690780327346
 40
1.0
 40
1.0
 40
1.0
 40
1.0
 10
960.3865109180053
 20
868.5407423325838
 30
0.0
 10
960.3691547163604
 20
868.5035003812213
 30
0.0
 10
960.3177381183698
 20
868.3931735665889
 30
0.0
 10
960.1586016533737
 20
868.2311152831393
 30
0.0
 10
959.9645295755465
 20
868.1731033195289
 30
0.0
 10
959.8675630782684
 20
868.1441181250871
 30
0.0
  0
LINE
  5
13E
330
1F
100
AcDbEntity
  8
0
  6
Continuous
 62
     7
370
    15
100
AcDbLine
 10
958.7983600591
 20
868.6009132215
 30
0.0
 11
958.7523452734
 21
868.8355916091
 31
0.0
  0
SPLINE
  5
13F
330
1F
100
AcDbEntity
  8
0
  6
Continuous
 62
     7
370
    15
100
AcDbSpline
210
0.0
220
0.0
230
1.0
 70
     8
 71
     3
 72
    15
 73
    11
 74
     0
 42
0.00000001
 43
0.00000001
 12
1.0
 22
0.0
 32
0.0
 13
1.0
 23
0.0
 33
0.0
 40
0.0
 40
0.0
 40
0.0
 40
0.0
 40
0.1001357920322564
 40
0.2286877677167174
 40
0.3572398927925517
 40
0.4857933821321241
 40
0.6143439269208215
 40
0.742894910325813
 40
0.8714475253936126
 40
1.0
 40
1.0
 40
1.0
 40
1.0
 10
972.7103821729263
 20
832.7578388997376
 30
0.0
 10
972.6623859375383
 20
832.7852324613614
 30
0.0
 10
972.5527732635193
 20
832.8477932333927
 30
0.0
 10
972.3268402559432
 20
832.8218616951987
 30
0.0
 10
972.0876336391641
 20
832.7003027041892
 30
0.0
 10
971.8811858725782
 20
832.4894404731419
 30
0.0
 10
971.7406324274234
 20
832.2247144736233
 30
0.0
 10
971.687546234387
 20
831.948174240076
 30
0.0
 10
971.7233175316088
 20
831.6943062899896
 30
0.0
 10
971.8174858022327
 20
831.5870473671439
 30
0.0
 10
971.8645699118217
 20
831.5334179350198
 30
0.0
  0
LWPOLYLINE
  5
140
330
1F
100
AcDbEntity
  8
0
  6
Continuous
 62
     7
370
    15
100
AcDbPolyline
 90
       11
 70
   128
 43
0.0
 10
959.7110114788
 20
858.1451111385
 10
959.6946574544
 20
858.1258886405
 10
959.6253149007
 20
857.8720324584
 10
959.6665017103
 20
857.6017700979
 10
959.8117656802
 20
857.3560052463
 10
960.0390530919
 20
857.1722441264
 10
960.3140167688
 20
857.0789181539
 10
960.5951271747
 20
857.0907049724
 10
960.8397669886
 20
857.2060995647
 10
961.010638604
 20
857.4074291536
 10
961.010638604
 20
857.4074291536
  0
SPLINE
  5
141
330
1F
100
AcDbEntity
  8
0
  6
Continuous
 62
     7
370
    15
100
AcDbSpline
210
0.0
220
0.0
230
1.0
 70
     8
 71
     3
 72
    16
 73
    12
 74
     0
 42
0.00000001
 43
0.00000001
 12
1.0
 22
0.0
 32
0.0
 13
1.0
 23
0.0
 33
0.0
 40
0.0
 40
0.0
 40
0.0
 40
0.0
 40
0.0314684292740562
 40
0.1634220299280685
 40
0.2953955230687491
 40
0.4273791876049343
 40
0.5593310331677092
 40
0.6913507866131562
 40
0.8232781527627665
 40
0.9552750395458012
 40
0.9999999999999999
 40
0.9999999999999999
 40
0.9999999999999999
 40
0.9999999999999999
 10
965.9051559661468
 20
846.9462999054253
 30
0.0
 10
965.8620986540623
 20
846.9471444239239
 30
0.0
 10
965.638493170521
 20
846.9515301823019
 30
0.0
 10
965.266697236722
 20
846.7306196976878
 30
0.0
 10
964.8878214637897
 20
846.3162796572739
 30
0.0
 10
964.696078792505
 20
845.7534108145021
 30
0.0
 10
964.7110294178802
 20
845.1556978137631
 30
0.0
 10
964.9327312345645
 20
844.6009913165128
 30
0.0
 10
965.326442735914
 20
844.1969262133928
 30
0.0
 10
965.7197918217477
 20
843.9870186648708
 30
0.0
 10
965.9578213008213
 20
844.0027215732417
 30
0.0
 10
966.0180620645126
 20
844.0066956826508
 30
0.0
  0
LWPOLYLINE
  5
142
330
1F
100
AcDbEntity
  8
0
  6
Continuous
 62
     7
370
    15
100
AcDbPolyline
 90
       13
 70
   128
 43
0.0
 10
976.9607372378
 20
823.8287352868
 10
977.2140718793
 20
824.2506765672
 10
977.3214868997
 20
824.589186246
 10
977.2591851448
 20
824.7927733609
 10
977.0380146597
 20
824.8319634148
 10
976.6946397518
 20
824.6995740482
 10
976.2847088073
 20
824.4104989716
 10
975.8736677264
 20
824.0076088258
 10
975.5248613452
 20
823.5509031364
 10
975.2880148386
 20
823.112548227
 10
975.1961193775
 20
822.7625572034
 10
975.2602986787
 20
822.5572564551
 10
975.2602986787
 20
822.5572564551
  0
LINE
  5
143
330
1F
100
AcDbEntity
  8
0
  6
Continuous
 62
     7
370
    15
100
AcDbLine
 10
956.7335136031
 20
868.3827751228
 30
0.0
 11
956.760179231
 21
868.5914509841
 31
0.0
  0
SPLINE
  5
144
330
1F
100
AcDbEntity
  8
0
  6
Continuous
 62
     7
370
    15
100
AcDbSpline
210
0.0
220
0.0
230
1.0
 70
    11
 71
     3
 72
    23
 73
    19
 74
     0
 42
0.00000001
 43
0.00000001
 12
1.0
 22
0.0
 32
0.0
 13
1.0
 23
0.0
 33
0.0
 40
0.0
 40
0.0
 40
0.0
 40
0.0
 40
0.0623497391659702
 40
0.1250420514212113
 40
0.1876216806144291
 40
0.2501212109893244
 40
0.3126758435117337
 40
0.375174970439393
 40
0.4377051645875573
 40
0.5002610216284817
 40
0.5627653310743678
 40
0.6253550333937877
 40
0.6878437404978104
 40
0.7504089062718168
 40
0.8129257091815585
 40
0.8754877724762024
 40
0.9382182598811324
 40
1.0
 40
1.0
 40
1.0
 40
1.0
 10
967.4358702992042
 20
845.209577018863
 30
0.0
 10
967.4473499328027
 20
845.4060913505953
 30
0.0
 10
967.4703722734558
 20
845.8001997382512
 30
0.0
 10
967.2422259212663
 20
846.3556607096602
 30
0.0
 10
966.8431994658692
 20
846.7724631509689
 30
0.0
 10
966.3246601133831
 20
846.9917911112003
 30
0.0
 10
965.7710762261988
 20
846.9831796774205
 30
0.0
 10
965.2685815433658
 20
846.7421063982758
 30
0.0
 10
964.8910032085228
 20
846.3120252559235
 30
0.0
 10
964.699568480101
 20
845.7526683296687
 30
0.0
 10
964.7155384389098
 20
845.1524810033977
 30
0.0
 10
964.938239013215
 20
844.6014495465346
 30
0.0
 10
965.332835332144
 20
844.1851923542253
 30
0.0
 10
965.8386824418685
 20
843.9638658605676
 30
0.0
 10
966.3843719329014
 20
843.9754355478073
 30
0.0
 10
966.8839421150712
 20
844.2158949467394
 30
0.0
 10
967.2749509113627
 20
844.6473895463788
 30
0.0
 10
967.3825036769484
 20
845.0231355534596
 30
0.0
 10
967.4358702992042
 20
845.209577018863
 30
0.0
  0
SPLINE
  5
145
330
1F
100
AcDbEntity
  8
0
  6
Continuous
 62
     7
370
    15
100
AcDbSpline
210
0.0
220
0.0
230
1.0
 70
    11
 71
     3
 72
    23
 73
    19
 74
     0
 42
0.00000001
 43
0.00000001
 12
1.0
 22
0.0
 32
0.0
 13
1.0
 23
0.0
 33
0.0
 40
0.0
 40
0.0
 40
0.0
 40
0.0
 40
0.06250955608612
 40
0.1250168248863257
 40
0.1875222826878805
 40
0.250020634705249
 40
0.3125130810085631
 40
0.3750025186912366
 40
0.437497653138503
 40
0.500000951875528
 40
0.5625071327357689
 40
0.6250173209851905
 40
0.6875217100448549
 40
0.750020296306019
 40
0.8125121836027916
 40
0.875004048940729
 40
0.9374972845891445
 40
1.0
 40
1.0
 40
1.0
 40
1.0
 10
961.0838256572326
 20
857.6673054047883
 30
0.0
 10
961.0780560836237
 20
857.7591242560319
 30
0.0
 10
961.0665171475199
 20
857.9427585987771
 30
0.0
 10
960.910641603409
 20
858.195356658013
 30
0.0
 10
960.6778270737044
 20
858.3815969512905
 30
0.0
 10
960.3936478816119
 20
858.4749646789415
 30
0.0
 10
960.1044552712932
 20
858.4614703361453
 30
0.0
 10
959.8537335758343
 20
858.3435970114897
 30
0.0
 10
959.679771097124
 20
858.139122013571
 30
0.0
 10
959.6087176039964
 20
857.8786797393794
 30
0.0
 10
959.6510575338004
 20
857.6013745820496
 30
0.0
 10
959.8001097728878
 20
857.3491158188015
 30
0.0
 10
960.0333124592632
 20
857.1604147270134
 30
0.0
 10
960.3152803745
 20
857.0645454160307
 30
0.0
 10
960.6041598433441
 20
857.0764730735094
 30
0.0
 10
960.8534526190829
 20
857.1951607772179
 30
0.0
 10
961.0352698435285
 20
857.4009575701383
 30
0.0
 10
961.0676395676852
 20
857.5785183044701
 30
0.0
 10
961.0838256572326
 20
857.6673054047883
 30
0.0
  0
SPLINE
  5
146
330
1F
100
AcDbEntity
  8
0
  6
Continuous
 62
     7
370
    15
100
AcDbSpline
210
0.0
220
0.0
230
1.0
 70
     8
 71
     3
 72
    13
 73
     9
 74
     0
 42
0.00000001
 43
0.00000001
 12
1.0
 22
0.0
 32
0.0
 13
1.0
 23
0.0
 33
0.0
 40
0.0
 40
0.0
 40
0.0
 40
0.0
 40
0.1251012021662688
 40
0.2500459562858521
 40
0.3707325284522727
 40
0.4999802067585244
 40
0.7495026183230529
 40
0.9999999999999999
 40
0.9999999999999999
 40
0.9999999999999999
 40
0.9999999999999999
 10
967.1376533602318
 20
848.2787542887986
 30
0.0
 10
967.1081315630241
 20
848.3521157928598
 30
0.0
 10
967.0491248877386
 20
848.498747057147
 30
0.0
 10
967.0284551442859
 20
848.7363083264383
 30
0.0
 10
967.0743185015649
 20
848.968788022089
 30
0.0
 10
967.2194714520739
 20
849.2407741806146
 30
0.0
 10
967.4980324209143
 20
849.5019966970403
 30
0.0
 10
967.7553013505009
 20
849.643819120924
 30
0.0
 10
967.8841866348823
 20
849.7148686000169
 30
0.0
  0
SPLINE
  5
147
330
1F
100
AcDbEntity
  8
0
  6
Continuous
 62
     7
370
    15
100
AcDbSpline
210
0.0
220
0.0
230
1.0
 70
     8
 71
     3
 72
    13
 73
     9
 74
     0
 42
0.00000001
 43
0.00000001
 12
1.0
 22
0.0
 32
0.0
 13
1.0
 23
0.0
 33
0.0
 40
0.0
 40
0.0
 40
0.0
 40
0.0
 40
0.2505107373685589
 40
0.5001159716599546
 40
0.6323272877623302
 40
0.7499846496253497
 40
0.8748588199087696
 40
1.0
 40
1.0
 40
1.0
 40
1.0
 10
967.8841866348823
 20
849.7148686000169
 30
0.0
 10
968.0156016455588
 20
849.7790238602272
 30
0.0
 10
968.27795665056
 20
849.9071024832599
 30
0.0
 10
968.6452729599877
 20
849.9819241408564
 30
0.0
 10
968.9389941774396
 20
849.9439402953107
 30
0.0
 10
969.1452536011101
 20
849.8483534861685
 30
0.0
 10
969.3089672333688
 20
849.6864142703213
 30
0.0
 10
969.3820075118208
 20
849.5480817734526
 30
0.0
 10
969.4185666535934
 20
849.4788416572869
 30
0.0
  0
SPLINE
  5
148
330
1F
100
AcDbEntity
  8
0
  6
Continuous
 62
     7
370
    15
100
AcDbSpline
210
0.0
220
0.0
230
1.0
 70
     8
 71
     3
 72
    13
 73
     9
 74
     0
 42
0.00000001
 43
0.00000001
 12
1.0
 22
0.0
 32
0.0
 13
1.0
 23
0.0
 33
0.0
 40
0.0
 40
0.0
 40
0.0
 40
0.0
 40
0.1251698956147287
 40
0.250092969880758
 40
0.3706768754895914
 40
0.5000131235045887
 40
0.7494633325856143
 40
1.0
 40
1.0
 40
1.0
 40
1.0
 10
969.4185666535934
 20
849.4788416572869
 30
0.0
 10
969.4480214766251
 20
849.4065263784179
 30
0.0
 10
969.5068730409976
 20
849.2620384185028
 30
0.0
 10
969.5293364696122
 20
849.0273402315707
 30
0.0
 10
969.4831361875024
 20
848.7967809189012
 30
0.0
 10
969.3406174759671
 20
848.5253168955263
 30
0.0
 10
969.0647277946294
 20
848.2640198147996
 30
0.0
 10
968.8102634226203
 20
848.1241328134681
 30
0.0
 10
968.6827547644218
 20
848.0540373274148
 30
0.0
  0
SPLINE
  5
149
330
1F
100
AcDbEntity
  8
0
  6
Continuous
 62
     7
370
    15
100
AcDbSpline
210
0.0
220
0.0
230
1.0
 70
     8
 71
     3
 72
     9
 73
     5
 74
     0
 42
0.00000001
 43
0.00000001
 12
1.0
 22
0.0
 32
0.0
 13
1.0
 23
0.0
 33
0.0
 40
0.0
 40
0.0
 40
0.0
 40
0.0
 40
0.5015750785654822
 40
1.0
 40
1.0
 40
1.0
 40
1.0
 10
968.6827547644218
 20
848.0540373274148
 30
0.0
 10
968.5306598731632
 20
847.9764106431402
 30
0.0
 10
968.2274253271137
 20
847.82164481128
 30
0.0
 10
967.8901772160806
 20
847.8111841171101
 30
0.0
 10
967.722084352835
 20
847.8059702464402
 30
0.0
  0
SPLINE
  5
14A
330
1F
100
AcDbEntity
  8
0
  6
Continuous
 62
     7
370
    15
100
AcDbSpline
210
0.0
220
0.0
230
1.0
 70
     8
 71
     3
 72
    12
 73
     8
 74
     0
 42
0.00000001
 43
0.00000001
 12
1.0
 22
0.0
 32
0.0
 13
1.0
 23
0.0
 33
0.0
 40
0.0
 40
0.0
 40
0.0
 40
0.0
 40
0.2500297492747984
 40
0.49978751659849
 40
0.7495567063749411
 40
0.8747481875602957
 40
1.0
 40
1.0
 40
1.0
 40
1.0
 10
967.722084352835
 20
847.8059702464402
 30
0.0
 10
967.6605018140611
 20
847.8208677186396
 30
0.0
 10
967.5374037258979
 20
847.8506464575928
 30
0.0
 10
967.3704411134692
 20
847.9545313317944
 30
0.0
 10
967.2561253850365
 20
848.0756545024645
 30
0.0
 10
967.1827728467135
 20
848.1880434548203
 30
0.0
 10
967.1526956042401
 20
848.2485124885189
 30
0.0
 10
967.1376533602318
 20
848.2787542887986
 30
0.0
  0
SPLINE
  5
14B
330
1F
100
AcDbEntity
  8
0
  6
Continuous
 62
     7
370
    15
100
AcDbSpline
210
0.0
220
0.0
230
1.0
 70
     8
 71
     3
 72
    11
 73
     7
 74
     0
 42
0.00000001
 43
0.00000001
 12
1.0
 22
0.0
 32
0.0
 13
1.0
 23
0.0
 33
0.0
 40
0.0
 40
0.0
 40
0.0
 40
0.0
 40
0.2500242362708558
 40
0.499838772912671
 40
0.7497556805733254
 40
1.0
 40
1.0
 40
1.0
 40
1.0
 10
969.0345041249832
 20
849.2776312776864
 30
0.0
 10
969.0201425543432
 20
849.3038808380859
 30
0.0
 10
968.9914314583599
 20
849.3563579429265
 30
0.0
 10
968.9238761069106
 20
849.4140147729418
 30
0.0
 10
968.8455624153291
 20
849.450031067195
 30
0.0
 10
968.7901040846938
 20
849.4580555383343
 30
0.0
 10
968.7623567675193
 20
849.4620704003632
 30
0.0
  0
SPLINE
  5
14C
330
1F
100
AcDbEntity
  8
0
  6
Continuous
 62
     7
370
    15
100
AcDbSpline
210
0.0
220
0.0
230
1.0
 70
     8
 71
     3
 72
     9
 73
     5
 74
     0
 42
0.00000001
 43
0.00000001
 12
1.0
 22
0.0
 32
0.0
 13
1.0
 23
0.0
 33
0.0
 40
0.0
 40
0.0
 40
0.0
 40
0.0
 40
0.4986824855625477
 40
1.0
 40
1.0
 40
1.0
 40
1.0
 10
968.7623567675193
 20
849.4620704003632
 30
0.0
 10
968.64681536934
 20
849.4504893321225
 30
0.0
 10
968.4151220544063
 20
849.4272660014941
 30
0.0
 10
968.2071903750413
 20
849.3199495498054
 30
0.0
 10
968.1029505823692
 20
849.2661499329865
 30
0.0
  0
SPLINE
  5
14D
330
1F
100
AcDbEntity
  8
0
  6
Continuous
 62
     7
370
    15
100
AcDbSpline
210
0.0
220
0.0
230
1.0
 70
     8
 71
     3
 72
    14
 73
    10
 74
     0
 42
0.00000001
 43
0.00000001
 12
1.0
 22
0.0
 32
0.0
 13
1.0
 23
0.0
 33
0.0
 40
0.0
 40
0.0
 40
0.0
 40
0.0
 40
0.4998304687924288
 40
0.6248948171561595
 40
0.7498207038336091
 40
0.8141275625904151
 40
0.874954510514607
 40
0.937484757992883
 40
1.0
 40
1.0
 40
1.0
 40
1.0
 10
968.1029505823692
 20
849.2661499329865
 30
0.0
 10
967.9497376224909
 20
849.1833465496293
 30
0.0
 10
967.7581887063546
 20
849.0798246390341
 30
0.0
 10
967.5753072367411
 20
848.8871090825361
 30
0.0
 10
967.5217659713611
 20
848.7858863381311
 30
0.0
 10
967.4966141037178
 20
848.6976536062614
 30
0.0
 10
967.4914075044825
 20
848.6281405982104
 30
0.0
 10
967.4994825396826
 20
848.5587132639606
 30
0.0
 10
967.5169827144243
 20
848.5156796833202
 30
0.0
 10
967.5257317517837
 20
848.4941654750169
 30
0.0
  0
SPLINE
  5
14E
330
1F
100
AcDbEntity
  8
0
  6
Continuous
 62
     7
370
    15
100
AcDbSpline
210
0.0
220
0.0
230
1.0
 70
     8
 71
     3
 72
    13
 73
     9
 74
     0
 42
0.00000001
 43
0.00000001
 12
1.0
 22
0.0
 32
0.0
 13
1.0
 23
0.0
 33
0.0
 40
0.0
 40
0.0
 40
0.0
 40
0.0
 40
0.1245051580258647
 40
0.1879156459069202
 40
0.2496754826652902
 40
0.3613968046099537
 40
0.4997372348048745
 40
1.0
 40
1.0
 40
1.0
 40
1.0
 10
967.5257317517837
 20
848.4941654750169
 30
0.0
 10
967.5503638765312
 20
848.4528692800577
 30
0.0
 10
967.5875411445687
 20
848.3905409293908
 30
0.0
 10
967.6633163718303
 20
848.3360296694549
 30
0.0
 10
967.741995501409
 20
848.3001881720065
 30
0.0
 10
967.8544106918017
 20
848.2882626207078
 30
0.0
 10
968.1190287324802
 20
848.3263375446264
 30
0.0
 10
968.324326385506
 20
848.4308975930563
 30
0.0
 10
968.4851504658302
 20
848.5128068276704
 30
0.0
  0
SPLINE
  5
14F
330
1F
100
AcDbEntity
  8
0
  6
Continuous
 62
     7
370
    15
100
AcDbSpline
210
0.0
220
0.0
230
1.0
 70
     8
 71
     3
 72
    12
 73
     8
 74
     0
 42
0.00000001
 43
0.00000001
 12
1.0
 22
0.0
 32
0.0
 13
1.0
 23
0.0
 33
0.0
 40
0.0
 40
0.0
 40
0.0
 40
0.0
 40
0.5003329872532808
 40
0.631289568737329
 40
0.7505968380163828
 40
0.8753495998593936
 40
1.0
 40
1.0
 40
1.0
 40
1.0
 10
968.4851504658302
 20
848.5128068276704
 30
0.0
 10
968.6354740971955
 20
848.5934110499763
 30
0.0
 10
968.8251432631976
 20
848.6951125288599
 30
0.0
 10
968.9973027696296
 20
848.8924079241962
 30
0.0
 10
969.0551618178329
 20
849.0121360980737
 30
0.0
 10
969.0796481639824
 20
849.1476791066555
 30
0.0
 10
969.0495480200159
 20
849.2343257413719
 30
0.0
 10
969.0345041249832
 20
849.2776312776864
 30
0.0
  0
SPLINE
  5
150
330
1F
100
AcDbEntity
  8
0
  6
Continuous
 62
     7
370
    15
100
AcDbSpline
210
0.0
220
0.0
230
1.0
 70
     8
 71
     3
 72
     9
 73
     5
 74
     0
 42
0.00000001
 43
0.00000001
 12
1.0
 22
0.0
 32
0.0
 13
1.0
 23
0.0
 33
0.0
 40
0.0
 40
0.0
 40
0.0
 40
0.0
 40
0.5001412361297567
 40
1.0
 40
1.0
 40
1.0
 40
1.0
 10
967.1376533602318
 20
848.2787542887986
 30
0.0
 10
967.1370195289682
 20
848.2786450290589
 30
0.0
 10
967.1357522244195
 20
848.2784265712877
 30
0.0
 10
967.1344912992197
 20
848.2782079283131
 30
0.0
 10
967.1338610147079
 20
848.2780986377061
 30
0.0
  0
SPLINE
  5
151
330
1F
100
AcDbEntity
  8
0
  6
Continuous
 62
     7
370
    15
100
AcDbSpline
210
0.0
220
0.0
230
1.0
 70
     8
 71
     3
 72
     9
 73
     5
 74
     0
 42
0.00000001
 43
0.00000001
 12
1.0
 22
0.0
 32
0.0
 13
1.0
 23
0.0
 33
0.0
 40
0.0
 40
0.0
 40
0.0
 40
0.0
 40
0.4999658523088563
 40
1.0
 40
1.0
 40
1.0
 40
1.0
 10
967.8841866348823
 20
849.7148686000169
 30
0.0
 10
967.8835756664137
 20
849.7147177204602
 30
0.0
 10
967.8823536460183
 20
849.7144159407363
 30
0.0
 10
967.8811318759723
 20
849.7141067730194
 30
0.0
 10
967.8805209492286
 20
849.7139521786034
 30
0.0
  0
SPLINE
  5
152
330
1F
100
AcDbEntity
  8
0
  6
Continuous
 62
     7
370
    15
100
AcDbSpline
210
0.0
220
0.0
230
1.0
 70
     8
 71
     3
 72
     9
 73
     5
 74
     0
 42
0.00000001
 43
0.00000001
 12
1.0
 22
0.0
 32
0.0
 13
1.0
 23
0.0
 33
0.0
 40
0.0
 40
0.0
 40
0.0
 40
0.0
 40
0.4998729099608504
 40
1.0
 40
1.0
 40
1.0
 40
1.0
 10
967.722084352835
 20
847.8059702464402
 30
0.0
 10
967.7214391742359
 20
847.805890143077
 30
0.0
 10
967.7201484889712
 20
847.8057298956189
 30
0.0
 10
967.7188513397896
 20
847.8055772180506
 30
0.0
 10
967.7182026003441
 20
847.8055008598626
 30
0.0
  0
LINE
  5
153
330
1F
100
AcDbEntity
  8
0
  6
Continuous
 62
     7
370
    15
100
AcDbLine
 10
968.7586091255
 20
849.4613253423
 30
0.0
 11
968.571875224
 21
849.4308077642
 31
0.0
  0
SPLINE
  5
154
330
1F
100
AcDbEntity
  8
0
  6
Continuous
 62
     7
370
    15
100
AcDbSpline
210
0.0
220
0.0
230
1.0
 70
     8
 71
     3
 72
    11
 73
     7
 74
     0
 42
0.00000001
 43
0.00000001
 12
1.0
 22
0.0
 32
0.0
 13
1.0
 23
0.0
 33
0.0
 40
0.0
 40
0.0
 40
0.0
 40
0.0
 40
0.2500040732347633
 40
0.4998155449985451
 40
0.7497331142421311
 40
1.0
 40
1.0
 40
1.0
 40
1.0
 10
969.0307117794594
 20
849.2769681760133
 30
0.0
 10
969.0163556226476
 20
849.3032108435114
 30
0.0
 10
968.9876543689113
 20
849.3556759613313
 30
0.0
 10
968.9201029651396
 20
849.4133042845341
 30
0.0
 10
968.8418057624865
 20
849.4493121522745
 30
0.0
 10
968.786354246473
 20
849.4573190816798
 30
0.0
 10
968.7586091254791
 20
849.4613253423036
 30
0.0
  0
SPLINE
  5
155
330
1F
100
AcDbEntity
  8
0
  6
Continuous
 62
     7
370
    15
100
AcDbSpline
210
0.0
220
0.0
230
1.0
 70
     8
 71
     3
 72
    12
 73
     8
 74
     0
 42
0.00000001
 43
0.00000001
 12
1.0
 22
0.0
 32
0.0
 13
1.0
 23
0.0
 33
0.0
 40
0.0
 40
0.0
 40
0.0
 40
0.0
 40
0.5003730074951273
 40
0.6313350144901821
 40
0.7506377022355365
 40
0.8753761008113561
 40
1.0
 40
1.0
 40
1.0
 40
1.0
 10
968.4813059662422
 20
848.5122629352868
 30
0.0
 10
968.6316278102023
 20
848.592865770532
 30
0.0
 10
968.821293204045
 20
848.6945646859314
 30
0.0
 10
968.9934703102924
 20
848.8918320216368
 30
0.0
 10
969.0513360166126
 20
849.0115357997297
 30
0.0
 10
969.0758423224531
 20
849.147047643496
 30
0.0
 10
969.0457506880774
 20
849.2336745906381
 30
0.0
 10
969.0307117794594
 20
849.2769681760133
 30
0.0
  0
SPLINE
  5
156
330
1F
100
AcDbEntity
  8
0
  6
Continuous
 62
     7
370
    15
100
AcDbSpline
210
0.0
220
0.0
230
1.0
 70
     8
 71
     3
 72
     9
 73
     5
 74
     0
 42
0.00000001
 43
0.00000001
 12
1.0
 22
0.0
 32
0.0
 13
1.0
 23
0.0
 33
0.0
 40
0.0
 40
0.0
 40
0.0
 40
0.0
 40
0.2166256481947611
 40
1.0
 40
1.0
 40
1.0
 40
1.0
 10
967.8405932878097
 20
848.2931488105119
 30
0.0
 10
967.8896011080708
 20
848.2976609799064
 30
0.0
 10
968.1158338772258
 20
848.3184903204391
 30
0.0
 10
968.3207667835707
 20
848.4271453622994
 30
0.0
 10
968.4813059662422
 20
848.5122629352868
 30
0.0
  0
LINE
  5
157
330
1F
100
AcDbEntity
  8
0
  6
Continuous
 62
     7
370
    15
100
AcDbLine
 10
968.8860885595
 20
846.561149592
 30
0.0
 11
969.0846986865
 21
846.1261250922
 31
0.0
  0
SPLINE
  5
158
330
1F
100
AcDbEntity
  8
0
  6
Continuous
 62
     7
370
    15
100
AcDbSpline
210
0.0
220
0.0
230
1.0
 70
     8
 71
     3
 72
    13
 73
     9
 74
     0
 42
0.00000001
 43
0.00000001
 12
1.0
 22
0.0
 32
0.0
 13
1.0
 23
0.0
 33
0.0
 40
0.0
 40
0.0
 40
0.0
 40
0.0
 40
0.2498645319216942
 40
0.3756764888723876
 40
0.5002307056606532
 40
0.6255451840194419
 40
0.7505724777463905
 40
1.0
 40
1.0
 40
1.0
 40
1.0
 10
969.0846986864647
 20
846.1261250921548
 30
0.0
 10
968.9818662057643
 20
846.0839271212254
 30
0.0
 10
968.8272554453076
 20
846.0204815996285
 30
0.0
 10
968.6075428542995
 20
846.0163590874857
 30
0.0
 10
968.4462507377677
 20
846.0510694404669
 30
0.0
 10
968.2956977770498
 20
846.1225176202233
 30
0.0
 10
968.1160931599247
 20
846.2630461915277
 30
0.0
 10
968.0288833657628
 20
846.4175697644941
 30
0.0
 10
967.970792183741
 20
846.5204992243112
 30
0.0
  0
SPLINE
  5
159
330
1F
100
AcDbEntity
  8
0
  6
Continuous
 62
     7
370
    15
100
AcDbSpline
210
0.0
220
0.0
230
1.0
 70
     8
 71
     3
 72
    12
 73
     8
 74
     0
 42
0.00000001
 43
0.00000001
 12
1.0
 22
0.0
 32
0.0
 13
1.0
 23
0.0
 33
0.0
 40
0.0
 40
0.0
 40
0.0
 40
0.0
 40
0.2500804198462964
 40
0.3753319662614483
 40
0.5009406261004927
 40
0.7506973830099896
 40
1.0
 40
1.0
 40
1.0
 40
1.0
 10
967.970792183741
 20
846.5204992243112
 30
0.0
 10
967.9335661842148
 20
846.6187065738503
 30
0.0
 10
967.8776957261967
 20
846.7661005906489
 30
0.0
 10
967.8724345280299
 20
846.9788480988119
 30
0.0
 10
967.9071280216651
 20
847.1852440095921
 30
0.0
 10
968.0200239119253
 20
847.427314055819
 30
0.0
 10
968.1783482426183
 20
847.5476991728455
 30
0.0
 10
968.2574383710464
 20
847.6078369566262
 30
0.0
  0
SPLINE
  5
15A
330
1F
100
AcDbEntity
  8
0
  6
Continuous
 62
     7
370
    15
100
AcDbSpline
210
0.0
220
0.0
230
1.0
 70
     8
 71
     3
 72
    10
 73
     6
 74
     0
 42
0.00000001
 43
0.00000001
 12
1.0
 22
0.0
 32
0.0
 13
1.0
 23
0.0
 33
0.0
 40
0.0
 40
0.0
 40
0.0
 40
0.0
 40
0.2494891949661578
 40
0.4995641847184227
 40
1.0
 40
1.0
 40
1.0
 40
1.0
 10
968.2574383710464
 20
847.6078369566262
 30
0.0
 10
968.352904369951
 20
847.6458910992131
 30
0.0
 10
968.5440605196895
 20
847.7220887346224
 30
0.0
 10
968.9576399208303
 20
847.7190483079311
 30
0.0
 10
969.2521979682884
 20
847.6286087176335
 30
0.0
 10
969.4486073945602
 20
847.5683041759789
 30
0.0
  0
LINE
  5
15B
330
1F
100
AcDbEntity
  8
0
  6
Continuous
 62
     7
370
    15
100
AcDbLine
 10
969.4486073946
 20
847.568304176
 30
0.0
 11
969.8246903514
 21
847.4454515525
 31
0.0
  0
LINE
  5
15C
330
1F
100
AcDbEntity
  8
0
  6
Continuous
 62
     7
370
    15
100
AcDbLine
 10
969.8246903514
 20
847.4454515525
 30
0.0
 11
969.4310910796
 21
848.2807808467
 31
0.0
  0
LINE
  5
15D
330
1F
100
AcDbEntity
  8
0
  6
Continuous
 62
     7
370
    15
100
AcDbLine
 10
969.4310910796
 20
848.2807808467
 30
0.0
 11
969.8077551817
 21
848.4888234087
 31
0.0
  0
LINE
  5
15E
330
1F
100
AcDbEntity
  8
0
  6
Continuous
 62
     7
370
    15
100
AcDbLine
 10
969.8077551817
 20
848.4888234087
 30
0.0
 11
970.5637879466
 21
846.8634718009
 31
0.0
  0
LINE
  5
15F
330
1F
100
AcDbEntity
  8
0
  6
Continuous
 62
     7
370
    15
100
AcDbLine
 10
970.5637879466
 20
846.8634718009
 30
0.0
 11
970.3689776157
 21
846.7559003183
 31
0.0
  0
LINE
  5
160
330
1F
100
AcDbEntity
  8
0
  6
Continuous
 62
     7
370
    15
100
AcDbLine
 10
970.3689776157
 20
846.7559003183
 30
0.0
 11
969.361517558
 21
847.1087523648
 31
0.0
  0
SPLINE
  5
161
330
1F
100
AcDbEntity
  8
0
  6
Continuous
 62
     7
370
    15
100
AcDbSpline
210
0.0
220
0.0
230
1.0
 70
     8
 71
     3
 72
    10
 73
     6
 74
     0
 42
0.00000001
 43
0.00000001
 12
1.0
 22
0.0
 32
0.0
 13
1.0
 23
0.0
 33
0.0
 40
0.0
 40
0.0
 40
0.0
 40
0.0
 40
0.5008637300658715
 40
0.7509084438642768
 40
1.0
 40
1.0
 40
1.0
 40
1.0
 10
969.3615175579628
 20
847.1087523647607
 30
0.0
 10
969.2207296746767
 20
847.1562825637034
 30
0.0
 10
969.0096566741632
 20
847.2275411228326
 30
0.0
 10
968.7107181957235
 20
847.2566434338239
 30
0.0
 10
968.5698513568897
 20
847.206853767051
 30
0.0
 10
968.499552438124
 20
847.1820064731896
 30
0.0
  0
SPLINE
  5
162
330
1F
100
AcDbEntity
  8
0
  6
Continuous
 62
     7
370
    15
100
AcDbSpline
210
0.0
220
0.0
230
1.0
 70
     8
 71
     3
 72
    14
 73
    10
 74
     0
 42
0.00000001
 43
0.00000001
 12
1.0
 22
0.0
 32
0.0
 13
1.0
 23
0.0
 33
0.0
 40
0.0
 40
0.0
 40
0.0
 40
0.0
 40
0.2492033788252606
 40
0.3728243597282876
 40
0.4994632480425397
 40
0.6225437413197049
 40
0.7496035610428784
 40
0.8747213377457282
 40
0.9999999999999999
 40
0.9999999999999999
 40
0.9999999999999999
 40
0.9999999999999999
 10
968.499552438124
 20
847.1820064731896
 30
0.0
 10
968.4627792828657
 20
847.157167452987
 30
0.0
 10
968.407764266099
 20
847.1200066735184
 30
0.0
 10
968.3593698383758
 20
847.0417284414093
 30
0.0
 10
968.3344808613278
 20
846.9772184036048
 30
0.0
 10
968.3221863219511
 20
846.9074682752077
 30
0.0
 10
968.3240798232233
 20
846.8368003468568
 30
0.0
 10
968.3378548067357
 20
846.7670744648761
 30
0.0
 10
968.3559592609241
 20
846.7243482349653
 30
0.0
 10
968.3650173042854
 20
846.7029713937104
 30
0.0
  0
SPLINE
  5
163
330
1F
100
AcDbEntity
  8
0
  6
Continuous
 62
     7
370
    15
100
AcDbSpline
210
0.0
220
0.0
230
1.0
 70
     8
 71
     3
 72
    13
 73
     9
 74
     0
 42
0.00000001
 43
0.00000001
 12
1.0
 22
0.0
 32
0.0
 13
1.0
 23
0.0
 33
0.0
 40
0.0
 40
0.0
 40
0.0
 40
0.0
 40
0.1251956933594766
 40
0.250274647144303
 40
0.3730624433012734
 40
0.5004960979675708
 40
0.7498589985851095
 40
1.0
 40
1.0
 40
1.0
 40
1.0
 10
968.365024754866
 20
846.7029639431298
 30
0.0
 10
968.3776920486497
 20
846.6793020580799
 30
0.0
 10
968.4030148245129
 20
846.6320003516649
 30
0.0
 10
968.4572481230016
 20
846.5745639161646
 30
0.0
 10
968.5228504628001
 20
846.53387909545
 30
0.0
 10
968.6182076850588
 20
846.5010697885065
 30
0.0
 10
968.7468703016337
 20
846.5003259613941
 30
0.0
 10
968.8396343059173
 20
846.5408540043484
 30
0.0
 10
968.8860885594925
 20
846.561149592048
 30
0.0
  0
SPLINE
  5
164
330
1F
100
AcDbEntity
  8
0
  6
Continuous
 62
     7
370
    15
100
AcDbSpline
210
0.0
220
0.0
230
1.0
 70
     8
 71
     3
 72
     9
 73
     5
 74
     0
 42
0.00000001
 43
0.00000001
 12
1.0
 22
0.0
 32
0.0
 13
1.0
 23
0.0
 33
0.0
 40
0.0
 40
0.0
 40
0.0
 40
0.0
 40
0.5000130462564828
 40
1.0
 40
1.0
 40
1.0
 40
1.0
 10
968.2574383710464
 20
847.6078369566262
 30
0.0
 10
968.256782728508
 20
847.6077767318288
 30
0.0
 10
968.2554714776453
 20
847.6076562853767
 30
0.0
 10
968.254160124137
 20
847.6075432803682
 30
0.0
 10
968.2535044644912
 20
847.6074867793382
 30
0.0
  0
SPLINE
  5
165
330
1F
100
AcDbEntity
  8
0
  6
Continuous
 62
     7
370
    15
100
AcDbSpline
210
0.0
220
0.0
230
1.0
 70
     8
 71
     3
 72
     9
 73
     5
 74
     0
 42
0.00000001
 43
0.00000001
 12
1.0
 22
0.0
 32
0.0
 13
1.0
 23
0.0
 33
0.0
 40
0.0
 40
0.0
 40
0.0
 40
0.0
 40
0.4997642305278848
 40
1.0
 40
1.0
 40
1.0
 40
1.0
 10
967.970792183741
 20
846.5204992243112
 30
0.0
 10
967.9701196094326
 20
846.5204793514164
 30
0.0
 10
967.9687738262267
 20
846.5204395868761
 30
0.0
 10
967.9674225001278
 20
846.5203998785479
 30
0.0
 10
967.9667465184768
 20
846.5203800150216
 30
0.0
  0
SPLINE
  5
166
330
1F
100
AcDbEntity
  8
0
  6
Continuous
 62
     7
370
    15
100
AcDbSpline
210
0.0
220
0.0
230
1.0
 70
     8
 71
     3
 72
     9
 73
     5
 74
     0
 42
0.00000001
 43
0.00000001
 12
1.0
 22
0.0
 32
0.0
 13
1.0
 23
0.0
 33
0.0
 40
0.0
 40
0.0
 40
0.0
 40
0.0
 40
0.5001060962038923
 40
1.0
 40
1.0
 40
1.0
 40
1.0
 10
968.4813059662422
 20
848.5122629352868
 30
0.0
 10
968.4819466481636
 20
848.5123554373047
 30
0.0
 10
968.4832277401682
 20
848.5125404020919
 30
0.0
 10
968.4845096479465
 20
848.5127180317081
 30
0.0
 10
968.4851504658302
 20
848.5128068276704
 30
0.0
  0
SPLINE
  5
167
330
1F
100
AcDbEntity
  8
0
  6
Continuous
 62
     7
370
    15
100
AcDbSpline
210
0.0
220
0.0
230
1.0
 70
     8
 71
     3
 72
     9
 73
     5
 74
     0
 42
0.00000001
 43
0.00000001
 12
1.0
 22
0.0
 32
0.0
 13
1.0
 23
0.0
 33
0.0
 40
0.0
 40
0.0
 40
0.0
 40
0.0
 40
0.5000676724365376
 40
1.0
 40
1.0
 40
1.0
 40
1.0
 10
968.8860885594925
 20
846.561149592048
 30
0.0
 10
968.8854050147013
 20
846.5611464875554
 30
0.0
 10
968.8840381101224
 20
846.5611402794104
 30
0.0
 10
968.882678102514
 20
846.5611415208379
 30
0.0
 10
968.8819981907448
 20
846.5611421414674
 30
0.0
  0
SPLINE
  5
168
330
1F
100
AcDbEntity
  8
0
  6
Continuous
 62
     7
370
    15
100
AcDbSpline
210
0.0
220
0.0
230
1.0
 70
     8
 71
     3
 72
     9
 73
     5
 74
     0
 42
0.00000001
 43
0.00000001
 12
1.0
 22
0.0
 32
0.0
 13
1.0
 23
0.0
 33
0.0
 40
0.0
 40
0.0
 40
0.0
 40
0.0
 40
0.50005355714951
 40
1.0
 40
1.0
 40
1.0
 40
1.0
 10
968.7586091254791
 20
849.4613253423036
 30
0.0
 10
968.7592355618046
 20
849.4614495119949
 30
0.0
 10
968.7604883002695
 20
849.4616978247798
 30
0.0
 10
968.7617339895797
 20
849.461946217371
 30
0.0
 10
968.7623567675193
 20
849.4620704003632
 30
0.0
  0
LINE
  5
169
330
1F
100
AcDbEntity
  8
0
  6
Continuous
 62
     7
370
    15
100
AcDbLine
 10
969.361517558
 20
847.1087523648
 30
0.0
 11
969.3574569915
 21
847.1086704084
 31
0.0
  0
SPLINE
  5
16A
330
1F
100
AcDbEntity
  8
0
  6
Continuous
 62
     7
370
    15
100
AcDbSpline
210
0.0
220
0.0
230
1.0
 70
     8
 71
     3
 72
     9
 73
     5
 74
     0
 42
0.00000001
 43
0.00000001
 12
1.0
 22
0.0
 32
0.0
 13
1.0
 23
0.0
 33
0.0
 40
0.0
 40
0.0
 40
0.0
 40
0.0
 40
0.5001165291039225
 40
0.9999999999999999
 40
0.9999999999999999
 40
0.9999999999999999
 40
0.9999999999999999
 10
969.0307117794594
 20
849.2769681760133
 30
0.0
 10
969.0313456262937
 20
849.2770768171398
 30
0.0
 10
969.0326130245852
 20
849.277294048765
 30
0.0
 10
969.0338738561328
 20
849.2775188855127
 30
0.0
 10
969.0345041249832
 20
849.2776312776864
 30
0.0
  0
LINE
  5
16B
330
1F
100
AcDbEntity
  8
0
  6
Continuous
 62
     7
370
    15
100
AcDbLine
 10
968.9881391619
 20
844.4384419271
 30
0.0
 11
968.6786271428
 21
845.1024153181
 31
0.0
  0
LINE
  5
16C
330
1F
100
AcDbEntity
  8
0
  6
Continuous
 62
     7
370
    15
100
AcDbLine
 10
968.6786271428
 20
845.1024153181
 30
0.0
 11
970.8070568536
 21
846.3511996814
 31
0.0
  0
LINE
  5
16D
330
1F
100
AcDbEntity
  8
0
  6
Continuous
 62
     7
370
    15
100
AcDbLine
 10
970.8070568536
 20
846.3511996814
 30
0.0
 11
971.0132367705
 21
845.9108331152
 31
0.0
  0
LINE
  5
16E
330
1F
100
AcDbEntity
  8
0
  6
Continuous
 62
     7
370
    15
100
AcDbLine
 10
971.0132367705
 20
845.9108331152
 30
0.0
 11
969.2650027369
 21
844.8850222775
 31
0.0
  0
LINE
  5
16F
330
1F
100
AcDbEntity
  8
0
  6
Continuous
 62
     7
370
    15
100
AcDbLine
 10
969.2650027369
 20
844.8850222775
 30
0.0
 11
969.4859795068
 21
844.4051005789
 31
0.0
  0
LINE
  5
170
330
1F
100
AcDbEntity
  8
0
  6
Continuous
 62
     7
370
    15
100
AcDbLine
 10
969.4859795068
 20
844.4051005789
 30
0.0
 11
968.9881391619
 21
844.4384419271
 31
0.0
  0
LINE
  5
171
330
1F
100
AcDbEntity
  8
0
  6
Continuous
 62
     7
370
    15
100
AcDbLine
 10
970.8070568536
 20
846.3511996814
 30
0.0
 11
970.8028174733
 21
846.3515126058
 31
0.0
  0
LINE
  5
172
330
1F
100
AcDbEntity
  8
0
  6
Continuous
 62
     7
370
    15
100
AcDbLine
 10
968.6786271428
 20
845.1024153181
 30
0.0
 11
968.6743803118
 21
845.1027356931
 31
0.0
  0
LINE
  5
173
330
1F
100
AcDbEntity
  8
0
  6
Continuous
 62
     7
370
    15
100
AcDbLine
 10
968.9881391619
 20
844.4384419271
 30
0.0
 11
968.983802924
 21
844.4389634677
 31
0.0
  0
LINE
  5
174
330
1F
100
AcDbEntity
  8
0
  6
Continuous
 62
     7
370
    15
100
AcDbLine
 10
970.3689776157
 20
846.7559003183
 30
0.0
 11
970.3648127411
 21
846.7560493299
 31
0.0
  0
LINE
  5
175
330
1F
100
AcDbEntity
  8
0
  6
Continuous
 62
     7
370
    15
100
AcDbLine
 10
969.8077551817
 20
848.4888234087
 30
0.0
 11
969.8038287257
 21
848.4884657809
 31
0.0
  0
LINE
  5
176
330
1F
100
AcDbEntity
  8
0
  6
Continuous
 62
     7
370
    15
100
AcDbLine
 10
969.4310910796
 20
848.2807808467
 30
0.0
 11
969.427157173
 21
848.2804232189
 31
0.0
  0
LWPOLYLINE
  5
177
330
1F
100
AcDbEntity
  8
0
  6
Continuous
 62
     7
370
    15
100
AcDbPolyline
 90
       17
 70
   128
 43
0.0
 10
961.0984213446
 20
873.2395701953
 10
961.9773812388
 20
871.3546478101
 10
962.963018546
 20
869.2409329959
 10
964.0427641367
 20
866.9253968545
 10
965.2028418873
 20
864.4376032897
 10
966.428454945
 20
861.8092619726
 10
967.7039645408
 20
859.073930318
 10
969.0130911563
 20
856.2665068456
 10
970.3391380404
 20
853.4227841445
 10
971.6651849245
 20
850.579068894
 10
972.97431154
 20
847.771637971
 10
974.2498211359
 20
845.0362988659
 10
975.4754341935
 20
842.4079649993
 10
976.6355119442
 20
839.9201639839
 10
977.7152649854
 20
837.6046427437
 10
978.7009022926
 20
835.4909279295
 10
979.5798547362
 20
833.6060055443
  0
SPLINE
  5
178
330
1F
100
AcDbEntity
  8
0
  6
Continuous
 62
     7
370
    15
100
AcDbSpline
210
0.0
220
0.0
230
1.0
 70
    11
 71
     3
 72
    23
 73
    19
 74
     0
 42
0.00000001
 43
0.00000001
 12
1.0
 22
0.0
 32
0.0
 13
1.0
 23
0.0
 33
0.0
 40
0.0
 40
0.0
 40
0.0
 40
0.0
 40
0.0623529567001772
 40
0.1250442903058223
 40
0.1876183033067902
 40
0.2501114963383785
 40
0.3126630847761688
 40
0.3751637141958746
 40
0.4376990854858924
 40
0.5002620167227023
 40
0.5627692200502747
 40
0.6253565137168451
 40
0.6878415930998288
 40
0.7504000995728677
 40
0.8129138597469951
 40
0.8754767801012949
 40
0.9382133623415823
 40
0.9999999999999999
 40
0.9999999999999999
 40
0.9999999999999999
 40
0.9999999999999999
 10
956.7610658501228
 20
868.598335320598
 30
0.0
 10
956.7363573329235
 20
868.7403861962968
 30
0.0
 10
956.6868062103913
 20
869.0252588291133
 30
0.0
 10
956.3412206420634
 20
869.3967015155401
 30
0.0
 10
955.8417163313346
 20
869.6516013906847
 30
0.0
 10
955.2522059317375
 20
869.7574614575531
 30
0.0
 10
954.6656160405985
 20
869.7041461934842
 30
0.0
 10
954.1723827805085
 20
869.4966438821987
 30
0.0
 10
953.8431733024023
 20
869.1685084171467
 30
0.0
 10
953.7342281050247
 20
868.7621219711274
 30
0.0
 10
953.8551840886695
 20
868.3378031013091
 30
0.0
 10
954.1915763909926
 20
867.9585734028452
 30
0.0
 10
954.6914918200899
 20
867.6854342460607
 30
0.0
 10
955.2778007858989
 20
867.5613063040665
 30
0.0
 10
955.8643393607175
 20
867.6120699762904
 30
0.0
 10
956.3571251947915
 20
867.8290411100945
 30
0.0
 10
956.6951357968946
 20
868.177959930968
 30
0.0
 10
956.7392012190022
 20
868.4589246516181
 30
0.0
 10
956.7610658501228
 20
868.5983353205979
 30
0.0
  0
SPLINE
  5
179
330
1F
100
AcDbEntity
  8
0
  6
Continuous
 62
     7
370
    15
100
AcDbSpline
210
0.0
220
0.0
230
1.0
 70
    11
 71
     3
 72
    23
 73
    19
 74
     0
 42
0.00000001
 43
0.00000001
 12
1.0
 22
0.0
 32
0.0
 13
1.0
 23
0.0
 33
0.0
 40
0.0
 40
0.0
 40
0.0
 40
0.0
 40
0.0625021295886117
 40
0.1250101159526065
 40
0.1875193228357047
 40
0.250023432527767
 40
0.31252093812406
 40
0.3750140860029998
 40
0.4375052623821553
 40
0.4999998969908912
 40
0.562502427518193
 40
0.6250107849902778
 40
0.6875193129400318
 40
0.7500241195862049
 40
0.8125218382997419
 40
0.8750130896996757
 40
0.9375037038252066
 40
1.0
 40
1.0
 40
1.0
 40
1.0
 10
972.864065298899
 20
832.0484095164597
 30
0.0
 10
972.8894708229942
 20
832.1392766549104
 30
0.0
 10
972.9402842518145
 20
832.3210194465362
 30
0.0
 10
972.8977770809996
 20
832.5690077585643
 30
0.0
 10
972.77105937951
 20
832.7505563453172
 30
0.0
 10
972.5720505464024
 20
832.8390246792738
 30
0.0
 10
972.3338817761164
 20
832.8200791914728
 30
0.0
 10
972.0931266260717
 20
832.6961499658391
 30
0.0
 10
971.8870186936191
 20
832.4858089692952
 30
0.0
 10
971.7466423774082
 20
832.2212584563341
 30
0.0
 10
971.6925987340684
 20
831.9432752978822
 30
0.0
 10
971.7322310430487
 20
831.6947216937278
 30
0.0
 10
971.8591337323255
 20
831.513717422203
 30
0.0
 10
972.0540737528484
 20
831.4276920504755
 30
0.0
 10
972.2886964330689
 20
831.449156236244
 30
0.0
 10
972.5261001464877
 20
831.5746002465877
 30
0.0
 10
972.7382354790388
 20
831.7834412667862
 30
0.0
 10
972.8221207544385
 20
831.9600840897731
 30
0.0
 10
972.864065298899
 20
832.0484095164597
 30
0.0
  0
LINE
  5
17A
330
1F
100
AcDbEntity
  8
0
  6
Continuous
 62
     7
370
    15
100
AcDbLine
 10
957.7485583519
 20
868.4282087632
 30
0.0
 11
957.8073732351
 21
868.7689089128
 31
0.0
  0
LINE
  5
17B
330
1F
100
AcDbEntity
  8
0
  6
Continuous
 62
     7
370
    15
100
AcDbLine
 10
957.8073732351
 20
868.7689089128
 30
0.0
 11
958.7992988323
 21
868.6076932498
 31
0.0
  0
SPLINE
  5
17C
330
1F
100
AcDbEntity
  8
0
  6
Continuous
 62
     7
370
    15
100
AcDbSpline
210
0.0
220
0.0
230
1.0
 70
     8
 71
     3
 72
    12
 73
     8
 74
     0
 42
0.00000001
 43
0.00000001
 12
1.0
 22
0.0
 32
0.0
 13
1.0
 23
0.0
 33
0.0
 40
0.0
 40
0.0
 40
0.0
 40
0.0
 40
0.2495958766554177
 40
0.3721053144544488
 40
0.500483123822104
 40
0.7500888746871149
 40
1.0
 40
1.0
 40
1.0
 40
1.0
 10
958.7992988322815
 20
868.6076932498277
 30
0.0
 10
958.773834933305
 20
868.6865337634491
 30
0.0
 10
958.7358725588347
 20
868.8040716591306
 30
0.0
 10
958.7755096512432
 20
868.9568288982648
 30
0.0
 10
958.8544997803874
 20
869.0960133153568
 30
0.0
 10
959.0217288564454
 20
869.2474148100295
 30
0.0
 10
959.2183490869014
 20
869.3002436895017
 30
0.0
 10
959.316719302996
 20
869.3266742774308
 30
0.0
  0
SPLINE
  5
17D
330
1F
100
AcDbEntity
  8
0
  6
Continuous
 62
     7
370
    15
100
AcDbSpline
210
0.0
220
0.0
230
1.0
 70
     8
 71
     3
 72
    12
 73
     8
 74
     0
 42
0.00000001
 43
0.00000001
 12
1.0
 22
0.0
 32
0.0
 13
1.0
 23
0.0
 33
0.0
 40
0.0
 40
0.0
 40
0.0
 40
0.0
 40
0.2496866534384262
 40
0.3717083065940632
 40
0.5005967823451791
 40
0.7502835724322467
 40
1.0
 40
1.0
 40
1.0
 40
1.0
 10
959.316719302996
 20
869.3266742774308
 30
0.0
 10
959.4216911461249
 20
869.3394071532954
 30
0.0
 10
959.5779626388627
 20
869.3583625746625
 30
0.0
 10
959.7920177086646
 20
869.3198254068831
 30
0.0
 10
959.9920960028461
 20
869.2535255816717
 30
0.0
 10
960.2224716017356
 20
869.1238596649515
 30
0.0
 10
960.3144843740954
 20
868.9741919676167
 30
0.0
 10
960.3604934905609
 20
868.899353677875
 30
0.0
  0
SPLINE
  5
17E
330
1F
100
AcDbEntity
  8
0
  6
Continuous
 62
     7
370
    15
100
AcDbSpline
210
0.0
220
0.0
230
1.0
 70
     8
 71
     3
 72
    12
 73
     8
 74
     0
 42
0.00000001
 43
0.00000001
 12
1.0
 22
0.0
 32
0.0
 13
1.0
 23
0.0
 33
0.0
 40
0.0
 40
0.0
 40
0.0
 40
0.0
 40
0.2497912050919489
 40
0.3732997249136455
 40
0.5006510353731264
 40
0.7505249185206397
 40
1.0
 40
1.0
 40
1.0
 40
1.0
 10
960.3604934905609
 20
868.8993536778748
 30
0.0
 10
960.3869942306071
 20
868.8202151847303
 30
0.0
 10
960.4265981828987
 20
868.7019468985828
 30
0.0
 10
960.3924191397697
 20
868.5445669399323
 30
0.0
 10
960.3156433930643
 20
868.4008142596458
 30
0.0
 10
960.1606112220121
 20
868.2373863329433
 30
0.0
 10
959.9658794058493
 20
868.1795830151282
 30
0.0
 10
959.8685912583908
 20
868.1507044383347
 30
0.0
  0
SPLINE
  5
17F
330
1F
100
AcDbEntity
  8
0
  6
Continuous
 62
     7
370
    15
100
AcDbSpline
210
0.0
220
0.0
230
1.0
 70
     8
 71
     3
 72
     9
 73
     5
 74
     0
 42
0.00000001
 43
0.00000001
 12
1.0
 22
0.0
 32
0.0
 13
1.0
 23
0.0
 33
0.0
 40
0.0
 40
0.0
 40
0.0
 40
0.0
 40
0.4985328076215734
 40
1.0
 40
1.0
 40
1.0
 40
1.0
 10
959.8685912583908
 20
868.1507044383349
 30
0.0
 10
959.7603177516518
 20
868.1417356040406
 30
0.0
 10
959.5431334358277
 20
868.123745144522
 30
0.0
 10
959.324440394244
 20
868.1652708947779
 30
0.0
 10
959.2147730086883
 20
868.1860946961701
 30
0.0
  0
LINE
  5
180
330
1F
100
AcDbEntity
  8
0
  6
Continuous
 62
     7
370
    15
100
AcDbLine
 10
959.2147730087
 20
868.1860946962
 30
0.0
 11
957.7485658024
 21
868.4282087632
 31
0.0
  0
SPLINE
  5
181
330
1F
100
AcDbEntity
  8
0
  6
Continuous
 62
     7
370
    15
100
AcDbSpline
210
0.0
220
0.0
230
1.0
 70
     8
 71
     3
 72
    13
 73
     9
 74
     0
 42
0.00000001
 43
0.00000001
 12
1.0
 22
0.0
 32
0.0
 13
1.0
 23
0.0
 33
0.0
 40
0.0
 40
0.0
 40
0.0
 40
0.0
 40
0.2492889762509534
 40
0.4986742901578989
 40
0.6247826759298658
 40
0.7492807612211049
 40
0.8745514346658693
 40
1.0
 40
1.0
 40
1.0
 40
1.0
 10
959.9237553571304
 20
868.8067429610551
 30
0.0
 10
959.9036827107525
 20
868.8386919400624
 30
0.0
 10
959.8635296609281
 20
868.902602244751
 30
0.0
 10
959.7632180027596
 20
868.956289788089
 30
0.0
 10
959.6764980019625
 20
868.9828438012946
 30
0.0
 10
959.6077216889582
 20
868.9928621229243
 30
0.0
 10
959.5389466036166
 20
868.9925138611052
 30
0.0
 10
959.4950738380901
 20
868.9854834268168
 30
0.0
 10
959.4731218908867
 20
868.9819657155335
 30
0.0
  0
SPLINE
  5
182
330
1F
100
AcDbEntity
  8
0
  6
Continuous
 62
     7
370
    15
100
AcDbSpline
210
0.0
220
0.0
230
1.0
 70
     8
 71
     3
 72
    14
 73
    10
 74
     0
 42
0.00000001
 43
0.00000001
 12
1.0
 22
0.0
 32
0.0
 13
1.0
 23
0.0
 33
0.0
 40
0.0
 40
0.0
 40
0.0
 40
0.0
 40
0.2493347955854067
 40
0.3753075705242224
 40
0.4994530059493452
 40
0.6256568807833331
 40
0.7496696824671342
 40
0.8747355309777644
 40
1.0
 40
1.0
 40
1.0
 40
1.0
 10
959.4731218908867
 20
868.9819657155335
 30
0.0
 10
959.4312352725589
 20
868.9707457256053
 30
0.0
 10
959.3681860502265
 20
868.9538569991387
 30
0.0
 10
959.3041353220768
 20
868.9095405056813
 30
0.0
 10
959.2668543993854
 20
868.8695431561447
 30
0.0
 10
959.2420179798897
 20
868.8242146963232
 30
0.0
 10
959.2310340781155
 20
868.7751109978137
 30
0.0
 10
959.2345478506106
 20
868.7243720086723
 30
0.0
 10
959.247587217739
 20
868.6912785373011
 30
0.0
 10
959.2541120742401
 20
868.6747186728776
 30
0.0
  0
SPLINE
  5
183
330
1F
100
AcDbEntity
  8
0
  6
Continuous
 62
     7
370
    15
100
AcDbSpline
210
0.0
220
0.0
230
1.0
 70
     8
 71
     3
 72
    13
 73
     9
 74
     0
 42
0.00000001
 43
0.00000001
 12
1.0
 22
0.0
 32
0.0
 13
1.0
 23
0.0
 33
0.0
 40
0.0
 40
0.0
 40
0.0
 40
0.0
 40
0.2493015728511412
 40
0.3718759390670948
 40
0.4998856051997084
 40
0.7492550064580116
 40
0.8745544528302222
 40
1.0
 40
1.0
 40
1.0
 40
1.0
 10
959.2541120742401
 20
868.6747186728776
 30
0.0
 10
959.2733636316915
 20
868.6432388184762
 30
0.0
 10
959.3020806226189
 20
868.5962812309916
 30
0.0
 10
959.3722447172753
 20
868.5492372572562
 30
0.0
 10
959.4511097545093
 20
868.5128214119622
 30
0.0
 10
959.5416058426975
 20
868.4925126083016
 30
0.0
 10
959.6309746135182
 20
868.4934568602421
 30
0.0
 10
959.6739281376921
 20
868.5001538732117
 30
0.0
 10
959.6954174135765
 20
868.5035043307603
 30
0.0
  0
SPLINE
  5
184
330
1F
100
AcDbEntity
  8
0
  6
Continuous
 62
     7
370
    15
100
AcDbSpline
210
0.0
220
0.0
230
1.0
 70
     8
 71
     3
 72
    11
 73
     7
 74
     0
 42
0.00000001
 43
0.00000001
 12
1.0
 22
0.0
 32
0.0
 13
1.0
 23
0.0
 33
0.0
 40
0.0
 40
0.0
 40
0.0
 40
0.0
 40
0.2503922375326498
 40
0.5004142012553272
 40
0.7504601655726628
 40
1.0
 40
1.0
 40
1.0
 40
1.0
 10
959.6954174135765
 20
868.5035043307603
 30
0.0
 10
959.7369322232124
 20
868.514634397533
 30
0.0
 10
959.8199004514172
 20
868.5368780722126
 30
0.0
 10
959.9036669975176
 20
868.6128311392073
 30
0.0
 10
959.952872357501
 20
868.7062444619492
 30
0.0
 10
959.933454466505
 20
868.7732660945369
 30
0.0
 10
959.9237553571304
 20
868.8067429610551
 30
0.0
  0
LINE
  5
185
330
1F
100
AcDbEntity
  8
0
  6
Continuous
 62
     7
370
    15
100
AcDbLine
 10
957.7485583519
 20
868.4282087632
 30
0.0
 11
957.7476270293
 21
868.4214287349
 31
0.0
  0
SPLINE
  5
186
330
1F
100
AcDbEntity
  8
0
  6
Continuous
 62
     7
370
    15
100
AcDbSpline
210
0.0
220
0.0
230
1.0
 70
     8
 71
     3
 72
     9
 73
     5
 74
     0
 42
0.00000001
 43
0.00000001
 12
1.0
 22
0.0
 32
0.0
 13
1.0
 23
0.0
 33
0.0
 40
0.0
 40
0.0
 40
0.0
 40
0.0
 40
0.4998936461339142
 40
1.0
 40
1.0
 40
1.0
 40
1.0
 10
959.2147730086883
 20
868.1860946961702
 30
0.0
 10
959.2146072151846
 20
868.184986925435
 30
0.0
 10
959.2142755576309
 20
868.1827709126018
 30
0.0
 10
959.213936663444
 20
868.1805563134066
 30
0.0
 10
959.2137671803077
 20
868.1794487782777
 30
0.0
  0
LINE
  5
187
330
1F
100
AcDbEntity
  8
0
  6
Continuous
 62
     7
370
    15
100
AcDbLine
 10
959.8685912584
 20
868.1507044383
 30
0.0
 11
959.8675630783
 21
868.1441181251
 31
0.0
  0
SPLINE
  5
188
330
1F
100
AcDbEntity
  8
0
  6
Continuous
 62
     7
370
    15
100
AcDbSpline
210
0.0
220
0.0
230
1.0
 70
     8
 71
     3
 72
    14
 73
    10
 74
     0
 42
0.00000001
 43
0.00000001
 12
1.0
 22
0.0
 32
0.0
 13
1.0
 23
0.0
 33
0.0
 40
0.0
 40
0.0
 40
0.0
 40
0.0
 40
0.2493733363168893
 40
0.3753596026164403
 40
0.4995069928648377
 40
0.6257011223729254
 40
0.7497014686754877
 40
0.8747516666109184
 40
1.0
 40
1.0
 40
1.0
 40
1.0
 10
959.4722203706344
 20
868.9751111813844
 30
0.0
 10
959.4303302848275
 20
868.9638990397301
 30
0.0
 10
959.3672768477828
 20
868.947022395667
 30
0.0
 10
959.3032307344172
 20
868.9026979695368
 30
0.0
 10
959.2659387939557
 20
868.8627220100249
 30
0.0
 10
959.2410942933933
 20
868.8174047146053
 30
0.0
 10
959.2301032587196
 20
868.7683169859907
 30
0.0
 10
959.233607046383
 20
868.7175919860741
 30
0.0
 10
959.2466477751856
 20
868.6845084221002
 30
0.0
 10
959.2531733010849
 20
868.6679535456956
 30
0.0
  0
SPLINE
  5
189
330
1F
100
AcDbEntity
  8
0
  6
Continuous
 62
     7
370
    15
100
AcDbSpline
210
0.0
220
0.0
230
1.0
 70
     8
 71
     3
 72
    13
 73
     9
 74
     0
 42
0.00000001
 43
0.00000001
 12
1.0
 22
0.0
 32
0.0
 13
1.0
 23
0.0
 33
0.0
 40
0.0
 40
0.0
 40
0.0
 40
0.0
 40
0.2492491253738852
 40
0.4986340921309712
 40
0.6247375257599502
 40
0.7492533916807168
 40
0.8745429473351377
 40
0.9999999999999999
 40
0.9999999999999999
 40
0.9999999999999999
 40
0.9999999999999999
 10
959.9228165839752
 20
868.7999629327119
 30
0.0
 10
959.9027477914921
 20
868.8319009021997
 30
0.0
 10
959.8625992689852
 20
868.8957942474466
 30
0.0
 10
959.7623012640043
 20
868.949472984969
 30
0.0
 10
959.6755836718655
 20
868.9760017094206
 30
0.0
 10
959.6068128354889
 20
868.9860222834322
 30
0.0
 10
959.5380389625464
 20
868.9856782650212
 30
0.0
 10
959.4941696694003
 20
868.9786351108562
 30
0.0
 10
959.4722203706344
 20
868.9751111813844
 30
0.0
  0
SPLINE
  5
18A
330
1F
100
AcDbEntity
  8
0
  6
Continuous
 62
     7
370
    15
100
AcDbSpline
210
0.0
220
0.0
230
1.0
 70
     8
 71
     3
 72
     9
 73
     5
 74
     0
 42
0.00000001
 43
0.00000001
 12
1.0
 22
0.0
 32
0.0
 13
1.0
 23
0.0
 33
0.0
 40
0.0
 40
0.0
 40
0.0
 40
0.0
 40
0.4994276424663511
 40
1.0
 40
1.0
 40
1.0
 40
1.0
 10
959.9228165839752
 20
868.7999629327119
 30
0.0
 10
959.9229731355152
 20
868.8010898602729
 30
0.0
 10
959.9232865974199
 20
868.8033462983734
 30
0.0
 10
959.9235989846954
 20
868.8056098764439
 30
0.0
 10
959.9237553571304
 20
868.8067429610551
 30
0.0
  0
SPLINE
  5
18B
330
1F
100
AcDbEntity
  8
0
  6
Continuous
 62
     7
370
    15
100
AcDbSpline
210
0.0
220
0.0
230
1.0
 70
     8
 71
     3
 72
     9
 73
     5
 74
     0
 42
0.00000001
 43
0.00000001
 12
1.0
 22
0.0
 32
0.0
 13
1.0
 23
0.0
 33
0.0
 40
0.0
 40
0.0
 40
0.0
 40
0.0
 40
0.4999664612392976
 40
1.0
 40
1.0
 40
1.0
 40
1.0
 10
959.4722203706344
 20
868.9751111813844
 30
0.0
 10
959.4723687664865
 20
868.9762536420529
 30
0.0
 10
959.4726655781003
 20
868.978538716667
 30
0.0
 10
959.4729697798227
 20
868.9808233314959
 30
0.0
 10
959.4731218908867
 20
868.9819657155335
 30
0.0
  0
SPLINE
  5
18C
330
1F
100
AcDbEntity
  8
0
  6
Continuous
 62
     7
370
    15
100
AcDbSpline
210
0.0
220
0.0
230
1.0
 70
     8
 71
     3
 72
    13
 73
     9
 74
     0
 42
0.00000001
 43
0.00000001
 12
1.0
 22
0.0
 32
0.0
 13
1.0
 23
0.0
 33
0.0
 40
0.0
 40
0.0
 40
0.0
 40
0.0
 40
0.1251102070345191
 40
0.2500662381790689
 40
0.370377802092661
 40
0.4999613811428688
 40
0.74949325516944
 40
1.0
 40
1.0
 40
1.0
 40
1.0
 10
957.0788033102592
 20
869.8522084304154
 30
0.0
 10
957.0584646871563
 20
869.9060066814754
 30
0.0
 10
957.0178125046554
 20
870.0135368869005
 30
0.0
 10
957.0320818592035
 20
870.1750045789563
 30
0.0
 10
957.1173234676273
 20
870.3225971366542
 30
0.0
 10
957.3133718156943
 20
870.4823331967132
 30
0.0
 10
957.651974545392
 20
870.6145748570474
 30
0.0
 10
957.9478944327892
 20
870.6721002136244
 30
0.0
 10
958.0961428378662
 20
870.7009189673722
 30
0.0
  0
SPLINE
  5
18D
330
1F
100
AcDbEntity
  8
0
  6
Continuous
 62
     7
370
    15
100
AcDbSpline
210
0.0
220
0.0
230
1.0
 70
     8
 71
     3
 72
    13
 73
     9
 74
     0
 42
0.00000001
 43
0.00000001
 12
1.0
 22
0.0
 32
0.0
 13
1.0
 23
0.0
 33
0.0
 40
0.0
 40
0.0
 40
0.0
 40
0.0
 40
0.2504962708313305
 40
0.5001059619531015
 40
0.6251904394741316
 40
0.75000399957086
 40
0.8748668804976136
 40
0.9999999999999999
 40
0.9999999999999999
 40
0.9999999999999999
 40
0.9999999999999999
 10
958.0961428378662
 20
870.7009189673722
 30
0.0
 10
958.2461051463775
 20
870.7248004808325
 30
0.0
 10
958.5454990028447
 20
870.7724789840786
 30
0.0
 10
958.9434689294789
 20
870.7699372465293
 30
0.0
 10
959.250640268891
 20
870.7059654675246
 30
0.0
 10
959.4568658374719
 20
870.6137894596596
 30
0.0
 10
959.6093431013253
 20
870.4795616728588
 30
0.0
 10
959.6664669744855
 20
870.3756092557967
 30
0.0
 10
959.6950597857078
 20
870.3235768624604
 30
0.0
  0
SPLINE
  5
18E
330
1F
100
AcDbEntity
  8
0
  6
Continuous
 62
     7
370
    15
100
AcDbSpline
210
0.0
220
0.0
230
1.0
 70
     8
 71
     3
 72
    13
 73
     9
 74
     0
 42
0.00000001
 43
0.00000001
 12
1.0
 22
0.0
 32
0.0
 13
1.0
 23
0.0
 33
0.0
 40
0.0
 40
0.0
 40
0.0
 40
0.0
 40
0.1251654240196768
 40
0.2500973555591591
 40
0.3750124439683282
 40
0.5000360536303824
 40
0.7494649654421753
 40
1.0
 40
1.0
 40
1.0
 40
1.0
 10
959.6950597857078
 20
870.3235768624604
 30
0.0
 10
959.7157466213781
 20
870.2702919603609
 30
0.0
 10
959.7570817020248
 20
870.1638215576062
 30
0.0
 10
959.7468203132329
 20
869.9983446333724
 30
0.0
 10
959.6624740364758
 20
869.8475470562778
 30
0.0
 10
959.470633636213
 20
869.6831280076732
 30
0.0
 10
959.1397744326557
 20
869.5467213188783
 30
0.0
 10
958.8471582629185
 20
869.4899688169564
 30
0.0
 10
958.700526485308
 20
869.4615297862351
 30
0.0
  0
SPLINE
  5
18F
330
1F
100
AcDbEntity
  8
0
  6
Continuous
 62
     7
370
    15
100
AcDbSpline
210
0.0
220
0.0
230
1.0
 70
     8
 71
     3
 72
     9
 73
     5
 74
     0
 42
0.00000001
 43
0.00000001
 12
1.0
 22
0.0
 32
0.0
 13
1.0
 23
0.0
 33
0.0
 40
0.0
 40
0.0
 40
0.0
 40
0.0
 40
0.5016122673340575
 40
1.0
 40
1.0
 40
1.0
 40
1.0
 10
958.700526485308
 20
869.4615297862351
 30
0.0
 10
958.5263720994295
 20
869.4319212329332
 30
0.0
 10
958.1791828514389
 20
869.3728944602043
 30
0.0
 10
957.8162055236237
 20
869.4183940530169
 30
0.0
 10
957.6353020762047
 20
869.4410704919161
 30
0.0
  0
SPLINE
  5
190
330
1F
100
AcDbEntity
  8
0
  6
Continuous
 62
     7
370
    15
100
AcDbSpline
210
0.0
220
0.0
230
1.0
 70
     8
 71
     3
 72
    12
 73
     8
 74
     0
 42
0.00000001
 43
0.00000001
 12
1.0
 22
0.0
 32
0.0
 13
1.0
 23
0.0
 33
0.0
 40
0.0
 40
0.0
 40
0.0
 40
0.0
 40
0.2499887941893971
 40
0.4997378581035664
 40
0.749580844233842
 40
0.8747577598408652
 40
1.0
 40
1.0
 40
1.0
 40
1.0
 10
957.6353020762047
 20
869.4410704919161
 30
0.0
 10
957.5714513565572
 20
869.4608719269055
 30
0.0
 10
957.4438111478094
 20
869.5004558080193
 30
0.0
 10
957.2793179489944
 20
869.5967576829576
 30
0.0
 10
957.1754941716446
 20
869.6969949475586
 30
0.0
 10
957.1131627030934
 20
869.7841058173175
 30
0.0
 10
957.090258432813
 20
869.8295036118805
 30
0.0
 10
957.0788033102592
 20
869.8522084304154
 30
0.0
  0
SPLINE
  5
191
330
1F
100
AcDbEntity
  8
0
  6
Continuous
 62
     7
370
    15
100
AcDbSpline
210
0.0
220
0.0
230
1.0
 70
     8
 71
     3
 72
    11
 73
     7
 74
     0
 42
0.00000001
 43
0.00000001
 12
1.0
 22
0.0
 32
0.0
 13
1.0
 23
0.0
 33
0.0
 40
0.0
 40
0.0
 40
0.0
 40
0.0
 40
0.2500270119347064
 40
0.4997028005266442
 40
0.7496608244250077
 40
1.0
 40
1.0
 40
1.0
 40
1.0
 10
959.2545218561729
 20
870.2449732371629
 30
0.0
 10
959.2431239007009
 20
870.2647546017341
 30
0.0
 10
959.2203440009388
 20
870.3042895431711
 30
0.0
 10
959.1571675908367
 20
870.3529284300857
 30
0.0
 10
959.0789831408431
 20
870.3881948663262
 30
0.0
 10
959.0211883037842
 20
870.4016775810366
 30
0.0
 10
958.9922688697418
 20
870.4084240742982
 30
0.0
  0
SPLINE
  5
192
330
1F
100
AcDbEntity
  8
0
  6
Continuous
 62
     7
370
    15
100
AcDbSpline
210
0.0
220
0.0
230
1.0
 70
     8
 71
     3
 72
     9
 73
     5
 74
     0
 42
0.00000001
 43
0.00000001
 12
1.0
 22
0.0
 32
0.0
 13
1.0
 23
0.0
 33
0.0
 40
0.0
 40
0.0
 40
0.0
 40
0.0
 40
0.4986010324324808
 40
1.0
 40
1.0
 40
1.0
 40
1.0
 10
958.9922688697418
 20
870.4084240742982
 30
0.0
 10
958.8672890284572
 20
870.417501522068
 30
0.0
 10
958.6166280126249
 20
870.4357073563513
 30
0.0
 10
958.3783604368991
 20
870.3943013731645
 30
0.0
 10
958.2588933204254
 20
870.3735404559434
 30
0.0
  0
SPLINE
  5
193
330
1F
100
AcDbEntity
  8
0
  6
Continuous
 62
     7
370
    15
100
AcDbSpline
210
0.0
220
0.0
230
1.0
 70
     8
 71
     3
 72
    13
 73
     9
 74
     0
 42
0.00000001
 43
0.00000001
 12
1.0
 22
0.0
 32
0.0
 13
1.0
 23
0.0
 33
0.0
 40
0.0
 40
0.0
 40
0.0
 40
0.0
 40
0.5001233372433174
 40
0.6252917938516553
 40
0.7502703710435421
 40
0.8748629123558703
 40
0.9374309361189692
 40
0.9999999999999999
 40
0.9999999999999999
 40
0.9999999999999999
 40
0.9999999999999999
 10
958.2588933204254
 20
870.3735404559434
 30
0.0
 10
958.0829883480868
 20
870.3404090258176
 30
0.0
 10
957.8630587277113
 20
870.2989856211623
 30
0.0
 10
957.6381978023002
 20
870.1969689274727
 30
0.0
 10
957.5521863305813
 20
870.1257086391796
 30
0.0
 10
957.5090624420681
 20
870.0522051786817
 30
0.0
 10
957.508159311183
 20
869.9877726975104
 30
0.0
 10
957.5200991466958
 20
869.9561667867632
 30
0.0
 10
957.5260691140732
 20
869.9403637000382
 30
0.0
  0
SPLINE
  5
194
330
1F
100
AcDbEntity
  8
0
  6
Continuous
 62
     7
370
    15
100
AcDbSpline
210
0.0
220
0.0
230
1.0
 70
     8
 71
     3
 72
    13
 73
     9
 74
     0
 42
0.00000001
 43
0.00000001
 12
1.0
 22
0.0
 32
0.0
 13
1.0
 23
0.0
 33
0.0
 40
0.0
 40
0.0
 40
0.0
 40
0.0
 40
0.1245377335805085
 40
0.186832356040758
 40
0.2496599844300894
 40
0.3711704559777372
 40
0.4997132068717087
 40
1.0
 40
1.0
 40
1.0
 40
1.0
 10
957.5260691140732
 20
869.9403637000382
 30
0.0
 10
957.5462067171472
 20
869.9087844802293
 30
0.0
 10
957.5764172864197
 20
869.8614091196122
 30
0.0
 10
957.6489085231433
 20
869.8127898422129
 30
0.0
 10
957.730625263888
 20
869.7745207304297
 30
0.0
 10
957.8505761205885
 20
869.751112332187
 30
0.0
 10
958.1386412856124
 20
869.7376065125068
 30
0.0
 10
958.3702767032477
 20
869.7768415318516
 30
0.0
 10
958.5545621608337
 20
869.8080562897981
 30
0.0
  0
SPLINE
  5
195
330
1F
100
AcDbEntity
  8
0
  6
Continuous
 62
     7
370
    15
100
AcDbSpline
210
0.0
220
0.0
230
1.0
 70
     8
 71
     3
 72
    12
 73
     8
 74
     0
 42
0.00000001
 43
0.00000001
 12
1.0
 22
0.0
 32
0.0
 13
1.0
 23
0.0
 33
0.0
 40
0.0
 40
0.0
 40
0.0
 40
0.0
 40
0.5004165535690319
 40
0.6256456014210858
 40
0.7507008049673125
 40
0.8753966513452951
 40
1.0
 40
1.0
 40
1.0
 40
1.0
 10
958.5545621608337
 20
869.8080562897981
 30
0.0
 10
958.7268721376596
 20
869.8405424687124
 30
0.0
 10
958.9423026191521
 20
869.8811583012617
 30
0.0
 10
959.1566894198131
 20
869.9880711446228
 30
0.0
 10
959.2364525876999
 20
870.0608035418031
 30
0.0
 10
959.2830745623675
 20
870.1504959484092
 30
0.0
 10
959.2640370704046
 20
870.2134885983198
 30
0.0
 10
959.2545218561729
 20
870.244973237163
 30
0.0
  0
SPLINE
  5
196
330
1F
100
AcDbEntity
  8
0
  6
Continuous
 62
     7
370
    15
100
AcDbSpline
210
0.0
220
0.0
230
1.0
 70
     8
 71
     3
 72
     9
 73
     5
 74
     0
 42
0.00000001
 43
0.00000001
 12
1.0
 22
0.0
 32
0.0
 13
1.0
 23
0.0
 33
0.0
 40
0.0
 40
0.0
 40
0.0
 40
0.0
 40
0.5004912861641596
 40
1.0
 40
1.0
 40
1.0
 40
1.0
 10
957.6353020762047
 20
869.441070491916
 30
0.0
 10
957.6351674090557
 20
869.4398876696201
 30
0.0
 10
957.6348983391388
 20
869.4375243471635
 30
0.0
 10
957.6346359364902
 20
869.435168971178
 30
0.0
 10
957.6345048640808
 20
869.4339924403489
 30
0.0
  0
SPLINE
  5
197
330
1F
100
AcDbEntity
  8
0
  6
Continuous
 62
     7
370
    15
100
AcDbSpline
210
0.0
220
0.0
230
1.0
 70
     8
 71
     3
 72
     9
 73
     5
 74
     0
 42
0.00000001
 43
0.00000001
 12
1.0
 22
0.0
 32
0.0
 13
1.0
 23
0.0
 33
0.0
 40
0.0
 40
0.0
 40
0.0
 40
0.0
 40
0.5000307639607187
 40
1.0
 40
1.0
 40
1.0
 40
1.0
 10
958.700526485308
 20
869.4615297862351
 30
0.0
 10
958.7003867910863
 20
869.4603575976213
 30
0.0
 10
958.7001074198321
 20
869.4580133646293
 30
0.0
 10
958.6998354482739
 20
869.4556686988901
 30
0.0
 10
958.6996994708618
 20
869.4544964381516
 30
0.0
  0
SPLINE
  5
198
330
1F
100
AcDbEntity
  8
0
  6
Continuous
 62
     7
370
    15
100
AcDbSpline
210
0.0
220
0.0
230
1.0
 70
     8
 71
     3
 72
     9
 73
     5
 74
     0
 42
0.00000001
 43
0.00000001
 12
1.0
 22
0.0
 32
0.0
 13
1.0
 23
0.0
 33
0.0
 40
0.0
 40
0.0
 40
0.0
 40
0.0
 40
0.49942574359223
 40
1.0
 40
1.0
 40
1.0
 40
1.0
 10
957.0788033102592
 20
869.8522084304154
 30
0.0
 10
957.0786784440247
 20
869.8510069522159
 30
0.0
 10
957.0784284244052
 20
869.8486012328175
 30
0.0
 10
957.0781867025287
 20
869.8461889126237
 30
0.0
 10
957.0780657027801
 20
869.8449813672364
 30
0.0
  0
SPLINE
  5
199
330
1F
100
AcDbEntity
  8
0
  6
Continuous
 62
     7
370
    15
100
AcDbSpline
210
0.0
220
0.0
230
1.0
 70
     8
 71
     3
 72
    13
 73
     9
 74
     0
 42
0.00000001
 43
0.00000001
 12
1.0
 22
0.0
 32
0.0
 13
1.0
 23
0.0
 33
0.0
 40
0.0
 40
0.0
 40
0.0
 40
0.0
 40
0.5001698309307747
 40
0.6253393195505248
 40
0.7503161806884863
 40
0.8748889241394224
 40
0.9374443749508761
 40
1.0
 40
1.0
 40
1.0
 40
1.0
 10
958.2582078670105
 20
870.3662239857972
 30
0.0
 10
958.0822995840327
 20
870.3330934425193
 30
0.0
 10
957.862369553915
 20
870.2916718490754
 30
0.0
 10
957.6375008543438
 20
870.1896835852747
 30
0.0
 10
957.5514810895739
 20
870.1184391426452
 30
0.0
 10
957.5083573911072
 20
870.0449602553866
 30
0.0
 10
957.5074246506265
 20
869.9805459030943
 30
0.0
 10
957.5193675161145
 20
869.9489496743794
 30
0.0
 10
957.5253389571747
 20
869.9331515380204
 30
0.0
  0
SPLINE
  5
19A
330
1F
100
AcDbEntity
  8
0
  6
Continuous
 62
     7
370
    15
100
AcDbSpline
210
0.0
220
0.0
230
1.0
 70
     8
 71
     3
 72
     9
 73
     5
 74
     0
 42
0.00000001
 43
0.00000001
 12
1.0
 22
0.0
 32
0.0
 13
1.0
 23
0.0
 33
0.0
 40
0.0
 40
0.0
 40
0.0
 40
0.0
 40
0.4985946912253965
 40
1.0
 40
1.0
 40
1.0
 40
1.0
 10
958.9915610645851
 20
870.4011374064744
 30
0.0
 10
958.8665860682751
 20
870.4102097182897
 30
0.0
 10
958.6159315817564
 20
870.4284054832569
 30
0.0
 10
958.3776723238096
 20
870.3869899526895
 30
0.0
 10
958.2582078670105
 20
870.3662239857972
 30
0.0
  0
SPLINE
  5
19B
330
1F
100
AcDbEntity
  8
0
  6
Continuous
 62
     7
370
    15
100
AcDbSpline
210
0.0
220
0.0
230
1.0
 70
     8
 71
     3
 72
    11
 73
     7
 74
     0
 42
0.00000001
 43
0.00000001
 12
1.0
 22
0.0
 32
0.0
 13
1.0
 23
0.0
 33
0.0
 40
0.0
 40
0.0
 40
0.0
 40
0.0
 40
0.2499847672952941
 40
0.4996537062521193
 40
0.7496350386416196
 40
1.0
 40
1.0
 40
1.0
 40
1.0
 10
959.2537916992744
 20
870.237761075145
 30
0.0
 10
959.2423956659114
 20
870.2575322160135
 30
0.0
 10
959.219617996824
 20
870.2970495190823
 30
0.0
 10
959.1564468913125
 20
870.3456687464062
 30
0.0
 10
959.078277310538
 20
870.3809466580035
 30
0.0
 10
959.0204812511674
 20
870.3944037176875
 30
0.0
 10
958.9915610645851
 20
870.4011374064744
 30
0.0
  0
LINE
  5
19C
330
1F
100
AcDbEntity
  8
0
  6
Continuous
 62
     7
370
    15
100
AcDbLine
 10
959.2537916993
 20
870.2377610751
 30
0.0
 11
959.2545218562
 21
870.2449732372
 31
0.0
  0
SPLINE
  5
19D
330
1F
100
AcDbEntity
  8
0
  6
Continuous
 62
     7
370
    15
100
AcDbSpline
210
0.0
220
0.0
230
1.0
 70
     8
 71
     3
 72
     9
 73
     5
 74
     0
 42
0.00000001
 43
0.00000001
 12
1.0
 22
0.0
 32
0.0
 13
1.0
 23
0.0
 33
0.0
 40
0.0
 40
0.0
 40
0.0
 40
0.0
 40
0.4995188506088036
 40
1.0
 40
1.0
 40
1.0
 40
1.0
 10
958.2582078670105
 20
870.3662239857972
 30
0.0
 10
958.2583221641081
 20
870.3674402601766
 30
0.0
 10
958.2585509784914
 20
870.3698751520291
 30
0.0
 10
958.258779133263
 20
870.3723179044193
 30
0.0
 10
958.2588933204254
 20
870.3735404559434
 30
0.0
  0
SPLINE
  5
19E
330
1F
100
AcDbEntity
  8
0
  6
Continuous
 62
     7
370
    15
100
AcDbSpline
210
0.0
220
0.0
230
1.0
 70
     8
 71
     3
 72
     9
 73
     5
 74
     0
 42
0.00000001
 43
0.00000001
 12
1.0
 22
0.0
 32
0.0
 13
1.0
 23
0.0
 33
0.0
 40
0.0
 40
0.0
 40
0.0
 40
0.0
 40
0.5006321596082977
 40
1.0
 40
1.0
 40
1.0
 40
1.0
 10
958.9915610645851
 20
870.4011374064744
 30
0.0
 10
958.9916808215652
 20
870.4023548098794
 30
0.0
 10
958.9919200330856
 20
870.4047865422033
 30
0.0
 10
958.9921526889068
 20
870.4072125860313
 30
0.0
 10
958.9922688697418
 20
870.4084240742982
 30
0.0
  0
SPLINE
  5
19F
330
1F
100
AcDbEntity
  8
0
  6
Continuous
 62
     7
370
    15
100
AcDbSpline
210
0.0
220
0.0
230
1.0
 70
     8
 71
     3
 72
    12
 73
     8
 74
     0
 42
0.00000001
 43
0.00000001
 12
1.0
 22
0.0
 32
0.0
 13
1.0
 23
0.0
 33
0.0
 40
0.0
 40
0.0
 40
0.0
 40
0.0
 40
0.0304667995954946
 40
0.0888047009239065
 40
0.3925495652539553
 40
0.6962784659953526
 40
1.0
 40
1.0
 40
1.0
 40
1.0
 10
961.152803132399
 20
874.2036157199205
 30
0.0
 10
961.1485436204823
 20
874.2133259815172
 30
0.0
 10
961.1361279848768
 20
874.2416294754335
 30
0.0
 10
961.074280652513
 20
874.3650994995021
 30
0.0
 10
960.9285494447413
 20
874.5619113206051
 30
0.0
 10
960.6586297114222
 20
874.7772483156944
 30
0.0
 10
960.4507071762005
 20
874.8473751341187
 30
0.0
 10
960.3467471693596
 20
874.8824381181062
 30
0.0
  0
SPLINE
  5
1A0
330
1F
100
AcDbEntity
  8
0
  6
Continuous
 62
     7
370
    15
100
AcDbSpline
210
0.0
220
0.0
230
1.0
 70
     8
 71
     3
 72
    11
 73
     7
 74
     0
 42
0.00000001
 43
0.00000001
 12
1.0
 22
0.0
 32
0.0
 13
1.0
 23
0.0
 33
0.0
 40
0.0
 40
0.0
 40
0.0
 40
0.0
 40
0.3704607287730872
 40
0.744162020256314
 40
0.9440896835891066
 40
1.0
 40
1.0
 40
1.0
 40
1.0
 10
960.3231809829315
 20
874.9020778485597
 30
0.0
 10
960.3246721548902
 20
874.8992909956758
 30
0.0
 10
960.3276675426636
 20
874.8936929122319
 30
0.0
 10
960.3349222473526
 20
874.8869774006756
 30
0.0
 10
960.3424549519559
 20
874.8835908354648
 30
0.0
 10
960.3459773841319
 20
874.8826448515288
 30
0.0
 10
960.3467471693596
 20
874.8824381181062
 30
0.0
  0
SPLINE
  5
1A1
330
1F
100
AcDbEntity
  8
0
  6
Continuous
 62
     7
370
    15
100
AcDbSpline
210
0.0
220
0.0
230
1.0
 70
     8
 71
     3
 72
    12
 73
     8
 74
     0
 42
0.00000001
 43
0.00000001
 12
1.0
 22
0.0
 32
0.0
 13
1.0
 23
0.0
 33
0.0
 40
0.0
 40
0.0
 40
0.0
 40
0.0
 40
0.0304724789494582
 40
0.0888154614886684
 40
0.3925569889474436
 40
0.6962767413086746
 40
1.0
 40
1.0
 40
1.0
 40
1.0
 10
980.3533144091209
 20
833.0279895016015
 30
0.0
 10
980.3580172570591
 20
833.0184834177489
 30
0.0
 10
980.3717242354325
 20
832.9907768689735
 30
0.0
 10
980.426540481182
 20
832.8640234754696
 30
0.0
 10
980.4836453566313
 20
832.6258845860389
 30
0.0
 10
980.4750793812148
 20
832.2806991310605
 30
0.0
 10
980.3951595515193
 20
832.0763430907612
 30
0.0
 10
980.3551994060119
 20
831.9741644808114
 30
0.0
  0
SPLINE
  5
1A2
330
1F
100
AcDbEntity
  8
0
  6
Continuous
 62
     7
370
    15
100
AcDbSpline
210
0.0
220
0.0
230
1.0
 70
     8
 71
     3
 72
    10
 73
     6
 74
     0
 42
0.00000001
 43
0.00000001
 12
1.0
 22
0.0
 32
0.0
 13
1.0
 23
0.0
 33
0.0
 40
0.0
 40
0.0
 40
0.0
 40
0.0
 40
0.2117385769596805
 40
0.4880254345178985
 40
1.0
 40
1.0
 40
1.0
 40
1.0
 10
980.3551994060119
 20
831.9741644808114
 30
0.0
 10
980.3540839225897
 20
831.971425762854
 30
0.0
 10
980.3515129018072
 20
831.9651134316746
 30
0.0
 10
980.3511232274286
 20
831.9539432579388
 30
0.0
 10
980.3535311535932
 20
831.9476062907831
 30
0.0
 10
980.3550950978836
 20
831.9434904404939
 30
0.0
  0
SPLINE
  5
1A3
330
1F
100
AcDbEntity
  8
0
  6
Continuous
 62
     7
370
    15
100
AcDbSpline
210
0.0
220
0.0
230
1.0
 70
     8
 71
     3
 72
    12
 73
     8
 74
     0
 42
0.00000001
 43
0.00000001
 12
1.0
 22
0.0
 32
0.0
 13
1.0
 23
0.0
 33
0.0
 40
0.0
 40
0.0
 40
0.0
 40
0.0
 40
0.223898501028655
 40
0.4477874895463599
 40
0.6716864108854033
 40
0.8955820478902206
 40
1.0
 40
1.0
 40
1.0
 40
1.0
 10
959.0283371304115
 20
879.2613082476914
 30
0.0
 10
959.0004682371563
 20
879.2609734166957
 30
0.0
 10
958.9447316346786
 20
879.2603037689299
 30
0.0
 10
958.872770876679
 20
879.2596935948176
 30
0.0
 10
958.8203738685434
 20
879.2593835689264
 30
0.0
 10
958.7970463579052
 20
879.2592876801748
 30
0.0
 10
958.7950923236466
 20
879.2592944407685
 30
0.0
 10
958.7944708560547
 20
879.2592965909303
 30
0.0
  0
LINE
  5
1A4
330
1F
100
AcDbEntity
  8
0
  6
Continuous
 62
     7
370
    15
100
AcDbLine
 10
959.0283371304
 20
879.2613082477
 30
0.0
 11
972.0166586135
 21
879.4028543779
 31
0.0
  0
LINE
  5
1A5
330
1F
100
AcDbEntity
  8
0
  6
Continuous
 62
     7
370
    15
100
AcDbLine
 10
973.6633561348
 20
879.4207953759
 30
0.0
 11
978.1231619214
 21
879.4694029638
 31
0.0
  0
LINE
  5
1A6
330
1F
100
AcDbEntity
  8
0
  6
Continuous
 62
     7
370
    15
100
AcDbLine
 10
978.1231619214
 20
879.4694029638
 30
0.0
 11
979.6018041466
 21
879.4877760955
 31
0.0
  0
SPLINE
  5
1A7
330
1F
100
AcDbEntity
  8
0
  6
Continuous
 62
     7
370
    15
100
AcDbSpline
210
0.0
220
0.0
230
1.0
 70
     8
 71
     3
 72
    13
 73
     9
 74
     0
 42
0.00000001
 43
0.00000001
 12
1.0
 22
0.0
 32
0.0
 13
1.0
 23
0.0
 33
0.0
 40
0.0
 40
0.0
 40
0.0
 40
0.0
 40
0.1250865247034373
 40
0.2500377164409187
 40
0.3704970168295111
 40
0.4999336973509559
 40
0.7494843677089363
 40
0.9999999999999999
 40
0.9999999999999999
 40
0.9999999999999999
 40
0.9999999999999999
 10
977.5451756809791
 20
825.9571948000253
 30
0.0
 10
977.5348907489962
 20
825.9897189291685
 30
0.0
 10
977.5143320124511
 20
826.0547319991172
 30
0.0
 10
977.5365062277024
 20
826.1995920082857
 30
0.0
 10
977.6092717374281
 20
826.3764992543856
 30
0.0
 10
977.7621115558032
 20
826.6301907599933
 30
0.0
 10
978.016903088416
 20
826.9451494855547
 30
0.0
 10
978.236155924985
 20
827.1694016626931
 30
0.0
 10
978.3459938858589
 20
827.2817441173852
 30
0.0
  0
SPLINE
  5
1A8
330
1F
100
AcDbEntity
  8
0
  6
Continuous
 62
     7
370
    15
100
AcDbSpline
210
0.0
220
0.0
230
1.0
 70
     8
 71
     3
 72
    13
 73
     9
 74
     0
 42
0.00000001
 43
0.00000001
 12
1.0
 22
0.0
 32
0.0
 13
1.0
 23
0.0
 33
0.0
 40
0.0
 40
0.0
 40
0.0
 40
0.0
 40
0.250521822469646
 40
0.5001104981366804
 40
0.6251882837686382
 40
0.750006254740244
 40
0.8748625675222
 40
1.0
 40
1.0
 40
1.0
 40
1.0
 10
978.3459938858589
 20
827.2817441173852
 30
0.0
 10
978.4566366914094
 20
827.3907919257135
 30
0.0
 10
978.6775101788112
 20
827.6084813597363
 30
0.0
 10
978.9673324109157
 20
827.8403261700778
 30
0.0
 10
979.18648763464
 20
827.9652806217206
 30
0.0
 10
979.3301108380354
 20
828.0082569852696
 30
0.0
 10
979.4309295917418
 20
827.9850362389365
 30
0.0
 10
979.4639600118369
 20
827.9329400942228
 30
0.0
 10
979.4804937933525
 20
827.9068627306283
 30
0.0
  0
SPLINE
  5
1A9
330
1F
100
AcDbEntity
  8
0
  6
Continuous
 62
     7
370
    15
100
AcDbSpline
210
0.0
220
0.0
230
1.0
 70
     8
 71
     3
 72
    13
 73
     9
 74
     0
 42
0.00000001
 43
0.00000001
 12
1.0
 22
0.0
 32
0.0
 13
1.0
 23
0.0
 33
0.0
 40
0.0
 40
0.0
 40
0.0
 40
0.0
 40
0.1251540069111933
 40
0.2501213188800704
 40
0.3696976930224199
 40
0.500064337856621
 40
0.7494846792933131
 40
1.0
 40
1.0
 40
1.0
 40
1.0
 10
979.4804937933525
 20
827.9068627306283
 30
0.0
 10
979.4909796662661
 20
827.8754211659532
 30
0.0
 10
979.5119357700894
 20
827.8125849386655
 30
0.0
 10
979.4899018232055
 20
827.6752422403864
 30
0.0
 10
979.4156550255033
 20
827.5051864676099
 30
0.0
 10
979.2609410968603
 20
827.2597000538133
 30
0.0
 10
979.0060712814098
 20
826.9508296159147
 30
0.0
 10
978.7891441335183
 20
826.7295678097005
 30
0.0
 10
978.6804429982742
 20
826.6186945983231
 30
0.0
  0
SPLINE
  5
1AA
330
1F
100
AcDbEntity
  8
0
  6
Continuous
 62
     7
370
    15
100
AcDbSpline
210
0.0
220
0.0
230
1.0
 70
     8
 71
     3
 72
     9
 73
     5
 74
     0
 42
0.00000001
 43
0.00000001
 12
1.0
 22
0.0
 32
0.0
 13
1.0
 23
0.0
 33
0.0
 40
0.0
 40
0.0
 40
0.0
 40
0.0
 40
0.5015868926595586
 40
1.0
 40
1.0
 40
1.0
 40
1.0
 10
978.6804429982742
 20
826.6186945983231
 30
0.0
 10
978.551828542084
 20
826.4901876392806
 30
0.0
 10
978.2954134362021
 20
826.2339868475073
 30
0.0
 10
978.0381697379794
 20
826.0503622730677
 30
0.0
 10
977.9099561070045
 20
825.9588413783372
 30
0.0
  0
SPLINE
  5
1AB
330
1F
100
AcDbEntity
  8
0
  6
Continuous
 62
     7
370
    15
100
AcDbSpline
210
0.0
220
0.0
230
1.0
 70
     8
 71
     3
 72
    12
 73
     8
 74
     0
 42
0.00000001
 43
0.00000001
 12
1.0
 22
0.0
 32
0.0
 13
1.0
 23
0.0
 33
0.0
 40
0.0
 40
0.0
 40
0.0
 40
0.0
 40
0.2499599133100937
 40
0.4997585682609883
 40
0.7495964298463448
 40
0.8747679356930009
 40
1.0
 40
1.0
 40
1.0
 40
1.0
 10
977.9099486564239
 20
825.9588413783372
 30
0.0
 10
977.8658964506453
 20
825.9361863172661
 30
0.0
 10
977.7778204587911
 20
825.8908908107389
 30
0.0
 10
977.667905164282
 20
825.8687015352824
 30
0.0
 10
977.6020727129455
 20
825.8878984178386
 30
0.0
 10
977.56466815226
 20
825.9219365600879
 30
0.0
 10
977.5516742189052
 20
825.9454401586493
 30
0.0
 10
977.5451756809791
 20
825.9571948000253
 30
0.0
  0
SPLINE
  5
1AC
330
1F
100
AcDbEntity
  8
0
  6
Continuous
 62
     7
370
    15
100
AcDbSpline
210
0.0
220
0.0
230
1.0
 70
     8
 71
     3
 72
    11
 73
     7
 74
     0
 42
0.00000001
 43
0.00000001
 12
1.0
 22
0.0
 32
0.0
 13
1.0
 23
0.0
 33
0.0
 40
0.0
 40
0.0
 40
0.0
 40
0.0
 40
0.2500009498902572
 40
0.499716494283808
 40
0.7496079001104504
 40
1.0
 40
1.0
 40
1.0
 40
1.0
 10
979.1548885201057
 20
827.5791712948144
 30
0.0
 10
979.1483274854726
 20
827.588848975944
 30
0.0
 10
979.135212906399
 20
827.6081932899916
 30
0.0
 10
979.092490505506
 20
827.6100723485401
 30
0.0
 10
979.0390267063808
 20
827.5941155261529
 30
0.0
 10
978.99795646286
 20
827.5709232441717
 30
0.0
 10
978.9774007891258
 20
827.5593154975236
 30
0.0
  0
SPLINE
  5
1AD
330
1F
100
AcDbEntity
  8
0
  6
Continuous
 62
     7
370
    15
100
AcDbSpline
210
0.0
220
0.0
230
1.0
 70
     8
 71
     3
 72
     9
 73
     5
 74
     0
 42
0.00000001
 43
0.00000001
 12
1.0
 22
0.0
 32
0.0
 13
1.0
 23
0.0
 33
0.0
 40
0.0
 40
0.0
 40
0.0
 40
0.0
 40
0.4985476110484166
 40
0.9999999999999999
 40
0.9999999999999999
 40
0.9999999999999999
 40
0.9999999999999999
 10
978.9774007891258
 20
827.5593154975236
 30
0.0
 10
978.8873275565842
 20
827.4928336770089
 30
0.0
 10
978.7066562815736
 20
827.3594826809526
 30
0.0
 10
978.5305496014621
 20
827.1832092392431
 30
0.0
 10
978.44224048601
 20
827.094816500789
 30
0.0
  0
SPLINE
  5
1AE
330
1F
100
AcDbEntity
  8
0
  6
Continuous
 62
     7
370
    15
100
AcDbSpline
210
0.0
220
0.0
230
1.0
 70
     8
 71
     3
 72
    13
 73
     9
 74
     0
 42
0.00000001
 43
0.00000001
 12
1.0
 22
0.0
 32
0.0
 13
1.0
 23
0.0
 33
0.0
 40
0.0
 40
0.0
 40
0.0
 40
0.0
 40
0.500124883886223
 40
0.625272204233402
 40
0.750281907812956
 40
0.8748519237866784
 40
0.9374069795235452
 40
1.0
 40
1.0
 40
1.0
 40
1.0
 10
978.44224048601
 20
827.094816500789
 30
0.0
 10
978.3120422685118
 20
826.9625359545774
 30
0.0
 10
978.1492642723249
 20
826.7971545641051
 30
0.0
 10
977.9785330885505
 20
826.5776801242991
 30
0.0
 10
977.9106513353023
 20
826.4666045431673
 30
0.0
 10
977.8741040983632
 20
826.3797900200273
 30
0.0
 10
977.8678296328602
 20
826.3253734734885
 30
0.0
 10
977.873839754434
 20
826.3063262266872
 30
0.0
 10
977.8768457268318
 20
826.2967997142136
 30
0.0
  0
SPLINE
  5
1AF
330
1F
100
AcDbEntity
  8
0
  6
Continuous
 62
     7
370
    15
100
AcDbSpline
210
0.0
220
0.0
230
1.0
 70
     8
 71
     3
 72
    13
 73
     9
 74
     0
 42
0.00000001
 43
0.00000001
 12
1.0
 22
0.0
 32
0.0
 13
1.0
 23
0.0
 33
0.0
 40
0.0
 40
0.0
 40
0.0
 40
0.0
 40
0.1244482429403141
 40
0.1880901194658706
 40
0.2496125019296611
 40
0.3617990909435735
 40
0.4997480215306701
 40
1.0
 40
1.0
 40
1.0
 40
1.0
 10
977.8768457268318
 20
826.2967997142136
 30
0.0
 10
977.8887198014183
 20
826.2827675693621
 30
0.0
 10
977.9066661866368
 20
826.2615594933047
 30
0.0
 10
977.9553471333533
 20
826.2659181233201
 30
0.0
 10
978.0091912832951
 20
826.2835547000022
 30
0.0
 10
978.0925205444034
 20
826.3339938328884
 30
0.0
 10
978.299947418758
 20
826.4959385194685
 30
0.0
 10
978.4733605560888
 20
826.6688453991233
 30
0.0
 10
978.6092899535736
 20
826.8043779679597
 30
0.0
  0
SPLINE
  5
1B0
330
1F
100
AcDbEntity
  8
0
  6
Continuous
 62
     7
370
    15
100
AcDbSpline
210
0.0
220
0.0
230
1.0
 70
     8
 71
     3
 72
    12
 73
     8
 74
     0
 42
0.00000001
 43
0.00000001
 12
1.0
 22
0.0
 32
0.0
 13
1.0
 23
0.0
 33
0.0
 40
0.0
 40
0.0
 40
0.0
 40
0.0
 40
0.5003892150092466
 40
0.6256111172285488
 40
0.7507107321472484
 40
0.8753605291539219
 40
1.0
 40
1.0
 40
1.0
 40
1.0
 10
978.6092899535736
 20
826.8043779679597
 30
0.0
 10
978.7370288211104
 20
826.9338564983761
 30
0.0
 10
978.8967342129058
 20
827.0957369019524
 30
0.0
 10
979.0615784146092
 20
827.3106852905128
 30
0.0
 10
979.1258208400723
 20
827.4173752711982
 30
0.0
 10
979.1678865014702
 20
827.5185896473477
 30
0.0
 10
979.1592210609128
 20
827.558977969986
 30
0.0
 10
979.1548885201057
 20
827.5791712948144
 30
0.0
  0
SPLINE
  5
1B1
330
1F
100
AcDbEntity
  8
0
  6
Continuous
 62
     7
370
    15
100
AcDbSpline
210
0.0
220
0.0
230
1.0
 70
     8
 71
     3
 72
     9
 73
     5
 74
     0
 42
0.00000001
 43
0.00000001
 12
1.0
 22
0.0
 32
0.0
 13
1.0
 23
0.0
 33
0.0
 40
0.0
 40
0.0
 40
0.0
 40
0.0
 40
0.4997717943183895
 40
1.0
 40
1.0
 40
1.0
 40
1.0
 10
977.5451756809791
 20
825.9571948000253
 30
0.0
 10
977.5440156094998
 20
825.9582151422587
 30
0.0
 10
977.541694407118
 20
825.9602567585424
 30
0.0
 10
977.5393763808315
 20
825.9623030267719
 30
0.0
 10
977.5382168387016
 20
825.9633266278565
 30
0.0
  0
SPLINE
  5
1B2
330
1F
100
AcDbEntity
  8
0
  6
Continuous
 62
     7
370
    15
100
AcDbSpline
210
0.0
220
0.0
230
1.0
 70
     8
 71
     3
 72
     9
 73
     5
 74
     0
 42
0.00000001
 43
0.00000001
 12
1.0
 22
0.0
 32
0.0
 13
1.0
 23
0.0
 33
0.0
 40
0.0
 40
0.0
 40
0.0
 40
0.0
 40
0.4999666820587134
 40
1.0
 40
1.0
 40
1.0
 40
1.0
 10
978.3459938858589
 20
827.2817441173852
 30
0.0
 10
978.3448445953715
 20
827.2827481164215
 30
0.0
 10
978.3425458612182
 20
827.2847562483076
 30
0.0
 10
978.3402401367179
 20
827.286756528957
 30
0.0
 10
978.3390871976455
 20
827.2877567359269
 30
0.0
  0
SPLINE
  5
1B3
330
1F
100
AcDbEntity
  8
0
  6
Continuous
 62
     7
370
    15
100
AcDbSpline
210
0.0
220
0.0
230
1.0
 70
     8
 71
     3
 72
    12
 73
     8
 74
     0
 42
0.00000001
 43
0.00000001
 12
1.0
 22
0.0
 32
0.0
 13
1.0
 23
0.0
 33
0.0
 40
0.0
 40
0.0
 40
0.0
 40
0.0
 40
0.5004295746589428
 40
0.6256574702671359
 40
0.7507499529452244
 40
0.8753846023534363
 40
0.9999999999999999
 40
0.9999999999999999
 40
0.9999999999999999
 40
0.9999999999999999
 10
978.6023087595543
 20
826.8105544992745
 30
0.0
 10
978.7300432906518
 20
826.940033460329
 30
0.0
 10
978.8897422126165
 20
827.1019133397932
 30
0.0
 10
979.0546137766046
 20
827.316839734372
 30
0.0
 10
979.1188374156135
 20
827.4235291086644
 30
0.0
 10
979.1609310992364
 20
827.5247232325959
 30
0.0
 10
979.1522682289816
 20
827.5651108657925
 30
0.0
 10
979.1479371284088
 20
827.5853031226457
 30
0.0
  0
SPLINE
  5
1B4
330
1F
100
AcDbEntity
  8
0
  6
Continuous
 62
     7
370
    15
100
AcDbSpline
210
0.0
220
0.0
230
1.0
 70
     8
 71
     3
 72
    13
 73
     9
 74
     0
 42
0.00000001
 43
0.00000001
 12
1.0
 22
0.0
 32
0.0
 13
1.0
 23
0.0
 33
0.0
 40
0.0
 40
0.0
 40
0.0
 40
0.0
 40
0.1244215470541309
 40
0.1880542420276143
 40
0.2495686614610191
 40
0.3617557799647214
 40
0.4997084763936915
 40
1.0
 40
1.0
 40
1.0
 40
1.0
 10
977.8698868845543
 20
826.3029315420449
 30
0.0
 10
977.8817576971954
 20
826.2889066971068
 30
0.0
 10
977.899699578858
 20
826.2677091501636
 30
0.0
 10
977.9483835466293
 20
826.2720621474316
 30
0.0
 10
978.002217248623
 20
826.2897152062836
 30
0.0
 10
978.0855508161852
 20
826.3401555383709
 30
0.0
 10
978.2929621325532
 20
826.5021232153154
 30
0.0
 10
978.4663767115627
 20
826.6750246682249
 30
0.0
 10
978.6023087595543
 20
826.8105544992745
 30
0.0
  0
SPLINE
  5
1B5
330
1F
100
AcDbEntity
  8
0
  6
Continuous
 62
     7
370
    15
100
AcDbSpline
210
0.0
220
0.0
230
1.0
 70
    11
 71
     3
 72
    23
 73
    19
 74
     0
 42
0.00000001
 43
0.00000001
 12
1.0
 22
0.0
 32
0.0
 13
1.0
 23
0.0
 33
0.0
 40
0.0
 40
0.0
 40
0.0
 40
0.0
 40
0.0623414456610169
 40
0.1250305040264691
 40
0.1876128381637629
 40
0.2501173644269788
 40
0.3126799660780443
 40
0.3751826274222558
 40
0.4377106265443073
 40
0.5002595525356375
 40
0.562758481721995
 40
0.6253438720229403
 40
0.6878346405621504
 40
0.7504062236449167
 40
0.8129298321195069
 40
0.875496107830044
 40
0.9382243089074441
 40
1.0
 40
1.0
 40
1.0
 40
1.0
 10
976.9678376411041
 20
823.8222905346215
 30
0.0
 10
977.0618248503368
 20
823.9675385111796
 30
0.0
 10
977.2503233366618
 20
824.2588443595653
 30
0.0
 10
977.3568818371904
 20
824.6057260683879
 30
0.0
 10
977.2936317486462
 20
824.8146866813757
 30
0.0
 10
977.0653070854771
 20
824.8547301192541
 30
0.0
 10
976.7125023573191
 20
824.7201440438587
 30
0.0
 10
976.2907729741881
 20
824.4227978637964
 30
0.0
 10
975.8686465410242
 20
824.009528829946
 30
0.0
 10
975.511696884482
 20
823.5399397124654
 30
0.0
 10
975.2694571913482
 20
823.0893884103137
 30
0.0
 10
975.1763554174187
 20
822.7299863024269
 30
0.0
 10
975.2436220806773
 20
822.5204005185877
 30
0.0
 10
975.457909788904
 20
822.4899936210495
 30
0.0
 10
975.7929352591561
 20
822.6450554417939
 30
0.0
 10
976.1980018196697
 20
822.9553812668054
 30
0.0
 10
976.6222659896471
 20
823.3731224919601
 30
0.0
 10
976.8532360985364
 20
823.6733334360167
 30
0.0
 10
976.9678376411041
 20
823.8222905346215
 30
0.0
  0
SPLINE
  5
1B6
330
1F
100
AcDbEntity
  8
0
  6
Continuous
 62
     7
370
    15
100
AcDbSpline
210
0.0
220
0.0
230
1.0
 70
     8
 71
     3
 72
     9
 73
     5
 74
     0
 42
0.00000001
 43
0.00000001
 12
1.0
 22
0.0
 32
0.0
 13
1.0
 23
0.0
 33
0.0
 40
0.0
 40
0.0
 40
0.0
 40
0.0
 40
0.5000305244207602
 40
1.0
 40
1.0
 40
1.0
 40
1.0
 10
979.1479371284088
 20
827.5853031226457
 30
0.0
 10
979.1490975210437
 20
827.5842830452605
 30
0.0
 10
979.1514181646409
 20
827.5822430150312
 30
0.0
 10
979.153731782032
 20
827.5801951598802
 30
0.0
 10
979.1548885201057
 20
827.5791712948144
 30
0.0
  0
SPLINE
  5
1B7
330
1F
100
AcDbEntity
  8
0
  6
Continuous
 62
     7
370
    15
100
AcDbSpline
210
0.0
220
0.0
230
1.0
 70
     8
 71
     3
 72
     9
 73
     5
 74
     0
 42
0.00000001
 43
0.00000001
 12
1.0
 22
0.0
 32
0.0
 13
1.0
 23
0.0
 33
0.0
 40
0.0
 40
0.0
 40
0.0
 40
0.0
 40
0.4995271609237784
 40
0.9999999999999999
 40
0.9999999999999999
 40
0.9999999999999999
 40
0.9999999999999999
 10
978.6023087595543
 20
826.8105544992745
 30
0.0
 10
978.6034709795429
 20
826.8095264530295
 30
0.0
 10
978.6057976197728
 20
826.8074684142973
 30
0.0
 10
978.6081251086215
 20
826.8054087659938
 30
0.0
 10
978.6092899535736
 20
826.8043779679597
 30
0.0
  0
SPLINE
  5
1B8
330
1F
100
AcDbEntity
  8
0
  6
Continuous
 62
     7
370
    15
100
AcDbSpline
210
0.0
220
0.0
230
1.0
 70
     8
 71
     3
 72
     9
 73
     5
 74
     0
 42
0.00000001
 43
0.00000001
 12
1.0
 22
0.0
 32
0.0
 13
1.0
 23
0.0
 33
0.0
 40
0.0
 40
0.0
 40
0.0
 40
0.0
 40
0.5002281419467696
 40
1.0
 40
1.0
 40
1.0
 40
1.0
 10
977.8698868845543
 20
826.3029315420449
 30
0.0
 10
977.8710464267583
 20
826.301907940895
 30
0.0
 10
977.8733644534881
 20
826.299861672275
 30
0.0
 10
977.8756856554263
 20
826.297820056382
 30
0.0
 10
977.8768457268318
 20
826.2967997142136
 30
0.0
  0
LWPOLYLINE
  5
1B9
330
1F
100
AcDbEntity
  8
0
  6
Continuous
 62
     7
370
    15
100
AcDbPolyline
 90
        9
 70
   128
 43
0.0
 10
981.8861149047
 20
875.9842448779
 10
983.5080019926
 20
872.5060903379
 10
985.1494990085
 20
868.9858847209
 10
986.8041164969
 20
865.4375606128
 10
988.4652979468
 20
861.8751549074
 10
990.1264793967
 20
858.3127343007
 10
991.7810894345
 20
854.7644101926
 10
993.4225864504
 20
851.2442120262
 10
995.0444735383
 20
847.7660574862
  0
SPLINE
  5
1BA
330
1F
100
AcDbEntity
  8
0
  6
Continuous
 62
     7
370
    15
100
AcDbSpline
210
0.0
220
0.0
230
1.0
 70
     8
 71
     3
 72
    12
 73
     8
 74
     0
 42
0.00000001
 43
0.00000001
 12
1.0
 22
0.0
 32
0.0
 13
1.0
 23
0.0
 33
0.0
 40
0.0
 40
0.0
 40
0.0
 40
0.0
 40
0.2499787738522794
 40
0.499822348454568
 40
0.7496268389440542
 40
0.8747851565472413
 40
0.9999999999999999
 40
0.9999999999999999
 40
0.9999999999999999
 40
0.9999999999999999
 10
978.6641038750251
 20
826.3731979676545
 30
0.0
 10
978.6833569183322
 20
826.4194738576754
 30
0.0
 10
978.721852592074
 20
826.5120006097293
 30
0.0
 10
978.8194674661734
 20
826.670421080614
 30
0.0
 10
978.9195997857994
 20
826.8033304108285
 30
0.0
 10
979.0079946801499
 20
826.9063213655265
 30
0.0
 10
979.0546902005093
 20
826.9551010604432
 30
0.0
 10
979.078043231829
 20
826.9794964143098
 30
0.0
  0
SPLINE
  5
1BB
330
1F
100
AcDbEntity
  8
0
  6
Continuous
 62
     7
370
    15
100
AcDbSpline
210
0.0
220
0.0
230
1.0
 70
     8
 71
     3
 72
    13
 73
     9
 74
     0
 42
0.00000001
 43
0.00000001
 12
1.0
 22
0.0
 32
0.0
 13
1.0
 23
0.0
 33
0.0
 40
0.0
 40
0.0
 40
0.0
 40
0.0
 40
0.2483275042741703
 40
0.3756381173367346
 40
0.4994493502634538
 40
0.623149372775754
 40
0.7497936497007848
 40
1.0
 40
1.0
 40
1.0
 40
1.0
 10
979.078043231829
 20
826.9794964143098
 30
0.0
 10
979.1593631516507
 20
827.0560491122847
 30
0.0
 10
979.2823735353497
 20
827.1718482519263
 30
0.0
 10
979.4397691501192
 20
827.2749225187173
 30
0.0
 10
979.5472006570919
 20
827.3284639138842
 30
0.0
 10
979.6376736538865
 20
827.3521238815409
 30
0.0
 10
979.7290095363194
 20
827.3422117271705
 30
0.0
 10
979.7604283884504
 20
827.2938312552707
 30
0.0
 10
979.7812886332115
 20
827.2617095061601
 30
0.0
  0
SPLINE
  5
1BC
330
1F
100
AcDbEntity
  8
0
  6
Continuous
 62
     7
370
    15
100
AcDbSpline
210
0.0
220
0.0
230
1.0
 70
     8
 71
     3
 72
    13
 73
     9
 74
     0
 42
0.00000001
 43
0.00000001
 12
1.0
 22
0.0
 32
0.0
 13
1.0
 23
0.0
 33
0.0
 40
0.0
 40
0.0
 40
0.0
 40
0.0
 40
0.2502969108327566
 40
0.3754479633091282
 40
0.5005615530941959
 40
0.6239816365895273
 40
0.7509190657106496
 40
1.0
 40
1.0
 40
1.0
 40
1.0
 10
979.7812886332115
 20
827.2617095061601
 30
0.0
 10
979.7948233373728
 20
827.2223708338001
 30
0.0
 10
979.8151255340499
 20
827.1633624170853
 30
0.0
 10
979.7921104815302
 20
827.0422430902701
 30
0.0
 10
979.7437774032453
 20
826.9296918549985
 30
0.0
 10
979.6692772871119
 20
826.8031939685256
 30
0.0
 10
979.5436513230189
 20
826.6248925496952
 30
0.0
 10
979.4240647168945
 20
826.4953249616987
 30
0.0
 10
979.3448485230049
 20
826.4094971963227
 30
0.0
  0
SPLINE
  5
1BD
330
1F
100
AcDbEntity
  8
0
  6
Continuous
 62
     7
370
    15
100
AcDbSpline
210
0.0
220
0.0
230
1.0
 70
     8
 71
     3
 72
    10
 73
     6
 74
     0
 42
0.00000001
 43
0.00000001
 12
1.0
 22
0.0
 32
0.0
 13
1.0
 23
0.0
 33
0.0
 40
0.0
 40
0.0
 40
0.0
 40
0.0
 40
0.2507453570912364
 40
0.5012612903051346
 40
1.0
 40
1.0
 40
1.0
 40
1.0
 10
979.3448485230049
 20
826.4094971963227
 30
0.0
 10
979.2978335806499
 20
826.3633603768905
 30
0.0
 10
979.2038467130889
 20
826.2711289517208
 30
0.0
 10
979.0145470996213
 20
826.1190957553348
 30
0.0
 10
978.8997467083786
 20
826.0671588457309
 30
0.0
 10
978.823330232962
 20
826.0325872250855
 30
0.0
  0
SPLINE
  5
1BE
330
1F
100
AcDbEntity
  8
0
  6
Continuous
 62
     7
370
    15
100
AcDbSpline
210
0.0
220
0.0
230
1.0
 70
     8
 71
     3
 72
     9
 73
     5
 74
     0
 42
0.00000001
 43
0.00000001
 12
1.0
 22
0.0
 32
0.0
 13
1.0
 23
0.0
 33
0.0
 40
0.0
 40
0.0
 40
0.0
 40
0.0
 40
0.5006255844562614
 40
1.0
 40
1.0
 40
1.0
 40
1.0
 10
978.823330232962
 20
826.0325872250855
 30
0.0
 10
978.778038757317
 20
825.9571293871633
 30
0.0
 10
978.6875689989761
 20
825.8064022963687
 30
0.0
 10
978.5488139251917
 20
825.6544664309741
 30
0.0
 10
978.479523191317
 20
825.5785935469926
 30
0.0
  0
SPLINE
  5
1BF
330
1F
100
AcDbEntity
  8
0
  6
Continuous
 62
     7
370
    15
100
AcDbSpline
210
0.0
220
0.0
230
1.0
 70
     8
 71
     3
 72
    13
 73
     9
 74
     0
 42
0.00000001
 43
0.00000001
 12
1.0
 22
0.0
 32
0.0
 13
1.0
 23
0.0
 33
0.0
 40
0.0
 40
0.0
 40
0.0
 40
0.0
 40
0.2492123283047437
 40
0.3744264448409942
 40
0.4996094480089392
 40
0.6248256955178003
 40
0.7501248786556372
 40
1.0
 40
1.0
 40
1.0
 40
1.0
 10
978.479523191317
 20
825.5785935469926
 30
0.0
 10
978.4080200026852
 20
825.5100504771575
 30
0.0
 10
978.300590788022
 20
825.4070686618862
 30
0.0
 10
978.1653006035865
 20
825.3131049515627
 30
0.0
 10
978.0727665747215
 20
825.2621300400505
 30
0.0
 10
977.9957699353774
 20
825.2384454011723
 30
0.0
 10
977.911862220228
 20
825.2349093682179
 30
0.0
 10
977.8824456683803
 20
825.2743642715275
 30
0.0
 10
977.8628535364708
 20
825.3006421872437
 30
0.0
  0
SPLINE
  5
1C0
330
1F
100
AcDbEntity
  8
0
  6
Continuous
 62
     7
370
    15
100
AcDbSpline
210
0.0
220
0.0
230
1.0
 70
     8
 71
     3
 72
    13
 73
     9
 74
     0
 42
0.00000001
 43
0.00000001
 12
1.0
 22
0.0
 32
0.0
 13
1.0
 23
0.0
 33
0.0
 40
0.0
 40
0.0
 40
0.0
 40
0.0
 40
0.2498161213189962
 40
0.3768079222314042
 40
0.5003687041939986
 40
0.6251537276538482
 40
0.7506179849900121
 40
0.9999999999999999
 40
0.9999999999999999
 40
0.9999999999999999
 40
0.9999999999999999
 10
977.8628535364708
 20
825.3006421872437
 30
0.0
 10
977.8531364129894
 20
825.3376186793151
 30
0.0
 10
977.8384796763074
 20
825.3933918418924
 30
0.0
 10
977.8703743821297
 20
825.5133567196928
 30
0.0
 10
977.9140770524336
 20
825.6164456649385
 30
0.0
 10
977.9783523750709
 20
825.7293857012809
 30
0.0
 10
978.0842849039952
 20
825.8868352679824
 30
0.0
 10
978.1865927106577
 20
825.9996906759426
 30
0.0
 10
978.2546572183212
 20
826.0747724124253
 30
0.0
  0
SPLINE
  5
1C1
330
1F
100
AcDbEntity
  8
0
  6
Continuous
 62
     7
370
    15
100
AcDbSpline
210
0.0
220
0.0
230
1.0
 70
     8
 71
     3
 72
    10
 73
     6
 74
     0
 42
0.00000001
 43
0.00000001
 12
1.0
 22
0.0
 32
0.0
 13
1.0
 23
0.0
 33
0.0
 40
0.0
 40
0.0
 40
0.0
 40
0.0
 40
0.250220451513699
 40
0.5002006671164031
 40
0.9999999999999999
 40
0.9999999999999999
 40
0.9999999999999999
 40
0.9999999999999999
 10
978.2546572183212
 20
826.0747724124253
 30
0.0
 10
978.290024309886
 20
826.109438647642
 30
0.0
 10
978.3607245371763
 20
826.1787378351262
 30
0.0
 10
978.5051830120291
 20
826.291776556238
 30
0.0
 10
978.6005396275087
 20
826.3406315024918
 30
0.0
 10
978.6641038750251
 20
826.3731979676545
 30
0.0
  0
SPLINE
  5
1C2
330
1F
100
AcDbEntity
  8
0
  6
Continuous
 62
     7
370
    15
100
AcDbSpline
210
0.0
220
0.0
230
1.0
 70
     8
 71
     3
 72
    14
 73
    10
 74
     0
 42
0.00000001
 43
0.00000001
 12
1.0
 22
0.0
 32
0.0
 13
1.0
 23
0.0
 33
0.0
 40
0.0
 40
0.0
 40
0.0
 40
0.0
 40
0.2492161829387214
 40
0.3736292509896862
 40
0.4994078400465702
 40
0.6229974462492112
 40
0.7495460928117674
 40
0.8747124606236811
 40
1.0
 40
1.0
 40
1.0
 40
1.0
 10
978.6076061223587
 20
826.0579117485345
 30
0.0
 10
978.5994512067284
 20
826.0677926875812
 30
0.0
 10
978.5872252148891
 20
826.0826063638505
 30
0.0
 10
978.5503710088548
 20
826.077368585034
 30
0.0
 10
978.5171806444124
 20
826.064383681054
 30
0.0
 10
978.4790234349317
 20
826.042298929578
 30
0.0
 10
978.4380326212852
 20
826.0120160256272
 30
0.0
 10
978.3958865319787
 20
825.9756354365207
 30
0.0
 10
978.3684456131954
 20
825.9484051726384
 30
0.0
 10
978.3547185157379
 20
825.9347834535897
 30
0.0
  0
SPLINE
  5
1C3
330
1F
100
AcDbEntity
  8
0
  6
Continuous
 62
     7
370
    15
100
AcDbSpline
210
0.0
220
0.0
230
1.0
 70
     8
 71
     3
 72
    14
 73
    10
 74
     0
 42
0.00000001
 43
0.00000001
 12
1.0
 22
0.0
 32
0.0
 13
1.0
 23
0.0
 33
0.0
 40
0.0
 40
0.0
 40
0.0
 40
0.0
 40
0.2491278572309164
 40
0.3745590534620453
 40
0.4993022339139602
 40
0.6234181080489014
 40
0.7495531721598931
 40
0.8746922301544358
 40
1.0
 40
1.0
 40
1.0
 40
1.0
 10
978.3547185157379
 20
825.9347834535897
 30
0.0
 10
978.3281612292811
 20
825.9060926327818
 30
0.0
 10
978.2882328479742
 20
825.8629565226561
 30
0.0
 10
978.2461057871781
 20
825.8022764738527
 30
0.0
 10
978.2210688827412
 20
825.7589179508626
 30
0.0
 10
978.2035711294044
 20
825.7191874767542
 30
0.0
 10
978.1943701646097
 20
825.6850530712196
 30
0.0
 10
978.1933319365281
 20
825.6574748890685
 30
0.0
 10
978.1980691439915
 20
825.6444180731575
 30
0.0
 10
978.2004393433174
 20
825.6378852673829
 30
0.0
  0
SPLINE
  5
1C4
330
1F
100
AcDbEntity
  8
0
  6
Continuous
 62
     7
370
    15
100
AcDbSpline
210
0.0
220
0.0
230
1.0
 70
     8
 71
     3
 72
    14
 73
    10
 74
     0
 42
0.00000001
 43
0.00000001
 12
1.0
 22
0.0
 32
0.0
 13
1.0
 23
0.0
 33
0.0
 40
0.0
 40
0.0
 40
0.0
 40
0.0
 40
0.2493494893544006
 40
0.3718445833324696
 40
0.4995752593435274
 40
0.6250267252927638
 40
0.7497079009985894
 40
0.8747594126354961
 40
1.0
 40
1.0
 40
1.0
 40
1.0
 10
978.2004393433174
 20
825.6378852673829
 30
0.0
 10
978.2082006445154
 20
825.6283015622283
 30
0.0
 10
978.2197747520767
 20
825.614009779
 30
0.0
 10
978.254955911274
 20
825.6194490806345
 30
0.0
 10
978.2867515423443
 20
825.6322265798278
 30
0.0
 10
978.3230347222544
 20
825.6531211240695
 30
0.0
 10
978.3621527819454
 20
825.6817472551929
 30
0.0
 10
978.4025671117029
 20
825.7166736971437
 30
0.0
 10
978.4290540617981
 20
825.7430778464575
 30
0.0
 10
978.4423075412353
 20
825.7562898942292
 30
0.0
  0
SPLINE
  5
1C5
330
1F
100
AcDbEntity
  8
0
  6
Continuous
 62
     7
370
    15
100
AcDbSpline
210
0.0
220
0.0
230
1.0
 70
     8
 71
     3
 72
    13
 73
     9
 74
     0
 42
0.00000001
 43
0.00000001
 12
1.0
 22
0.0
 32
0.0
 13
1.0
 23
0.0
 33
0.0
 40
0.0
 40
0.0
 40
0.0
 40
0.0
 40
0.2494982645179118
 40
0.4987999877811031
 40
0.6260412362700695
 40
0.74929993185361
 40
0.8745572910155929
 40
1.0
 40
1.0
 40
1.0
 40
1.0
 10
978.4423075412353
 20
825.7562898942292
 30
0.0
 10
978.4688331261186
 20
825.7850022759588
 30
0.0
 10
978.5218634004626
 20
825.8424044213548
 30
0.0
 10
978.5717665753997
 20
825.9188922789824
 30
0.0
 10
978.5985759098058
 20
825.9728565015032
 30
0.0
 10
978.6106462362599
 20
826.0085851119235
 30
0.0
 10
978.613934688699
 20
826.0375805423556
 30
0.0
 10
978.6097166839697
 20
826.0511313403092
 30
0.0
 10
978.6076061223587
 20
826.0579117485345
 30
0.0
  0
SPLINE
  5
1C6
330
1F
100
AcDbEntity
  8
0
  6
Continuous
 62
     7
370
    15
100
AcDbSpline
210
0.0
220
0.0
230
1.0
 70
     8
 71
     3
 72
    13
 73
     9
 74
     0
 42
0.00000001
 43
0.00000001
 12
1.0
 22
0.0
 32
0.0
 13
1.0
 23
0.0
 33
0.0
 40
0.0
 40
0.0
 40
0.0
 40
0.0
 40
0.2501464381672217
 40
0.3790482547689843
 40
0.500634569282834
 40
0.628546950460353
 40
0.7510176847580964
 40
1.0
 40
1.0
 40
1.0
 40
1.0
 10
979.4528893922409
 20
826.9230433651269
 30
0.0
 10
979.4429276040851
 20
826.9371697049792
 30
0.0
 10
979.427832452451
 20
826.9585754243911
 30
0.0
 10
979.3857778289689
 20
826.9615629803806
 30
0.0
 10
979.3454500080285
 20
826.9517133171149
 30
0.0
 10
979.2982668552961
 20
826.9293968459797
 30
0.0
 10
979.227051362058
 20
826.882929617073
 30
0.0
 10
979.1713979994796
 20
826.8299236856574
 30
0.0
 10
979.1340939496597
 20
826.7943941899598
 30
0.0
  0
SPLINE
  5
1C7
330
1F
100
AcDbEntity
  8
0
  6
Continuous
 62
     7
370
    15
100
AcDbSpline
210
0.0
220
0.0
230
1.0
 70
     8
 71
     3
 72
    12
 73
     8
 74
     0
 42
0.00000001
 43
0.00000001
 12
1.0
 22
0.0
 32
0.0
 13
1.0
 23
0.0
 33
0.0
 40
0.0
 40
0.0
 40
0.0
 40
0.0
 40
0.2494632692748524
 40
0.3728776146452477
 40
0.500214516724755
 40
0.7498925713293936
 40
1.0
 40
1.0
 40
1.0
 40
1.0
 10
979.1340939496597
 20
826.7943941899598
 30
0.0
 10
979.0983649052289
 20
826.7553027334784
 30
0.0
 10
979.0449600055832
 20
826.6968719709529
 30
0.0
 10
978.9902979026422
 20
826.6149210264438
 30
0.0
 10
978.9479162548071
 20
826.5379207942476
 30
0.0
 10
978.9158483892173
 20
826.4505201679458
 30
0.0
 10
978.9255930604329
 20
826.4117335687517
 30
0.0
 10
978.9304695819458
 20
826.3923236080468
 30
0.0
  0
SPLINE
  5
1C8
330
1F
100
AcDbEntity
  8
0
  6
Continuous
 62
     7
370
    15
100
AcDbSpline
210
0.0
220
0.0
230
1.0
 70
     8
 71
     3
 72
    13
 73
     9
 74
     0
 42
0.00000001
 43
0.00000001
 12
1.0
 22
0.0
 32
0.0
 13
1.0
 23
0.0
 33
0.0
 40
0.0
 40
0.0
 40
0.0
 40
0.0
 40
0.2499633069862772
 40
0.4994172852889031
 40
0.62463910449458
 40
0.749753604342771
 40
0.8748851822134234
 40
1.0
 40
1.0
 40
1.0
 40
1.0
 10
978.9304695819458
 20
826.3923236080468
 30
0.0
 10
978.9407983005718
 20
826.3786241375916
 30
0.0
 10
978.961434691884
 20
826.351253110911
 30
0.0
 10
979.0251923031466
 20
826.3635600721999
 30
0.0
 10
979.0866900499062
 20
826.3928248838665
 30
0.0
 10
979.1383242283042
 20
826.4257464852998
 30
0.0
 10
979.1939467588295
 20
826.4696685716191
 30
0.0
 10
979.2308909990982
 20
826.5060030565589
 30
0.0
 10
979.2493618820747
 20
826.52416908229
 30
0.0
  0
SPLINE
  5
1C9
330
1F
100
AcDbEntity
  8
0
  6
Continuous
 62
     7
370
    15
100
AcDbSpline
210
0.0
220
0.0
230
1.0
 70
     8
 71
     3
 72
    13
 73
     9
 74
     0
 42
0.00000001
 43
0.00000001
 12
1.0
 22
0.0
 32
0.0
 13
1.0
 23
0.0
 33
0.0
 40
0.0
 40
0.0
 40
0.0
 40
0.0
 40
0.2489222186529547
 40
0.3711115437288838
 40
0.4994601748798838
 40
0.6246930179416134
 40
0.7499439266507535
 40
1.0
 40
1.0
 40
1.0
 40
1.0
 10
979.2493618820747
 20
826.52416908229
 30
0.0
 10
979.2855769609945
 20
826.5636432419749
 30
0.0
 10
979.3395690630934
 20
826.622494221278
 30
0.0
 10
979.3943122575363
 20
826.7039855852094
 30
0.0
 10
979.4274976327381
 20
826.7620222627731
 30
0.0
 10
979.4499215443003
 20
826.8147226624862
 30
0.0
 10
979.4661767239708
 20
826.8754731244845
 30
0.0
 10
979.4582024307534
 20
826.9040220502596
 30
0.0
 10
979.4528893922409
 20
826.9230433651269
 30
0.0
  0
SPLINE
  5
1CA
330
1F
100
AcDbEntity
  8
0
  6
Continuous
 62
     7
370
    15
100
AcDbSpline
210
0.0
220
0.0
230
1.0
 70
     8
 71
     3
 72
     9
 73
     5
 74
     0
 42
0.00000001
 43
0.00000001
 12
1.0
 22
0.0
 32
0.0
 13
1.0
 23
0.0
 33
0.0
 40
0.0
 40
0.0
 40
0.0
 40
0.0
 40
0.5002486637665985
 40
1.0
 40
1.0
 40
1.0
 40
1.0
 10
978.2546572183212
 20
826.0747724124253
 30
0.0
 10
978.2534877683291
 20
826.075815855883
 30
0.0
 10
978.2511500309663
 20
826.0779017054479
 30
0.0
 10
978.2488088031356
 20
826.0799832132437
 30
0.0
 10
978.2476387713989
 20
826.0810234495461
 30
0.0
  0
LINE
  5
1CB
330
1F
100
AcDbEntity
  8
0
  6
Continuous
 62
     7
370
    15
100
AcDbLine
 10
977.8628535365
 20
825.3006421872
 30
0.0
 11
977.8558052872
 21
825.3069751808
 31
0.0
  0
SPLINE
  5
1CC
330
1F
100
AcDbEntity
  8
0
  6
Continuous
 62
     7
370
    15
100
AcDbSpline
210
0.0
220
0.0
230
1.0
 70
     8
 71
     3
 72
     9
 73
     5
 74
     0
 42
0.00000001
 43
0.00000001
 12
1.0
 22
0.0
 32
0.0
 13
1.0
 23
0.0
 33
0.0
 40
0.0
 40
0.0
 40
0.0
 40
0.0
 40
0.5002340706108687
 40
1.0
 40
1.0
 40
1.0
 40
1.0
 10
978.6641038750251
 20
826.3731979676545
 30
0.0
 10
978.6629344079298
 20
826.374246392199
 30
0.0
 10
978.6605965681786
 20
826.3763422601257
 30
0.0
 10
978.6582554428023
 20
826.3784336177906
 30
0.0
 10
978.6570854281028
 20
826.3794788070977
 30
0.0
  0
SPLINE
  5
1CD
330
1F
100
AcDbEntity
  8
0
  6
Continuous
 62
     7
370
    15
100
AcDbSpline
210
0.0
220
0.0
230
1.0
 70
     8
 71
     3
 72
     9
 73
     5
 74
     0
 42
0.00000001
 43
0.00000001
 12
1.0
 22
0.0
 32
0.0
 13
1.0
 23
0.0
 33
0.0
 40
0.0
 40
0.0
 40
0.0
 40
0.0
 40
0.4997675509594003
 40
1.0
 40
1.0
 40
1.0
 40
1.0
 10
979.078043231829
 20
826.9794964143098
 30
0.0
 10
979.0768757031263
 20
826.9805341496077
 30
0.0
 10
979.0745395596525
 20
826.9826105855346
 30
0.0
 10
979.0722066721145
 20
826.9846915728756
 30
0.0
 10
979.0710396860679
 20
826.9857325502694
 30
0.0
  0
LWPOLYLINE
  5
1CE
330
1F
100
AcDbEntity
  8
0
  6
Continuous
 62
     7
370
    15
100
AcDbPolyline
 90
        9
 70
   128
 43
0.0
 10
980.5227555131
 20
878.9079868146
 10
980.5806539749
 20
878.7838154384
 10
980.6718192791
 20
878.5883122035
 10
980.7958565448
 20
878.3223264762
 10
980.952236781
 20
877.9869460412
 10
981.1403192376
 20
877.5836163112
 10
981.3592918013
 20
877.1140211173
 10
981.6082380508
 20
876.5801423141
 10
981.8861149047
 20
875.9842448779
  0
SPLINE
  5
1CF
330
1F
100
AcDbEntity
  8
0
  6
Continuous
 62
     7
370
    15
100
AcDbSpline
210
0.0
220
0.0
230
1.0
 70
     8
 71
     3
 72
    11
 73
     7
 74
     0
 42
0.00000001
 43
0.00000001
 12
1.0
 22
0.0
 32
0.0
 13
1.0
 23
0.0
 33
0.0
 40
0.0
 40
0.0
 40
0.0
 40
0.0
 40
0.2933111135114009
 40
0.5865953456333246
 40
0.8805043825115555
 40
1.0
 40
1.0
 40
1.0
 40
1.0
 10
979.6018041466316
 20
879.4877760955155
 30
0.0
 10
979.7145030680357
 20
879.4781035132364
 30
0.0
 10
979.9398905822081
 20
879.4587592351514
 30
0.0
 10
980.2406519919491
 20
879.2895685784354
 30
0.0
 10
980.4290945653786
 20
879.088965099802
 30
0.0
 10
980.5017533230247
 20
878.9485687266281
 30
0.0
 10
980.5227555130562
 20
878.9079868146242
 30
0.0
  0
LWPOLYLINE
  5
1D0
330
1F
100
AcDbEntity
  8
0
  6
Continuous
 62
     7
370
    15
100
AcDbPolyline
 90
        5
 70
   128
 43
0.0
 10
995.0444735383
 20
847.7660574862
 10
995.6416524743
 20
846.4854069897
 10
996.0780255292
 20
845.5495991656
 10
996.343824992
 20
844.9795850464
 10
996.4330903982
 20
844.7881572791
  0
SPLINE
  5
1D1
330
1F
100
AcDbEntity
  8
0
  6
Continuous
 62
     7
370
    15
100
AcDbSpline
210
0.0
220
0.0
230
1.0
 70
     8
 71
     3
 72
    13
 73
     9
 74
     0
 42
0.00000001
 43
0.00000001
 12
1.0
 22
0.0
 32
0.0
 13
1.0
 23
0.0
 33
0.0
 40
0.0
 40
0.0
 40
0.0
 40
0.0
 40
0.2495333216090882
 40
0.4988421326244654
 40
0.6260793373318152
 40
0.7493407971400237
 40
0.8745793473615626
 40
1.0
 40
1.0
 40
1.0
 40
1.0
 10
978.4352443908294
 20
825.7626452394784
 30
0.0
 10
978.4617701024325
 20
825.7913570210735
 30
0.0
 10
978.5147976598752
 20
825.848754751645
 30
0.0
 10
978.5646962045024
 20
825.9252437936755
 30
0.0
 10
978.5915240681169
 20
825.9791931887414
 30
0.0
 10
978.6035858221442
 20
826.014934817735
 30
0.0
 10
978.606891343409
 20
826.0439197271245
 30
0.0
 10
978.6026650862754
 20
826.0574664565302
 30
0.0
 10
978.6005504225334
 20
826.0642447420419
 30
0.0
  0
SPLINE
  5
1D2
330
1F
100
AcDbEntity
  8
0
  6
Continuous
 62
     7
370
    15
100
AcDbSpline
210
0.0
220
0.0
230
1.0
 70
     8
 71
     3
 72
    14
 73
    10
 74
     0
 42
0.00000001
 43
0.00000001
 12
1.0
 22
0.0
 32
0.0
 13
1.0
 23
0.0
 33
0.0
 40
0.0
 40
0.0
 40
0.0
 40
0.0
 40
0.2493109951614806
 40
0.3717982898163881
 40
0.4995209103126368
 40
0.6249710115742698
 40
0.7496727520998623
 40
0.8747514127676451
 40
1.0
 40
1.0
 40
1.0
 40
1.0
 10
978.1933910940727
 20
825.6442182608903
 30
0.0
 10
978.2011490522551
 20
825.634642121365
 30
0.0
 10
978.2127185202716
 20
825.6203611936575
 30
0.0
 10
978.2479028766152
 20
825.6257933447722
 30
0.0
 10
978.2796863257389
 20
825.6385881785892
 30
0.0
 10
978.3159759892206
 20
825.659466105576
 30
0.0
 10
978.3550907103058
 20
825.6881042475708
 30
0.0
 10
978.3955002826368
 20
825.7230366273416
 30
0.0
 10
978.4219903607873
 20
825.749436395223
 30
0.0
 10
978.4352443908294
 20
825.7626452394784
 30
0.0
  0
SPLINE
  5
1D3
330
1F
100
AcDbEntity
  8
0
  6
Continuous
 62
     7
370
    15
100
AcDbSpline
210
0.0
220
0.0
230
1.0
 70
     8
 71
     3
 72
    13
 73
     9
 74
     0
 42
0.00000001
 43
0.00000001
 12
1.0
 22
0.0
 32
0.0
 13
1.0
 23
0.0
 33
0.0
 40
0.0
 40
0.0
 40
0.0
 40
0.0
 40
0.2489634072579155
 40
0.3711571864661126
 40
0.4995138286045032
 40
0.624739610550527
 40
0.7499781784298079
 40
1.0
 40
1.0
 40
1.0
 40
1.0
 10
979.2422987316688
 20
826.5305393287003
 30
0.0
 10
979.2785125444215
 20
826.5700138249625
 30
0.0
 10
979.3325004657813
 20
826.6288628065508
 30
0.0
 10
979.3872500657296
 20
826.7103469990997
 30
0.0
 10
979.4204329527237
 20
826.768383740965
 30
0.0
 10
979.4428558379142
 20
826.8210766300825
 30
0.0
 10
979.4591262713863
 20
826.881817577175
 30
0.0
 10
979.451148788142
 20
826.9103597722633
 30
0.0
 10
979.4458336924156
 20
826.9293763586343
 30
0.0
  0
SPLINE
  5
1D4
330
1F
100
AcDbEntity
  8
0
  6
Continuous
 62
     7
370
    15
100
AcDbSpline
210
0.0
220
0.0
230
1.0
 70
     8
 71
     3
 72
    13
 73
     9
 74
     0
 42
0.00000001
 43
0.00000001
 12
1.0
 22
0.0
 32
0.0
 13
1.0
 23
0.0
 33
0.0
 40
0.0
 40
0.0
 40
0.0
 40
0.0
 40
0.2499287586213461
 40
0.4993632311156477
 40
0.6245900640583414
 40
0.7497035560948933
 40
0.8748654542049366
 40
1.0
 40
1.0
 40
1.0
 40
1.0
 10
978.9234138821205
 20
826.3986491509736
 30
0.0
 10
978.9337436940675
 20
826.3849587376425
 30
0.0
 10
978.9543828886088
 20
826.3576049866215
 30
0.0
 10
979.018131799579
 20
826.3699126473381
 30
0.0
 10
979.0796276944099
 20
826.3991889638154
 30
0.0
 10
979.1312570800752
 20
826.432112372195
 30
0.0
 10
979.1868830275223
 20
826.4760383948164
 30
0.0
 10
979.2238281760713
 20
826.5123736743083
 30
0.0
 10
979.2422987316688
 20
826.5305393287003
 30
0.0
  0
SPLINE
  5
1D5
330
1F
100
AcDbEntity
  8
0
  6
Continuous
 62
     7
370
    15
100
AcDbSpline
210
0.0
220
0.0
230
1.0
 70
     8
 71
     3
 72
     9
 73
     5
 74
     0
 42
0.00000001
 43
0.00000001
 12
1.0
 22
0.0
 32
0.0
 13
1.0
 23
0.0
 33
0.0
 40
0.0
 40
0.0
 40
0.0
 40
0.0
 40
0.4997374644202634
 40
1.0
 40
1.0
 40
1.0
 40
1.0
 10
978.6005504225334
 20
826.0642447420419
 30
0.0
 10
978.6017248189154
 20
826.0631889663089
 30
0.0
 10
978.6040748456109
 20
826.0610763055455
 30
0.0
 10
978.6064286181432
 20
826.0589669700553
 30
0.0
 10
978.6076061223587
 20
826.0579117485345
 30
0.0
  0
SPLINE
  5
1D6
330
1F
100
AcDbEntity
  8
0
  6
Continuous
 62
     7
370
    15
100
AcDbSpline
210
0.0
220
0.0
230
1.0
 70
     8
 71
     3
 72
     9
 73
     5
 74
     0
 42
0.00000001
 43
0.00000001
 12
1.0
 22
0.0
 32
0.0
 13
1.0
 23
0.0
 33
0.0
 40
0.0
 40
0.0
 40
0.0
 40
0.0
 40
0.4997374956674946
 40
1.0
 40
1.0
 40
1.0
 40
1.0
 10
979.4458336924156
 20
826.9293763586343
 30
0.0
 10
979.447008088761
 20
826.9283205829341
 30
0.0
 10
979.4493581152358
 20
826.9262079223687
 30
0.0
 10
979.4517118879888
 20
826.9240985866807
 30
0.0
 10
979.4528893922409
 20
826.9230433651269
 30
0.0
  0
SPLINE
  5
1D7
330
1F
100
AcDbEntity
  8
0
  6
Continuous
 62
     7
370
    15
100
AcDbSpline
210
0.0
220
0.0
230
1.0
 70
     8
 71
     3
 72
     9
 73
     5
 74
     0
 42
0.00000001
 43
0.00000001
 12
1.0
 22
0.0
 32
0.0
 13
1.0
 23
0.0
 33
0.0
 40
0.0
 40
0.0
 40
0.0
 40
0.0
 40
0.4997776803614848
 40
0.9999999999999999
 40
0.9999999999999999
 40
0.9999999999999999
 40
0.9999999999999999
 10
978.4352443908294
 20
825.7626452394784
 30
0.0
 10
978.436421844044
 20
825.7615876420865
 30
0.0
 10
978.4387777980226
 20
825.7594715063854
 30
0.0
 10
978.4411306114466
 20
825.7573507459391
 30
0.0
 10
978.4423075412353
 20
825.7562898942292
 30
0.0
  0
SPLINE
  5
1D8
330
1F
100
AcDbEntity
  8
0
  6
Continuous
 62
     7
370
    15
100
AcDbSpline
210
0.0
220
0.0
230
1.0
 70
     8
 71
     3
 72
     9
 73
     5
 74
     0
 42
0.00000001
 43
0.00000001
 12
1.0
 22
0.0
 32
0.0
 13
1.0
 23
0.0
 33
0.0
 40
0.0
 40
0.0
 40
0.0
 40
0.0
 40
0.500237487841098
 40
0.9999999999999999
 40
0.9999999999999999
 40
0.9999999999999999
 40
0.9999999999999999
 10
979.2422987316688
 20
826.5305393287003
 30
0.0
 10
979.2434756435687
 20
826.5294760101124
 30
0.0
 10
979.2458283498902
 20
826.5273503825579
 30
0.0
 10
979.2481844110371
 20
826.5252291798728
 30
0.0
 10
979.2493618820747
 20
826.52416908229
 30
0.0
  0
LINE
  5
1D9
330
1F
100
AcDbEntity
  8
0
  6
Continuous
 62
     7
370
    15
100
AcDbLine
 10
978.2229848002
 20
824.6881970116
 30
0.0
 11
978.1341068243
 21
824.8798259445
 31
0.0
  0
LINE
  5
1DA
330
1F
100
AcDbEntity
  8
0
  6
Continuous
 62
     7
370
    15
100
AcDbLine
 10
978.1341068243
 20
824.8798259445
 30
0.0
 11
979.9488968943
 21
826.7576330253
 31
0.0
  0
LINE
  5
1DB
330
1F
100
AcDbEntity
  8
0
  6
Continuous
 62
     7
370
    15
100
AcDbLine
 10
979.9488968943
 20
826.7576330253
 30
0.0
 11
980.0092391466
 21
826.6291775652
 31
0.0
  0
LINE
  5
1DC
330
1F
100
AcDbEntity
  8
0
  6
Continuous
 62
     7
370
    15
100
AcDbLine
 10
980.0092391466
 20
826.6291775652
 30
0.0
 11
978.5186089371
 21
825.0868626782
 31
0.0
  0
LINE
  5
1DD
330
1F
100
AcDbEntity
  8
0
  6
Continuous
 62
     7
370
    15
100
AcDbLine
 10
978.5186089371
 20
825.0868626782
 30
0.0
 11
978.5778857564
 21
824.9521114775
 31
0.0
  0
LINE
  5
1DE
330
1F
100
AcDbEntity
  8
0
  6
Continuous
 62
     7
370
    15
100
AcDbLine
 10
978.5778857564
 20
824.9521114775
 30
0.0
 11
978.2229848002
 21
824.6881970116
 31
0.0
  0
LINE
  5
1DF
330
1F
100
AcDbEntity
  8
0
  6
Continuous
 62
     7
370
    15
100
AcDbLine
 10
979.9488968943
 20
826.7576330253
 30
0.0
 11
979.9417815898
 21
826.7641075798
 31
0.0
  0
LINE
  5
1E0
330
1F
100
AcDbEntity
  8
0
  6
Continuous
 62
     7
370
    15
100
AcDbLine
 10
978.1341068243
 20
824.8798259445
 30
0.0
 11
978.1269915198
 21
824.8863004991
 31
0.0
  0
LINE
  5
1E1
330
1F
100
AcDbEntity
  8
0
  6
Continuous
 62
     7
370
    15
100
AcDbLine
 10
978.2229848002
 20
824.6881970116
 30
0.0
 11
978.2158396934
 21
824.6947311708
 31
0.0
  0
SPLINE
  5
1E2
330
1F
100
AcDbEntity
  8
0
  6
Continuous
 62
     7
370
    15
100
AcDbSpline
210
0.0
220
0.0
230
1.0
 70
     8
 71
     3
 72
    13
 73
     9
 74
     0
 42
0.00000001
 43
0.00000001
 12
1.0
 22
0.0
 32
0.0
 13
1.0
 23
0.0
 33
0.0
 40
0.0
 40
0.0
 40
0.0
 40
0.0
 40
0.0079076803855637
 40
0.2067628751900604
 40
0.4054706512148452
 40
0.6043143877865901
 40
0.8036719711689857
 40
1.0
 40
1.0
 40
1.0
 40
1.0
 10
975.3115214203438
 20
822.4597134538949
 30
0.0
 10
975.3123190282126
 20
822.4570262672318
 30
0.0
 10
975.3331741574312
 20
822.3867641405924
 30
0.0
 10
975.512326808484
 20
822.4088444731854
 30
0.0
 10
975.8314902634131
 20
822.5528509870501
 30
0.0
 10
976.2388986460089
 20
822.8702102949284
 30
0.0
 10
976.6617067094614
 20
823.2879155608006
 30
0.0
 10
976.8932666692206
 20
823.5872819475444
 30
0.0
 10
977.0081601832946
 20
823.7358190962136
 30
0.0
  0
LINE
  5
1E3
330
1F
100
AcDbEntity
  8
0
  6
Continuous
 62
     7
370
    15
100
AcDbLine
 10
980.0440631603
 20
826.5545003959
 30
0.0
 11
978.5544015263
 21
825.0100993463
 31
0.0
  0
LINE
  5
1E4
330
1F
100
AcDbEntity
  8
0
  6
Continuous
 62
     7
370
    15
100
AcDbLine
 10
978.5544015263
 20
825.0100993463
 30
0.0
 11
978.6114282702
 21
824.8801761218
 31
0.0
  0
LINE
  5
1E5
330
1F
100
AcDbEntity
  8
0
  6
Continuous
 62
     7
370
    15
100
AcDbLine
 10
978.6114282702
 20
824.8801761218
 30
0.0
 11
978.2579429244
 21
824.6132292696
 31
0.0
  0
CIRCLE
  5
1E6
330
1F
100
AcDbEntity
  8
0
  6
Continuous
 62
     7
370
    15
100
AcDbCircle
 10
930.509128484
 20
954.3605010101
 30
0.0
 40
2.100000000000012
  0
CIRCLE
  5
1E7
330
1F
100
AcDbEntity
  8
0
  6
Continuous
 62
     7
370
    15
100
AcDbCircle
 10
930.509128484
 20
954.3605010101
 30
0.0
 40
2.524999999999966
  0
LINE
  5
1E8
330
1F
100
AcDbEntity
  8
0
  6
Continuous
 62
     7
370
    15
100
AcDbLine
 10
941.3481429015
 20
915.2862810441
 30
0.0
 11
925.2884797548
 21
907.7975385734
 31
0.0
  0
SPLINE
  5
1E9
330
1F
100
AcDbEntity
  8
0
  6
Continuous
 62
     7
370
    15
100
AcDbSpline
210
0.0
220
0.0
230
1.0
 70
     8
 71
     3
 72
    11
 73
     7
 74
     0
 42
0.00000001
 43
0.00000001
 12
1.0
 22
0.0
 32
0.0
 13
1.0
 23
0.0
 33
0.0
 40
0.0
 40
0.0
 40
0.0
 40
0.0
 40
0.2889786702157553
 40
0.5779517075213231
 40
0.8674418419415878
 40
1.0
 40
1.0
 40
1.0
 40
1.0
 10
925.2884797547897
 20
907.7975385733903
 30
0.0
 10
924.9849550307556
 20
907.7072614402919
 30
0.0
 10
924.3779114991364
 20
907.5267089338199
 30
0.0
 10
923.2293702351362
 20
907.7660956719475
 30
0.0
 10
922.1948230315777
 20
908.157887804421
 30
0.0
 10
921.5678717215048
 20
908.4247239150772
 30
0.0
 10
921.3709570263466
 20
908.5085325785935
 30
0.0
  0
SPLINE
  5
1EA
330
1F
100
AcDbEntity
  8
0
  6
Continuous
 62
     7
370
    15
100
AcDbSpline
210
0.0
220
0.0
230
1.0
 70
     8
 71
     3
 72
    11
 73
     7
 74
     0
 42
0.00000001
 43
0.00000001
 12
1.0
 22
0.0
 32
0.0
 13
1.0
 23
0.0
 33
0.0
 40
0.0
 40
0.0
 40
0.0
 40
0.0
 40
0.2888067269957552
 40
0.5776134600400934
 40
0.8669336994955441
 40
1.0
 40
1.0
 40
1.0
 40
1.0
 10
921.3709570263466
 20
908.5085325785935
 30
0.0
 10
921.8186549374099
 20
908.3723259133808
 30
0.0
 10
922.7140507689128
 20
908.0999125801026
 30
0.0
 10
923.8612185669577
 20
907.5998928231287
 30
0.0
 10
924.5361037147952
 20
907.0636449440491
 30
0.0
 10
924.7574549682671
 20
906.6645962625321
 30
0.0
 10
924.8271882330021
 20
906.5388821908296
 30
0.0
  0
LINE
  5
1EB
330
1F
100
AcDbEntity
  8
0
  6
Continuous
 62
     7
370
    15
100
AcDbLine
 10
924.827188233
 20
906.5388821908
 30
0.0
 11
925.3471195494
 21
905.4239028045
 31
0.0
  0
ARC
  5
1EC
330
1F
100
AcDbEntity
  8
0
  6
Continuous
 62
     7
370
    15
100
AcDbCircle
 10
972.1650503017
 20
781.3605010101
 30
0.0
 40
9.999999999999776
100
AcDbArc
 50
335.0
 51
25.0
  0
LINE
  5
1ED
330
1F
100
AcDbEntity
  8
0
  6
Continuous
 62
     7
370
    15
100
AcDbLine
 10
960.6173299049
 20
732.9343183809
 30
0.0
 11
981.2281317805
 21
777.1343187341
 31
0.0
  0
ARC
  5
1EE
330
1F
100
AcDbEntity
  8
0
  6
Continuous
 62
     7
370
    15
100
AcDbCircle
 10
951.5542518112
 20
737.1605010101
 30
0.0
 40
9.999999999999881
100
AcDbArc
 50
270.0
 51
335.0
  0
SPLINE
  5
1EF
330
1F
100
AcDbEntity
  8
0
  6
Continuous
 62
     7
370
    15
100
AcDbSpline
210
0.0
220
0.0
230
1.0
 70
     8
 71
     3
 72
    12
 73
     8
 74
     0
 42
0.00000001
 43
0.00000001
 12
1.0
 22
0.0
 32
0.0
 13
1.0
 23
0.0
 33
0.0
 40
0.0
 40
0.0
 40
0.0
 40
0.0
 40
0.2096808674900026
 40
0.4420435309071693
 40
0.674432908972881
 40
0.9068155162430115
 40
1.0
 40
1.0
 40
1.0
 40
1.0
 10
85.26192230926355
 20
729.4605010100679
 30
0.0
 10
85.00959057129998
 20
729.3562158952349
 30
0.0
 10
84.47763162938715
 20
729.1363648380848
 30
0.0
 10
83.75625372564144
 20
728.8003933767006
 30
0.0
 10
83.21283889174913
 20
728.4535007191951
 30
0.0
 10
82.98427300930477
 20
728.1751028856116
 30
0.0
 10
82.966877309671
 20
728.0137537467314
 30
0.0
 10
82.96189827667078
 20
727.9675720636756
 30
0.0
  0
SPLINE
  5
1F0
330
1F
100
AcDbEntity
  8
0
  6
Continuous
 62
     7
370
    15
100
AcDbSpline
210
0.0
220
0.0
230
1.0
 70
     8
 71
     3
 72
    11
 73
     7
 74
     0
 42
0.00000001
 43
0.00000001
 12
1.0
 22
0.0
 32
0.0
 13
1.0
 23
0.0
 33
0.0
 40
0.0
 40
0.0
 40
0.0
 40
0.0
 40
0.2543273664562533
 40
0.5088604100297413
 40
0.7634116126047875
 40
1.0
 40
1.0
 40
1.0
 40
1.0
 10
85.26192230926355
 20
729.4605010100679
 30
0.0
 10
85.06193286212638
 20
729.3339230048474
 30
0.0
 10
84.66179223436043
 20
729.0806646294918
 30
0.0
 10
84.16021479094604
 20
728.7006833609893
 30
0.0
 10
83.82409422882742
 20
728.3294812155694
 30
0.0
 10
83.78212766399629
 20
728.0852307291292
 30
0.0
 10
83.76191181884607
 20
727.9675720636756
 30
0.0
  0
LINE
  5
1F1
330
1F
100
AcDbEntity
  8
0
  6
Continuous
 62
     7
370
    15
100
AcDbLine
 10
82.9618982767
 20
727.9675720637
 30
0.0
 11
83.7619118188
 21
727.9675720637
 31
0.0
  0
CIRCLE
  5
1F2
330
1F
100
AcDbEntity
  8
0
  6
Continuous
 62
     7
370
    15
100
AcDbCircle
 10
160.509128484
 20
954.3605010101
 30
0.0
 40
6.347663105371566
  0
CIRCLE
  5
1F3
330
1F
100
AcDbEntity
  8
0
  6
Continuous
 62
     7
370
    15
100
AcDbCircle
 10
930.509128484
 20
954.3605010101
 30
0.0
 40
6.347663105371566
  0
CIRCLE
  5
1F4
330
1F
100
AcDbEntity
  8
0
  6
Continuous
 62
     7
370
    15
100
AcDbCircle
 10
550.509128484
 20
954.3605010101
 30
0.0
 40
6.347663105371566
  0
LINE
  5
1F5
330
1F
100
AcDbEntity
  8
0
  6
Continuous
 62
     7
370
    15
100
AcDbLine
 10
82.9618982767
 20
973.5534273931
 30
0.0
 11
82.9618982767
 21
727.9675720637
 31
0.0
  0
SPLINE
  5
1F6
330
1F
100
AcDbEntity
  8
0
  6
Continuous
 62
     7
370
    15
100
AcDbSpline
210
0.0
220
0.0
230
1.0
 70
     8
 71
     3
 72
    12
 73
     8
 74
     0
 42
0.00000001
 43
0.00000001
 12
1.0
 22
0.0
 32
0.0
 13
1.0
 23
0.0
 33
0.0
 40
0.0
 40
0.0
 40
0.0
 40
0.0
 40
0.2096816725029168
 40
0.4420445991081208
 40
0.6744289453816742
 40
0.9068147907638725
 40
1.0
 40
1.0
 40
1.0
 40
1.0
 10
82.96189827667078
 20
973.5534273930848
 30
0.0
 10
82.98624246120023
 20
973.4491404742722
 30
0.0
 10
83.03756413925878
 20
973.2292859268124
 30
0.0
 10
83.4584855367917
 20
972.8933206021246
 30
0.0
 10
84.11027763584322
 20
972.5464298061323
 30
0.0
 10
84.75971813919436
 20
972.2680358297318
 30
0.0
 10
85.15016756143868
 20
972.106678716909
 30
0.0
 10
85.26192230926344
 20
972.0604949542345
 30
0.0
  0
LINE
  5
1F7
330
1F
100
AcDbEntity
  8
0
  6
Continuous
 62
     7
370
    15
100
AcDbLine
 10
951.5542499517
 20
727.160500959
 30
0.0
 11
83.7690047716
 21
727.160500959
 31
0.0
  0
SPLINE
  5
1F8
330
1F
100
AcDbEntity
  8
0
  6
Continuous
 62
     7
370
    15
100
AcDbSpline
210
0.0
220
0.0
230
1.0
 70
     8
 71
     3
 72
    12
 73
     8
 74
     0
 42
0.00000001
 43
0.00000001
 12
1.0
 22
0.0
 32
0.0
 13
1.0
 23
0.0
 33
0.0
 40
0.0
 40
0.0
 40
0.0
 40
0.0
 40
0.2096810383024605
 40
0.4420439526480708
 40
0.6744321643624576
 40
0.9068201811469817
 40
1.0
 40
1.0
 40
1.0
 40
1.0
 10
83.76900477157434
 20
727.1605009590298
 30
0.0
 10
83.8732872902771
 20
727.1848410019115
 30
0.0
 10
84.09313290499132
 20
727.2361540288315
 30
0.0
 10
84.42907516427567
 20
727.6570854436206
 30
0.0
 10
84.77599462191621
 20
728.3088734561695
 30
0.0
 10
85.0543709941225
 20
728.9583168301187
 30
0.0
 10
85.21573794562553
 20
729.3487548774825
 30
0.0
 10
85.26192230926355
 20
729.4605010100679
 30
0.0
  0
SPLINE
  5
1F9
330
1F
100
AcDbEntity
  8
0
  6
Continuous
 62
     7
370
    15
100
AcDbSpline
210
0.0
220
0.0
230
1.0
 70
     8
 71
     3
 72
    12
 73
     8
 74
     0
 42
0.00000001
 43
0.00000001
 12
1.0
 22
0.0
 32
0.0
 13
1.0
 23
0.0
 33
0.0
 40
0.0
 40
0.0
 40
0.0
 40
0.0
 40
0.2096805615620588
 40
0.4420482900412731
 40
0.6744345003441761
 40
0.9068207409123143
 40
0.9999999999999999
 40
0.9999999999999999
 40
0.9999999999999999
 40
0.9999999999999999
 10
85.26192230926355
 20
972.0604949542344
 30
0.0
 10
85.1576450700794
 20
972.312827356253
 30
0.0
 10
84.93780792862881
 20
972.8447942014548
 30
0.0
 10
84.60177331604402
 20
973.5661623837035
 30
0.0
 10
84.25489341318637
 20
974.1095317952061
 30
0.0
 10
83.97645200802783
 20
974.3381560972804
 30
0.0
 10
83.81516601750971
 20
974.3555312019311
 30
0.0
 10
83.76900477157423
 20
974.3605040856661
 30
0.0
  0
LINE
  5
1FA
330
1F
100
AcDbEntity
  8
0
  6
Continuous
 62
     7
370
    15
100
AcDbLine
 10
83.7690047716
 20
974.3605040857
 30
0.0
 11
87.1559791063
 21
974.3605040857
 31
0.0
  0
LINE
  5
1FB
330
1F
100
AcDbEntity
  8
0
  6
Continuous
 62
     7
370
    15
100
AcDbLine
 10
97.9059748148
 20
974.3605040857
 30
0.0
 11
160.1559929346
 21
974.3605040857
 31
0.0
  0
SPLINE
  5
1FC
330
1F
100
AcDbEntity
  8
0
  6
Continuous
 62
     7
370
    15
100
AcDbSpline
210
0.0
220
0.0
230
1.0
 70
     8
 71
     3
 72
    11
 73
     7
 74
     0
 42
0.00000001
 43
0.00000001
 12
1.0
 22
0.0
 32
0.0
 13
1.0
 23
0.0
 33
0.0
 40
0.0
 40
0.0
 40
0.0
 40
0.0
 40
0.2543198048364347
 40
0.5088691630664478
 40
0.7634202356606429
 40
1.0
 40
1.0
 40
1.0
 40
1.0
 10
85.26192230926355
 20
972.0604949542344
 30
0.0
 10
85.13534140349022
 20
972.2604704010857
 30
0.0
 10
84.88206533785925
 20
972.6606017960377
 30
0.0
 10
84.50210242148782
 20
973.1622264266875
 30
0.0
 10
84.13084602315513
 20
973.4982894385319
 30
0.0
 10
83.88663988349587
 20
973.5402789314744
 30
0.0
 10
83.76900477157434
 20
973.5605054446519
 30
0.0
  0
LINE
  5
1FD
330
1F
100
AcDbEntity
  8
0
  6
Continuous
 62
     7
370
    15
100
AcDbLine
 10
83.7690047716
 20
974.3605040857
 30
0.0
 11
83.7690047716
 21
973.5605054447
 31
0.0
  0
LINE
  5
1FE
330
1F
100
AcDbEntity
  8
0
  6
Continuous
 62
     7
370
    15
100
AcDbLine
 10
82.9618982767
 20
973.5534273931
 30
0.0
 11
83.7619118188
 21
973.5534273931
 31
0.0
  0
SPLINE
  5
1FF
330
1F
100
AcDbEntity
  8
0
  6
Continuous
 62
     7
370
    15
100
AcDbSpline
210
0.0
220
0.0
230
1.0
 70
     8
 71
     3
 72
    11
 73
     7
 74
     0
 42
0.00000001
 43
0.00000001
 12
1.0
 22
0.0
 32
0.0
 13
1.0
 23
0.0
 33
0.0
 40
0.0
 40
0.0
 40
0.0
 40
0.0
 40
0.2543186459663425
 40
0.5088699136845076
 40
0.7634017172283092
 40
1.0
 40
1.0
 40
1.0
 40
1.0
 10
83.76191181884607
 20
973.5534273930848
 30
0.0
 10
83.785260416255
 20
973.4268424384184
 30
0.0
 10
83.83197896771233
 20
973.1735567435762
 30
0.0
 10
84.19090999920297
 20
972.7936621149687
 30
0.0
 10
84.69007606362722
 20
972.422379255156
 30
0.0
 10
85.076004258691
 20
972.1781503979373
 30
0.0
 10
85.26192230926355
 20
972.0604949542344
 30
0.0
  0
LINE
  5
200
330
1F
100
AcDbEntity
  8
0
  6
Continuous
 62
     7
370
    15
100
AcDbLine
 10
83.7690047716
 20
727.160500959
 30
0.0
 11
83.7690047716
 21
727.960500997
 31
0.0
  0
SPLINE
  5
201
330
1F
100
AcDbEntity
  8
0
  6
Continuous
 62
     7
370
    15
100
AcDbSpline
210
0.0
220
0.0
230
1.0
 70
     8
 71
     3
 72
    11
 73
     7
 74
     0
 42
0.00000001
 43
0.00000001
 12
1.0
 22
0.0
 32
0.0
 13
1.0
 23
0.0
 33
0.0
 40
0.0
 40
0.0
 40
0.0
 40
0.0
 40
0.2543207090909188
 40
0.508863061904333
 40
0.7634132208567872
 40
1.0
 40
1.0
 40
1.0
 40
1.0
 10
83.76900477157434
 20
727.9605009970278
 30
0.0
 10
83.89559082576991
 20
727.9838543568277
 30
0.0
 10
84.14887325551234
 20
728.0305814291763
 30
0.0
 10
84.52875401730775
 20
728.3894791622553
 30
0.0
 10
84.90001556294003
 20
728.8886888155957
 30
0.0
 10
85.14426453690504
 20
729.2746018808239
 30
0.0
 10
85.26192230926355
 20
729.4605010100679
 30
0.0
  0
CIRCLE
  5
202
330
1F
100
AcDbEntity
  8
0
  6
Continuous
 62
     7
370
    15
100
AcDbCircle
 10
160.509128484
 20
954.3605010101
 30
0.0
 40
2.700000000000045
  0
CIRCLE
  5
203
330
1F
100
AcDbEntity
  8
0
  6
Continuous
 62
     7
370
    15
100
AcDbCircle
 10
930.509128484
 20
954.3605010101
 30
0.0
 40
2.700000000000045
  0
CIRCLE
  5
204
330
1F
100
AcDbEntity
  8
0
  6
Continuous
 62
     7
370
    15
100
AcDbCircle
 10
550.509128484
 20
954.3605010101
 30
0.0
 40
2.700000000000045
  0
CIRCLE
  5
205
330
1F
100
AcDbEntity
  8
0
  6
Continuous
 62
     7
370
    15
100
AcDbCircle
 10
160.509128484
 20
954.3605010101
 30
0.0
 40
2.525000000000006
  0
CIRCLE
  5
206
330
1F
100
AcDbEntity
  8
0
  6
Continuous
 62
     7
370
    15
100
AcDbCircle
 10
160.509128484
 20
954.3605010101
 30
0.0
 40
2.099999999999994
  0
CIRCLE
  5
207
330
1F
100
AcDbEntity
  8
0
  6
Continuous
 62
     7
370
    15
100
AcDbCircle
 10
550.509128484
 20
954.3605010101
 30
0.0
 40
2.524999999999864
  0
CIRCLE
  5
208
330
1F
100
AcDbEntity
  8
0
  6
Continuous
 62
     7
370
    15
100
AcDbCircle
 10
550.509128484
 20
954.3605010101
 30
0.0
 40
2.100000000000023
  0
LINE
  5
209
330
1F
100
AcDbEntity
  8
0
  6
Continuous
 62
     7
370
    15
100
AcDbLine
 10
926.162794212
 20
905.804254944
 30
0.0
 11
926.0721653496
 21
905.7619952508
 31
0.0
  0
LINE
  5
20A
330
1F
100
AcDbEntity
  8
0
  6
Continuous
 62
     7
370
    15
100
AcDbLine
 10
926.162794212
 20
905.804254944
 30
0.0
 11
932.987529764
 21
891.1685579368
 31
0.0
  0
LINE
  5
20B
330
1F
100
AcDbEntity
  8
0
  6
Continuous
 62
     7
370
    15
100
AcDbLine
 10
927.0930774306
 20
904.0458732196
 30
0.0
 11
933.0803788994
 21
891.2060641595
 31
0.0
  0
LWPOLYLINE
  5
20C
330
1F
100
AcDbEntity
  8
0
  6
Continuous
 62
     7
370
    15
100
AcDbPolyline
 90
        5
 70
   128
 43
0.0
 10
926.9874207471
 20
904.2724602767
 10
926.9946217333
 20
904.2570077726
 10
927.0157329534
 20
904.2117380449
 10
927.0493127202
 20
904.139735634
 10
927.0930774306
 20
904.0458732196
  0
LINE
  5
20D
330
1F
100
AcDbEntity
  8
0
  6
Continuous
 62
     7
370
    15
100
AcDbLine
 10
801.9502348994
 20
633.9605011889
 30
0.0
 11
773.4502367471
 21
633.9605011889
 31
0.0
  0
LINE
  5
20E
330
1F
100
AcDbEntity
  8
0
  6
Continuous
 62
     7
370
    15
100
AcDbLine
 10
830.4502367769
 20
633.9605011889
 30
0.0
 11
801.9502348994
 21
633.9605011889
 31
0.0
  0
LINE
  5
20F
330
1F
100
AcDbEntity
  8
0
  6
Continuous
 62
     7
370
    15
100
AcDbLine
 10
801.9502348994
 20
627.9605039307
 30
0.0
 11
775.4502333497
 21
627.9605039307
 31
0.0
  0
LINE
  5
210
330
1F
100
AcDbEntity
  8
0
  6
Continuous
 62
     7
370
    15
100
AcDbLine
 10
828.4502364491
 20
627.9605039307
 30
0.0
 11
801.9502348994
 21
627.9605039307
 31
0.0
  0
LINE
  5
211
330
1F
100
AcDbEntity
  8
0
  6
Continuous
 62
     7
370
    15
100
AcDbLine
 10
222.9502610658
 20
633.9605011889
 30
0.0
 11
194.4502405618
 21
633.9605011889
 31
0.0
  0
LINE
  5
212
330
1F
100
AcDbEntity
  8
0
  6
Continuous
 62
     7
370
    15
100
AcDbLine
 10
251.4502219652
 20
633.9605011889
 30
0.0
 11
222.9502610658
 21
633.9605011889
 31
0.0
  0
LINE
  5
213
330
1F
100
AcDbEntity
  8
0
  6
Continuous
 62
     7
370
    15
100
AcDbLine
 10
222.9502610658
 20
627.9605039307
 30
0.0
 11
196.4502148126
 21
627.9605039307
 31
0.0
  0
LINE
  5
214
330
1F
100
AcDbEntity
  8
0
  6
Continuous
 62
     7
370
    15
100
AcDbLine
 10
249.4502477144
 20
627.9605039307
 30
0.0
 11
222.9502610658
 21
627.9605039307
 31
0.0
  0
LINE
  5
215
330
1F
100
AcDbEntity
  8
0
  6
Continuous
 62
     7
370
    15
100
AcDbLine
 10
846.9502366875
 20
725.960500902
 30
0.0
 11
846.9502366875
 21
727.160500959
 31
0.0
  0
LINE
  5
216
330
1F
100
AcDbEntity
  8
0
  6
Continuous
 62
     7
370
    15
100
AcDbLine
 10
756.9502405618
 20
725.960500902
 30
0.0
 11
756.9502405618
 21
727.160500959
 31
0.0
  0
LINE
  5
217
330
1F
100
AcDbEntity
  8
0
  6
Continuous
 62
     7
370
    15
100
AcDbLine
 10
756.9502405618
 20
725.960500902
 30
0.0
 11
846.9502366875
 21
725.960500902
 31
0.0
  0
LINE
  5
218
330
1F
100
AcDbEntity
  8
0
  6
Continuous
 62
     7
370
    15
100
AcDbLine
 10
801.9502348994
 20
662.9605003544
 30
0.0
 11
770.9905840252
 21
662.9605003544
 31
0.0
  0
LINE
  5
219
330
1F
100
AcDbEntity
  8
0
  6
Continuous
 62
     7
370
    15
100
AcDbLine
 10
832.9098857735
 20
662.9605003544
 30
0.0
 11
801.9502348994
 21
662.9605003544
 31
0.0
  0
LINE
  5
21A
330
1F
100
AcDbEntity
  8
0
  6
Continuous
 62
     7
370
    15
100
AcDbLine
 10
267.9502181505
 20
725.960500902
 30
0.0
 11
267.9502181505
 21
727.160500959
 31
0.0
  0
LINE
  5
21B
330
1F
100
AcDbEntity
  8
0
  6
Continuous
 62
     7
370
    15
100
AcDbLine
 10
177.9502443765
 20
725.960500902
 30
0.0
 11
267.9502181505
 21
725.960500902
 31
0.0
  0
LINE
  5
21C
330
1F
100
AcDbEntity
  8
0
  6
Continuous
 62
     7
370
    15
100
AcDbLine
 10
177.9502443765
 20
725.960500902
 30
0.0
 11
177.9502443765
 21
727.160500959
 31
0.0
  0
LINE
  5
21D
330
1F
100
AcDbEntity
  8
0
  6
Continuous
 62
     7
370
    15
100
AcDbLine
 10
222.9502610658
 20
662.9605003544
 30
0.0
 11
191.9905952905
 21
662.9605003544
 31
0.0
  0
LINE
  5
21E
330
1F
100
AcDbEntity
  8
0
  6
Continuous
 62
     7
370
    15
100
AcDbLine
 10
253.9098672365
 20
662.9605003544
 30
0.0
 11
222.9502610658
 21
662.9605003544
 31
0.0
  0
SPLINE
  5
21F
330
1F
100
AcDbEntity
  8
0
  6
Continuous
 62
     7
370
    15
100
AcDbSpline
210
0.0
220
0.0
230
1.0
 70
     8
 71
     3
 72
    13
 73
     9
 74
     0
 42
0.00000001
 43
0.00000001
 12
1.0
 22
0.0
 32
0.0
 13
1.0
 23
0.0
 33
0.0
 40
0.0
 40
0.0
 40
0.0
 40
0.0
 40
0.1695515172586413
 40
0.3386257895071741
 40
0.518491249212885
 40
0.7276987901963491
 40
0.9924322426606382
 40
0.9999999999999999
 40
0.9999999999999999
 40
0.9999999999999999
 40
0.9999999999999999
 10
128.6717466806013
 20
716.1105013364017
 30
0.0
 10
128.6726216283068
 20
716.0858918439823
 30
0.0
 10
128.6743690609595
 20
716.0367421286942
 30
0.0
 10
128.6872238562019
 20
715.9705794203736
 30
0.0
 10
128.7066759300939
 20
715.9149366199317
 30
0.0
 10
128.7346832170274
 20
715.8721958368178
 30
0.0
 10
128.7568655272752
 20
715.8606233427772
 30
0.0
 10
128.7697366325148
 20
715.8605041425582
 30
0.0
 10
128.7700943444808
 20
715.8605008297623
 30
0.0
  0
LINE
  5
220
330
1F
100
AcDbEntity
  8
0
  6
Continuous
 62
     7
370
    15
100
AcDbLine
 10
128.7700943445
 20
715.8605008298
 30
0.0
 11
121.3583163713
 21
715.8605008298
 31
0.0
  0
SPLINE
  5
221
330
1F
100
AcDbEntity
  8
0
  6
Continuous
 62
     7
370
    15
100
AcDbSpline
210
0.0
220
0.0
230
1.0
 70
     8
 71
     3
 72
    13
 73
     9
 74
     0
 42
0.00000001
 43
0.00000001
 12
1.0
 22
0.0
 32
0.0
 13
1.0
 23
0.0
 33
0.0
 40
0.0
 40
0.0
 40
0.0
 40
0.0
 40
0.007567756595637
 40
0.2723015138819846
 40
0.4815102691393779
 40
0.6613759359475883
 40
0.8304504028733228
 40
1.0
 40
1.0
 40
1.0
 40
1.0
 10
128.7700943444808
 20
717.0605006539286
 30
0.0
 10
128.7697366325167
 20
717.0604976565611
 30
0.0
 10
128.7568655117073
 20
717.060389805879
 30
0.0
 10
128.7346831170043
 20
717.0488030746587
 30
0.0
 10
128.7066760027262
 20
717.0060655062149
 30
0.0
 10
128.6872238463538
 20
716.9504219358054
 30
0.0
 10
128.6743691187748
 20
716.8842596581537
 30
0.0
 10
128.6726216439648
 20
716.8351102592941
 30
0.0
 10
128.6717466806013
 20
716.8105010786117
 30
0.0
  0
LINE
  5
222
330
1F
100
AcDbEntity
  8
0
  6
Continuous
 62
     7
370
    15
100
AcDbLine
 10
120.9870986436
 20
717.0605006539
 30
0.0
 11
128.7700943445
 21
717.0605006539
 31
0.0
  0
LINE
  5
223
330
1F
100
AcDbEntity
  8
0
  6
Continuous
 62
     7
370
    15
100
AcDbLine
 10
128.6717466806
 20
716.1105013364
 30
0.0
 11
128.6717466806
 21
716.8105010786
 31
0.0
  0
SPLINE
  5
224
330
1F
100
AcDbEntity
  8
0
  6
Continuous
 62
     7
370
    15
100
AcDbSpline
210
0.0
220
0.0
230
1.0
 70
     8
 71
     3
 72
    12
 73
     8
 74
     0
 42
0.00000001
 43
0.00000001
 12
1.0
 22
0.0
 32
0.0
 13
1.0
 23
0.0
 33
0.0
 40
0.0
 40
0.0
 40
0.0
 40
0.0
 40
0.2028201001400524
 40
0.4049544128736827
 40
0.6098351697438297
 40
0.8226889807912448
 40
1.0
 40
1.0
 40
1.0
 40
1.0
 10
134.7312144731124
 20
715.6105012544454
 30
0.0
 10
134.7214391533689
 20
715.7676435654936
 30
0.0
 10
134.7019215667755
 20
716.0813968486455
 30
0.0
 10
134.5501543362376
 20
716.5017698734637
 30
0.0
 10
134.3241999072497
 20
716.8288592332757
 30
0.0
 10
134.05181227911
 20
717.0270755902806
 30
0.0
 10
133.8582793417088
 20
717.0500568048941
 30
0.0
 10
133.7703279946884
 20
717.0605006539286
 30
0.0
  0
LINE
  5
225
330
1F
100
AcDbEntity
  8
0
  6
Continuous
 62
     7
370
    15
100
AcDbLine
 10
128.9615444635
 20
717.0605006539
 30
0.0
 11
133.7703279947
 21
717.0605006539
 31
0.0
  0
LINE
  5
226
330
1F
100
AcDbEntity
  8
0
  6
Continuous
 62
     7
370
    15
100
AcDbLine
 10
134.5282606577
 20
710.2605000981
 30
0.0
 11
129.7194771265
 21
710.2605000981
 31
0.0
  0
LINE
  5
227
330
1F
100
AcDbEntity
  8
0
  6
Continuous
 62
     7
370
    15
100
AcDbLine
 10
129.7194771265
 20
710.2605000981
 30
0.0
 11
129.2787007783
 21
710.2605000981
 31
0.0
  0
LINE
  5
228
330
1F
100
AcDbEntity
  8
0
  6
Continuous
 62
     7
370
    15
100
AcDbLine
 10
128.7700943445
 20
717.0605006539
 30
0.0
 11
128.9615444635
 21
717.0605006539
 31
0.0
  0
LINE
  5
229
330
1F
100
AcDbEntity
  8
0
  6
Continuous
 62
     7
370
    15
100
AcDbLine
 10
128.9615444635
 20
715.8605008298
 30
0.0
 11
128.7700943445
 21
715.8605008298
 31
0.0
  0
LINE
  5
22A
330
1F
100
AcDbEntity
  8
0
  6
Continuous
 62
     7
370
    15
100
AcDbLine
 10
134.7782425378
 20
715.6105012544
 30
0.0
 11
134.7312144731
 21
715.6105012544
 31
0.0
  0
LINE
  5
22B
330
1F
100
AcDbEntity
  8
0
  6
Continuous
 62
     7
370
    15
100
AcDbLine
 10
133.8530592416
 20
717.0605006539
 30
0.0
 11
134.9002532457
 21
717.0605006539
 31
0.0
  0
LINE
  5
22C
330
1F
100
AcDbEntity
  8
0
  6
Continuous
 62
     7
370
    15
100
AcDbLine
 10
121.1765222047
 20
710.2605000981
 30
0.0
 11
118.8129596208
 21
710.2605000981
 31
0.0
  0
LINE
  5
22D
330
1F
100
AcDbEntity
  8
0
  6
Continuous
 62
     7
370
    15
100
AcDbLine
 10
118.8129596208
 20
710.2605000981
 30
0.0
 11
118.3722428773
 21
710.2605000981
 31
0.0
  0
SPLINE
  5
22E
330
1F
100
AcDbEntity
  8
0
  6
Continuous
 62
     7
370
    15
100
AcDbSpline
210
0.0
220
0.0
230
1.0
 70
     8
 71
     3
 72
    13
 73
     9
 74
     0
 42
0.00000001
 43
0.00000001
 12
1.0
 22
0.0
 32
0.0
 13
1.0
 23
0.0
 33
0.0
 40
0.0
 40
0.0
 40
0.0
 40
0.0
 40
0.0075685701292637
 40
0.2723073664962486
 40
0.4815271415986446
 40
0.6613731281208398
 40
0.8304663483676626
 40
1.0
 40
1.0
 40
1.0
 40
1.0
 10
121.4509419892867
 20
714.660501005596
 30
0.0
 10
121.4509020952718
 20
714.6605043177218
 30
0.0
 10
121.449466760198
 20
714.6606234837242
 30
0.0
 10
121.4480107792264
 20
714.6721987729762
 30
0.0
 10
121.4457687636699
 20
714.7149298668458
 30
0.0
 10
121.4445887459745
 20
714.7705892956375
 30
0.0
 10
121.4438163949489
 20
714.8367326370798
 30
0.0
 10
121.4436792697527
 20
714.8858899543239
 30
0.0
 10
121.4436106179794
 20
714.9105005809129
 30
0.0
  0
LINE
  5
22F
330
1F
100
AcDbEntity
  8
0
  6
Continuous
 62
     7
370
    15
100
AcDbLine
 10
134.9002532457
 20
714.6605010056
 30
0.0
 11
134.7499899362
 21
714.6605010056
 31
0.0
  0
LINE
  5
230
330
1F
100
AcDbEntity
  8
0
  6
Continuous
 62
     7
370
    15
100
AcDbLine
 10
129.0287188982
 20
714.6605010056
 30
0.0
 11
121.4509419893
 21
714.6605010056
 31
0.0
  0
SPLINE
  5
231
330
1F
100
AcDbEntity
  8
0
  6
Continuous
 62
     7
370
    15
100
AcDbSpline
210
0.0
220
0.0
230
1.0
 70
     8
 71
     3
 72
    13
 73
     9
 74
     0
 42
0.00000001
 43
0.00000001
 12
1.0
 22
0.0
 32
0.0
 13
1.0
 23
0.0
 33
0.0
 40
0.0
 40
0.0
 40
0.0
 40
0.0
 40
0.169533592510536
 40
0.3386267537891498
 40
0.518472677593303
 40
0.7276923797340781
 40
0.9924314419654856
 40
1.0
 40
1.0
 40
1.0
 40
1.0
 10
121.4436106179794
 20
715.6105012544454
 30
0.0
 10
121.4436792697446
 20
715.6351118971482
 30
0.0
 10
121.4438163949251
 20
715.684269246578
 30
0.0
 10
121.4445887460729
 20
715.7504123420059
 30
0.0
 10
121.4457687632471
 20
715.8060728179719
 30
0.0
 10
121.4480107825316
 20
715.8487989147204
 30
0.0
 10
121.4494667565292
 20
715.8603900241195
 30
0.0
 10
121.4509020952706
 20
715.8604978332982
 30
0.0
 10
121.4509419892866
 20
715.8605008297623
 30
0.0
  0
LINE
  5
232
330
1F
100
AcDbEntity
  8
0
  6
Continuous
 62
     7
370
    15
100
AcDbLine
 10
121.4509419893
 20
715.8605008298
 30
0.0
 11
128.7700943445
 21
715.8605008298
 31
0.0
  0
LINE
  5
233
330
1F
100
AcDbEntity
  8
0
  6
Continuous
 62
     7
370
    15
100
AcDbLine
 10
121.443610618
 20
715.6105012544
 30
0.0
 11
121.443610618
 21
714.9105005809
 31
0.0
  0
SPLINE
  5
234
330
1F
100
AcDbEntity
  8
0
  6
Continuous
 62
     7
370
    15
100
AcDbSpline
210
0.0
220
0.0
230
1.0
 70
     8
 71
     3
 72
    12
 73
     8
 74
     0
 42
0.00000001
 43
0.00000001
 12
1.0
 22
0.0
 32
0.0
 13
1.0
 23
0.0
 33
0.0
 40
0.0
 40
0.0
 40
0.0
 40
0.0
 40
0.2028179077290933
 40
0.4049432274938003
 40
0.60983112441891
 40
0.8226911664625457
 40
1.0
 40
1.0
 40
1.0
 40
1.0
 10
116.6156939958175
 20
716.1105013364017
 30
0.0
 10
116.6290099155369
 20
715.9533605054249
 30
0.0
 10
116.6555962834206
 20
715.6396154521436
 30
0.0
 10
116.8623052129441
 20
715.2192119987775
 30
0.0
 10
117.1696888438888
 20
714.8921476149809
 30
0.0
 10
117.5395341461344
 20
714.6939290700766
 30
0.0
 10
117.8014254548889
 20
714.6709456292795
 30
0.0
 10
117.9204396699508
 20
714.660501005596
 30
0.0
  0
SPLINE
  5
235
330
1F
100
AcDbEntity
  8
0
  6
Continuous
 62
     7
370
    15
100
AcDbSpline
210
0.0
220
0.0
230
1.0
 70
     8
 71
     3
 72
    12
 73
     8
 74
     0
 42
0.00000001
 43
0.00000001
 12
1.0
 22
0.0
 32
0.0
 13
1.0
 23
0.0
 33
0.0
 40
0.0
 40
0.0
 40
0.0
 40
0.0
 40
0.2289442075713641
 40
0.4594175704789514
 40
0.6825287988588509
 40
0.8947163461383077
 40
1.0
 40
1.0
 40
1.0
 40
1.0
 10
121.1822442506393
 20
714.660501005596
 30
0.0
 10
121.0389298941144
 20
714.6778352140668
 30
0.0
 10
120.7513439613325
 20
714.7126194089863
 30
0.0
 10
120.3708944974597
 20
714.9864895696425
 30
0.0
 10
120.0967131915671
 20
715.3835390952261
 30
0.0
 10
119.9734562725545
 20
715.7843990861584
 30
0.0
 10
119.96298663577
 20
716.0292882266483
 30
0.0
 10
119.9595145677169
 20
716.1105013364017
 30
0.0
  0
LINE
  5
236
330
1F
100
AcDbEntity
  8
0
  6
Continuous
 62
     7
370
    15
100
AcDbLine
 10
121.1822442506
 20
714.6605010056
 30
0.0
 11
117.92043967
 21
714.6605010056
 31
0.0
  0
LINE
  5
237
330
1F
100
AcDbEntity
  8
0
  6
Continuous
 62
     7
370
    15
100
AcDbLine
 10
116.8567351793
 20
721.4605006301
 30
0.0
 11
120.1185993646
 21
721.4605006301
 31
0.0
  0
LINE
  5
238
330
1F
100
AcDbEntity
  8
0
  6
Continuous
 62
     7
370
    15
100
AcDbLine
 10
120.1185993646
 20
721.4605006301
 30
0.0
 11
120.7371167635
 21
721.4605006301
 31
0.0
  0
LINE
  5
239
330
1F
100
AcDbEntity
  8
0
  6
Continuous
 62
     7
370
    15
100
AcDbLine
 10
121.4509419893
 20
714.6605010056
 30
0.0
 11
121.1822442506
 21
714.6605010056
 31
0.0
  0
LINE
  5
23A
330
1F
100
AcDbEntity
  8
0
  6
Continuous
 62
     7
370
    15
100
AcDbLine
 10
121.1822442506
 20
715.8605008298
 30
0.0
 11
121.4509419893
 21
715.8605008298
 31
0.0
  0
LINE
  5
23B
330
1F
100
AcDbEntity
  8
0
  6
Continuous
 62
     7
370
    15
100
AcDbLine
 10
116.6067532991
 20
716.1105013364
 30
0.0
 11
116.6156939958
 21
716.1105013364
 31
0.0
  0
LINE
  5
23C
330
1F
100
AcDbEntity
  8
0
  6
Continuous
 62
     7
370
    15
100
AcDbLine
 10
134.9002532457
 20
715.8605008298
 30
0.0
 11
134.980063865
 21
715.8605008298
 31
0.0
  0
LINE
  5
23D
330
1F
100
AcDbEntity
  8
0
  6
Continuous
 62
     7
370
    15
100
AcDbLine
 10
134.980063865
 20
714.6605010056
 30
0.0
 11
134.9002532457
 21
714.6605010056
 31
0.0
  0
SPLINE
  5
23E
330
1F
100
AcDbEntity
  8
0
  6
Continuous
 62
     7
370
    15
100
AcDbSpline
210
0.0
220
0.0
230
1.0
 70
     8
 71
     3
 72
    12
 73
     8
 74
     0
 42
0.00000001
 43
0.00000001
 12
1.0
 22
0.0
 32
0.0
 13
1.0
 23
0.0
 33
0.0
 40
0.0
 40
0.0
 40
0.0
 40
0.0
 40
0.202822936222752
 40
0.4049506485666031
 40
0.6098409707717799
 40
0.8226890676388178
 40
1.0
 40
1.0
 40
1.0
 40
1.0
 10
136.284809539183
 20
716.1105013364017
 30
0.0
 10
136.2714684343843
 20
715.9533610702873
 30
0.0
 10
136.2448319545985
 20
715.6396191737144
 30
0.0
 10
136.0381459196416
 20
715.2192105441284
 30
0.0
 10
135.7307498269718
 20
714.8921592610676
 30
0.0
 10
135.360969377419
 20
714.6939234236492
 30
0.0
 10
135.0990811102103
 20
714.6709441312377
 30
0.0
 10
134.9800638650497
 20
714.660501005596
 30
0.0
  0
LINE
  5
23F
330
1F
100
AcDbEntity
  8
0
  6
Continuous
 62
     7
370
    15
100
AcDbLine
 10
135.4251913522
 20
721.4605006301
 30
0.0
 11
136.0437683557
 21
721.4605006301
 31
0.0
  0
LINE
  5
240
330
1F
100
AcDbEntity
  8
0
  6
Continuous
 62
     7
370
    15
100
AcDbLine
 10
132.1633271669
 20
721.4605006301
 30
0.0
 11
135.4251913522
 21
721.4605006301
 31
0.0
  0
LINE
  5
241
330
1F
100
AcDbEntity
  8
0
  6
Continuous
 62
     7
370
    15
100
AcDbLine
 10
120.6955127214
 20
721.8139189207
 30
0.0
 11
122.3357133363
 21
722.2605011337
 31
0.0
  0
SPLINE
  5
242
330
1F
100
AcDbEntity
  8
0
  6
Continuous
 62
     7
370
    15
100
AcDbSpline
210
0.0
220
0.0
230
1.0
 70
     8
 71
     3
 72
     9
 73
     5
 74
     0
 42
0.00000001
 43
0.00000001
 12
1.0
 22
0.0
 32
0.0
 13
1.0
 23
0.0
 33
0.0
 40
0.0
 40
0.0
 40
0.0
 40
0.0
 40
0.0702066691544868
 40
1.0
 40
1.0
 40
1.0
 40
1.0
 10
122.3357133363326
 20
722.260501133746
 30
0.0
 10
122.3745936068579
 20
722.2600550208043
 30
0.0
 10
122.9283910023692
 20
722.2537007392665
 30
0.0
 10
123.4712071330651
 20
722.0258101089408
 30
0.0
 10
123.9759139512617
 20
721.8139189207018
 30
0.0
  0
LINE
  5
243
330
1F
100
AcDbEntity
  8
0
  6
Continuous
 62
     7
370
    15
100
AcDbLine
 10
123.9759139513
 20
721.8139189207
 30
0.0
 11
123.9759139513
 21
717.507082867
 31
0.0
  0
SPLINE
  5
244
330
1F
100
AcDbEntity
  8
0
  6
Continuous
 62
     7
370
    15
100
AcDbSpline
210
0.0
220
0.0
230
1.0
 70
     8
 71
     3
 72
     9
 73
     5
 74
     0
 42
0.00000001
 43
0.00000001
 12
1.0
 22
0.0
 32
0.0
 13
1.0
 23
0.0
 33
0.0
 40
0.0
 40
0.0
 40
0.0
 40
0.0
 40
0.0702066727358903
 40
1.0
 40
1.0
 40
1.0
 40
1.0
 10
122.3357133363326
 20
717.0605006539286
 30
0.0
 10
122.3745936067849
 20
717.0609469279108
 30
0.0
 10
122.9283909730067
 20
717.0673035029308
 30
0.0
 10
123.4712071199257
 20
717.2951928617698
 30
0.0
 10
123.9759139512618
 20
717.5070828669727
 30
0.0
  0
LINE
  5
245
330
1F
100
AcDbEntity
  8
0
  6
Continuous
 62
     7
370
    15
100
AcDbLine
 10
120.9870986436
 20
717.4276885488
 30
0.0
 11
122.3357133363
 21
717.0605006539
 31
0.0
  0
LINE
  5
246
330
1F
100
AcDbEntity
  8
0
  6
Continuous
 62
     7
370
    15
100
AcDbLine
 10
120.6955127214
 20
721.8139189207
 30
0.0
 11
120.6955127214
 21
721.4605006301
 31
0.0
  0
SPLINE
  5
247
330
1F
100
AcDbEntity
  8
0
  6
Continuous
 62
     7
370
    15
100
AcDbSpline
210
0.0
220
0.0
230
1.0
 70
     8
 71
     3
 72
     9
 73
     5
 74
     0
 42
0.00000001
 43
0.00000001
 12
1.0
 22
0.0
 32
0.0
 13
1.0
 23
0.0
 33
0.0
 40
0.0
 40
0.0
 40
0.0
 40
0.0
 40
0.2686271280839705
 40
1.0
 40
1.0
 40
1.0
 40
1.0
 10
126.8532685731491
 20
717.0605006539286
 30
0.0
 10
126.5916421281466
 20
717.0671301173027
 30
0.0
 10
125.6177030964915
 20
717.0918091712068
 30
0.0
 10
124.6694445371362
 20
717.3316614309377
 30
0.0
 10
123.9759139512618
 20
717.5070828669727
 30
0.0
  0
SPLINE
  5
248
330
1F
100
AcDbEntity
  8
0
  6
Continuous
 62
     7
370
    15
100
AcDbSpline
210
0.0
220
0.0
230
1.0
 70
     8
 71
     3
 72
     9
 73
     5
 74
     0
 42
0.00000001
 43
0.00000001
 12
1.0
 22
0.0
 32
0.0
 13
1.0
 23
0.0
 33
0.0
 40
0.0
 40
0.0
 40
0.0
 40
0.0
 40
0.2686271146384484
 40
1.0
 40
1.0
 40
1.0
 40
1.0
 10
126.8532685731491
 20
722.260501133746
 30
0.0
 10
126.5916421258205
 20
722.2538718533762
 30
0.0
 10
125.6177030367579
 20
722.2291934794943
 30
0.0
 10
124.6694445192675
 20
721.9893407231623
 30
0.0
 10
123.9759139512618
 20
721.8139189207018
 30
0.0
  0
LINE
  5
249
330
1F
100
AcDbEntity
  8
0
  6
Continuous
 62
     7
370
    15
100
AcDbLine
 10
126.8532685731
 20
722.2605011337
 30
0.0
 11
122.3357133363
 21
722.2605011337
 31
0.0
  0
SPLINE
  5
24A
330
1F
100
AcDbEntity
  8
0
  6
Continuous
 62
     7
370
    15
100
AcDbSpline
210
0.0
220
0.0
230
1.0
 70
     8
 71
     3
 72
     9
 73
     5
 74
     0
 42
0.00000001
 43
0.00000001
 12
1.0
 22
0.0
 32
0.0
 13
1.0
 23
0.0
 33
0.0
 40
0.0
 40
0.0
 40
0.0
 40
0.0
 40
0.2575380149810851
 40
1.0
 40
1.0
 40
1.0
 40
1.0
 10
129.7306231950363
 20
721.8139189207018
 30
0.0
 10
129.4890783818963
 20
721.8813342884043
 30
0.0
 10
128.5511787356722
 20
722.1431028964577
 30
0.0
 10
127.5767470538788
 20
722.2104778167129
 30
0.0
 10
126.8532685731489
 20
722.260501133746
 30
0.0
  0
LINE
  5
24B
330
1F
100
AcDbEntity
  8
0
  6
Continuous
 62
     7
370
    15
100
AcDbLine
 10
129.730623195
 20
721.8139189207
 30
0.0
 11
129.730623195
 21
717.507082867
 31
0.0
  0
SPLINE
  5
24C
330
1F
100
AcDbEntity
  8
0
  6
Continuous
 62
     7
370
    15
100
AcDbSpline
210
0.0
220
0.0
230
1.0
 70
     8
 71
     3
 72
     9
 73
     5
 74
     0
 42
0.00000001
 43
0.00000001
 12
1.0
 22
0.0
 32
0.0
 13
1.0
 23
0.0
 33
0.0
 40
0.0
 40
0.0
 40
0.0
 40
0.0
 40
0.2575380149810851
 40
1.0
 40
1.0
 40
1.0
 40
1.0
 10
129.7306231950363
 20
717.5070828669727
 30
0.0
 10
129.4890783818963
 20
717.4396674992704
 30
0.0
 10
128.5511787356722
 20
717.177898891217
 30
0.0
 10
127.5767470538788
 20
717.1105239709617
 30
0.0
 10
126.8532685731489
 20
717.0605006539286
 30
0.0
  0
LINE
  5
24D
330
1F
100
AcDbEntity
  8
0
  6
Continuous
 62
     7
370
    15
100
AcDbLine
 10
129.730623195
 20
721.8139189207
 30
0.0
 11
130.967777202
 21
722.2605011337
 31
0.0
  0
LINE
  5
24E
330
1F
100
AcDbEntity
  8
0
  6
Continuous
 62
     7
370
    15
100
AcDbLine
 10
126.8532685731
 20
722.2605011337
 30
0.0
 11
130.967777202
 21
722.2605011337
 31
0.0
  0
LINE
  5
24F
330
1F
100
AcDbEntity
  8
0
  6
Continuous
 62
     7
370
    15
100
AcDbLine
 10
129.730623195
 20
717.507082867
 30
0.0
 11
130.967777202
 21
717.0605006539
 31
0.0
  0
SPLINE
  5
250
330
1F
100
AcDbEntity
  8
0
  6
Continuous
 62
     7
370
    15
100
AcDbSpline
210
0.0
220
0.0
230
1.0
 70
     8
 71
     3
 72
     9
 73
     5
 74
     0
 42
0.00000001
 43
0.00000001
 12
1.0
 22
0.0
 32
0.0
 13
1.0
 23
0.0
 33
0.0
 40
0.0
 40
0.0
 40
0.0
 40
0.0
 40
0.0853273025795148
 40
1.0
 40
1.0
 40
1.0
 40
1.0
 10
130.9677772019943
 20
722.260501133746
 30
0.0
 10
130.997119854208
 20
722.2601333977595
 30
0.0
 10
131.3410033630811
 20
722.2558236870883
 30
0.0
 10
131.677813292627
 20
722.069241743405
 30
0.0
 10
131.9858841394027
 20
721.8985803336859
 30
0.0
  0
LINE
  5
251
330
1F
100
AcDbEntity
  8
0
  6
Continuous
 62
     7
370
    15
100
AcDbLine
 10
132.204931209
 20
721.8139189207
 30
0.0
 11
132.204931209
 21
717.507082867
 31
0.0
  0
SPLINE
  5
252
330
1F
100
AcDbEntity
  8
0
  6
Continuous
 62
     7
370
    15
100
AcDbSpline
210
0.0
220
0.0
230
1.0
 70
     8
 71
     3
 72
     9
 73
     5
 74
     0
 42
0.00000001
 43
0.00000001
 12
1.0
 22
0.0
 32
0.0
 13
1.0
 23
0.0
 33
0.0
 40
0.0
 40
0.0
 40
0.0
 40
0.0
 40
0.0702047273758743
 40
1.0
 40
1.0
 40
1.0
 40
1.0
 10
130.9677772019942
 20
717.0605006539286
 30
0.0
 10
130.9971168117485
 20
717.0609469496904
 30
0.0
 10
131.4150318276032
 20
717.0673040110812
 30
0.0
 10
131.8243495373903
 20
717.2951928768745
 30
0.0
 10
132.2049312089522
 20
717.5070828669727
 30
0.0
  0
LINE
  5
253
330
1F
100
AcDbEntity
  8
0
  6
Continuous
 62
     7
370
    15
100
AcDbLine
 10
120.914559791
 20
721.8985803337
 30
0.0
 11
120.6955127214
 21
721.8139189207
 31
0.0
  0
LINE
  5
254
330
1F
100
AcDbEntity
  8
0
  6
Continuous
 62
     7
370
    15
100
AcDbLine
 10
121.4502267335
 20
722.2605011337
 30
0.0
 11
122.3357133363
 21
722.2605011337
 31
0.0
  0
LINE
  5
255
330
1F
100
AcDbEntity
  8
0
  6
Continuous
 62
     7
370
    15
100
AcDbLine
 10
130.967777202
 20
722.2605011337
 30
0.0
 11
131.4502171968
 21
722.2605011337
 31
0.0
  0
LINE
  5
256
330
1F
100
AcDbEntity
  8
0
  6
Continuous
 62
     7
370
    15
100
AcDbLine
 10
121.1765222047
 20
714.2139187926
 30
0.0
 11
123.5124282335
 21
714.6605010056
 31
0.0
  0
SPLINE
  5
257
330
1F
100
AcDbEntity
  8
0
  6
Continuous
 62
     7
370
    15
100
AcDbSpline
210
0.0
220
0.0
230
1.0
 70
     8
 71
     3
 72
     9
 73
     5
 74
     0
 42
0.00000001
 43
0.00000001
 12
1.0
 22
0.0
 32
0.0
 13
1.0
 23
0.0
 33
0.0
 40
0.0
 40
0.0
 40
0.0
 40
0.0
 40
0.0701904054937735
 40
0.9999999999999999
 40
0.9999999999999999
 40
0.9999999999999999
 40
0.9999999999999999
 10
123.5124282334884
 20
714.660501005596
 30
0.0
 10
123.5677869403201
 20
714.6600548716701
 30
0.0
 10
124.3564803015036
 20
714.6536988188353
 30
0.0
 10
125.1295070085604
 20
714.4258110378153
 30
0.0
 10
125.8482746575912
 20
714.2139187925518
 30
0.0
  0
LINE
  5
258
330
1F
100
AcDbEntity
  8
0
  6
Continuous
 62
     7
370
    15
100
AcDbLine
 10
125.8482746576
 20
714.2139187926
 30
0.0
 11
125.8482746576
 21
709.9070836701
 31
0.0
  0
SPLINE
  5
259
330
1F
100
AcDbEntity
  8
0
  6
Continuous
 62
     7
370
    15
100
AcDbSpline
210
0.0
220
0.0
230
1.0
 70
     8
 71
     3
 72
     9
 73
     5
 74
     0
 42
0.00000001
 43
0.00000001
 12
1.0
 22
0.0
 32
0.0
 13
1.0
 23
0.0
 33
0.0
 40
0.0
 40
0.0
 40
0.0
 40
0.0
 40
0.0701903983324251
 40
1.0
 40
1.0
 40
1.0
 40
1.0
 10
123.5124282334884
 20
709.4605014571011
 30
0.0
 10
123.5677869405277
 20
709.4609472689489
 30
0.0
 10
124.3564803851374
 20
709.4672987337971
 30
0.0
 10
125.1295070459876
 20
709.6951890582976
 30
0.0
 10
125.8482746575911
 20
709.9070836701453
 30
0.0
  0
LINE
  5
25A
330
1F
100
AcDbEntity
  8
0
  6
Continuous
 62
     7
370
    15
100
AcDbLine
 10
121.1765222047
 20
709.9070836701
 30
0.0
 11
123.5124282335
 21
709.4605014571
 31
0.0
  0
LINE
  5
25B
330
1F
100
AcDbEntity
  8
0
  6
Continuous
 62
     7
370
    15
100
AcDbLine
 10
121.1765222047
 20
714.2139187926
 30
0.0
 11
121.1765222047
 21
709.9070836701
 31
0.0
  0
SPLINE
  5
25C
330
1F
100
AcDbEntity
  8
0
  6
Continuous
 62
     7
370
    15
100
AcDbSpline
210
0.0
220
0.0
230
1.0
 70
     8
 71
     3
 72
     9
 73
     5
 74
     0
 42
0.00000001
 43
0.00000001
 12
1.0
 22
0.0
 32
0.0
 13
1.0
 23
0.0
 33
0.0
 40
0.0
 40
0.0
 40
0.0
 40
0.0
 40
0.2686327230412292
 40
1.0
 40
1.0
 40
1.0
 40
1.0
 10
128.4851245378097
 20
709.4605014571011
 30
0.0
 10
128.2453656885077
 20
709.4671302526709
 30
0.0
 10
127.3528502622874
 20
709.4918063066328
 30
0.0
 10
126.4838401887348
 20
709.731661459863
 30
0.0
 10
125.8482746575912
 20
709.9070836701453
 30
0.0
  0
LINE
  5
25D
330
1F
100
AcDbEntity
  8
0
  6
Continuous
 62
     7
370
    15
100
AcDbLine
 10
128.4851245378
 20
709.4605014571
 30
0.0
 11
123.5124282335
 21
709.4605014571
 31
0.0
  0
SPLINE
  5
25E
330
1F
100
AcDbEntity
  8
0
  6
Continuous
 62
     7
370
    15
100
AcDbSpline
210
0.0
220
0.0
230
1.0
 70
     8
 71
     3
 72
     9
 73
     5
 74
     0
 42
0.00000001
 43
0.00000001
 12
1.0
 22
0.0
 32
0.0
 13
1.0
 23
0.0
 33
0.0
 40
0.0
 40
0.0
 40
0.0
 40
0.0
 40
0.2686327499324627
 40
1.0
 40
1.0
 40
1.0
 40
1.0
 10
128.4851245378097
 20
714.660501005596
 30
0.0
 10
128.2453656927713
 20
714.6538718440163
 30
0.0
 10
127.3528503717655
 20
714.6291944300323
 30
0.0
 10
126.4838402214835
 20
714.3893402699954
 30
0.0
 10
125.8482746575912
 20
714.2139187925518
 30
0.0
  0
LINE
  5
25F
330
1F
100
AcDbEntity
  8
0
  6
Continuous
 62
     7
370
    15
100
AcDbLine
 10
129.0287188982
 20
714.5895454013
 30
0.0
 11
128.4851245378
 21
714.6605010056
 31
0.0
  0
LINE
  5
260
330
1F
100
AcDbEntity
  8
0
  6
Continuous
 62
     7
370
    15
100
AcDbLine
 10
131.1220340227
 20
710.2605000981
 30
0.0
 11
131.1220340227
 21
709.9070836701
 31
0.0
  0
SPLINE
  5
261
330
1F
100
AcDbEntity
  8
0
  6
Continuous
 62
     7
370
    15
100
AcDbSpline
210
0.0
220
0.0
230
1.0
 70
     8
 71
     3
 72
     9
 73
     5
 74
     0
 42
0.00000001
 43
0.00000001
 12
1.0
 22
0.0
 32
0.0
 13
1.0
 23
0.0
 33
0.0
 40
0.0
 40
0.0
 40
0.0
 40
0.0
 40
0.2575430861343456
 40
1.0
 40
1.0
 40
1.0
 40
1.0
 10
131.122034022673
 20
709.9070836701453
 30
0.0
 10
130.9006671120972
 20
709.8396683193895
 30
0.0
 10
130.0411336107389
 20
709.5779049314928
 30
0.0
 10
129.148136452217
 20
709.5105268095678
 30
0.0
 10
128.4851245378097
 20
709.4605014571011
 30
0.0
  0
SPLINE
  5
262
330
1F
100
AcDbEntity
  8
0
  6
Continuous
 62
     7
370
    15
100
AcDbSpline
210
0.0
220
0.0
230
1.0
 70
     8
 71
     3
 72
     9
 73
     5
 74
     0
 42
0.00000001
 43
0.00000001
 12
1.0
 22
0.0
 32
0.0
 13
1.0
 23
0.0
 33
0.0
 40
0.0
 40
0.0
 40
0.0
 40
0.0
 40
0.0702009312460048
 40
1.0
 40
1.0
 40
1.0
 40
1.0
 10
121.4774660562118
 20
714.660501005596
 30
0.0
 10
121.4703299502621
 20
714.660054989496
 30
0.0
 10
121.3686773678387
 20
714.6537015680794
 30
0.0
 10
121.2691047407144
 20
714.4258111194579
 30
0.0
 10
121.1765222047408
 20
714.2139187925518
 30
0.0
  0
SPLINE
  5
263
330
1F
100
AcDbEntity
  8
0
  6
Continuous
 62
     7
370
    15
100
AcDbSpline
210
0.0
220
0.0
230
1.0
 70
     8
 71
     3
 72
     9
 73
     5
 74
     0
 42
0.00000001
 43
0.00000001
 12
1.0
 22
0.0
 32
0.0
 13
1.0
 23
0.0
 33
0.0
 40
0.0
 40
0.0
 40
0.0
 40
0.0
 40
0.0702009240848432
 40
1.0
 40
1.0
 40
1.0
 40
1.0
 10
121.4774660562118
 20
709.4605014571011
 30
0.0
 10
121.4703299502352
 20
709.4609471511213
 30
0.0
 10
121.3686773570604
 20
709.467295985212
 30
0.0
 10
121.2691047358908
 20
709.6951889769863
 30
0.0
 10
121.1765222047408
 20
709.9070836701453
 30
0.0
  0
LINE
  5
264
330
1F
100
AcDbEntity
  8
0
  6
Continuous
 62
     7
370
    15
100
AcDbLine
 10
123.5124282335
 20
709.4605014571
 30
0.0
 11
121.4519552682
 21
709.4605014571
 31
0.0
  0
LINE
  5
265
330
1F
100
AcDbEntity
  8
0
  6
Continuous
 62
     7
370
    15
100
AcDbLine
 10
131.1220340227
 20
709.9070836701
 30
0.0
 11
131.4229778741
 21
709.4605014571
 31
0.0
  0
LINE
  5
266
330
1F
100
AcDbEntity
  8
0
  6
Continuous
 62
     7
370
    15
100
AcDbLine
 10
131.4229778741
 20
709.4605014571
 30
0.0
 11
128.4851245378
 21
709.4605014571
 31
0.0
  0
LINE
  5
267
330
1F
100
AcDbEntity
  8
0
  6
Continuous
 62
     7
370
    15
100
AcDbLine
 10
131.7239813303
 20
710.2605000981
 30
0.0
 11
131.7239813303
 21
709.9070836701
 31
0.0
  0
SPLINE
  5
268
330
1F
100
AcDbEntity
  8
0
  6
Continuous
 62
     7
370
    15
100
AcDbSpline
210
0.0
220
0.0
230
1.0
 70
     8
 71
     3
 72
     9
 73
     5
 74
     0
 42
0.00000001
 43
0.00000001
 12
1.0
 22
0.0
 32
0.0
 13
1.0
 23
0.0
 33
0.0
 40
0.0
 40
0.0
 40
0.0
 40
0.0
 40
0.070201479073535
 40
1.0
 40
1.0
 40
1.0
 40
1.0
 10
131.4229778741439
 20
709.4605014571011
 30
0.0
 10
131.4301139253936
 20
709.460947144908
 30
0.0
 10
131.53176493537
 20
709.4672958403013
 30
0.0
 10
131.6313693203902
 20
709.6951889727061
 30
0.0
 10
131.7239813302596
 20
709.9070836701453
 30
0.0
  0
LINE
  5
269
330
1F
100
AcDbEntity
  8
0
  6
Continuous
 62
     7
370
    15
100
AcDbLine
 10
131.7333392595
 20
727.160500959
 30
0.0
 11
131.7333392595
 21
722.9570829221
 31
0.0
  0
SPLINE
  5
26A
330
1F
100
AcDbEntity
  8
0
  6
Continuous
 62
     7
370
    15
100
AcDbSpline
210
0.0
220
0.0
230
1.0
 70
     8
 71
     3
 72
     9
 73
     5
 74
     0
 42
0.00000001
 43
0.00000001
 12
1.0
 22
0.0
 32
0.0
 13
1.0
 23
0.0
 33
0.0
 40
0.0
 40
0.0
 40
0.0
 40
0.0
 40
0.0701906573838786
 40
0.9999999999999999
 40
0.9999999999999999
 40
0.9999999999999999
 40
0.9999999999999999
 10
129.4042877648909
 20
722.5105011747241
 30
0.0
 10
129.4594875200008
 20
722.5109473062419
 30
0.0
 10
130.2459134799132
 20
722.5173033019577
 30
0.0
 10
131.0166765530986
 20
722.7451909022702
 30
0.0
 10
131.7333392594894
 20
722.957082922107
 30
0.0
  0
LINE
  5
26B
330
1F
100
AcDbEntity
  8
0
  6
Continuous
 62
     7
370
    15
100
AcDbLine
 10
127.0751766656
 20
722.9570829221
 30
0.0
 11
129.4042877649
 21
722.5105011747
 31
0.0
  0
LINE
  5
26C
330
1F
100
AcDbEntity
  8
0
  6
Continuous
 62
     7
370
    15
100
AcDbLine
 10
127.0751766656
 20
727.160500959
 30
0.0
 11
127.0751766656
 21
722.9570829221
 31
0.0
  0
SPLINE
  5
26D
330
1F
100
AcDbEntity
  8
0
  6
Continuous
 62
     7
370
    15
100
AcDbSpline
210
0.0
220
0.0
230
1.0
 70
     8
 71
     3
 72
     9
 73
     5
 74
     0
 42
0.00000001
 43
0.00000001
 12
1.0
 22
0.0
 32
0.0
 13
1.0
 23
0.0
 33
0.0
 40
0.0
 40
0.0
 40
0.0
 40
0.0
 40
0.2575502244044038
 40
1.0
 40
1.0
 40
1.0
 40
1.0
 10
127.0751766656478
 20
722.957082922107
 30
0.0
 10
126.8534138130674
 20
722.8896677704236
 30
0.0
 10
125.992366795565
 20
722.627912410515
 30
0.0
 10
125.0977936498109
 20
722.56052955826
 30
0.0
 10
124.433618018492
 20
722.5105011747241
 30
0.0
  0
LINE
  5
26E
330
1F
100
AcDbEntity
  8
0
  6
Continuous
 62
     7
370
    15
100
AcDbLine
 10
129.4042877649
 20
722.5105011747
 30
0.0
 11
124.4336180185
 21
722.5105011747
 31
0.0
  0
SPLINE
  5
26F
330
1F
100
AcDbEntity
  8
0
  6
Continuous
 62
     7
370
    15
100
AcDbSpline
210
0.0
220
0.0
230
1.0
 70
     8
 71
     3
 72
     9
 73
     5
 74
     0
 42
0.00000001
 43
0.00000001
 12
1.0
 22
0.0
 32
0.0
 13
1.0
 23
0.0
 33
0.0
 40
0.0
 40
0.0
 40
0.0
 40
0.0
 40
0.2686219179954072
 40
1.0
 40
1.0
 40
1.0
 40
1.0
 10
124.4336180184921
 20
722.5105011747241
 30
0.0
 10
124.1934410305406
 20
722.5171307417103
 30
0.0
 10
123.2993330971901
 20
722.5418106599968
 30
0.0
 10
122.4287700806428
 20
722.7816613699176
 30
0.0
 10
121.7920593713363
 20
722.957082922107
 30
0.0
  0
LINE
  5
270
330
1F
100
AcDbEntity
  8
0
  6
Continuous
 62
     7
370
    15
100
AcDbLine
 10
121.7920593713
 20
727.160500959
 30
0.0
 11
121.7920593713
 21
722.9570829221
 31
0.0
  0
LINE
  5
271
330
1F
100
AcDbEntity
  8
0
  6
Continuous
 62
     7
370
    15
100
AcDbLine
 10
131.7333392595
 20
722.9570829221
 30
0.0
 11
131.4208321069
 21
722.5105011747
 31
0.0
  0
LINE
  5
272
330
1F
100
AcDbEntity
  8
0
  6
Continuous
 62
     7
370
    15
100
AcDbLine
 10
129.4042877649
 20
722.5105011747
 30
0.0
 11
131.4489654993
 21
722.5105011747
 31
0.0
  0
SPLINE
  5
273
330
1F
100
AcDbEntity
  8
0
  6
Continuous
 62
     7
370
    15
100
AcDbSpline
210
0.0
220
0.0
230
1.0
 70
     8
 71
     3
 72
     9
 73
     5
 74
     0
 42
0.00000001
 43
0.00000001
 12
1.0
 22
0.0
 32
0.0
 13
1.0
 23
0.0
 33
0.0
 40
0.0
 40
0.0
 40
0.0
 40
0.0
 40
0.0702014001198005
 40
1.0
 40
1.0
 40
1.0
 40
1.0
 10
121.4796118234237
 20
722.5105011747241
 30
0.0
 10
121.4870264209976
 20
722.5109471859865
 30
0.0
 10
121.5926453625205
 20
722.517300496057
 30
0.0
 10
121.6959794663115
 20
722.7451908189526
 30
0.0
 10
121.7920593713362
 20
722.957082922107
 30
0.0
  0
LINE
  5
274
330
1F
100
AcDbEntity
  8
0
  6
Continuous
 62
     7
370
    15
100
AcDbLine
 10
124.4336180185
 20
722.5105011747
 30
0.0
 11
121.4796118234
 21
722.5105011747
 31
0.0
  0
LINE
  5
275
330
1F
100
AcDbEntity
  8
0
  6
Continuous
 62
     7
370
    15
100
AcDbLine
 10
121.1671642755
 20
722.9570829221
 30
0.0
 11
121.4796118234
 21
722.5105011747
 31
0.0
  0
LINE
  5
276
330
1F
100
AcDbEntity
  8
0
  6
Continuous
 62
     7
370
    15
100
AcDbLine
 10
121.1671642755
 20
727.160500959
 30
0.0
 11
121.1671642755
 21
722.9570829221
 31
0.0
  0
LINE
  5
277
330
1F
100
AcDbEntity
  8
0
  6
Continuous
 62
     7
370
    15
100
AcDbLine
 10
137.4056152795
 20
710.160500268
 30
0.0
 11
137.4056152795
 21
714.0605010935
 31
0.0
  0
LINE
  5
278
330
1F
100
AcDbEntity
  8
0
  6
Continuous
 62
     7
370
    15
100
AcDbLine
 10
131.7239813303
 20
710.160500268
 30
0.0
 11
137.4056152795
 21
710.160500268
 31
0.0
  0
LINE
  5
279
330
1F
100
AcDbEntity
  8
0
  6
Continuous
 62
     7
370
    15
100
AcDbLine
 10
134.7782425378
 20
714.0605010935
 30
0.0
 11
137.4056152795
 21
714.0605010935
 31
0.0
  0
LINE
  5
27A
330
1F
100
AcDbEntity
  8
0
  6
Continuous
 62
     7
370
    15
100
AcDbLine
 10
109.4948462938
 20
714.0605010935
 30
0.0
 11
109.4948462938
 21
710.160500268
 31
0.0
  0
LINE
  5
27B
330
1F
100
AcDbEntity
  8
0
  6
Continuous
 62
     7
370
    15
100
AcDbLine
 10
109.4948462938
 20
710.160500268
 30
0.0
 11
121.1765222047
 21
710.160500268
 31
0.0
  0
LINE
  5
27C
330
1F
100
AcDbEntity
  8
0
  6
Continuous
 62
     7
370
    15
100
AcDbLine
 10
109.4948462938
 20
714.0605010935
 30
0.0
 11
118.1222609972
 21
714.0605010935
 31
0.0
  0
LINE
  5
27D
330
1F
100
AcDbEntity
  8
0
  6
Continuous
 62
     7
370
    15
100
AcDbLine
 10
132.7135972475
 20
723.9605010399
 30
0.0
 11
132.7135972475
 21
727.160500959
 31
0.0
  0
LINE
  5
27E
330
1F
100
AcDbEntity
  8
0
  6
Continuous
 62
     7
370
    15
100
AcDbLine
 10
131.7333392595
 20
723.9605010399
 30
0.0
 11
132.7135972475
 21
723.9605010399
 31
0.0
  0
LINE
  5
27F
330
1F
100
AcDbEntity
  8
0
  6
Continuous
 62
     7
370
    15
100
AcDbLine
 10
115.9962229227
 20
723.9605010399
 30
0.0
 11
115.9962229227
 21
727.160500959
 31
0.0
  0
LINE
  5
280
330
1F
100
AcDbEntity
  8
0
  6
Continuous
 62
     7
370
    15
100
AcDbLine
 10
114.1868643259
 20
727.160500959
 30
0.0
 11
114.1868643259
 21
723.9605010399
 31
0.0
  0
LINE
  5
281
330
1F
100
AcDbEntity
  8
0
  6
Continuous
 62
     7
370
    15
100
AcDbLine
 10
114.1868643259
 20
723.9605010399
 30
0.0
 11
115.9962229227
 21
723.9605010399
 31
0.0
  0
LINE
  5
282
330
1F
100
AcDbEntity
  8
0
  6
Continuous
 62
     7
370
    15
100
AcDbLine
 10
115.9962229227
 20
723.9605010399
 30
0.0
 11
121.1671642755
 21
723.9605010399
 31
0.0
  0
LINE
  5
283
330
1F
100
AcDbEntity
  8
0
  6
Continuous
 62
     7
370
    15
100
AcDbLine
 10
108.6002401804
 20
716.4605007418
 30
0.0
 11
116.6067532991
 21
716.4605007418
 31
0.0
  0
LINE
  5
284
330
1F
100
AcDbEntity
  8
0
  6
Continuous
 62
     7
370
    15
100
AcDbLine
 10
136.2937502359
 20
716.4605007418
 30
0.0
 11
138.300221393
 21
716.4605007418
 31
0.0
  0
LINE
  5
285
330
1F
100
AcDbEntity
  8
0
  6
Continuous
 62
     7
370
    15
100
AcDbLine
 10
133.3002261613
 20
695.9605001756
 30
0.0
 11
113.600235412
 21
695.9605001756
 31
0.0
  0
LINE
  5
286
330
1F
100
AcDbEntity
  8
0
  6
Continuous
 62
     7
370
    15
100
AcDbLine
 10
109.4502620195
 20
721.9605011777
 30
0.0
 11
120.7652501558
 21
721.9605011777
 31
0.0
  0
LINE
  5
287
330
1F
100
AcDbEntity
  8
0
  6
Continuous
 62
     7
370
    15
100
AcDbLine
 10
131.96985049
 20
721.9605011777
 30
0.0
 11
137.4502591585
 21
721.9605011777
 31
0.0
  0
LINE
  5
288
330
1F
100
AcDbEntity
  8
0
  6
Continuous
 62
     7
370
    15
100
AcDbLine
 10
106.7328266595
 20
723.9605010399
 30
0.0
 11
106.7328266595
 21
727.160500959
 31
0.0
  0
LINE
  5
289
330
1F
100
AcDbEntity
  8
0
  6
Continuous
 62
     7
370
    15
100
AcDbLine
 10
106.7328266595
 20
723.9605010399
 30
0.0
 11
114.1868643259
 21
723.9605010399
 31
0.0
  0
LINE
  5
28A
330
1F
100
AcDbEntity
  8
0
  6
Continuous
 62
     7
370
    15
100
AcDbLine
 10
140.1676349138
 20
727.160500959
 30
0.0
 11
140.1676349138
 21
723.9605010399
 31
0.0
  0
LINE
  5
28B
330
1F
100
AcDbEntity
  8
0
  6
Continuous
 62
     7
370
    15
100
AcDbLine
 10
132.7135972475
 20
723.9605010399
 30
0.0
 11
140.1676349138
 21
723.9605010399
 31
0.0
  0
LINE
  5
28C
330
1F
100
AcDbEntity
  8
0
  6
Continuous
 62
     7
370
    15
100
AcDbLine
 10
108.4502152895
 20
710.160500268
 30
0.0
 11
108.4502152895
 21
714.0605010935
 31
0.0
  0
LINE
  5
28D
330
1F
100
AcDbEntity
  8
0
  6
Continuous
 62
     7
370
    15
100
AcDbLine
 10
108.4502152895
 20
710.160500268
 30
0.0
 11
109.4948462938
 21
710.160500268
 31
0.0
  0
LINE
  5
28E
330
1F
100
AcDbEntity
  8
0
  6
Continuous
 62
     7
370
    15
100
AcDbLine
 10
108.4502152895
 20
714.0605010935
 30
0.0
 11
109.4948462938
 21
714.0605010935
 31
0.0
  0
LINE
  5
28F
330
1F
100
AcDbEntity
  8
0
  6
Continuous
 62
     7
370
    15
100
AcDbLine
 10
138.4502462839
 20
714.0605010935
 30
0.0
 11
138.4502462839
 21
710.160500268
 31
0.0
  0
LINE
  5
290
330
1F
100
AcDbEntity
  8
0
  6
Continuous
 62
     7
370
    15
100
AcDbLine
 10
137.4056152795
 20
710.160500268
 30
0.0
 11
138.4502462839
 21
710.160500268
 31
0.0
  0
LINE
  5
291
330
1F
100
AcDbEntity
  8
0
  6
Continuous
 62
     7
370
    15
100
AcDbLine
 10
137.4056152795
 20
714.0605010935
 30
0.0
 11
138.4502462839
 21
714.0605010935
 31
0.0
  0
LINE
  5
292
330
1F
100
AcDbEntity
  8
0
  6
Continuous
 62
     7
370
    15
100
AcDbLine
 10
140.1676349138
 20
723.9605010399
 30
0.0
 11
140.2002386545
 21
723.9605010399
 31
0.0
  0
LINE
  5
293
330
1F
100
AcDbEntity
  8
0
  6
Continuous
 62
     7
370
    15
100
AcDbLine
 10
106.7002229189
 20
723.9605010399
 30
0.0
 11
106.7328266595
 21
723.9605010399
 31
0.0
  0
ENDSEC
  0
SECTION
  2
OBJECTS
  0
DICTIONARY
  5
C
330
0
100
AcDbDictionary
281
     1
  3
ACAD_GROUP
350
D
  3
ACAD_LAYOUT
350
1A
  3
ACAD_MLINESTYLE
350
17
  3
ACAD_PLOTSETTINGS
350
19
  3
ACAD_PLOTSTYLENAME
350
E
  0
DICTIONARY
  5
D
102
{ACAD_REACTORS
330
C
102
}
330
C
100
AcDbDictionary
281
     1
  0
DICTIONARY
  5
1A
102
{ACAD_REACTORS
330
C
102
}
330
C
100
AcDbDictionary
281
     1
  3
Layout1
350
1E
  3
Layout2
350
26
  3
Model
350
22
  0
DICTIONARY
  5
17
102
{ACAD_REACTORS
330
C
102
}
330
C
100
AcDbDictionary
281
     1
  3
Standard
350
18
  0
DICTIONARY
  5
19
102
{ACAD_REACTORS
330
C
102
}
330
C
100
AcDbDictionary
281
     1
  0
ACDBDICTIONARYWDFLT
  5
E
102
{ACAD_REACTORS
330
C
102
}
330
C
100
AcDbDictionary
281
     1
  3
Normal
350
F
100
AcDbDictionaryWithDefault
340
F
  0
LAYOUT
  5
1E
102
{ACAD_REACTORS
330
1A
102
}
330
1A
100
AcDbPlotSettings
  1

  2
none_device
  4

  6

 40
0.0
 41
0.0
 42
0.0
 43
0.0
 44
0.0
 45
0.0
 46
0.0
 47
0.0
 48
0.0
 49
0.0
140
0.0
141
0.0
142
1.0
143
1.0
 70
   688
 72
     0
 73
     0
 74
     5
  7

 75
    16
147
1.0
148
0.0
149
0.0
100
AcDbLayout
  1
Layout1
 70
     1
 71
     1
 10
0.0
 20
0.0
 11
420.0
 21
297.0
 12
0.0
 22
0.0
 32
0.0
 14
1.0000000000E+20
 24
1.0000000000E+20
 34
1.0000000000E+20
 15
-1.0000000000E+20
 25
-1.0000000000E+20
 35
-1.0000000000E+20
146
0.0
 13
0.0
 23
0.0
 33
0.0
 16
1.0
 26
0.0
 36
0.0
 17
0.0
 27
1.0
 37
0.0
 76
     0
330
1B
  0
LAYOUT
  5
26
102
{ACAD_REACTORS
330
1A
102
}
330
1A
100
AcDbPlotSettings
  1

  2
none_device
  4

  6

 40
0.0
 41
0.0
 42
0.0
 43
0.0
 44
0.0
 45
0.0
 46
0.0
 47
0.0
 48
0.0
 49
0.0
140
0.0
141
0.0
142
1.0
143
1.0
 70
   688
 72
     0
 73
     0
 74
     5
  7

 75
    16
147
1.0
148
0.0
149
0.0
100
AcDbLayout
  1
Layout2
 70
     1
 71
     2
 10
0.0
 20
0.0
 11
0.0
 21
0.0
 12
0.0
 22
0.0
 32
0.0
 14
0.0
 24
0.0
 34
0.0
 15
0.0
 25
0.0
 35
0.0
146
0.0
 13
0.0
 23
0.0
 33
0.0
 16
1.0
 26
0.0
 36
0.0
 17
0.0
 27
1.0
 37
0.0
 76
     0
330
23
  0
LAYOUT
  5
22
102
{ACAD_REACTORS
330
1A
102
}
330
1A
100
AcDbPlotSettings
  1

  2
none_device
  4

  6

 40
0.0
 41
0.0
 42
0.0
 43
0.0
 44
0.0
 45
0.0
 46
0.0
 47
0.0
 48
0.0
 49
0.0
140
0.0
141
0.0
142
1.0
143
1.0
 70
  1712
 72
     0
 73
     0
 74
     0
  7

 75
     0
147
1.0
148
0.0
149
0.0
100
AcDbLayout
  1
Model
 70
     1
 71
     0
 10
0.0
 20
0.0
 11
1100.0
 21
1100.0
 12
0.0
 22
0.0
 32
0.0
 14
0.0
 24
0.0
 34
0.0
 15
1100.0
 25
1100.0
 35
0.0
146
0.0
 13
0.0
 23
0.0
 33
0.0
 16
1.0
 26
0.0
 36
0.0
 17
0.0
 27
1.0
 37
0.0
 76
     0
330
1F
331
29
  0
MLINESTYLE
  5
18
102
{ACAD_REACTORS
330
17
102
}
330
17
100
AcDbMlineStyle
  2
Standard
 70
     0
  3

 62
   256
 51
90.0
 52
90.0
 71
     2
 49
0.5
 62
   256
  6
BYLAYER
 49
-0.5
 62
   256
  6
BYLAYER
  0
ACDBPLACEHOLDER
  5
F
102
{ACAD_REACTORS
330
E
102
}
330
E
  0
ENDSEC
  0
EOF
