  0
SECTION
  2
HEADER
  9
$ACADVER
  1
AC1015
  9
$ACADMAINTVER
 70
     6
  9
$DWGCODEPAGE
  3
ANSI_1252
  9
$INSBASE
 10
0.0
 20
0.0
 30
0.0
  9
$EXTMIN
 10
0.0
 20
0.0
 30
0.0
  9
$EXTMAX
 10
935.0
 20
935.0
 30
0.0
  9
$LIMMIN
 10
0.0
 20
0.0
  9
$LIMMAX
 10
935.0
 20
935.0
  9
$ORTHOMODE
 70
     0
  9
$REGENMODE
 70
     1
  9
$FILLMODE
 70
     1
  9
$QTEXTMODE
 70
     0
  9
$MIRRTEXT
 70
     1
  9
$LTSCALE
 40
1.0
  9
$ATTMODE
 70
     1
  9
$TEXTSIZE
 40
3.5
  9
$TRACEWID
 40
1.0
  9
$TEXTSTYLE
  7
Standard
  9
$CLAYER
  8
0
  9
$CELTYPE
  6
ByLayer
  9
$CECOLOR
 62
   256
  9
$CELTSCALE
 40
1.0
  9
$DISPSILH
 70
     0
  9
$DIMSCALE
 40
1.0
  9
$DIMASZ
 40
3.302
  9
$DIMEXO
 40
1.0
  9
$DIMDLI
 40
3.75
  9
$DIMRND
 40
0.0
  9
$DIMDLE
 40
0.0
  9
$DIMEXE
 40
1.0
  9
$DIMTP
 40
0.0
  9
$DIMTM
 40
0.0
  9
$DIMTXT
 40
3.5
  9
$DIMCEN
 40
2.5
  9
$DIMTSZ
 40
0.0
  9
$DIMTOL
 70
     0
  9
$DIMLIM
 70
     0
  9
$DIMTIH
 70
     1
  9
$DIMTOH
 70
     1
  9
$DIMSE1
 70
     0
  9
$DIMSE2
 70
     0
  9
$DIMTAD
 70
     1
  9
$DIMZIN
 70
     0
  9
$DIMBLK
  1

  9
$DIMASO
 70
     1
  9
$DIMSHO
 70
     1
  9
$DIMPOST
  1

  9
$DIMAPOST
  1

  9
$DIMALT
 70
     0
  9
$DIMALTD
 70
     3
  9
$DIMALTF
 40
0.0393700787
  9
$DIMLFAC
 40
1.0
  9
$DIMTOFL
 70
     1
  9
$DIMTVP
 40
0.0
  9
$DIMTIX
 70
     0
  9
$DIMSOXD
 70
     0
  9
$DIMSAH
 70
     0
  9
$DIMBLK1
  1

  9
$DIMBLK2
  1

  9
$DIMSTYLE
  2
ISO-25
  9
$DIMCLRD
 70
     0
  9
$DIMCLRE
 70
     0
  9
$DIMCLRT
 70
     0
  9
$DIMTFAC
 40
1.0
  9
$DIMGAP
 40
1.524
  9
$DIMJUST
 70
     0
  9
$DIMSD1
 70
     0
  9
$DIMSD2
 70
     0
  9
$DIMTOLJ
 70
     0
  9
$DIMTZIN
 70
     0
  9
$DIMALTZ
 70
     0
  9
$DIMALTTZ
 70
     0
  9
$DIMUPT
 70
     0
  9
$DIMDEC
 70
     3
  9
$DIMTDEC
 70
     3
  9
$DIMALTU
 70
     2
  9
$DIMALTTD
 70
     3
  9
$DIMTXSTY
  7
Standard
  9
$DIMAUNIT
 70
     0
  9
$DIMADEC
 70
     2
  9
$DIMALTRND
 40
0.0
  9
$DIMAZIN
 70
     0
  9
$DIMDSEP
 70
    44
  9
$DIMATFIT
 70
     3
  9
$DIMFRAC
 70
     0
  9
$DIMLDRBLK
  1

  9
$DIMLUNIT
 70
     2
  9
$DIMLWD
 70
    -2
  9
$DIMLWE
 70
    -2
  9
$DIMTMOVE
 70
     0
  9
$LUNITS
 70
     2
  9
$LUPREC
 70
     8
  9
$SKETCHINC
 40
1.0
  9
$FILLETRAD
 40
10.0
  9
$AUNITS
 70
     0
  9
$AUPREC
 70
     8
  9
$MENU
  1
.
  9
$ELEVATION
 40
0.0
  9
$PELEVATION
 40
0.0
  9
$THICKNESS
 40
0.0
  9
$LIMCHECK
 70
     0
  9
$CHAMFERA
 40
0.0
  9
$CHAMFERB
 40
0.0
  9
$CHAMFERC
 40
0.0
  9
$CHAMFERD
 40
0.0
  9
$SKPOLY
 70
     0
  9
$TDCREATE
 40
2458401.402500428
  9
$TDUCREATE
 40
2458401.360833762
  9
$TDUPDATE
 40
2458401.402502465
  9
$TDUUPDATE
 40
2458401.360835799
  9
$TDINDWG
 40
0.0000000116
  9
$TDUSRTIMER
 40
0.0000000116
  9
$USRTIMER
 70
     1
  9
$ANGBASE
 50
0.0
  9
$ANGDIR
 70
     0
  9
$PDMODE
 70
     0
  9
$PDSIZE
 40
-1.0
  9
$PLINEWID
 40
0.0
  9
$SPLFRAME
 70
     0
  9
$SPLINETYPE
 70
     6
  9
$SPLINESEGS
 70
     8
  9
$HANDSEED
  5
339
  9
$SURFTAB1
 70
     6
  9
$SURFTAB2
 70
     6
  9
$SURFTYPE
 70
     6
  9
$SURFU
 70
     6
  9
$SURFV
 70
     6
  9
$UCSBASE
  2

  9
$UCSNAME
  2

  9
$UCSORG
 10
0.0
 20
0.0
 30
0.0
  9
$UCSXDIR
 10
1.0
 20
0.0
 30
0.0
  9
$UCSYDIR
 10
0.0
 20
1.0
 30
0.0
  9
$UCSORTHOREF
  2

  9
$UCSORTHOVIEW
 70
     0
  9
$UCSORGTOP
 10
0.0
 20
0.0
 30
0.0
  9
$UCSORGBOTTOM
 10
0.0
 20
0.0
 30
0.0
  9
$UCSORGLEFT
 10
0.0
 20
0.0
 30
0.0
  9
$UCSORGRIGHT
 10
0.0
 20
0.0
 30
0.0
  9
$UCSORGFRONT
 10
0.0
 20
0.0
 30
0.0
  9
$UCSORGBACK
 10
0.0
 20
0.0
 30
0.0
  9
$PUCSBASE
  2

  9
$PUCSNAME
  2

  9
$PUCSORG
 10
0.0
 20
0.0
 30
0.0
  9
$PUCSXDIR
 10
1.0
 20
0.0
 30
0.0
  9
$PUCSYDIR
 10
0.0
 20
1.0
 30
0.0
  9
$PUCSORTHOREF
  2

  9
$PUCSORTHOVIEW
 70
     0
  9
$PUCSORGTOP
 10
0.0
 20
0.0
 30
0.0
  9
$PUCSORGBOTTOM
 10
0.0
 20
0.0
 30
0.0
  9
$PUCSORGLEFT
 10
0.0
 20
0.0
 30
0.0
  9
$PUCSORGRIGHT
 10
0.0
 20
0.0
 30
0.0
  9
$PUCSORGFRONT
 10
0.0
 20
0.0
 30
0.0
  9
$PUCSORGBACK
 10
0.0
 20
0.0
 30
0.0
  9
$USERI1
 70
     0
  9
$USERI2
 70
     0
  9
$USERI3
 70
     0
  9
$USERI4
 70
     0
  9
$USERI5
 70
     0
  9
$USERR1
 40
0.0
  9
$USERR2
 40
0.0
  9
$USERR3
 40
0.0
  9
$USERR4
 40
0.0
  9
$USERR5
 40
0.0
  9
$WORLDVIEW
 70
     1
  9
$SHADEDGE
 70
     3
  9
$SHADEDIF
 70
    70
  9
$TILEMODE
 70
     1
  9
$MAXACTVP
 70
    64
  9
$PINSBASE
 10
0.0
 20
0.0
 30
0.0
  9
$PLIMCHECK
 70
     0
  9
$PEXTMIN
 10
1.0000000000E+20
 20
1.0000000000E+20
 30
1.0000000000E+20
  9
$PEXTMAX
 10
-1.0000000000E+20
 20
-1.0000000000E+20
 30
-1.0000000000E+20
  9
$PLIMMIN
 10
0.0
 20
0.0
  9
$PLIMMAX
 10
420.0
 20
297.0
  9
$UNITMODE
 70
     0
  9
$VISRETAIN
 70
     1
  9
$PLINEGEN
 70
     0
  9
$PSLTSCALE
 70
     1
  9
$TREEDEPTH
 70
  3020
  9
$CMLSTYLE
  2
Standard
  9
$CMLJUST
 70
     0
  9
$CMLSCALE
 40
20.0
  9
$PROXYGRAPHICS
 70
     1
  9
$MEASUREMENT
 70
     1
  9
$CELWEIGHT
370
    -1
  9
$ENDCAPS
280
     0
  9
$JOINSTYLE
280
     0
  9
$LWDISPLAY
290
     1
  9
$INSUNITS
 70
     4
  9
$HYPERLINKBASE
  1

  9
$STYLESHEET
  1

  9
$XEDIT
290
     1
  9
$CEPSNTYPE
380
     0
  9
$PSTYLEMODE
290
     1
  9
$FINGERPRINTGUID
  2
{F0AD3DA5-7A2A-46B7-984D-0B49D5463EEB}
  9
$VERSIONGUID
  2
{FAEB1C32-E019-11D5-929B-00C0DF256EC4}
  9
$EXTNAMES
290
     1
  9
$PSVPSCALE
 40
0.0
  9
$OLESTARTUP
290
     0
  0
ENDSEC
  0
SECTION
  2
CLASSES
  0
CLASS
  1
ACDBDICTIONARYWDFLT
  2
AcDbDictionaryWithDefault
  3
ObjectDBX Classes
 90
        0
280
     0
281
     0
  0
CLASS
  1
VISUALSTYLE
  2
AcDbVisualStyle
  3
ObjectDBX Classes
 90
     4095
280
     0
281
     0
  0
CLASS
  1
MATERIAL
  2
AcDbMaterial
  3
ObjectDBX Classes
 90
     1153
280
     0
281
     0
  0
CLASS
  1
SCALE
  2
AcDbScale
  3
ObjectDBX Classes
 90
     1153
280
     0
281
     0
  0
CLASS
  1
TABLESTYLE
  2
AcDbTableStyle
  3
ObjectDBX Classes
 90
     4095
280
     0
281
     0
  0
CLASS
  1
MLEADERSTYLE
  2
AcDbMLeaderStyle
  3
ACDB_MLEADERSTYLE_CLASS
 90
     4095
280
     0
281
     0
  0
CLASS
  1
SUN
  2
AcDbSun
  3
SCENEOE
 90
     1153
280
     0
281
     0
  0
CLASS
  1
ACDBPLACEHOLDER
  2
AcDbPlaceHolder
  3
ObjectDBX Classes
 90
        0
280
     0
281
     0
  0
CLASS
  1
LAYOUT
  2
AcDbLayout
  3
ObjectDBX Classes
 90
        0
280
     0
281
     0
  0
ENDSEC
  0
SECTION
  2
TABLES
  0
TABLE
  2
VPORT
  5
8
330
0
100
AcDbSymbolTable
 70
     1
  0
VPORT
  5
29
330
8
100
AcDbSymbolTableRecord
100
AcDbViewportTableRecord
  2
*Active
 70
     0
 10
0.0
 20
0.0
 11
1.0
 21
1.0
 12
467.5
 22
467.5
 13
0.0
 23
0.0
 14
10.0
 24
10.0
 15
10.0
 25
10.0
 16
0.0
 26
0.0
 36
1.0
 17
0.0
 27
0.0
 37
0.0
 40
935.0
 41
1.0
 42
50.0
 43
0.0
 44
0.0
 50
0.0
 51
0.0
 71
     0
 72
  2000
 73
     1
 74
     3
 75
     0
 76
     0
 77
     0
 78
     0
281
     0
 65
     1
110
0.0
120
0.0
130
0.0
111
1.0
121
0.0
131
0.0
112
0.0
122
1.0
132
0.0
 79
     0
146
0.0
  0
ENDTAB
  0
TABLE
  2
LTYPE
  5
5
330
0
100
AcDbSymbolTable
 70
     6
  0
LTYPE
  5
14
330
5
100
AcDbSymbolTableRecord
100
AcDbLinetypeTableRecord
  2
ByBlock
 70
     0
  3

 72
    65
 73
     0
 40
0.0
  0
LTYPE
  5
15
330
5
100
AcDbSymbolTableRecord
100
AcDbLinetypeTableRecord
  2
ByLayer
 70
     0
  3

 72
    65
 73
     0
 40
0.0
  0
LTYPE
  5
16
330
5
100
AcDbSymbolTableRecord
100
AcDbLinetypeTableRecord
  2
Continuous
 70
     0
  3
Solid line
 72
    65
 73
     0
 40
0.0
  0
LTYPE
  5
6E
330
5
100
AcDbSymbolTableRecord
100
AcDbLinetypeTableRecord
  2
HIDDEN
 70
     0
  3
Hidden __ __ __ __ __ __ __ __ __ __ __ __ __ __
 72
    65
 73
     2
 40
1.905
 49
1.27
 74
     0
 49
-0.635
 74
     0
  0
LTYPE
  5
6F
330
5
100
AcDbSymbolTableRecord
100
AcDbLinetypeTableRecord
  2
PHANTOM
 70
     0
  3
Phantom ______  __  __  ______  __  __  ______
 72
    65
 73
     6
 40
12.7
 49
6.35
 74
     0
 49
-1.27
 74
     0
 49
1.27
 74
     0
 49
-1.27
 74
     0
 49
1.27
 74
     0
 49
-1.27
 74
     0
  0
LTYPE
  5
70
330
5
100
AcDbSymbolTableRecord
100
AcDbLinetypeTableRecord
  2
CENTER
 70
     0
  3
Center ____ _ ____ _ ____ _ ____ _ ____ _ ____
 72
    65
 73
     4
 40
10.16
 49
6.35
 74
     0
 49
-1.27
 74
     0
 49
1.27
 74
     0
 49
-1.27
 74
     0
  0
LTYPE
  5
71
330
5
100
AcDbSymbolTableRecord
100
AcDbLinetypeTableRecord
  2
CENTERX2
 70
     0
  3
Center (2x) ________  __  ________  __  _____
 72
    65
 73
     4
 40
20.32
 49
12.7
 74
     0
 49
-2.54
 74
     0
 49
2.54
 74
     0
 49
-2.54
 74
     0
  0
LTYPE
  5
72
330
5
100
AcDbSymbolTableRecord
100
AcDbLinetypeTableRecord
  2
DOT2
 70
     0
  3
Dot (.5x) ........................................
 72
    65
 73
     2
 40
0.635
 49
0.0
 74
     0
 49
-0.635
 74
     0
  0
ENDTAB
  0
TABLE
  2
LAYER
  5
2
330
0
100
AcDbSymbolTable
 70
     1
  0
LAYER
  5
10
330
2
100
AcDbSymbolTableRecord
100
AcDbLayerTableRecord
  2
0
 70
     0
 62
     7
  6
Continuous
370
    -3
390
F
  0
ENDTAB
  0
TABLE
  2
STYLE
  5
3
330
0
100
AcDbSymbolTable
 70
     1
  0
STYLE
  5
11
330
3
100
AcDbSymbolTableRecord
100
AcDbTextStyleTableRecord
  2
Standard
 70
     0
 40
0.0
 41
1.0
 50
0.0
 71
     0
 42
3.5
  3
txt
  4

  0
ENDTAB
  0
TABLE
  2
VIEW
  5
6
330
0
100
AcDbSymbolTable
 70
     0
  0
ENDTAB
  0
TABLE
  2
UCS
  5
7
330
0
100
AcDbSymbolTable
 70
     0
  0
ENDTAB
  0
TABLE
  2
APPID
  5
9
330
0
100
AcDbSymbolTable
 70
     1
  0
APPID
  5
12
330
9
100
AcDbSymbolTableRecord
100
AcDbRegAppTableRecord
  2
ACAD
 70
     0
  0
ENDTAB
  0
TABLE
  2
DIMSTYLE
  5
A
330
0
100
AcDbSymbolTable
 70
     1
100
AcDbDimStyleTable
  0
DIMSTYLE
105
27
330
A
100
AcDbSymbolTableRecord
100
AcDbDimStyleTableRecord
  2
ISO-25
 70
     0
 41
2.5
 42
0.625
 43
3.75
 44
1.25
 73
     0
 74
     0
 77
     1
 78
     8
140
2.5
141
2.5
143
0.0393700787
147
0.625
171
     3
172
     1
178
     0
271
     2
272
     2
274
     3
278
    44
283
     0
284
     8
340
11
  0
ENDTAB
  0
TABLE
  2
BLOCK_RECORD
  5
1
330
0
100
AcDbSymbolTable
 70
     1
  0
BLOCK_RECORD
  5
1F
330
1
100
AcDbSymbolTableRecord
100
AcDbBlockTableRecord
  2
*Model_Space
340
22
  0
BLOCK_RECORD
  5
1B
330
1
100
AcDbSymbolTableRecord
100
AcDbBlockTableRecord
  2
*Paper_Space
340
1E
  0
BLOCK_RECORD
  5
23
330
1
100
AcDbSymbolTableRecord
100
AcDbBlockTableRecord
  2
*Paper_Space0
340
26
  0
ENDTAB
  0
ENDSEC
  0
SECTION
  2
BLOCKS
  0
BLOCK
  5
20
330
1F
100
AcDbEntity
  8
0
100
AcDbBlockBegin
  2
*Model_Space
 70
     0
 10
0.0
 20
0.0
 30
0.0
  3
*Model_Space
  1

  0
ENDBLK
  5
21
330
1F
100
AcDbEntity
  8
0
100
AcDbBlockEnd
  0
BLOCK
  5
1C
330
1B
100
AcDbEntity
 67
     1
  8
0
100
AcDbBlockBegin
  2
*Paper_Space
 70
     0
 10
0.0
 20
0.0
 30
0.0
  3
*Paper_Space
  1

  0
ENDBLK
  5
1D
330
1B
100
AcDbEntity
 67
     1
  8
0
100
AcDbBlockEnd
  0
BLOCK
  5
24
330
23
100
AcDbEntity
  8
0
100
AcDbBlockBegin
  2
*Paper_Space0
 70
     0
 10
0.0
 20
0.0
 30
0.0
  3
*Paper_Space0
  1

  0
ENDBLK
  5
25
330
23
100
AcDbEntity
  8
0
100
AcDbBlockEnd
  0
ENDSEC
  0
SECTION
  2
ENTITIES
  0
ARC
  5
73
330
1F
100
AcDbEntity
  8
0
  6
Continuous
 62
     7
370
    25
100
AcDbCircle
 10
872.3440255953
 20
472.2891589415
 30
0.0
 40
2.000000000000051
100
AcDbArc
 50
205.0
 51
292.0
  0
ARC
  5
74
330
1F
100
AcDbEntity
  8
0
  6
Continuous
 62
     7
370
    25
100
AcDbCircle
 10
892.5434281344
 20
428.9714004062
 30
0.0
 40
2.000000000000051
100
AcDbArc
 50
118.0
 51
205.0
  0
LINE
  5
75
330
1F
100
AcDbEntity
  8
0
  6
Continuous
 62
     7
370
    25
100
AcDbLine
 10
891.6044868263
 20
430.7372976595
 30
0.0
 11
892.5811908873
 21
431.2566180283
 31
0.0
  0
LINE
  5
76
330
1F
100
AcDbEntity
  8
0
  6
Continuous
 62
     7
370
    25
100
AcDbLine
 10
874.1188756855
 20
470.8491746837
 30
0.0
 11
873.0932399364
 21
470.434788292
 31
0.0
  0
LINE
  5
77
330
1F
100
AcDbEntity
  8
0
  6
Continuous
 62
     7
370
    25
100
AcDbLine
 10
903.5697616371
 20
388.7619447463
 30
0.0
 11
904.0118418368
 21
388.9970031136
 31
0.0
  0
LINE
  5
78
330
1F
100
AcDbEntity
  8
0
  6
Continuous
 62
     7
370
    25
100
AcDbLine
 10
850.6462126704
 20
502.7300898486
 30
0.0
 11
850.555583808
 21
502.6878301555
 31
0.0
  0
ARC
  5
79
330
1F
100
AcDbEntity
  8
0
  6
Continuous
 62
     7
370
    25
100
AcDbCircle
 10
35.7000685604
 20
302.2613402062
 30
0.0
 40
5.000000000000007
100
AcDbArc
 50
180.0
 51
270.0
  0
ARC
  5
7A
330
1F
100
AcDbEntity
  8
0
  6
Continuous
 62
     7
370
    25
100
AcDbCircle
 10
55.4000685604
 20
302.2613402062
 30
0.0
 40
5.000000000000057
100
AcDbArc
 50
270.0
 51
0.0
  0
LINE
  5
7B
330
1F
100
AcDbEntity
  8
0
  6
Continuous
 62
     7
370
    25
100
AcDbLine
 10
30.7000390919
 20
311.4613403135
 30
0.0
 11
30.7000390919
 21
302.2613410407
 31
0.0
  0
LINE
  5
7C
330
1F
100
AcDbEntity
  8
0
  6
Continuous
 62
     7
370
    25
100
AcDbLine
 10
60.4000799092
 20
302.2613410407
 30
0.0
 11
60.4000799092
 21
311.4613403135
 31
0.0
  0
LINE
  5
7D
330
1F
100
AcDbEntity
  8
0
  6
Continuous
 62
     7
370
    25
100
AcDbLine
 10
30.7000390919
 20
317.7613398561
 30
0.0
 11
30.7000390919
 21
315.3613392764
 31
0.0
  0
LINE
  5
7E
330
1F
100
AcDbEntity
  8
0
  6
Continuous
 62
     7
370
    25
100
AcDbLine
 10
60.4000799092
 20
315.3613392764
 30
0.0
 11
60.4000799092
 21
317.7613398561
 31
0.0
  0
LINE
  5
7F
330
1F
100
AcDbEntity
  8
0
  6
Continuous
 62
     7
370
    25
100
AcDbLine
 10
59.55005807
 20
317.7613398561
 30
0.0
 11
59.55005807
 21
323.2613398263
 31
0.0
  0
LINE
  5
80
330
1F
100
AcDbEntity
  8
0
  6
Continuous
 62
     7
370
    25
100
AcDbLine
 10
31.5500609311
 20
323.2613398263
 30
0.0
 11
31.5500609311
 21
317.7613398561
 31
0.0
  0
LINE
  5
81
330
1F
100
AcDbEntity
  8
0
  6
Continuous
 62
     7
370
    25
100
AcDbLine
 10
58.5500709446
 20
323.4562893899
 30
0.0
 11
58.5500709446
 21
325.2613401541
 31
0.0
  0
LINE
  5
82
330
1F
100
AcDbEntity
  8
0
  6
Continuous
 62
     7
370
    25
100
AcDbLine
 10
32.5500480564
 20
325.2613401541
 30
0.0
 11
32.5500480564
 21
323.2613398263
 31
0.0
  0
LINE
  5
83
330
1F
100
AcDbEntity
  8
0
  6
Continuous
 62
     7
370
    25
100
AcDbLine
 10
28.8000814351
 20
315.3613392764
 30
0.0
 11
28.8000814351
 21
311.4613403135
 31
0.0
  0
LINE
  5
84
330
1F
100
AcDbEntity
  8
0
  6
Continuous
 62
     7
370
    25
100
AcDbLine
 10
62.3000971707
 20
311.4613403135
 30
0.0
 11
62.3000971707
 21
315.3613392764
 31
0.0
  0
LINE
  5
85
330
1F
100
AcDbEntity
  8
0
  6
Continuous
 62
     7
370
    25
100
AcDbLine
 10
879.3748654159
 20
440.6480674201
 30
0.0
 11
880.2811689409
 21
441.0706867033
 31
0.0
  0
LINE
  5
86
330
1F
100
AcDbEntity
  8
0
  6
Continuous
 62
     7
370
    25
100
AcDbLine
 10
873.7305886777
 20
455.1184583956
 30
0.0
 11
872.8242814275
 21
454.6958391124
 31
0.0
  0
LINE
  5
87
330
1F
100
AcDbEntity
  8
0
  6
Continuous
 62
     7
370
    25
100
AcDbLine
 10
880.302306238
 20
441.0253722721
 30
0.0
 11
882.9883672031
 21
443.5467903071
 31
0.0
  0
LINE
  5
88
330
1F
100
AcDbEntity
  8
0
  6
Continuous
 62
     7
370
    25
100
AcDbLine
 10
877.3675448926
 20
455.6006823235
 30
0.0
 11
873.7094588312
 21
455.1637728268
 31
0.0
  0
ARC
  5
89
330
1F
100
AcDbEntity
  8
0
  6
Continuous
 62
     7
370
    25
100
AcDbCircle
 10
39.8000685604
 20
318.1113402062
 30
0.0
 40
1.449999999999989
100
AcDbArc
 50
180.0
 51
270.0
  0
LINE
  5
8A
330
1F
100
AcDbEntity
  8
0
  6
Continuous
 62
     7
370
    25
100
AcDbLine
 10
38.3500568303
 20
323.2113399112
 30
0.0
 11
38.3500568303
 21
318.1113401928
 31
0.0
  0
ARC
  5
8B
330
1F
100
AcDbEntity
  8
0
  6
Continuous
 62
     7
370
    25
100
AcDbCircle
 10
38.6000685604
 20
323.2113402062
 30
0.0
 40
0.2500000000000853
100
AcDbArc
 50
90.0
 51
180.0
  0
SPLINE
  5
8C
330
1F
100
AcDbEntity
  8
0
  6
Continuous
 62
     7
370
    25
100
AcDbSpline
210
0.0
220
0.0
230
1.0
 70
     8
 71
     3
 72
    12
 73
     8
 74
     0
 42
0.000000001
 43
0.00000001
 40
0.0
 40
0.0
 40
0.0
 40
0.0
 40
0.1488468866224661
 40
0.4358625769188296
 40
0.6644507796015111
 40
0.8649849140192842
 40
0.9999999999999999
 40
0.9999999999999999
 40
0.9999999999999999
 40
0.9999999999999999
 10
40.92748087963039
 20
317.8664647543173
 30
0.0
 10
40.90758965243347
 20
317.8658496735649
 30
0.0
 10
40.84934294173048
 20
317.8640485564048
 30
0.0
 10
40.76534684140309
 20
317.9047069450968
 30
0.0
 10
40.69647737752713
 20
317.9735410800994
 30
0.0
 10
40.66096443992051
 20
318.0459144324992
 30
0.0
 10
40.66030156128764
 20
318.092878927487
 30
0.0
 10
40.66003483852321
 20
318.1117760517936
 30
0.0
  0
ARC
  5
8D
330
1F
100
AcDbEntity
  8
0
  6
Continuous
 62
     7
370
    25
100
AcDbCircle
 10
40.4072859076
 20
323.2113402062
 30
0.0
 40
0.2500000000000568
100
AcDbArc
 50
0.0
 51
90.0
  0
LINE
  5
8E
330
1F
100
AcDbEntity
  8
0
  6
Continuous
 62
     7
370
    25
100
AcDbLine
 10
40.6572930249
 20
318.1113401928
 30
0.0
 11
40.6572930249
 21
323.2113399112
 31
0.0
  0
SPLINE
  5
8F
330
1F
100
AcDbEntity
  8
0
  6
Continuous
 62
     7
370
    25
100
AcDbSpline
210
0.0
220
0.0
230
1.0
 70
     8
 71
     3
 72
    10
 73
     6
 74
     0
 42
0.000000001
 43
0.00000001
 40
0.0
 40
0.0
 40
0.0
 40
0.0
 40
0.2743630140317633
 40
0.8786957309452754
 40
1.0
 40
1.0
 40
1.0
 40
1.0
 10
57.41907281001979
 20
318.1113085278611
 30
0.0
 10
57.41963623339474
 20
318.0986778365036
 30
0.0
 10
57.42144069569122
 20
318.0582258294646
 30
0.0
 10
57.40585083747152
 20
318.0112142902266
 30
0.0
 10
57.38424041464818
 20
317.9866286831374
 30
0.0
 10
57.38062781413966
 20
317.9825187229853
 30
0.0
  0
LINE
  5
90
330
1F
100
AcDbEntity
  8
0
  6
Continuous
 62
     7
370
    25
100
AcDbLine
 10
57.4224702748
 20
323.2113399112
 30
0.0
 11
57.4224702748
 21
318.1113401928
 31
0.0
  0
ARC
  5
91
330
1F
100
AcDbEntity
  8
0
  6
Continuous
 62
     7
370
    25
100
AcDbCircle
 10
57.6724642141
 20
323.2113402062
 30
0.0
 40
0.2500000000000568
100
AcDbArc
 50
90.0
 51
180.0
  0
ARC
  5
92
330
1F
100
AcDbEntity
  8
0
  6
Continuous
 62
     7
370
    25
100
AcDbCircle
 10
57.3000685604
 20
318.1113402062
 30
0.0
 40
1.449999999999989
100
AcDbArc
 50
270.0
 51
0.0
  0
ARC
  5
93
330
1F
100
AcDbEntity
  8
0
  6
Continuous
 62
     7
370
    25
100
AcDbCircle
 10
58.5000685604
 20
323.2113402062
 30
0.0
 40
0.2500000000000853
100
AcDbArc
 50
0.0
 51
90.0
  0
LINE
  5
94
330
1F
100
AcDbEntity
  8
0
  6
Continuous
 62
     7
370
    25
100
AcDbLine
 10
58.7500445279
 20
318.1113401928
 30
0.0
 11
58.7500445279
 21
323.2113399112
 31
0.0
  0
ARC
  5
95
330
1F
100
AcDbEntity
  8
0
  6
Continuous
 62
     7
370
    25
100
AcDbCircle
 10
56.6928512132
 20
323.2113402062
 30
0.0
 40
0.2500000000000853
100
AcDbArc
 50
90.0
 51
180.0
  0
LINE
  5
96
330
1F
100
AcDbEntity
  8
0
  6
Continuous
 62
     7
370
    25
100
AcDbLine
 10
56.4428679379
 20
323.2113399112
 30
0.0
 11
56.4428679379
 21
319.0613404417
 31
0.0
  0
SPLINE
  5
97
330
1F
100
AcDbEntity
  8
0
  6
Continuous
 62
     7
370
    25
100
AcDbSpline
210
0.0
220
0.0
230
1.0
 70
     8
 71
     3
 72
     9
 73
     5
 74
     0
 42
0.000000001
 43
0.00000001
 40
0.0
 40
0.0
 40
0.0
 40
0.0
 40
0.3939761104896771
 40
0.9999999999999999
 40
0.9999999999999999
 40
0.9999999999999999
 40
0.9999999999999999
 10
47.37151784023219
 20
317.7295631298165
 30
0.0
 10
47.37291843481106
 20
317.7149563283897
 30
0.0
 10
47.37647345893925
 20
317.6778809803219
 30
0.0
 10
47.37561460495243
 20
317.6364483458469
 30
0.0
 10
47.37509411891872
 20
317.6113391795497
 30
0.0
  0
SPLINE
  5
98
330
1F
100
AcDbEntity
  8
0
  6
Continuous
 62
     7
370
    25
100
AcDbSpline
210
0.0
220
0.0
230
1.0
 70
     8
 71
     3
 72
    12
 73
     8
 74
     0
 42
0.000000001
 43
0.00000001
 40
0.0
 40
0.0
 40
0.0
 40
0.0
 40
0.0696731751055013
 40
0.2451153645722345
 40
0.4873117349508063
 40
0.7791352548063097
 40
1.0
 40
1.0
 40
1.0
 40
1.0
 10
47.33569544872218
 20
317.9476155468564
 30
0.0
 10
47.33545114579562
 20
317.9481060597786
 30
0.0
 10
47.33459167009568
 20
317.9498317203871
 30
0.0
 10
47.3421172261449
 20
317.9312615424208
 30
0.0
 10
47.35339237327685
 20
317.8861031442681
 30
0.0
 10
47.36593300049729
 20
317.8157781289547
 30
0.0
 10
47.36983630639924
 20
317.755521518032
 30
0.0
 10
47.37151784023219
 20
317.7295631298165
 30
0.0
  0
ARC
  5
99
330
1F
100
AcDbEntity
  8
0
  6
Continuous
 62
     7
370
    25
100
AcDbCircle
 10
47.6265518397
 20
312.5113402062
 30
0.0
 40
0.2499999999999716
100
AcDbArc
 50
180.0
 51
270.0
  0
LINE
  5
9A
330
1F
100
AcDbEntity
  8
0
  6
Continuous
 62
     7
370
    25
100
AcDbLine
 10
47.3765246304
 20
317.6113401109
 30
0.0
 11
47.3765246304
 21
312.5113394612
 31
0.0
  0
SPLINE
  5
9B
330
1F
100
AcDbEntity
  8
0
  6
Continuous
 62
     7
370
    25
100
AcDbSpline
210
0.0
220
0.0
230
1.0
 70
     8
 71
     3
 72
    13
 73
     9
 74
     0
 42
0.000000001
 43
0.00000001
 40
0.0
 40
0.0
 40
0.0
 40
0.0
 40
0.0325922800335987
 40
0.2503242610201925
 40
0.4761837559848046
 40
0.7301309153700152
 40
0.9104083389026747
 40
1.0
 40
1.0
 40
1.0
 40
1.0
 10
53.88469618877345
 20
317.6112879568081
 30
0.0
 10
53.8851898362418
 20
317.6346208224903
 30
0.0
 10
53.88898128432529
 20
317.8138283634589
 30
0.0
 10
53.86378060090802
 20
318.154162515718
 30
0.0
 10
53.79250939642854
 20
318.5754788374658
 30
0.0
 10
53.6945314695807
 20
318.8430162326517
 30
0.0
 10
53.53813306860467
 20
319.0352073071281
 30
0.0
 10
53.39499783674906
 20
319.0510555555292
 30
0.0
 10
53.34747952541286
 20
319.0563168877106
 30
0.0
  0
ARC
  5
9C
330
1F
100
AcDbEntity
  8
0
  6
Continuous
 62
     7
370
    25
100
AcDbCircle
 10
53.6363720507
 20
312.5113402062
 30
0.0
 40
0.25
100
AcDbArc
 50
270.0
 51
0.0
  0
LINE
  5
9D
330
1F
100
AcDbEntity
  8
0
  6
Continuous
 62
     7
370
    25
100
AcDbLine
 10
53.8863651188
 20
312.5113394612
 30
0.0
 11
53.8863651188
 21
317.6113401109
 31
0.0
  0
ARC
  5
9E
330
1F
100
AcDbEntity
  8
0
  6
Continuous
 62
     7
370
    25
100
AcDbCircle
 10
57.0000685604
 20
318.1113402062
 30
0.0
 40
0.2500000000000853
100
AcDbArc
 50
270.0
 51
0.0
  0
ARC
  5
9F
330
1F
100
AcDbEntity
  8
0
  6
Continuous
 62
     7
370
    25
100
AcDbCircle
 10
57.0000685604
 20
318.8113402062
 30
0.0
 40
0.2500000000000853
100
AcDbArc
 50
0.0
 51
90.0
  0
LINE
  5
A0
330
1F
100
AcDbEntity
  8
0
  6
Continuous
 62
     7
370
    25
100
AcDbLine
 10
57.2500936421
 20
318.1113401928
 30
0.0
 11
57.2500936421
 21
318.811339935
 31
0.0
  0
LINE
  5
A1
330
1F
100
AcDbEntity
  8
0
  6
Continuous
 62
     7
370
    25
100
AcDbLine
 10
43.2137362393
 20
316.661339862
 30
0.0
 11
43.2137362393
 21
316.4671749377
 31
0.0
  0
LINE
  5
A2
330
1F
100
AcDbEntity
  8
0
  6
Continuous
 62
     7
370
    25
100
AcDbLine
 10
43.5500852497
 20
316.661339862
 30
0.0
 11
42.7763573559
 21
316.2146412337
 31
0.0
  0
LINE
  5
A3
330
1F
100
AcDbEntity
  8
0
  6
Continuous
 62
     7
370
    25
100
AcDbLine
 10
42.7763573559
 20
311.9080398732
 30
0.0
 11
43.5500852497
 21
311.4613403135
 31
0.0
  0
LINE
  5
A4
330
1F
100
AcDbEntity
  8
0
  6
Continuous
 62
     7
370
    25
100
AcDbLine
 10
54.3238036068
 20
316.2146412337
 30
0.0
 11
53.8863651188
 21
316.4671749377
 31
0.0
  0
LINE
  5
A5
330
1F
100
AcDbEntity
  8
0
  6
Continuous
 62
     7
370
    25
100
AcDbLine
 10
53.550075713
 20
311.4613403135
 30
0.0
 11
54.3238036068
 21
311.9080398732
 31
0.0
  0
LINE
  5
A6
330
1F
100
AcDbEntity
  8
0
  6
Continuous
 62
     7
370
    25
100
AcDbLine
 10
43.2736389073
 20
324.6709440404
 30
0.0
 11
43.5500852497
 21
324.5113400312
 31
0.0
  0
LINE
  5
A7
330
1F
100
AcDbEntity
  8
0
  6
Continuous
 62
     7
370
    25
100
AcDbLine
 10
53.550075713
 20
324.5113400312
 30
0.0
 11
53.8265220555
 21
324.6709440404
 31
0.0
  0
LINE
  5
A8
330
1F
100
AcDbEntity
  8
0
  6
Continuous
 62
     7
370
    25
100
AcDbLine
 10
45.5500595005
 20
324.5113400312
 30
0.0
 11
45.5500595005
 21
324.2613399902
 31
0.0
  0
LINE
  5
A9
330
1F
100
AcDbEntity
  8
0
  6
Continuous
 62
     7
370
    25
100
AcDbLine
 10
51.5500418576
 20
324.2613399902
 30
0.0
 11
51.5500418576
 21
324.5113400312
 31
0.0
  0
LINE
  5
AA
330
1F
100
AcDbEntity
  8
0
  6
Continuous
 62
     7
370
    25
100
AcDbLine
 10
52.0089380177
 20
596.1613391095
 30
0.0
 11
52.0089380177
 21
605.6613360101
 31
0.0
  0
LINE
  5
AB
330
1F
100
AcDbEntity
  8
0
  6
Continuous
 62
     7
370
    25
100
AcDbLine
 10
33.0089442166
 20
605.6613360101
 30
0.0
 11
33.0089442166
 21
596.1613391095
 31
0.0
  0
ARC
  5
AC
330
1F
100
AcDbEntity
  8
0
  6
Continuous
 62
     7
370
    25
100
AcDbCircle
 10
35.0089612533
 20
605.6613402062
 30
0.0
 40
2.0
100
AcDbArc
 50
90.0
 51
180.0
  0
ARC
  5
AD
330
1F
100
AcDbEntity
  8
0
  6
Continuous
 62
     7
370
    25
100
AcDbCircle
 10
50.0089612533
 20
605.6613402062
 30
0.0
 40
2.0
100
AcDbArc
 50
0.0
 51
90.0
  0
LINE
  5
AE
330
1F
100
AcDbEntity
  8
0
  6
Continuous
 62
     7
370
    25
100
AcDbLine
 10
52.0089380177
 20
596.1613391095
 30
0.0
 11
52.0089380177
 21
605.6613360101
 31
0.0
  0
LINE
  5
AF
330
1F
100
AcDbEntity
  8
0
  6
Continuous
 62
     7
370
    25
100
AcDbLine
 10
33.0089442166
 20
605.6613360101
 30
0.0
 11
33.0089442166
 21
596.1613391095
 31
0.0
  0
LINE
  5
B0
330
1F
100
AcDbEntity
  8
0
  6
Continuous
 62
     7
370
    25
100
AcDbLine
 10
897.0851264628
 20
421.5978939587
 30
0.0
 11
904.4577292832
 21
429.4493083411
 31
0.0
  0
LINE
  5
B1
330
1F
100
AcDbEntity
  8
0
  6
Continuous
 62
     7
370
    25
100
AcDbLine
 10
872.6588673623
 20
480.6780104094
 30
0.0
 11
869.6149401101
 21
480.5078987533
 31
0.0
  0
LINE
  5
B2
330
1F
100
AcDbEntity
  8
0
  6
Continuous
 62
     7
370
    25
100
AcDbLine
 10
880.3684897455
 20
481.108847683
 30
0.0
 11
877.515997711
 21
480.9494499618
 31
0.0
  0
LINE
  5
B3
330
1F
100
AcDbEntity
  8
0
  6
Continuous
 62
     7
370
    25
100
AcDbLine
 10
883.2857198747
 20
481.1481718474
 30
0.0
 11
880.3684897455
 21
481.108847683
 31
0.0
  0
LINE
  5
B4
330
1F
100
AcDbEntity
  8
0
  6
Continuous
 62
     7
370
    25
100
AcDbLine
 10
904.4577292832
 20
429.4493083411
 30
0.0
 11
918.3580688866
 21
445.568773573
 31
0.0
  0
ARC
  5
B5
330
1F
100
AcDbEntity
  8
0
  6
Continuous
 62
     7
370
    25
100
AcDbCircle
 10
917.6007576933
 20
446.2218312522
 30
0.0
 40
0.9999999999999782
100
AcDbArc
 50
319.227745318
 51
25.0
  0
LINE
  5
B6
330
1F
100
AcDbEntity
  8
0
  6
Continuous
 62
     7
370
    25
100
AcDbLine
 10
877.6069096955
 20
480.964544838
 30
0.0
 11
872.6092502209
 21
480.6852523738
 31
0.0
  0
LINE
  5
B7
330
1F
100
AcDbEntity
  8
0
  6
Continuous
 62
     7
370
    25
100
AcDbLine
 10
752.5500692161
 20
231.7613397294
 30
0.0
 11
752.5500692161
 21
235.7613403851
 31
0.0
  0
LINE
  5
B8
330
1F
100
AcDbEntity
  8
0
  6
Continuous
 62
     7
370
    25
100
AcDbLine
 10
695.550065461
 20
235.7613403851
 30
0.0
 11
695.550065461
 21
231.7613397294
 31
0.0
  0
ARC
  5
B9
330
1F
100
AcDbEntity
  8
0
  6
Continuous
 62
     7
370
    25
100
AcDbCircle
 10
750.5500685604
 20
231.7613402062
 30
0.0
 40
2.0
100
AcDbArc
 50
270.0
 51
0.0
  0
ARC
  5
BA
330
1F
100
AcDbEntity
  8
0
  6
Continuous
 62
     7
370
    25
100
AcDbCircle
 10
697.5500685604
 20
231.7613402062
 30
0.0
 40
2.0
100
AcDbArc
 50
180.0
 51
270.0
  0
ARC
  5
BB
330
1F
100
AcDbEntity
  8
0
  6
Continuous
 62
     7
370
    25
100
AcDbCircle
 10
171.5500685604
 20
231.7613402062
 30
0.0
 40
2.0
100
AcDbArc
 50
270.0
 51
0.0
  0
ARC
  5
BC
330
1F
100
AcDbEntity
  8
0
  6
Continuous
 62
     7
370
    25
100
AcDbCircle
 10
118.5500685604
 20
231.7613402062
 30
0.0
 40
2.0
100
AcDbArc
 50
180.0
 51
270.0
  0
LINE
  5
BD
330
1F
100
AcDbEntity
  8
0
  6
Continuous
 62
     7
370
    25
100
AcDbLine
 10
173.5500804814
 20
231.7613397294
 30
0.0
 11
173.5500804814
 21
235.7613403851
 31
0.0
  0
LINE
  5
BE
330
1F
100
AcDbEntity
  8
0
  6
Continuous
 62
     7
370
    25
100
AcDbLine
 10
116.5500394734
 20
235.7613403851
 30
0.0
 11
116.5500394734
 21
231.7613397294
 31
0.0
  0
LINE
  5
BF
330
1F
100
AcDbEntity
  8
0
  6
Continuous
 62
     7
370
    25
100
AcDbLine
 10
173.3500472935
 20
235.7613403851
 30
0.0
 11
173.3500472935
 21
264.7613395506
 31
0.0
  0
LINE
  5
C0
330
1F
100
AcDbEntity
  8
0
  6
Continuous
 62
     7
370
    25
100
AcDbLine
 10
116.7500726612
 20
264.7613395506
 30
0.0
 11
116.7500726612
 21
235.7613403851
 31
0.0
  0
LINE
  5
C1
330
1F
100
AcDbEntity
  8
0
  6
Continuous
 62
     7
370
    25
100
AcDbLine
 10
752.3500695558
 20
235.7613403851
 30
0.0
 11
752.3500695558
 21
264.7613395506
 31
0.0
  0
LINE
  5
C2
330
1F
100
AcDbEntity
  8
0
  6
Continuous
 62
     7
370
    25
100
AcDbLine
 10
695.7500688465
 20
264.7613395506
 30
0.0
 11
695.7500688465
 21
235.7613403851
 31
0.0
  0
ARC
  5
C3
330
1F
100
AcDbEntity
  8
0
  6
Continuous
 62
     7
370
    25
100
AcDbCircle
 10
757.4500685604
 20
326.2613402062
 30
0.0
 40
1.500000000000114
100
AcDbArc
 50
90.0
 51
180.0
  0
ARC
  5
C4
330
1F
100
AcDbEntity
  8
0
  6
Continuous
 62
     7
370
    25
100
AcDbCircle
 10
690.6500685604
 20
326.2613402062
 30
0.0
 40
1.5
100
AcDbArc
 50
0.0
 51
90.0
  0
ARC
  5
C5
330
1F
100
AcDbEntity
  8
0
  6
Continuous
 62
     7
370
    25
100
AcDbCircle
 10
751.2500685604
 20
270.7939061519
 30
0.0
 40
4.699999999999932
100
AcDbArc
 50
350.5402980318
 51
0.0
  0
ARC
  5
C6
330
1F
100
AcDbEntity
  8
0
  6
Continuous
 62
     7
370
    25
100
AcDbCircle
 10
696.8500685604
 20
270.7939061519
 30
0.0
 40
4.700000000000113
100
AcDbArc
 50
180.0
 51
189.4597019682
  0
LINE
  5
C7
330
1F
100
AcDbEntity
  8
0
  6
Continuous
 62
     7
370
    25
100
AcDbLine
 10
755.9500671657
 20
270.7939070219
 30
0.0
 11
755.9500671657
 21
326.261340318
 31
0.0
  0
LINE
  5
C8
330
1F
100
AcDbEntity
  8
0
  6
Continuous
 62
     7
370
    25
100
AcDbLine
 10
692.1500675114
 20
326.261340318
 30
0.0
 11
692.1500675114
 21
270.7939070219
 31
0.0
  0
LINE
  5
C9
330
1F
100
AcDbEntity
  8
0
  6
Continuous
 62
     7
370
    25
100
AcDbLine
 10
692.2139785918
 20
270.0214420014
 30
0.0
 11
693.0904201897
 21
264.7613395506
 31
0.0
  0
LINE
  5
CA
330
1F
100
AcDbEntity
  8
0
  6
Continuous
 62
     7
370
    25
100
AcDbLine
 10
755.0097182127
 20
264.7613395506
 30
0.0
 11
755.8861560853
 21
270.0214420014
 31
0.0
  0
ARC
  5
CB
330
1F
100
AcDbEntity
  8
0
  6
Continuous
 62
     7
370
    25
100
AcDbCircle
 10
178.4500685604
 20
326.2613402062
 30
0.0
 40
1.499999999999972
100
AcDbArc
 50
90.0
 51
180.0
  0
ARC
  5
CC
330
1F
100
AcDbEntity
  8
0
  6
Continuous
 62
     7
370
    25
100
AcDbCircle
 10
111.6500685604
 20
326.2613402062
 30
0.0
 40
1.499999999999943
100
AcDbArc
 50
0.0
 51
90.0
  0
LINE
  5
CD
330
1F
100
AcDbEntity
  8
0
  6
Continuous
 62
     7
370
    25
100
AcDbLine
 10
176.9500486287
 20
270.7939070219
 30
0.0
 11
176.9500486287
 21
326.261340318
 31
0.0
  0
LINE
  5
CE
330
1F
100
AcDbEntity
  8
0
  6
Continuous
 62
     7
370
    25
100
AcDbLine
 10
113.1500713261
 20
326.261340318
 30
0.0
 11
113.1500713261
 21
270.7939070219
 31
0.0
  0
ARC
  5
CF
330
1F
100
AcDbEntity
  8
0
  6
Continuous
 62
     7
370
    25
100
AcDbCircle
 10
172.2500685604
 20
270.7939061519
 30
0.0
 40
4.700000000000029
100
AcDbArc
 50
350.5402980318
 51
0.0
  0
ARC
  5
D0
330
1F
100
AcDbEntity
  8
0
  6
Continuous
 62
     7
370
    25
100
AcDbCircle
 10
117.8500685604
 20
270.7939061519
 30
0.0
 40
4.700000000000045
100
AcDbArc
 50
180.0
 51
189.4597019682
  0
LINE
  5
D1
330
1F
100
AcDbEntity
  8
0
  6
Continuous
 62
     7
370
    25
100
AcDbLine
 10
113.2139675053
 20
270.0214420014
 30
0.0
 11
114.0903942021
 21
264.7613395506
 31
0.0
  0
LINE
  5
D2
330
1F
100
AcDbEntity
  8
0
  6
Continuous
 62
     7
370
    25
100
AcDbLine
 10
176.0097257527
 20
264.7613395506
 30
0.0
 11
176.8861524495
 21
270.0214420014
 31
0.0
  0
LINE
  5
D3
330
1F
100
AcDbEntity
  8
0
  6
Continuous
 62
     7
370
    25
100
AcDbLine
 10
443.3589689167
 20
328.9613401552
 30
0.0
 11
443.3589689167
 21
317.3881486559
 31
0.0
  0
LINE
  5
D4
330
1F
100
AcDbEntity
  8
0
  6
Continuous
 62
     7
370
    25
100
AcDbLine
 10
491.6589669617
 20
317.3881486559
 30
0.0
 11
491.6589669617
 21
328.9613401552
 31
0.0
  0
LINE
  5
D5
330
1F
100
AcDbEntity
  8
0
  6
Continuous
 62
     7
370
    25
100
AcDbLine
 10
443.3589689167
 20
317.3881486559
 30
0.0
 11
443.6476342114
 21
316.8881495052
 31
0.0
  0
LINE
  5
D6
330
1F
100
AcDbEntity
  8
0
  6
Continuous
 62
     7
370
    25
100
AcDbLine
 10
491.3702718647
 20
316.8881495052
 30
0.0
 11
491.6589669617
 21
317.3881486559
 31
0.0
  0
LINE
  5
D7
330
1F
100
AcDbEntity
  8
0
  6
Continuous
 62
     7
370
    25
100
AcDbLine
 10
94.8089472683
 20
699.5435391122
 30
0.0
 11
94.8089472683
 21
700.1613412553
 31
0.0
  0
LINE
  5
D8
330
1F
100
AcDbEntity
  8
0
  6
Continuous
 62
     7
370
    25
100
AcDbLine
 10
94.0089337262
 20
699.641976183
 30
0.0
 11
94.0089337262
 21
700.1613412553
 31
0.0
  0
LINE
  5
D9
330
1F
100
AcDbEntity
  8
0
  6
Continuous
 62
     7
370
    25
100
AcDbLine
 10
92.0089594754
 20
700.1613412553
 30
0.0
 11
92.0089594754
 21
686.9613264256
 31
0.0
  0
LINE
  5
DA
330
1F
100
AcDbEntity
  8
0
  6
Continuous
 62
     7
370
    25
100
AcDbLine
 10
91.2089459332
 20
700.1613412553
 30
0.0
 11
91.2089459332
 21
686.9613264256
 31
0.0
  0
ARC
  5
DB
330
1F
100
AcDbEntity
  8
0
  6
Continuous
 62
     7
370
    25
100
AcDbCircle
 10
93.0089612533
 20
700.1613402062
 30
0.0
 40
1.800000000000026
100
AcDbArc
 50
0.0
 51
180.0
  0
ARC
  5
DC
330
1F
100
AcDbEntity
  8
0
  6
Continuous
 62
     7
370
    25
100
AcDbCircle
 10
93.0089612533
 20
700.1613402062
 30
0.0
 40
1.0
100
AcDbArc
 50
0.0
 51
180.0
  0
LINE
  5
DD
330
1F
100
AcDbEntity
  8
0
  6
Continuous
 62
     7
370
    25
100
AcDbLine
 10
92.0089594754
 20
681.961331194
 30
0.0
 11
91.2089459332
 21
681.961331194
 31
0.0
  0
LINE
  5
DE
330
1F
100
AcDbEntity
  8
0
  6
Continuous
 62
     7
370
    25
100
AcDbLine
 10
92.0089594754
 20
686.9613264256
 30
0.0
 11
92.0089594754
 21
681.961331194
 31
0.0
  0
LINE
  5
DF
330
1F
100
AcDbEntity
  8
0
  6
Continuous
 62
     7
370
    25
100
AcDbLine
 10
91.2089459332
 20
681.961331194
 30
0.0
 11
91.2089459332
 21
686.9613264256
 31
0.0
  0
LINE
  5
E0
330
1F
100
AcDbEntity
  8
0
  6
Continuous
 62
     7
370
    25
100
AcDbLine
 10
92.5089828404
 20
642.1113346272
 30
0.0
 11
90.6089655789
 21
642.1113346272
 31
0.0
  0
ARC
  5
E1
330
1F
100
AcDbEntity
  8
0
  6
Continuous
 62
     7
370
    25
100
AcDbCircle
 10
90.6089612533
 20
637.3613402062
 30
0.0
 40
4.750000000000114
100
AcDbArc
 50
90.0
 51
270.0
  0
LINE
  5
E2
330
1F
100
AcDbEntity
  8
0
  6
Continuous
 62
     7
370
    25
100
AcDbLine
 10
90.6089655789
 20
632.6113377267
 30
0.0
 11
92.5089828404
 21
632.6113377267
 31
0.0
  0
LINE
  5
E3
330
1F
100
AcDbEntity
  8
0
  6
Continuous
 62
     7
370
    25
100
AcDbLine
 10
92.5089828404
 20
615.8230040723
 30
0.0
 11
83.2892171772
 21
633.5555647069
 31
0.0
  0
ARC
  5
E4
330
1F
100
AcDbEntity
  8
0
  6
Continuous
 62
     7
370
    25
100
AcDbCircle
 10
90.6089612533
 20
637.3613402062
 30
0.0
 40
8.250000000000114
100
AcDbArc
 50
90.0
 51
207.4713961742
  0
LINE
  5
E5
330
1F
100
AcDbEntity
  8
0
  6
Continuous
 62
     7
370
    25
100
AcDbLine
 10
90.6089655789
 20
645.6113491708
 30
0.0
 11
92.5089828404
 21
645.6113491708
 31
0.0
  0
LINE
  5
E6
330
1F
100
AcDbEntity
  8
0
  6
Continuous
 62
     7
370
    25
100
AcDbLine
 10
140.0089375409
 20
578.161347335
 30
0.0
 11
140.0089375409
 21
579.6613429242
 31
0.0
  0
LINE
  5
E7
330
1F
100
AcDbEntity
  8
0
  6
Continuous
 62
     7
370
    25
100
AcDbLine
 10
96.5089909466
 20
578.161347335
 30
0.0
 11
96.5089909466
 21
579.6613429242
 31
0.0
  0
LINE
  5
E8
330
1F
100
AcDbEntity
  8
0
  6
Continuous
 62
     7
370
    25
100
AcDbLine
 10
95.0089804562
 20
579.6613429242
 30
0.0
 11
95.0089804562
 21
578.161347335
 31
0.0
  0
LINE
  5
E9
330
1F
100
AcDbEntity
  8
0
  6
Continuous
 62
     7
370
    25
100
AcDbLine
 10
138.5089866551
 20
579.6613429242
 30
0.0
 11
138.5089866551
 21
578.161347335
 31
0.0
  0
ARC
  5
EA
330
1F
100
AcDbEntity
  8
0
  6
Continuous
 62
     7
370
    25
100
AcDbCircle
 10
82.608961251
 20
556.1613402062
 30
0.0
 40
0.8510000000001099
100
AcDbArc
 50
127.2411038472
 51
142.7588961528
  0
ARC
  5
EB
330
1F
100
AcDbEntity
  8
0
  6
Continuous
 62
     7
370
    25
100
AcDbCircle
 10
82.608961251
 20
556.1613402062
 30
0.0
 40
1.064276776427778
100
AcDbArc
 50
118.9402112264
 51
151.0597887736
  0
SPLINE
  5
EC
330
1F
100
AcDbEntity
  8
0
  6
Continuous
 62
     7
370
    25
100
AcDbSpline
210
0.0
220
0.0
230
1.0
 70
    24
 71
     3
 72
    10
 73
     6
 74
     0
 42
0.000000001
 43
0.00000001
 40
0.0
 40
0.0
 40
0.0
 40
0.0
 40
0.2385605656208616
 40
0.8720177202367824
 40
1.0
 40
1.0
 40
1.0
 40
1.0
 10
81.93148297389908
 20
556.6763464861851
 30
0.0
 10
81.9104123448604
 20
556.676346486185
 30
0.0
 10
81.83339223111918
 20
556.6763464861851
 30
0.0
 10
81.75010908997893
 20
556.676346486185
 30
0.0
 10
81.6880055179886
 20
556.676346486185
 30
0.0
 10
81.67756718715601
 20
556.676346486185
 30
0.0
  0
SPLINE
  5
ED
330
1F
100
AcDbEntity
  8
0
  6
Continuous
 62
     7
370
    25
100
AcDbSpline
210
0.0
220
0.0
230
1.0
 70
    24
 71
     3
 72
    10
 73
     6
 74
     0
 42
0.000000001
 43
0.00000001
 40
0.0
 40
0.0
 40
0.0
 40
0.0
 40
0.127981549101009
 40
0.7614393442002287
 40
0.9999999999999999
 40
0.9999999999999999
 40
0.9999999999999999
 40
0.9999999999999999
 10
82.0939652355569
 20
557.0927147322635
 30
0.0
 10
82.0939652355569
 20
557.0822874470407
 30
0.0
 10
82.09396523555657
 20
557.020249244834
 30
0.0
 10
82.09396523555668
 20
556.9368969104382
 30
0.0
 10
82.0939652355569
 20
556.8598828186005
 30
0.0
 10
82.0939652355569
 20
556.8388138466815
 30
0.0
  0
ARC
  5
EE
330
1F
100
AcDbEntity
  8
0
  6
Continuous
 62
     7
370
    25
100
AcDbCircle
 10
82.608961251
 20
556.1613402062
 30
0.0
 40
1.064276776427778
100
AcDbArc
 50
28.9402112264
 51
61.0597887736
  0
SPLINE
  5
EF
330
1F
100
AcDbEntity
  8
0
  6
Continuous
 62
     7
370
    25
100
AcDbSpline
210
0.0
220
0.0
230
1.0
 70
    24
 71
     3
 72
    10
 73
     6
 74
     0
 42
0.000000001
 43
0.00000001
 40
0.0
 40
0.0
 40
0.0
 40
0.0
 40
0.12798071640378
 40
0.7614394455892963
 40
1.0
 40
1.0
 40
1.0
 40
1.0
 10
83.54033154567652
 20
556.676346486185
 30
0.0
 10
83.52991557504974
 20
556.676346486185
 30
0.0
 10
83.46794427873083
 20
556.6763464861851
 30
0.0
 10
83.38448726727721
 20
556.676346486185
 30
0.0
 10
83.30748222583806
 20
556.676346486185
 30
0.0
 10
83.28641575893336
 20
556.676346486185
 30
0.0
  0
ARC
  5
F0
330
1F
100
AcDbEntity
  8
0
  6
Continuous
 62
     7
370
    25
100
AcDbCircle
 10
82.608961251
 20
556.1613402062
 30
0.0
 40
0.8510000000001099
100
AcDbArc
 50
37.2411038472
 51
52.7588961528
  0
SPLINE
  5
F1
330
1F
100
AcDbEntity
  8
0
  6
Continuous
 62
     7
370
    25
100
AcDbSpline
210
0.0
220
0.0
230
1.0
 70
    24
 71
     3
 72
    10
 73
     6
 74
     0
 42
0.000000001
 43
0.00000001
 40
0.0
 40
0.0
 40
0.0
 40
0.0
 40
0.2385606557997713
 40
0.872018450898991
 40
0.9999999999999999
 40
0.9999999999999999
 40
0.9999999999999999
 40
0.9999999999999999
 10
83.12393349727564
 20
556.8388138466815
 30
0.0
 10
83.12393349727576
 20
556.8598828186003
 30
0.0
 10
83.12393349727576
 20
556.9368969104381
 30
0.0
 10
83.1239334972752
 20
557.020249244834
 30
0.0
 10
83.12393349727564
 20
557.0822874470407
 30
0.0
 10
83.12393349727564
 20
557.0927147322635
 30
0.0
  0
LINE
  5
F2
330
1F
100
AcDbEntity
  8
0
  6
Continuous
 62
     7
370
    25
100
AcDbLine
 10
83.5383049878
 20
556.6763464862
 30
0.0
 11
83.5383049878
 21
555.646333521
 31
0.0
  0
LINE
  5
F3
330
1F
100
AcDbEntity
  8
0
  6
Continuous
 62
     7
370
    25
100
AcDbLine
 10
85.0589386853
 20
556.6763464862
 30
0.0
 11
85.0589386853
 21
555.646333521
 31
0.0
  0
SPLINE
  5
F4
330
1F
100
AcDbEntity
  8
0
  6
Continuous
 62
     7
370
    25
100
AcDbSpline
210
0.0
220
0.0
230
1.0
 70
    24
 71
     3
 72
    10
 73
     6
 74
     0
 42
0.000000001
 43
0.00000001
 40
0.0
 40
0.0
 40
0.0
 40
0.0
 40
0.127981549101009
 40
0.7614393442002287
 40
0.9999999999999999
 40
0.9999999999999999
 40
0.9999999999999999
 40
0.9999999999999999
 10
83.12393349727564
 20
555.2299652749042
 30
0.0
 10
83.12393349727564
 20
555.240392560127
 30
0.0
 10
83.12393349727509
 20
555.3024307623341
 30
0.0
 10
83.12393349727532
 20
555.3857830967298
 30
0.0
 10
83.12393349727564
 20
555.4627971885675
 30
0.0
 10
83.12393349727564
 20
555.4838661604862
 30
0.0
  0
ARC
  5
F5
330
1F
100
AcDbEntity
  8
0
  6
Continuous
 62
     7
370
    25
100
AcDbCircle
 10
82.608961251
 20
556.1613402062
 30
0.0
 40
0.8510000000000194
100
AcDbArc
 50
307.2411038472
 51
322.7588961528
  0
SPLINE
  5
F6
330
1F
100
AcDbEntity
  8
0
  6
Continuous
 62
     7
370
    25
100
AcDbSpline
210
0.0
220
0.0
230
1.0
 70
    24
 71
     3
 72
    10
 73
     6
 74
     0
 42
0.000000001
 43
0.00000001
 40
0.0
 40
0.0
 40
0.0
 40
0.0
 40
0.2385605544107037
 40
0.87201928359622
 40
1.0
 40
1.0
 40
1.0
 40
1.0
 10
83.28641575893336
 20
555.6463335209827
 30
0.0
 10
83.30748222583817
 20
555.6463335209827
 30
0.0
 10
83.38448726727732
 20
555.6463335209827
 30
0.0
 10
83.46794427873094
 20
555.6463335209827
 30
0.0
 10
83.52991557504974
 20
555.6463335209827
 30
0.0
 10
83.54033154567652
 20
555.6463335209827
 30
0.0
  0
ARC
  5
F7
330
1F
100
AcDbEntity
  8
0
  6
Continuous
 62
     7
370
    25
100
AcDbCircle
 10
82.608961251
 20
556.1613402062
 30
0.0
 40
1.064276776427679
100
AcDbArc
 50
298.9402112264
 51
331.0597887736
  0
LINE
  5
F8
330
1F
100
AcDbEntity
  8
0
  6
Continuous
 62
     7
370
    25
100
AcDbLine
 10
83.5403315457
 20
556.6763464862
 30
0.0
 11
85.0589386853
 21
556.6763464862
 31
0.0
  0
LINE
  5
F9
330
1F
100
AcDbEntity
  8
0
  6
Continuous
 62
     7
370
    25
100
AcDbLine
 10
82.0939652356
 20
558.611336773
 30
0.0
 11
83.1239334973
 21
558.611336773
 31
0.0
  0
LINE
  5
FA
330
1F
100
AcDbEntity
  8
0
  6
Continuous
 62
     7
370
    25
100
AcDbLine
 10
80.1589600476
 20
555.646333521
 30
0.0
 11
80.1589600476
 21
556.6763464862
 31
0.0
  0
ARC
  5
FB
330
1F
100
AcDbEntity
  8
0
  6
Continuous
 62
     7
370
    25
100
AcDbCircle
 10
82.608961251
 20
556.1613402062
 30
0.0
 40
1.064276776427679
100
AcDbArc
 50
208.9402112264
 51
241.0597887736
  0
LINE
  5
FC
330
1F
100
AcDbEntity
  8
0
  6
Continuous
 62
     7
370
    25
100
AcDbLine
 10
83.1239334973
 20
553.7113432342
 30
0.0
 11
82.0939652356
 21
553.7113432342
 31
0.0
  0
LINE
  5
FD
330
1F
100
AcDbEntity
  8
0
  6
Continuous
 62
     7
370
    25
100
AcDbLine
 10
85.0589386853
 20
555.646333521
 30
0.0
 11
83.5403315457
 21
555.646333521
 31
0.0
  0
LINE
  5
FE
330
1F
100
AcDbEntity
  8
0
  6
Continuous
 62
     7
370
    25
100
AcDbLine
 10
83.1239334973
 20
555.2299652749
 30
0.0
 11
83.1239334973
 21
553.7113432342
 31
0.0
  0
LINE
  5
FF
330
1F
100
AcDbEntity
  8
0
  6
Continuous
 62
     7
370
    25
100
AcDbLine
 10
81.6775671872
 20
555.646333521
 30
0.0
 11
80.1589600476
 21
555.646333521
 31
0.0
  0
LINE
  5
100
330
1F
100
AcDbEntity
  8
0
  6
Continuous
 62
     7
370
    25
100
AcDbLine
 10
83.1239334973
 20
558.611336773
 30
0.0
 11
83.1239334973
 21
557.0927147323
 31
0.0
  0
LINE
  5
101
330
1F
100
AcDbEntity
  8
0
  6
Continuous
 62
     7
370
    25
100
AcDbLine
 10
82.0939652356
 20
553.7113432342
 30
0.0
 11
82.0939652356
 21
555.2299652749
 31
0.0
  0
LINE
  5
102
330
1F
100
AcDbEntity
  8
0
  6
Continuous
 62
     7
370
    25
100
AcDbLine
 10
80.1589600476
 20
556.6763464862
 30
0.0
 11
81.6775671872
 21
556.6763464862
 31
0.0
  0
CIRCLE
  5
103
330
1F
100
AcDbEntity
  8
0
  6
Continuous
 62
     7
370
    25
100
AcDbCircle
 10
82.608961251
 20
556.1613402062
 30
0.0
 40
4.650000000000034
  0
LINE
  5
104
330
1F
100
AcDbEntity
  8
0
  6
Continuous
 62
     7
370
    25
100
AcDbLine
 10
82.0939652356
 20
557.0927147323
 30
0.0
 11
82.0939652356
 21
558.611336773
 31
0.0
  0
ARC
  5
105
330
1F
100
AcDbEntity
  8
0
  6
Continuous
 62
     7
370
    25
100
AcDbCircle
 10
82.608961251
 20
556.1613402062
 30
0.0
 40
0.8510000000000194
100
AcDbArc
 50
217.2411038472
 51
232.7588961528
  0
SPLINE
  5
106
330
1F
100
AcDbEntity
  8
0
  6
Continuous
 62
     7
370
    25
100
AcDbSpline
210
0.0
220
0.0
230
1.0
 70
    24
 71
     3
 72
    10
 73
     6
 74
     0
 42
0.000000001
 43
0.00000001
 40
0.0
 40
0.0
 40
0.0
 40
0.0
 40
0.1279822797632176
 40
0.7614394343791384
 40
1.0
 40
1.0
 40
1.0
 40
1.0
 10
81.67756718715601
 20
555.6463335209827
 30
0.0
 10
81.6880055179885
 20
555.6463335209827
 30
0.0
 10
81.75010908997926
 20
555.6463335209828
 30
0.0
 10
81.83339223111908
 20
555.6463335209827
 30
0.0
 10
81.9104123448604
 20
555.6463335209828
 30
0.0
 10
81.93148297389918
 20
555.6463335209827
 30
0.0
  0
SPLINE
  5
107
330
1F
100
AcDbEntity
  8
0
  6
Continuous
 62
     7
370
    25
100
AcDbSpline
210
0.0
220
0.0
230
1.0
 70
    24
 71
     3
 72
    10
 73
     6
 74
     0
 42
0.000000001
 43
0.00000001
 40
0.0
 40
0.0
 40
0.0
 40
0.0
 40
0.2385606557997713
 40
0.872018450898991
 40
0.9999999999999999
 40
0.9999999999999999
 40
0.9999999999999999
 40
0.9999999999999999
 10
82.0939652355569
 20
555.4838661604862
 30
0.0
 10
82.09396523555701
 20
555.4627971885674
 30
0.0
 10
82.0939652355569
 20
555.3857830967296
 30
0.0
 10
82.09396523555668
 20
555.3024307623341
 30
0.0
 10
82.0939652355569
 20
555.2403925601271
 30
0.0
 10
82.0939652355569
 20
555.2299652749042
 30
0.0
  0
LINE
  5
108
330
1F
100
AcDbEntity
  8
0
  6
Continuous
 62
     7
370
    25
100
AcDbLine
 10
83.1239334973
 20
555.232006734
 30
0.0
 11
82.0939652356
 21
555.232006734
 31
0.0
  0
LINE
  5
109
330
1F
100
AcDbEntity
  8
0
  6
Continuous
 62
     7
370
    25
100
AcDbLine
 10
81.6796533497
 20
555.646333521
 30
0.0
 11
81.6796533497
 21
556.6763464862
 31
0.0
  0
LINE
  5
10A
330
1F
100
AcDbEntity
  8
0
  6
Continuous
 62
     7
370
    25
100
AcDbLine
 10
82.0939652356
 20
557.0906732732
 30
0.0
 11
83.1239334973
 21
557.0906732732
 31
0.0
  0
ARC
  5
10B
330
1F
100
AcDbEntity
  8
0
  6
Continuous
 62
     7
370
    25
100
AcDbCircle
 10
82.608961251
 20
556.1613402062
 30
0.0
 40
0.8510000000000194
100
AcDbArc
 50
232.7588961528
 51
307.2411038472
  0
ARC
  5
10C
330
1F
100
AcDbEntity
  8
0
  6
Continuous
 62
     7
370
    25
100
AcDbCircle
 10
82.608961251
 20
556.1613402062
 30
0.0
 40
0.8510000000000311
100
AcDbArc
 50
322.7588961528
 51
37.2411038472
  0
ARC
  5
10D
330
1F
100
AcDbEntity
  8
0
  6
Continuous
 62
     7
370
    25
100
AcDbCircle
 10
82.608961251
 20
556.1613402062
 30
0.0
 40
0.8510000000000311
100
AcDbArc
 50
142.7588961528
 51
217.2411038472
  0
ARC
  5
10E
330
1F
100
AcDbEntity
  8
0
  6
Continuous
 62
     7
370
    25
100
AcDbCircle
 10
82.608961251
 20
556.1613402062
 30
0.0
 40
0.8510000000001099
100
AcDbArc
 50
52.7588961528
 51
127.2411038472
  0
LINE
  5
10F
330
1F
100
AcDbEntity
  8
0
  6
Continuous
 62
     7
370
    25
100
AcDbLine
 10
850.2968474956
 20
555.2012060338
 30
0.0
 11
850.1059598955
 21
556.2133674079
 31
0.0
  0
LINE
  5
110
330
1F
100
AcDbEntity
  8
0
  6
Continuous
 62
     7
370
    25
100
AcDbLine
 10
851.7891652616
 20
555.4826591664
 30
0.0
 11
850.2968474956
 21
555.2012060338
 31
0.0
  0
ARC
  5
111
330
1F
100
AcDbEntity
  8
0
  6
Continuous
 62
     7
370
    25
100
AcDbCircle
 10
852.608961251
 20
556.1613402062
 30
0.0
 40
1.064276776427706
100
AcDbArc
 50
219.62042624
 51
251.7400037872
  0
LINE
  5
112
330
1F
100
AcDbEntity
  8
0
  6
Continuous
 62
     7
370
    25
100
AcDbLine
 10
852.5569326909
 20
553.6583398038
 30
0.0
 11
852.2754907342
 21
555.150661295
 31
0.0
  0
LINE
  5
113
330
1F
100
AcDbEntity
  8
0
  6
Continuous
 62
     7
370
    25
100
AcDbLine
 10
853.5690903397
 20
553.8492236787
 30
0.0
 11
852.5569326909
 21
553.6583398038
 31
0.0
  0
LINE
  5
114
330
1F
100
AcDbEntity
  8
0
  6
Continuous
 62
     7
370
    25
100
AcDbLine
 10
853.287648383
 20
555.3415451699
 30
0.0
 11
853.5690903397
 21
553.8492236787
 31
0.0
  0
ARC
  5
115
330
1F
100
AcDbEntity
  8
0
  6
Continuous
 62
     7
370
    25
100
AcDbCircle
 10
852.608961251
 20
556.1613402062
 30
0.0
 40
1.064276776427723
100
AcDbArc
 50
309.62042624
 51
341.7400037872
  0
LINE
  5
116
330
1F
100
AcDbEntity
  8
0
  6
Continuous
 62
     7
370
    25
100
AcDbLine
 10
855.1119640203
 20
556.1093125993
 30
0.0
 11
853.6196462544
 21
555.8278743678
 31
0.0
  0
LINE
  5
117
330
1F
100
AcDbEntity
  8
0
  6
Continuous
 62
     7
370
    25
100
AcDbLine
 10
854.9210764202
 20
557.1214739734
 30
0.0
 11
855.1119640203
 21
556.1093125993
 31
0.0
  0
LINE
  5
118
330
1F
100
AcDbEntity
  8
0
  6
Continuous
 62
     7
370
    25
100
AcDbLine
 10
853.4287586542
 20
556.8400208407
 30
0.0
 11
854.9210764202
 21
557.1214739734
 31
0.0
  0
ARC
  5
119
330
1F
100
AcDbEntity
  8
0
  6
Continuous
 62
     7
370
    25
100
AcDbCircle
 10
852.608961251
 20
556.1613402062
 30
0.0
 40
1.064276776427794
100
AcDbArc
 50
39.62042624
 51
71.7400037872
  0
LINE
  5
11A
330
1F
100
AcDbEntity
  8
0
  6
Continuous
 62
     7
370
    25
100
AcDbLine
 10
852.6609874996
 20
558.6643402034
 30
0.0
 11
852.9424294563
 21
557.1720187121
 31
0.0
  0
LINE
  5
11B
330
1F
100
AcDbEntity
  8
0
  6
Continuous
 62
     7
370
    25
100
AcDbLine
 10
851.6488298508
 20
558.4734563285
 30
0.0
 11
852.6609874996
 21
558.6643402034
 31
0.0
  0
LINE
  5
11C
330
1F
100
AcDbEntity
  8
0
  6
Continuous
 62
     7
370
    25
100
AcDbLine
 10
851.9302718075
 20
556.9811348372
 30
0.0
 11
851.6488298508
 21
558.4734563285
 31
0.0
  0
ARC
  5
11D
330
1F
100
AcDbEntity
  8
0
  6
Continuous
 62
     7
370
    25
100
AcDbCircle
 10
852.608961251
 20
556.1613402062
 30
0.0
 40
1.06427677642765
100
AcDbArc
 50
129.62042624
 51
161.7400037872
  0
LINE
  5
11E
330
1F
100
AcDbEntity
  8
0
  6
Continuous
 62
     7
370
    25
100
AcDbLine
 10
850.1059598955
 20
556.2133674079
 30
0.0
 11
851.5982776614
 21
556.4948056394
 31
0.0
  0
CIRCLE
  5
11F
330
1F
100
AcDbEntity
  8
0
  6
Continuous
 62
     7
370
    25
100
AcDbCircle
 10
852.608961251
 20
556.1613402062
 30
0.0
 40
4.649999999999868
  0
LINE
  5
120
330
1F
100
AcDbEntity
  8
0
  6
Continuous
 62
     7
370
    25
100
AcDbLine
 10
851.9306517871
 20
556.9791231805
 30
0.0
 11
852.9428094359
 21
557.1700070554
 31
0.0
  0
SPLINE
  5
121
330
1F
100
AcDbEntity
  8
0
  6
Continuous
 62
     7
370
    25
100
AcDbSpline
210
0.0
220
0.0
230
1.0
 70
     8
 71
     3
 72
    10
 73
     6
 74
     0
 42
0.000000001
 43
0.00000001
 40
0.0
 40
0.0
 40
0.0
 40
0.0
 40
0.1279815954303417
 40
0.7614392628651073
 40
1.0
 40
1.0
 40
1.0
 40
1.0
 10
851.7891652615922
 20
555.4826591664295
 30
0.0
 10
851.7994128946859
 20
555.4845885938802
 30
0.0
 10
851.8603822095534
 20
555.4960679148782
 30
0.0
 10
851.9422744955803
 20
555.5115281596208
 30
0.0
 10
852.0179579110236
 20
555.5257982265448
 30
0.0
 10
852.0386628540414
 20
555.5297021323184
 30
0.0
  0
ARC
  5
122
330
1F
100
AcDbEntity
  8
0
  6
Continuous
 62
     7
370
    25
100
AcDbCircle
 10
852.608961251
 20
556.1613402062
 30
0.0
 40
0.8510000000000114
100
AcDbArc
 50
227.9213188608
 51
243.4391111664
  0
SPLINE
  5
123
330
1F
100
AcDbEntity
  8
0
  6
Continuous
 62
     7
370
    25
100
AcDbSpline
210
0.0
220
0.0
230
1.0
 70
     8
 71
     3
 72
    10
 73
     6
 74
     0
 42
0.000000001
 43
0.00000001
 40
0.0
 40
0.0
 40
0.0
 40
0.0
 40
0.2385607882727779
 40
0.8720186384248756
 40
0.9999999999999999
 40
0.9999999999999999
 40
0.9999999999999999
 40
0.9999999999999999
 10
852.2284365924256
 20
555.4001514368991
 30
0.0
 10
852.2323422508804
 20
555.3794470630575
 30
0.0
 10
852.2466187252016
 20
555.3037657240676
 30
0.0
 10
852.2620628279789
 20
555.2218496782543
 30
0.0
 10
852.2735585529757
 20
555.1609048024181
 30
0.0
 10
852.2754907341855
 20
555.1506612950305
 30
0.0
  0
SPLINE
  5
124
330
1F
100
AcDbEntity
  8
0
  6
Continuous
 62
     7
370
    25
100
AcDbSpline
210
0.0
220
0.0
230
1.0
 70
     8
 71
     3
 72
    10
 73
     6
 74
     0
 42
0.000000001
 43
0.00000001
 40
0.0
 40
0.0
 40
0.0
 40
0.0
 40
0.1279817638414065
 40
0.7614392280839406
 40
1.0
 40
1.0
 40
1.0
 40
1.0
 10
851.9302718075173
 20
556.981134837244
 30
0.0
 10
851.9322053286904
 20
556.9708857397741
 30
0.0
 10
851.9437089900346
 20
556.9099077954806
 30
0.0
 10
851.9591498178731
 20
556.8280352239644
 30
0.0
 10
851.9734215787582
 20
556.7523501100632
 30
0.0
 10
851.9773259492772
 20
556.7316446953755
 30
0.0
  0
ARC
  5
125
330
1F
100
AcDbEntity
  8
0
  6
Continuous
 62
     7
370
    25
100
AcDbCircle
 10
852.608961251
 20
556.1613402062
 30
0.0
 40
0.8510000000000032
100
AcDbArc
 50
137.9213188608
 51
153.4391111664
  0
SPLINE
  5
126
330
1F
100
AcDbEntity
  8
0
  6
Continuous
 62
     7
370
    25
100
AcDbSpline
210
0.0
220
0.0
230
1.0
 70
     8
 71
     3
 72
    10
 73
     6
 74
     0
 42
0.000000001
 43
0.00000001
 40
0.0
 40
0.0
 40
0.0
 40
0.0
 40
0.2385607199241853
 40
0.8720183416588297
 40
1.0
 40
1.0
 40
1.0
 40
1.0
 10
851.8477752538579
 20
556.5418635064106
 30
0.0
 10
851.8270703115609
 20
556.5379589802177
 30
0.0
 10
851.7513868987523
 20
556.5236866454561
 30
0.0
 10
851.6694945767065
 20
556.5082523179183
 30
0.0
 10
851.6085252939166
 20
556.4967405254719
 30
0.0
 10
851.5982776614087
 20
556.4948056393604
 30
0.0
  0
LINE
  5
127
330
1F
100
AcDbEntity
  8
0
  6
Continuous
 62
     7
370
    25
100
AcDbLine
 10
853.2872684034
 20
555.3435568267
 30
0.0
 11
852.2751107546
 21
555.1526729518
 31
0.0
  0
SPLINE
  5
128
330
1F
100
AcDbEntity
  8
0
  6
Continuous
 62
     7
370
    25
100
AcDbSpline
210
0.0
220
0.0
230
1.0
 70
     8
 71
     3
 72
    10
 73
     6
 74
     0
 42
0.000000001
 43
0.00000001
 40
0.0
 40
0.0
 40
0.0
 40
0.0
 40
0.1279815954303417
 40
0.7614392628651073
 40
1.0
 40
1.0
 40
1.0
 40
1.0
 10
853.4287586542027
 20
556.8400208407382
 30
0.0
 10
853.418511021109
 20
556.8380914132877
 30
0.0
 10
853.3575417062416
 20
556.82661209229
 30
0.0
 10
853.2756494202147
 20
556.8111518475472
 30
0.0
 10
853.1999660047713
 20
556.796881780623
 30
0.0
 10
853.1792610617536
 20
556.7929778748493
 30
0.0
  0
ARC
  5
129
330
1F
100
AcDbEntity
  8
0
  6
Continuous
 62
     7
370
    25
100
AcDbCircle
 10
852.608961251
 20
556.1613402062
 30
0.0
 40
0.8510000000001164
100
AcDbArc
 50
47.9213188608
 51
63.4391111664
  0
SPLINE
  5
12A
330
1F
100
AcDbEntity
  8
0
  6
Continuous
 62
     7
370
    25
100
AcDbSpline
210
0.0
220
0.0
230
1.0
 70
     8
 71
     3
 72
    10
 73
     6
 74
     0
 42
0.000000001
 43
0.00000001
 40
0.0
 40
0.0
 40
0.0
 40
0.0
 40
0.2385607691744761
 40
0.8720186202054908
 40
1.0
 40
1.0
 40
1.0
 40
1.0
 10
852.989483598079
 20
556.9225285702686
 30
0.0
 10
852.9855792263204
 20
556.943232944186
 30
0.0
 10
852.9713074544545
 20
557.01891428793
 30
0.0
 10
852.9558666786432
 20
557.1008303368525
 30
0.0
 10
852.9443629782469
 20
557.1617752048635
 30
0.0
 10
852.9424294563191
 20
557.1720187121372
 30
0.0
  0
LINE
  5
12B
330
1F
100
AcDbEntity
  8
0
  6
Continuous
 62
     7
370
    25
100
AcDbLine
 10
853.4267432722
 20
556.8396483117
 30
0.0
 11
853.6176308723
 21
555.8274869376
 31
0.0
  0
LINE
  5
12C
330
1F
100
AcDbEntity
  8
0
  6
Continuous
 62
     7
370
    25
100
AcDbLine
 10
851.7911769184
 20
555.4830316955
 30
0.0
 11
851.6002893182
 21
556.4951930696
 31
0.0
  0
ARC
  5
12D
330
1F
100
AcDbEntity
  8
0
  6
Continuous
 62
     7
370
    25
100
AcDbCircle
 10
852.608961251
 20
556.1613402062
 30
0.0
 40
0.8510000000000147
100
AcDbArc
 50
317.9213188608
 51
333.4391111664
  0
SPLINE
  5
12E
330
1F
100
AcDbEntity
  8
0
  6
Continuous
 62
     7
370
    25
100
AcDbSpline
210
0.0
220
0.0
230
1.0
 70
     8
 71
     3
 72
    10
 73
     6
 74
     0
 42
0.000000001
 43
0.00000001
 40
0.0
 40
0.0
 40
0.0
 40
0.0
 40
0.2385607990503781
 40
0.8720182588168148
 40
1.0
 40
1.0
 40
1.0
 40
1.0
 10
853.3701449366467
 20
555.7808165007573
 30
0.0
 10
853.3908515796294
 20
555.7847210263845
 30
0.0
 10
853.4665411767107
 20
555.7989933529885
 30
0.0
 10
853.5484195072306
 20
555.8144276994359
 30
0.0
 10
853.6093972005492
 20
555.8259394819172
 30
0.0
 10
853.6196462543862
 20
555.8278743678073
 30
0.0
  0
SPLINE
  5
12F
330
1F
100
AcDbEntity
  8
0
  6
Continuous
 62
     7
370
    25
100
AcDbSpline
210
0.0
220
0.0
230
1.0
 70
     8
 71
     3
 72
    10
 73
     6
 74
     0
 42
0.000000001
 43
0.00000001
 40
0.0
 40
0.0
 40
0.0
 40
0.0
 40
0.127981745622068
 40
0.7614392089856515
 40
1.0
 40
1.0
 40
1.0
 40
1.0
 10
853.2876483829873
 20
555.3415451699237
 30
0.0
 10
853.2857162025325
 20
555.3517942675076
 30
0.0
 10
853.2742205165652
 20
555.412772219629
 30
0.0
 10
853.2587763617836
 20
555.4946447880322
 30
0.0
 10
853.2444998984431
 20
555.5703298971802
 30
0.0
 10
853.2405942412274
 20
555.5910353117923
 30
0.0
  0
ARC
  5
130
330
1F
100
AcDbEntity
  8
0
  6
Continuous
 62
     7
370
    25
100
AcDbCircle
 10
852.608961251
 20
556.1613402062
 30
0.0
 40
0.8510000000000114
100
AcDbArc
 50
153.4391111664
 51
227.9213188608
  0
ARC
  5
131
330
1F
100
AcDbEntity
  8
0
  6
Continuous
 62
     7
370
    25
100
AcDbCircle
 10
852.608961251
 20
556.1613402062
 30
0.0
 40
0.8509999999999353
100
AcDbArc
 50
243.4391111664
 51
317.9213188608
  0
ARC
  5
132
330
1F
100
AcDbEntity
  8
0
  6
Continuous
 62
     7
370
    25
100
AcDbCircle
 10
852.608961251
 20
556.1613402062
 30
0.0
 40
0.8510000000001164
100
AcDbArc
 50
63.4391111664
 51
137.9213188608
  0
ARC
  5
133
330
1F
100
AcDbEntity
  8
0
  6
Continuous
 62
     7
370
    25
100
AcDbCircle
 10
852.608961251
 20
556.1613402062
 30
0.0
 40
0.8510000000000876
100
AcDbArc
 50
333.4391111664
 51
47.9213188608
  0
LINE
  5
134
330
1F
100
AcDbEntity
  8
0
  6
Continuous
 62
     7
370
    25
100
AcDbLine
 10
475.0589541825
 20
556.6763464862
 30
0.0
 11
475.0589541825
 21
555.646333521
 31
0.0
  0
LINE
  5
135
330
1F
100
AcDbEntity
  8
0
  6
Continuous
 62
     7
370
    25
100
AcDbLine
 10
473.5403470429
 20
556.6763464862
 30
0.0
 11
475.0589541825
 21
556.6763464862
 31
0.0
  0
ARC
  5
136
330
1F
100
AcDbEntity
  8
0
  6
Continuous
 62
     7
370
    25
100
AcDbCircle
 10
472.608961251
 20
556.1613402062
 30
0.0
 40
1.064276776427706
100
AcDbArc
 50
28.9402112264
 51
61.0597887736
  0
LINE
  5
137
330
1F
100
AcDbEntity
  8
0
  6
Continuous
 62
     7
370
    25
100
AcDbLine
 10
473.1239489945
 20
558.611336773
 30
0.0
 11
473.1239489945
 21
557.0927147323
 31
0.0
  0
LINE
  5
138
330
1F
100
AcDbEntity
  8
0
  6
Continuous
 62
     7
370
    25
100
AcDbLine
 10
472.0939509304
 20
558.611336773
 30
0.0
 11
473.1239489945
 21
558.611336773
 31
0.0
  0
LINE
  5
139
330
1F
100
AcDbEntity
  8
0
  6
Continuous
 62
     7
370
    25
100
AcDbLine
 10
472.0939509304
 20
557.0927147323
 30
0.0
 11
472.0939509304
 21
558.611336773
 31
0.0
  0
ARC
  5
13A
330
1F
100
AcDbEntity
  8
0
  6
Continuous
 62
     7
370
    25
100
AcDbCircle
 10
472.608961251
 20
556.1613402062
 30
0.0
 40
1.064276776427756
100
AcDbArc
 50
118.9402112264
 51
151.0597887736
  0
LINE
  5
13B
330
1F
100
AcDbEntity
  8
0
  6
Continuous
 62
     7
370
    25
100
AcDbLine
 10
470.1589755448
 20
556.6763464862
 30
0.0
 11
471.6775826844
 21
556.6763464862
 31
0.0
  0
LINE
  5
13C
330
1F
100
AcDbEntity
  8
0
  6
Continuous
 62
     7
370
    25
100
AcDbLine
 10
470.1589755448
 20
555.646333521
 30
0.0
 11
470.1589755448
 21
556.6763464862
 31
0.0
  0
LINE
  5
13D
330
1F
100
AcDbEntity
  8
0
  6
Continuous
 62
     7
370
    25
100
AcDbLine
 10
471.6775826844
 20
555.646333521
 30
0.0
 11
470.1589755448
 21
555.646333521
 31
0.0
  0
ARC
  5
13E
330
1F
100
AcDbEntity
  8
0
  6
Continuous
 62
     7
370
    25
100
AcDbCircle
 10
472.608961251
 20
556.1613402062
 30
0.0
 40
1.064276776427701
100
AcDbArc
 50
208.9402112264
 51
241.0597887736
  0
LINE
  5
13F
330
1F
100
AcDbEntity
  8
0
  6
Continuous
 62
     7
370
    25
100
AcDbLine
 10
473.1239489945
 20
553.7113432342
 30
0.0
 11
472.0939509304
 21
553.7113432342
 31
0.0
  0
LINE
  5
140
330
1F
100
AcDbEntity
  8
0
  6
Continuous
 62
     7
370
    25
100
AcDbLine
 10
473.1239489945
 20
555.2299652749
 30
0.0
 11
473.1239489945
 21
553.7113432342
 31
0.0
  0
ARC
  5
141
330
1F
100
AcDbEntity
  8
0
  6
Continuous
 62
     7
370
    25
100
AcDbCircle
 10
472.608961251
 20
556.1613402062
 30
0.0
 40
1.064276776427651
100
AcDbArc
 50
298.9402112264
 51
331.0597887736
  0
LINE
  5
142
330
1F
100
AcDbEntity
  8
0
  6
Continuous
 62
     7
370
    25
100
AcDbLine
 10
475.0589541825
 20
555.646333521
 30
0.0
 11
473.5403470429
 21
555.646333521
 31
0.0
  0
CIRCLE
  5
143
330
1F
100
AcDbEntity
  8
0
  6
Continuous
 62
     7
370
    25
100
AcDbCircle
 10
472.608961251
 20
556.1613402062
 30
0.0
 40
4.649999999999977
  0
LINE
  5
144
330
1F
100
AcDbEntity
  8
0
  6
Continuous
 62
     7
370
    25
100
AcDbLine
 10
472.0939509304
 20
553.7113432342
 30
0.0
 11
472.0939509304
 21
555.2299652749
 31
0.0
  0
LINE
  5
145
330
1F
100
AcDbEntity
  8
0
  6
Continuous
 62
     7
370
    25
100
AcDbLine
 10
471.6796390446
 20
555.646333521
 30
0.0
 11
471.6796390446
 21
556.6763464862
 31
0.0
  0
LINE
  5
146
330
1F
100
AcDbEntity
  8
0
  6
Continuous
 62
     7
370
    25
100
AcDbLine
 10
472.0939509304
 20
557.0906732732
 30
0.0
 11
473.1239489945
 21
557.0906732732
 31
0.0
  0
SPLINE
  5
147
330
1F
100
AcDbEntity
  8
0
  6
Continuous
 62
     7
370
    25
100
AcDbSpline
210
0.0
220
0.0
230
1.0
 70
    24
 71
     3
 72
    10
 73
     6
 74
     0
 42
0.000000001
 43
0.00000001
 40
0.0
 40
0.0
 40
0.0
 40
0.0
 40
0.127981549101009
 40
0.7614393442002287
 40
0.9999999999999999
 40
0.9999999999999999
 40
0.9999999999999999
 40
0.9999999999999999
 10
472.0939509304421
 20
557.0927147322635
 30
0.0
 10
472.0939509304421
 20
557.0822874470407
 30
0.0
 10
472.0939509304419
 20
557.020249244834
 30
0.0
 10
472.0939509304419
 20
556.9368969104382
 30
0.0
 10
472.0939509304421
 20
556.8598828186005
 30
0.0
 10
472.0939509304421
 20
556.8388138466815
 30
0.0
  0
ARC
  5
148
330
1F
100
AcDbEntity
  8
0
  6
Continuous
 62
     7
370
    25
100
AcDbCircle
 10
472.608961251
 20
556.1613402062
 30
0.0
 40
0.851000000000099
100
AcDbArc
 50
127.2411038472
 51
142.7588961528
  0
SPLINE
  5
149
330
1F
100
AcDbEntity
  8
0
  6
Continuous
 62
     7
370
    25
100
AcDbSpline
210
0.0
220
0.0
230
1.0
 70
    24
 71
     3
 72
    10
 73
     6
 74
     0
 42
0.000000001
 43
0.00000001
 40
0.0
 40
0.0
 40
0.0
 40
0.0
 40
0.2385613902043121
 40
0.8720185069323529
 40
1.0
 40
1.0
 40
1.0
 40
1.0
 10
471.9314984711068
 20
556.676346486185
 30
0.0
 10
471.910417551687
 20
556.6763464861851
 30
0.0
 10
471.8333600200325
 20
556.6763464861851
 30
0.0
 10
471.7500503955808
 20
556.676346486185
 30
0.0
 10
471.688010294276
 20
556.6763464861851
 30
0.0
 10
471.6775826843636
 20
556.676346486185
 30
0.0
  0
SPLINE
  5
14A
330
1F
100
AcDbEntity
  8
0
  6
Continuous
 62
     7
370
    25
100
AcDbSpline
210
0.0
220
0.0
230
1.0
 70
    24
 71
     3
 72
    10
 73
     6
 74
     0
 42
0.000000001
 43
0.00000001
 40
0.0
 40
0.0
 40
0.0
 40
0.0
 40
0.1279814930676471
 40
0.7614386097956879
 40
1.0
 40
1.0
 40
1.0
 40
1.0
 10
471.6775826843636
 20
555.6463335209827
 30
0.0
 10
471.688010294276
 20
555.6463335209828
 30
0.0
 10
471.7500503955811
 20
555.6463335209827
 30
0.0
 10
471.8333600200325
 20
555.6463335209828
 30
0.0
 10
471.910417551687
 20
555.6463335209827
 30
0.0
 10
471.9314984711068
 20
555.6463335209827
 30
0.0
  0
ARC
  5
14B
330
1F
100
AcDbEntity
  8
0
  6
Continuous
 62
     7
370
    25
100
AcDbCircle
 10
472.608961251
 20
556.1613402062
 30
0.0
 40
0.8510000000000302
100
AcDbArc
 50
217.2411038472
 51
232.7588961528
  0
SPLINE
  5
14C
330
1F
100
AcDbEntity
  8
0
  6
Continuous
 62
     7
370
    25
100
AcDbSpline
210
0.0
220
0.0
230
1.0
 70
    24
 71
     3
 72
    10
 73
     6
 74
     0
 42
0.000000001
 43
0.00000001
 40
0.0
 40
0.0
 40
0.0
 40
0.0
 40
0.2385606557997713
 40
0.872018450898991
 40
0.9999999999999999
 40
0.9999999999999999
 40
0.9999999999999999
 40
0.9999999999999999
 10
472.0939509304421
 20
555.4838661604862
 30
0.0
 10
472.0939509304421
 20
555.4627971885674
 30
0.0
 10
472.0939509304422
 20
555.3857830967296
 30
0.0
 10
472.0939509304421
 20
555.3024307623341
 30
0.0
 10
472.0939509304421
 20
555.2403925601271
 30
0.0
 10
472.0939509304421
 20
555.2299652749042
 30
0.0
  0
LINE
  5
14D
330
1F
100
AcDbEntity
  8
0
  6
Continuous
 62
     7
370
    25
100
AcDbLine
 10
473.1239489945
 20
555.232006734
 30
0.0
 11
472.0939509304
 21
555.232006734
 31
0.0
  0
ARC
  5
14E
330
1F
100
AcDbEntity
  8
0
  6
Continuous
 62
     7
370
    25
100
AcDbCircle
 10
472.608961251
 20
556.1613402062
 30
0.0
 40
0.8509999999999849
100
AcDbArc
 50
307.2411038472
 51
322.7588961528
  0
SPLINE
  5
14F
330
1F
100
AcDbEntity
  8
0
  6
Continuous
 62
     7
370
    25
100
AcDbSpline
210
0.0
220
0.0
230
1.0
 70
    24
 71
     3
 72
    10
 73
     6
 74
     0
 42
0.000000001
 43
0.00000001
 40
0.0
 40
0.0
 40
0.0
 40
0.0
 40
0.2385605601213242
 40
0.8720185022279743
 40
1.0
 40
1.0
 40
1.0
 40
1.0
 10
473.286431256141
 20
555.6463335209827
 30
0.0
 10
473.3074998041228
 20
555.6463335209828
 30
0.0
 10
473.3845123817505
 20
555.6463335209827
 30
0.0
 10
473.4678824574971
 20
555.6463335209828
 30
0.0
 10
473.5299198921609
 20
555.6463335209827
 30
0.0
 10
473.5403470428842
 20
555.6463335209827
 30
0.0
  0
SPLINE
  5
150
330
1F
100
AcDbEntity
  8
0
  6
Continuous
 62
     7
370
    25
100
AcDbSpline
210
0.0
220
0.0
230
1.0
 70
    24
 71
     3
 72
    10
 73
     6
 74
     0
 42
0.000000001
 43
0.00000001
 40
0.0
 40
0.0
 40
0.0
 40
0.0
 40
0.127981549101009
 40
0.7614393442002287
 40
0.9999999999999999
 40
0.9999999999999999
 40
0.9999999999999999
 40
0.9999999999999999
 10
473.1239489944833
 20
555.2299652749042
 30
0.0
 10
473.1239489944832
 20
555.240392560127
 30
0.0
 10
473.1239489944831
 20
555.3024307623341
 30
0.0
 10
473.1239489944831
 20
555.3857830967298
 30
0.0
 10
473.1239489944833
 20
555.4627971885675
 30
0.0
 10
473.1239489944833
 20
555.4838661604862
 30
0.0
  0
ARC
  5
151
330
1F
100
AcDbEntity
  8
0
  6
Continuous
 62
     7
370
    25
100
AcDbCircle
 10
472.608961251
 20
556.1613402062
 30
0.0
 40
0.8510000000000538
100
AcDbArc
 50
37.2411038472
 51
52.7588961528
  0
SPLINE
  5
152
330
1F
100
AcDbEntity
  8
0
  6
Continuous
 62
     7
370
    25
100
AcDbSpline
210
0.0
220
0.0
230
1.0
 70
    24
 71
     3
 72
    10
 73
     6
 74
     0
 42
0.000000001
 43
0.00000001
 40
0.0
 40
0.0
 40
0.0
 40
0.0
 40
0.1279814977720258
 40
0.7614394398786758
 40
1.0
 40
1.0
 40
1.0
 40
1.0
 10
473.5403470428841
 20
556.6763464861851
 30
0.0
 10
473.5299198921609
 20
556.6763464861851
 30
0.0
 10
473.4678824574971
 20
556.6763464861851
 30
0.0
 10
473.3845123817505
 20
556.676346486185
 30
0.0
 10
473.3074998041229
 20
556.676346486185
 30
0.0
 10
473.286431256141
 20
556.676346486185
 30
0.0
  0
SPLINE
  5
153
330
1F
100
AcDbEntity
  8
0
  6
Continuous
 62
     7
370
    25
100
AcDbSpline
210
0.0
220
0.0
230
1.0
 70
    24
 71
     3
 72
    10
 73
     6
 74
     0
 42
0.000000001
 43
0.00000001
 40
0.0
 40
0.0
 40
0.0
 40
0.0
 40
0.2385606557997713
 40
0.872018450898991
 40
0.9999999999999999
 40
0.9999999999999999
 40
0.9999999999999999
 40
0.9999999999999999
 10
473.1239489944833
 20
556.8388138466815
 30
0.0
 10
473.1239489944833
 20
556.8598828186003
 30
0.0
 10
473.1239489944833
 20
556.9368969104381
 30
0.0
 10
473.1239489944833
 20
557.020249244834
 30
0.0
 10
473.1239489944832
 20
557.0822874470407
 30
0.0
 10
473.1239489944833
 20
557.0927147322635
 30
0.0
  0
LINE
  5
154
330
1F
100
AcDbEntity
  8
0
  6
Continuous
 62
     7
370
    25
100
AcDbLine
 10
473.5382906826
 20
556.6763464862
 30
0.0
 11
473.5382906826
 21
555.646333521
 31
0.0
  0
ARC
  5
155
330
1F
100
AcDbEntity
  8
0
  6
Continuous
 62
     7
370
    25
100
AcDbCircle
 10
472.608961251
 20
556.1613402062
 30
0.0
 40
0.8509999999998944
100
AcDbArc
 50
232.7588961528
 51
307.2411038472
  0
ARC
  5
156
330
1F
100
AcDbEntity
  8
0
  6
Continuous
 62
     7
370
    25
100
AcDbCircle
 10
472.608961251
 20
556.1613402062
 30
0.0
 40
0.8510000000000538
100
AcDbArc
 50
322.7588961528
 51
37.2411038472
  0
ARC
  5
157
330
1F
100
AcDbEntity
  8
0
  6
Continuous
 62
     7
370
    25
100
AcDbCircle
 10
472.608961251
 20
556.1613402062
 30
0.0
 40
0.851000000000099
100
AcDbArc
 50
142.7588961528
 51
217.2411038472
  0
ARC
  5
158
330
1F
100
AcDbEntity
  8
0
  6
Continuous
 62
     7
370
    25
100
AcDbCircle
 10
472.608961251
 20
556.1613402062
 30
0.0
 40
0.8509999999999849
100
AcDbArc
 50
52.7588961528
 51
127.2411038472
  0
LWPOLYLINE
  5
159
330
1F
100
AcDbEntity
  8
0
  6
Continuous
 62
     7
370
    25
100
AcDbPolyline
 90
       22
 70
   128
 43
0.0
 10
869.7086274358
 20
473.2083861285
 10
870.2732957633
 20
471.9974432641
 10
870.9708414706
 20
470.5015603953
 10
871.7923164101
 20
468.7399004155
 10
872.7271780105
 20
466.7350832873
 10
873.7634382876
 20
464.5128135138
 10
874.8877979549
 20
462.1016268188
 10
876.0858364137
 20
459.5324133092
 10
877.3421831163
 20
456.8381641561
 10
878.6407224568
 20
454.0534426027
 10
879.9648023876
 20
451.2139518314
 10
881.2974206837
 20
448.3561326319
 10
882.6215006145
 20
445.5166493112
 10
883.920039955
 20
442.7319203073
 10
885.1763866576
 20
440.0376711541
 10
886.3744251164
 20
437.4684650951
 10
887.4987847837
 20
435.0572634989
 10
888.5350413354
 20
432.835001176
 10
889.4699029358
 20
430.8301840478
 10
890.2913816007
 20
429.0685315186
 10
890.9889273079
 20
427.5726411992
 10
891.5535919102
 20
426.3616983348
  0
SPLINE
  5
15A
330
1F
100
AcDbEntity
  8
0
  6
Continuous
 62
     7
370
    25
100
AcDbSpline
210
0.0
220
0.0
230
1.0
 70
     8
 71
     3
 72
    11
 73
     7
 74
     0
 42
0.000000001
 43
0.00000001
 40
0.0
 40
0.0
 40
0.0
 40
0.0
 40
0.1499510447526715
 40
0.4331751182397294
 40
0.7165923387694474
 40
1.0
 40
1.0
 40
1.0
 40
1.0
 10
893.1207619341271
 20
423.0008978897076
 30
0.0
 10
893.0206410794801
 20
423.2156124617098
 30
0.0
 10
892.7314142646786
 20
423.8358749631701
 30
0.0
 10
892.2750644589154
 20
424.8144936034702
 30
0.0
 10
891.8173004502986
 20
425.7961770445207
 30
0.0
 10
891.6414937686
 20
426.173193357447
 30
0.0
 10
891.553591910209
 20
426.3616983347874
 30
0.0
  0
SPLINE
  5
15B
330
1F
100
AcDbEntity
  8
0
  6
Continuous
 62
     7
370
    25
100
AcDbSpline
210
0.0
220
0.0
230
1.0
 70
     8
 71
     3
 72
    11
 73
     7
 74
     0
 42
0.000000001
 43
0.00000001
 40
0.0
 40
0.0
 40
0.0
 40
0.0
 40
0.1499501995178658
 40
0.4331738770015294
 40
0.7165910473188588
 40
1.0
 40
1.0
 40
1.0
 40
1.0
 10
869.7086274357694
 20
473.2083861285191
 30
0.0
 10
869.6664695990082
 20
473.2987954426531
 30
0.0
 10
869.5446846753831
 20
473.5599685070866
 30
0.0
 10
869.2147497971013
 20
474.2675116966519
 30
0.0
 10
868.7114168263299
 20
475.3469059708814
 30
0.0
 10
868.3314420470994
 20
476.1617686109395
 30
0.0
 10
868.1414574118512
 20
476.5691940241795
 30
0.0
  0
LINE
  5
15C
330
1F
100
AcDbEntity
  8
0
  6
Continuous
 62
     7
370
    25
100
AcDbLine
 10
855.0172112616
 20
493.0069629603
 30
0.0
 11
855.4328866037
 21
493.174899047
 31
0.0
  0
SPLINE
  5
15D
330
1F
100
AcDbEntity
  8
0
  6
Continuous
 62
     7
370
    25
100
AcDbSpline
210
0.0
220
0.0
230
1.0
 70
     8
 71
     3
 72
    14
 73
    10
 74
     0
 42
0.000000001
 43
0.00000001
 40
0.0
 40
0.0
 40
0.0
 40
0.0
 40
0.000006770014326
 40
0.0730558860185769
 40
0.2154935305714557
 40
0.4037789542010914
 40
0.5887462610692948
 40
0.8882364088855924
 40
1.0
 40
1.0
 40
1.0
 40
1.0
 10
855.432886603679
 20
493.1748990469914
 30
0.0
 10
855.4329052300551
 20
493.1749089812658
 30
0.0
 10
855.6339042744457
 20
493.2821107081907
 30
0.0
 10
856.3044712465395
 20
493.4261744677166
 30
0.0
 10
857.568737757872
 20
493.4614642153194
 30
0.0
 10
859.1458650398295
 20
492.9755253511161
 30
0.0
 10
860.8357400083772
 20
491.6726034428968
 30
0.0
 10
861.8291757760607
 20
490.05965797838
 30
0.0
 10
862.3842601335634
 20
488.9056490616753
 30
0.0
 10
862.5351115795033
 20
488.5920320206624
 30
0.0
  0
SPLINE
  5
15E
330
1F
100
AcDbEntity
  8
0
  6
Continuous
 62
     7
370
    25
100
AcDbSpline
210
0.0
220
0.0
230
1.0
 70
     8
 71
     3
 72
    15
 73
    11
 74
     0
 42
0.000000001
 43
0.00000001
 40
0.0
 40
0.0
 40
0.0
 40
0.0
 40
0.012524092795911
 40
0.2274811580696653
 40
0.442441135368731
 40
0.5000002066121318
 40
0.7148782067346278
 40
0.929749426172342
 40
0.9874772255952015
 40
1.0
 40
1.0
 40
1.0
 40
1.0
 10
855.8612949880021
 20
491.1968295031529
 30
0.0
 10
855.8560921401474
 20
491.2087848536939
 30
0.0
 10
855.761590296817
 20
491.4259356709642
 30
0.0
 10
855.5751265725269
 20
491.8489542291309
 30
0.0
 10
855.3903883755873
 20
492.2566933547888
 30
0.0
 10
855.2327853705779
 20
492.5966269440669
 30
0.0
 10
855.102966403155
 20
492.8675170350928
 30
0.0
 10
855.0345214128072
 20
492.992249132444
 30
0.0
 10
855.0195178248094
 20
493.007308964855
 30
0.0
 10
855.0175665447755
 20
493.0070153073375
 30
0.0
 10
855.0172187121766
 20
493.0069629603367
 30
0.0
  0
SPLINE
  5
15F
330
1F
100
AcDbEntity
  8
0
  6
Continuous
 62
     7
370
    25
100
AcDbSpline
210
0.0
220
0.0
230
1.0
 70
     8
 71
     3
 72
     9
 73
     5
 74
     0
 42
0.000000001
 43
0.00000001
 40
0.0
 40
0.0
 40
0.0
 40
0.0
 40
0.0000220740463128
 40
1.0
 40
1.0
 40
1.0
 40
1.0
 10
905.0663821133035
 20
397.3834325128536
 30
0.0
 10
905.0663920474423
 20
397.3834151281803
 30
0.0
 10
905.5164290991777
 20
396.595853434087
 30
0.0
 10
905.7740198074409
 20
395.7174950708579
 30
0.0
 10
906.031604829635
 20
394.8391560965519
 30
0.0
  0
LINE
  5
160
330
1F
100
AcDbEntity
  8
0
  6
Continuous
 62
     7
370
    25
100
AcDbLine
 10
855.0172112616
 20
493.0069629603
 30
0.0
 11
854.9686595531
 21
492.987338131
 31
0.0
  0
LINE
  5
161
330
1F
100
AcDbEntity
  8
0
  6
Continuous
 62
     7
370
    25
100
AcDbLine
 10
862.5351115795
 20
488.5920320207
 30
0.0
 11
868.1414574119
 21
476.5691940242
 31
0.0
  0
LINE
  5
162
330
1F
100
AcDbEntity
  8
0
  6
Continuous
 62
     7
370
    25
100
AcDbLine
 10
893.1207619341
 20
423.0008978897
 30
0.0
 11
905.0663821133
 21
397.3834325129
 31
0.0
  0
SPLINE
  5
163
330
1F
100
AcDbEntity
  8
0
  6
Continuous
 62
     7
370
    25
100
AcDbSpline
210
0.0
220
0.0
230
1.0
 70
     8
 71
     3
 72
    20
 73
    16
 74
     0
 42
0.000000001
 43
0.00000001
 40
0.0
 40
0.0
 40
0.0
 40
0.0
 40
0.2070587128770371
 40
0.4203777399686355
 40
0.7011166863100706
 40
0.883453959610516
 40
0.9282290399767699
 40
0.9524797069631661
 40
0.9675017568457265
 40
0.9773830167262618
 40
0.9840946626526667
 40
0.9887400385163647
 40
0.9919943891350653
 40
0.9977344093601459
 40
1.0
 40
1.0
 40
1.0
 40
1.0
 10
906.031604829635
 20
394.8391560965519
 30
0.0
 10
906.1364714524558
 20
394.3500419080657
 30
0.0
 10
906.3493752867693
 20
393.357025413925
 30
0.0
 10
906.150941581771
 20
391.6482648285946
 30
0.0
 10
905.5168469698721
 20
390.3514434255825
 30
0.0
 10
904.8461150140087
 20
389.5837685483352
 30
0.0
 10
904.435745060706
 20
389.2622319977572
 30
0.0
 10
904.2902728708814
 20
389.1621450900016
 30
0.0
 10
904.2023710733258
 20
389.1062653391722
 30
0.0
 10
904.1447033389869
 20
389.0714934235457
 30
0.0
 10
904.105442233577
 20
389.0486850627046
 30
0.0
 10
904.078207674741
 20
389.0332459824702
 30
0.0
 10
904.0526176405217
 20
389.0190136625022
 30
0.0
 10
904.0313674187861
 20
389.0074197776248
 30
0.0
 10
904.0161487307474
 20
388.999300789925
 30
0.0
 10
904.0118418367761
 20
388.9970031136017
 30
0.0
  0
SPLINE
  5
164
330
1F
100
AcDbEntity
  8
0
  6
Continuous
 62
     7
370
    25
100
AcDbSpline
210
0.0
220
0.0
230
1.0
 70
     8
 71
     3
 72
    10
 73
     6
 74
     0
 42
0.000000001
 43
0.00000001
 40
0.0
 40
0.0
 40
0.0
 40
0.0
 40
0.4549827938911861
 40
0.9100823690765762
 40
1.0
 40
1.0
 40
1.0
 40
1.0
 10
906.1536900432961
 20
392.0422342174988
 30
0.0
 10
906.1612488914612
 20
392.0948544815782
 30
0.0
 10
906.1763685279351
 20
392.2001085158796
 30
0.0
 10
906.2998101574217
 20
392.6790595337458
 30
0.0
 10
906.258444957831
 20
393.1506872877849
 30
0.0
 10
906.2516204746621
 20
393.2284970336895
 30
0.0
  0
SPLINE
  5
165
330
1F
100
AcDbEntity
  8
0
  6
Continuous
 62
     7
370
    25
100
AcDbSpline
210
0.0
220
0.0
230
1.0
 70
     8
 71
     3
 72
    12
 73
     8
 74
     0
 42
0.000000001
 43
0.00000001
 40
0.0
 40
0.0
 40
0.0
 40
0.0
 40
0.4616951596307078
 40
0.730781127862971
 40
0.9175872619696748
 40
0.9719443997552046
 40
1.0
 40
1.0
 40
1.0
 40
1.0
 10
906.0105569394486
 20
394.9145410710316
 30
0.0
 10
905.9805424884372
 20
395.0231030723867
 30
0.0
 10
905.9330349633856
 20
395.1949373663761
 30
0.0
 10
905.8614163809658
 20
395.4190210739102
 30
0.0
 10
905.8199215344208
 20
395.5434118293769
 30
0.0
 10
905.7974363677694
 20
395.6090659152103
 30
0.0
 10
905.790491524971
 20
395.6291563467711
 30
0.0
 10
905.7881273063081
 20
395.6359956913929
 30
0.0
  0
LINE
  5
166
330
1F
100
AcDbEntity
  8
0
  6
Continuous
 62
     7
370
    25
100
AcDbLine
 10
861.165273908
 20
490.8531789237
 30
0.0
 11
860.7196621331
 21
491.5880743915
 31
0.0
  0
LINE
  5
167
330
1F
100
AcDbEntity
  8
0
  6
Continuous
 62
     7
370
    25
100
AcDbLine
 10
905.1125682624
 20
397.2838853055
 30
0.0
 11
905.0705320867
 21
397.3745365196
 31
0.0
  0
SPLINE
  5
168
330
1F
100
AcDbEntity
  8
0
  6
Continuous
 62
     7
370
    25
100
AcDbSpline
210
0.0
220
0.0
230
1.0
 70
     8
 71
     3
 72
    13
 73
     9
 74
     0
 42
0.000000001
 43
0.00000001
 40
0.0
 40
0.0
 40
0.0
 40
0.0
 40
0.1254642990363048
 40
0.2502430800056152
 40
0.3760700114023689
 40
0.501913880397454
 40
0.7508340215671949
 40
1.0
 40
1.0
 40
1.0
 40
1.0
 10
860.7196621330636
 20
491.5880743914585
 30
0.0
 10
860.6319839946029
 20
491.6853442980713
 30
0.0
 10
860.4571067778483
 20
491.8793526431511
 30
0.0
 10
860.1834242117641
 20
492.1387502334859
 30
0.0
 10
859.9164292611698
 20
492.3622295794094
 30
0.0
 10
859.5915634547871
 20
492.6007113800333
 30
0.0
 10
859.2588836752286
 20
492.7982674161139
 30
0.0
 10
859.2059677565491
 20
492.8252273360894
 30
0.0
 10
859.179496738519
 20
492.838713949297
 30
0.0
  0
SPLINE
  5
169
330
1F
100
AcDbEntity
  8
0
  6
Continuous
 62
     7
370
    25
100
AcDbSpline
210
0.0
220
0.0
230
1.0
 70
     8
 71
     3
 72
     9
 73
     5
 74
     0
 42
0.000000001
 43
0.00000001
 40
0.0
 40
0.0
 40
0.0
 40
0.0
 40
0.5000155464794018
 40
1.0
 40
1.0
 40
1.0
 40
1.0
 10
905.5803753169434
 20
396.1962495499592
 30
0.0
 10
905.5124038477833
 20
396.3649685943775
 30
0.0
 10
905.3764651362
 20
396.7023961915917
 30
0.0
 10
905.2005320635893
 20
397.0900596187303
 30
0.0
 10
905.1125682624238
 20
397.2838853054981
 30
0.0
  0
SPLINE
  5
16A
330
1F
100
AcDbEntity
  8
0
  6
Continuous
 62
     7
370
    25
100
AcDbSpline
210
0.0
220
0.0
230
1.0
 70
     8
 71
     3
 72
     9
 73
     5
 74
     0
 42
0.000000001
 43
0.00000001
 40
0.0
 40
0.0
 40
0.0
 40
0.0
 40
0.7838951780347576
 40
1.0
 40
1.0
 40
1.0
 40
1.0
 10
906.2698222430604
 20
393.0333700531464
 30
0.0
 10
906.2760343724798
 20
393.050946259872
 30
0.0
 10
906.2839590664868
 20
393.0733678887048
 30
0.0
 10
906.2607796349747
 20
393.3638853517725
 30
0.0
 10
906.2557704480546
 20
393.4266675764065
 30
0.0
  0
SPLINE
  5
16B
330
1F
100
AcDbEntity
  8
0
  6
Continuous
 62
     7
370
    25
100
AcDbSpline
210
0.0
220
0.0
230
1.0
 70
     8
 71
     3
 72
     9
 73
     5
 74
     0
 42
0.000000001
 43
0.00000001
 40
0.0
 40
0.0
 40
0.0
 40
0.0
 40
0.0370179782859117
 40
1.0
 40
1.0
 40
1.0
 40
1.0
 10
906.0235656531709
 20
394.8603604489307
 30
0.0
 10
906.0210028141096
 20
394.8732340224304
 30
0.0
 10
905.9517705334732
 20
395.2209994622471
 30
0.0
 10
905.7625710337215
 20
395.7178201549096
 30
0.0
 10
905.5803753169434
 20
396.1962495499592
 30
0.0
  0
LINE
  5
16C
330
1F
100
AcDbEntity
  8
0
  6
Continuous
 62
     7
370
    25
100
AcDbLine
 10
905.7881273063
 20
395.6359956914
 30
0.0
 11
905.6190214785
 21
396.0810933763
 31
0.0
  0
LINE
  5
16D
330
1F
100
AcDbEntity
  8
0
  6
Continuous
 62
     7
370
    25
100
AcDbLine
 10
791.5928549798
 20
576.1613432818
 30
0.0
 11
893.0089585217
 21
576.1613432818
 31
0.0
  0
LINE
  5
16E
330
1F
100
AcDbEntity
  8
0
  6
Continuous
 62
     7
370
    25
100
AcDbLine
 10
791.5928549798
 20
578.161347335
 30
0.0
 11
791.5928549798
 21
576.1613432818
 31
0.0
  0
LINE
  5
16F
330
1F
100
AcDbEntity
  8
0
  6
Continuous
 62
     7
370
    25
100
AcDbLine
 10
791.5928549798
 20
578.161347335
 30
0.0
 11
893.0089585217
 21
578.161347335
 31
0.0
  0
LINE
  5
170
330
1F
100
AcDbEntity
  8
0
  6
Continuous
 62
     7
370
    25
100
AcDbLine
 10
145.7160822781
 20
578.161347335
 30
0.0
 11
791.3018539282
 21
578.161347335
 31
0.0
  0
LINE
  5
171
330
1F
100
AcDbEntity
  8
0
  6
Continuous
 62
     7
370
    25
100
AcDbLine
 10
791.3018539282
 20
578.161347335
 30
0.0
 11
791.3018539282
 21
576.1613432818
 31
0.0
  0
LINE
  5
172
330
1F
100
AcDbEntity
  8
0
  6
Continuous
 62
     7
370
    25
100
AcDbLine
 10
145.7160822781
 20
576.1613432818
 30
0.0
 11
791.3018539282
 21
576.1613432818
 31
0.0
  0
LINE
  5
173
330
1F
100
AcDbEntity
  8
0
  6
Continuous
 62
     7
370
    25
100
AcDbLine
 10
145.7160822781
 20
578.161347335
 30
0.0
 11
145.7160822781
 21
576.1613432818
 31
0.0
  0
LINE
  5
174
330
1F
100
AcDbEntity
  8
0
  6
Continuous
 62
     7
370
    25
100
AcDbLine
 10
902.0720384749
 20
561.9351599866
 30
0.0
 11
887.6341022285
 21
530.9729014092
 31
0.0
  0
LINE
  5
175
330
1F
100
AcDbEntity
  8
0
  6
Continuous
 62
     7
370
    25
100
AcDbLine
 10
903.8846529754
 20
561.0899214202
 30
0.0
 11
889.446716729
 21
530.1276628428
 31
0.0
  0
ARC
  5
176
330
1F
100
AcDbEntity
  8
0
  6
Continuous
 62
     7
370
    25
100
AcDbCircle
 10
893.008961251
 20
566.1613402062
 30
0.0
 40
12.00000000000006
100
AcDbArc
 50
335.0
 51
90.0
  0
ARC
  5
177
330
1F
100
AcDbEntity
  8
0
  6
Continuous
 62
     7
370
    25
100
AcDbCircle
 10
893.008961251
 20
566.1613402062
 30
0.0
 40
10.0
100
AcDbArc
 50
335.0
 51
90.0
  0
LINE
  5
178
330
1F
100
AcDbEntity
  8
0
  6
Continuous
 62
     7
370
    25
100
AcDbLine
 10
82.2589508923
 20
578.161347335
 30
0.0
 11
145.6160656842
 21
578.161347335
 31
0.0
  0
LINE
  5
179
330
1F
100
AcDbEntity
  8
0
  6
Continuous
 62
     7
370
    25
100
AcDbLine
 10
145.6160656842
 20
578.161347335
 30
0.0
 11
145.6160656842
 21
576.1613432818
 31
0.0
  0
LINE
  5
17A
330
1F
100
AcDbEntity
  8
0
  6
Continuous
 62
     7
370
    25
100
AcDbLine
 10
82.2589508923
 20
576.1613432818
 30
0.0
 11
145.6160656842
 21
576.1613432818
 31
0.0
  0
LINE
  5
17B
330
1F
100
AcDbEntity
  8
0
  6
Continuous
 62
     7
370
    25
100
AcDbLine
 10
883.6424462231
 20
524.3233923369
 30
0.0
 11
866.2246949705
 21
516.2013654166
 31
0.0
  0
LINE
  5
17C
330
1F
100
AcDbEntity
  8
0
  6
Continuous
 62
     7
370
    25
100
AcDbLine
 10
882.7972076567
 20
526.1359993869
 30
0.0
 11
865.3794601293
 21
518.0139724666
 31
0.0
  0
LINE
  5
17D
330
1F
100
AcDbEntity
  8
0
  6
Continuous
 62
     7
370
    25
100
AcDbLine
 10
18.0089585217
 20
578.161347335
 30
0.0
 11
9.258937064
 21
578.161347335
 31
0.0
  0
LINE
  5
17E
330
1F
100
AcDbEntity
  8
0
  6
Continuous
 62
     7
370
    25
100
AcDbLine
 10
18.0089585217
 20
576.1613432818
 30
0.0
 11
9.258937064
 21
576.1613432818
 31
0.0
  0
ARC
  5
17F
330
1F
100
AcDbEntity
  8
0
  6
Continuous
 62
     7
370
    25
100
AcDbCircle
 10
9.2589612533
 20
580.4113402062
 30
0.0
 40
4.25
100
AcDbArc
 50
180.0
 51
270.0
  0
ARC
  5
180
330
1F
100
AcDbEntity
  8
0
  6
Continuous
 62
     7
370
    25
100
AcDbCircle
 10
9.2589612533
 20
580.4113402062
 30
0.0
 40
2.25
100
AcDbArc
 50
180.0
 51
270.0
  0
LINE
  5
181
330
1F
100
AcDbEntity
  8
0
  6
Continuous
 62
     7
370
    25
100
AcDbLine
 10
5.0089470776
 20
580.4113332683
 30
0.0
 11
5.0089470776
 21
591.9113491231
 31
0.0
  0
LINE
  5
182
330
1F
100
AcDbEntity
  8
0
  6
Continuous
 62
     7
370
    25
100
AcDbLine
 10
7.008980933
 20
580.4113332683
 30
0.0
 11
7.008980933
 21
591.9113491231
 31
0.0
  0
LINE
  5
183
330
1F
100
AcDbEntity
  8
0
  6
Continuous
 62
     7
370
    25
100
AcDbLine
 10
9.258937064
 20
596.1613391095
 30
0.0
 11
75.7589451702
 21
596.1613391095
 31
0.0
  0
LINE
  5
184
330
1F
100
AcDbEntity
  8
0
  6
Continuous
 62
     7
370
    25
100
AcDbLine
 10
9.258937064
 20
594.1613350564
 30
0.0
 11
75.7589451702
 21
594.1613350564
 31
0.0
  0
ARC
  5
185
330
1F
100
AcDbEntity
  8
0
  6
Continuous
 62
     7
370
    25
100
AcDbCircle
 10
75.7589612533
 20
591.9113402062
 30
0.0
 40
4.250000000000085
100
AcDbArc
 50
0.0
 51
90.0
  0
ARC
  5
186
330
1F
100
AcDbEntity
  8
0
  6
Continuous
 62
     7
370
    25
100
AcDbCircle
 10
75.7589612533
 20
591.9113402062
 30
0.0
 40
2.25
100
AcDbArc
 50
0.0
 51
90.0
  0
LINE
  5
187
330
1F
100
AcDbEntity
  8
0
  6
Continuous
 62
     7
370
    25
100
AcDbLine
 10
80.0089351567
 20
580.4113332683
 30
0.0
 11
80.0089351567
 21
591.9113491231
 31
0.0
  0
LINE
  5
188
330
1F
100
AcDbEntity
  8
0
  6
Continuous
 62
     7
370
    25
100
AcDbLine
 10
78.0089609059
 20
580.4113332683
 30
0.0
 11
78.0089609059
 21
591.9113491231
 31
0.0
  0
ARC
  5
189
330
1F
100
AcDbEntity
  8
0
  6
Continuous
 62
     7
370
    25
100
AcDbCircle
 10
9.2589612533
 20
591.9113402062
 30
0.0
 40
4.25
100
AcDbArc
 50
90.0
 51
180.0
  0
ARC
  5
18A
330
1F
100
AcDbEntity
  8
0
  6
Continuous
 62
     7
370
    25
100
AcDbCircle
 10
9.2589612533
 20
591.9113402062
 30
0.0
 40
2.25
100
AcDbArc
 50
90.0
 51
180.0
  0
LINE
  5
18B
330
1F
100
AcDbEntity
  8
0
  6
Continuous
 62
     7
370
    25
100
AcDbLine
 10
18.0089585217
 20
578.161347335
 30
0.0
 11
20.0089327725
 21
578.161347335
 31
0.0
  0
LINE
  5
18C
330
1F
100
AcDbEntity
  8
0
  6
Continuous
 62
     7
370
    25
100
AcDbLine
 10
20.0089327725
 20
578.161347335
 30
0.0
 11
20.0089327725
 21
576.1613432818
 31
0.0
  0
LINE
  5
18D
330
1F
100
AcDbEntity
  8
0
  6
Continuous
 62
     7
370
    25
100
AcDbLine
 10
20.0089327725
 20
576.1613432818
 30
0.0
 11
18.0089585217
 21
576.1613432818
 31
0.0
  0
ARC
  5
18E
330
1F
100
AcDbEntity
  8
0
  6
Continuous
 62
     7
370
    25
100
AcDbCircle
 10
878.5710236825
 20
535.1990831728
 30
0.0
 40
12.00000000000015
100
AcDbArc
 50
295.0
 51
335.0
  0
ARC
  5
18F
330
1F
100
AcDbEntity
  8
0
  6
Continuous
 62
     7
370
    25
100
AcDbCircle
 10
878.5710236825
 20
535.1990831728
 30
0.0
 40
10.00000000000013
100
AcDbArc
 50
295.0
 51
335.0
  0
LINE
  5
190
330
1F
100
AcDbEntity
  8
0
  6
Continuous
 62
     7
370
    25
100
AcDbLine
 10
864.4120804699
 20
515.3561268502
 30
0.0
 11
863.5668456288
 21
517.1687339002
 31
0.0
  0
LWPOLYLINE
  5
191
330
1F
100
AcDbEntity
  8
0
  6
Continuous
 62
     7
370
    25
100
AcDbPolyline
 90
        9
 70
   128
 43
0.0
 10
866.2246949705
 20
516.2013654166
 10
865.8710717889
 20
516.0364691668
 10
865.5310384663
 20
515.8779059106
 10
865.2176595958
 20
515.7317702228
 10
864.9429827662
 20
515.6036947423
 10
864.717561725
 20
515.4985670501
 10
864.550057772
 20
515.4204700643
 10
864.4469082089
 20
515.3723691159
 10
864.4120804699
 20
515.3561268502
  0
LWPOLYLINE
  5
192
330
1F
100
AcDbEntity
  8
0
  6
Continuous
 62
     7
370
    25
100
AcDbPolyline
 90
        9
 70
   128
 43
0.0
 10
863.5668456288
 20
517.1687339002
 10
863.6016733678
 20
517.1849761659
 10
863.7048229309
 20
517.2330771142
 10
863.8723231586
 20
517.3111890012
 10
864.0977479251
 20
517.4163017922
 10
864.3724247547
 20
517.5443921739
 10
864.6857998999
 20
517.6905129605
 10
865.0258369478
 20
517.8490762168
 10
865.3794601293
 20
518.0139724666
  0
ARC
  5
193
330
1F
100
AcDbEntity
  8
0
  6
Continuous
 62
     7
370
    25
100
AcDbCircle
 10
82.2589612533
 20
580.4113402062
 30
0.0
 40
4.25
100
AcDbArc
 50
180.0
 51
270.0
  0
ARC
  5
194
330
1F
100
AcDbEntity
  8
0
  6
Continuous
 62
     7
370
    25
100
AcDbCircle
 10
82.2589612533
 20
580.4113402062
 30
0.0
 40
2.25
100
AcDbArc
 50
180.0
 51
270.0
  0
LINE
  5
195
330
1F
100
AcDbEntity
  8
0
  6
Continuous
 62
     7
370
    25
100
AcDbLine
 10
791.4018537583
 20
578.161347335
 30
0.0
 11
791.4018537583
 21
576.1613432818
 31
0.0
  0
LINE
  5
196
330
1F
100
AcDbEntity
  8
0
  6
Continuous
 62
     7
370
    25
100
AcDbLine
 10
791.4018537583
 20
578.161347335
 30
0.0
 11
791.5928549798
 21
578.161347335
 31
0.0
  0
LINE
  5
197
330
1F
100
AcDbEntity
  8
0
  6
Continuous
 62
     7
370
    25
100
AcDbLine
 10
815.0247870678
 20
328.1613401172
 30
0.0
 11
873.6540861162
 21
328.1613401172
 31
0.0
  0
LINE
  5
198
330
1F
100
AcDbEntity
  8
0
  6
Continuous
 62
     7
370
    25
100
AcDbLine
 10
815.0247870678
 20
328.9613401552
 30
0.0
 11
873.6540861162
 21
328.9613401552
 31
0.0
  0
LINE
  5
199
330
1F
100
AcDbEntity
  8
0
  6
Continuous
 62
     7
370
    25
100
AcDbLine
 10
904.0530062946
 20
387.7256174141
 30
0.0
 11
848.1461368235
 21
507.6182816678
 31
0.0
  0
LINE
  5
19A
330
1F
100
AcDbEntity
  8
0
  6
Continuous
 62
     7
370
    25
100
AcDbLine
 10
903.3279604944
 20
387.3875212425
 30
0.0
 11
847.4210910233
 21
507.2801892215
 31
0.0
  0
ARC
  5
19B
330
1F
100
AcDbEntity
  8
0
  6
Continuous
 62
     7
370
    25
100
AcDbCircle
 10
873.6540845782
 20
338.9613402062
 30
0.0
 40
10.80000000000001
100
AcDbArc
 50
270.0
 51
335.0
  0
ARC
  5
19C
330
1F
100
AcDbEntity
  8
0
  6
Continuous
 62
     7
370
    25
100
AcDbCircle
 10
873.6540845782
 20
338.9613402062
 30
0.0
 40
10.00000000000006
100
AcDbArc
 50
270.0
 51
335.0
  0
LINE
  5
19D
330
1F
100
AcDbEntity
  8
0
  6
Continuous
 62
     7
370
    25
100
AcDbLine
 10
813.0247872057
 20
328.1613401172
 30
0.0
 11
813.0247872057
 21
328.9613401552
 31
0.0
  0
LINE
  5
19E
330
1F
100
AcDbEntity
  8
0
  6
Continuous
 62
     7
370
    25
100
AcDbLine
 10
813.0247872057
 20
328.9613401552
 30
0.0
 11
815.0247870678
 21
328.9613401552
 31
0.0
  0
LINE
  5
19F
330
1F
100
AcDbEntity
  8
0
  6
Continuous
 62
     7
370
    25
100
AcDbLine
 10
815.0247870678
 20
328.1613401172
 30
0.0
 11
813.0247872057
 21
328.1613401172
 31
0.0
  0
LWPOLYLINE
  5
1A0
330
1F
100
AcDbEntity
  8
0
  6
Continuous
 62
     7
370
    25
100
AcDbPolyline
 90
        9
 70
   128
 43
0.0
 10
861.0556497904
 20
515.9000192338
 10
861.409272972
 20
516.0649154836
 10
861.7493062945
 20
516.2234787398
 10
862.062685165
 20
516.3695995265
 10
862.3373619946
 20
516.4976899081
 10
862.5627830358
 20
516.6028026992
 10
862.7302869888
 20
516.6809145862
 10
862.8334365519
 20
516.7290155345
 10
862.8682642909
 20
516.7452578002
  0
LINE
  5
1A1
330
1F
100
AcDbEntity
  8
0
  6
Continuous
 62
     7
370
    25
100
AcDbLine
 10
862.8682642909
 20
516.7452578002
 30
0.0
 11
863.2063604625
 21
516.020212
 31
0.0
  0
LWPOLYLINE
  5
1A2
330
1F
100
AcDbEntity
  8
0
  6
Continuous
 62
     7
370
    25
100
AcDbPolyline
 90
        9
 70
   128
 43
0.0
 10
863.2063604625
 20
516.020212
 10
863.1715289982
 20
516.0039697343
 10
863.0683831604
 20
515.955868786
 10
862.9008792075
 20
515.877756899
 10
862.6754544409
 20
515.7726441079
 10
862.4007776113
 20
515.6445537263
 10
862.0874024661
 20
515.4984329396
 10
861.7473654183
 20
515.3398696834
 10
861.3937422367
 20
515.1749734336
  0
ARC
  5
1A3
330
1F
100
AcDbEntity
  8
0
  6
Continuous
 62
     7
370
    25
100
AcDbCircle
 10
894.2648830687
 20
383.1613402062
 30
0.0
 40
10.00000000000003
100
AcDbArc
 50
335.0
 51
25.0
  0
ARC
  5
1A4
330
1F
100
AcDbEntity
  8
0
  6
Continuous
 62
     7
370
    25
100
AcDbCircle
 10
894.2648830687
 20
383.1613402062
 30
0.0
 40
10.80000000000009
100
AcDbArc
 50
335.0
 51
25.0
  0
LINE
  5
1A5
330
1F
100
AcDbEntity
  8
0
  6
Continuous
 62
     7
370
    25
100
AcDbLine
 10
882.7171660694
 20
334.7351575771
 30
0.0
 11
903.3279604944
 21
378.9351579302
 31
0.0
  0
LINE
  5
1A6
330
1F
100
AcDbEntity
  8
0
  6
Continuous
 62
     7
370
    25
100
AcDbLine
 10
883.4422118696
 20
334.3970630353
 30
0.0
 11
904.0530062946
 21
378.5970617586
 31
0.0
  0
ARC
  5
1A7
330
1F
100
AcDbEntity
  8
0
  6
Continuous
 62
     7
370
    25
100
AcDbCircle
 10
849.2790222763
 20
508.1465590775
 30
0.0
 40
1.250000000000001
100
AcDbArc
 50
115.0
 51
205.0
  0
ARC
  5
1A8
330
1F
100
AcDbEntity
  8
0
  6
Continuous
 62
     7
370
    25
100
AcDbCircle
 10
849.2790222763
 20
508.1465590775
 30
0.0
 40
2.050000000000033
100
AcDbArc
 50
115.0
 51
205.0
  0
LINE
  5
1A9
330
1F
100
AcDbEntity
  8
0
  6
Continuous
 62
     7
370
    25
100
AcDbLine
 10
848.4126552673
 20
510.0044940167
 30
0.0
 11
861.0556497904
 21
515.9000192338
 31
0.0
  0
LINE
  5
1AA
330
1F
100
AcDbEntity
  8
0
  6
Continuous
 62
     7
370
    25
100
AcDbLine
 10
848.7507477137
 20
509.2794482165
 30
0.0
 11
861.3937422367
 21
515.1749734336
 31
0.0
  0
LINE
  5
1AB
330
1F
100
AcDbEntity
  8
0
  6
Continuous
 62
     7
370
    25
100
AcDbLine
 10
862.9108965131
 20
516.8366764241
 30
0.0
 11
862.8682642909
 21
516.7452578002
 31
0.0
  0
ARC
  5
1AC
330
1F
100
AcDbEntity
  8
0
  6
Continuous
 62
     7
370
    25
100
AcDbCircle
 10
860.611561369
 20
517.3480004551
 30
0.0
 40
1.500000000000044
100
AcDbArc
 50
295.0
 51
311.908043475
  0
LINE
  5
1AD
330
1F
100
AcDbEntity
  8
0
  6
Continuous
 62
     7
370
    25
100
AcDbLine
 10
692.8404904636
 20
266.2613425904
 30
0.0
 11
176.2596480282
 21
266.2613425904
 31
0.0
  0
LINE
  5
1AE
330
1F
100
AcDbEntity
  8
0
  6
Continuous
 62
     7
370
    25
100
AcDbLine
 10
201.2500874432
 20
289.4613404327
 30
0.0
 11
201.2500874432
 21
328.9613401552
 31
0.0
  0
ARC
  5
1AF
330
1F
100
AcDbEntity
  8
0
  6
Continuous
 62
     7
370
    25
100
AcDbCircle
 10
203.2500685605
 20
289.4613402062
 30
0.0
 40
2.0
100
AcDbArc
 50
180.0
 51
270.0
  0
LINE
  5
1B0
330
1F
100
AcDbEntity
  8
0
  6
Continuous
 62
     7
370
    25
100
AcDbLine
 10
219.2500941189
 20
287.4613401049
 30
0.0
 11
203.250061694
 21
287.4613401049
 31
0.0
  0
ARC
  5
1B1
330
1F
100
AcDbEntity
  8
0
  6
Continuous
 62
     7
370
    25
100
AcDbCircle
 10
219.2500685605
 20
289.4613402062
 30
0.0
 40
2.0
100
AcDbArc
 50
270.0
 51
0.0
  0
LINE
  5
1B2
330
1F
100
AcDbEntity
  8
0
  6
Continuous
 62
     7
370
    25
100
AcDbLine
 10
221.2500683697
 20
328.9613401552
 30
0.0
 11
221.2500683697
 21
289.4613404327
 31
0.0
  0
LINE
  5
1B3
330
1F
100
AcDbEntity
  8
0
  6
Continuous
 62
     7
370
    25
100
AcDbLine
 10
240.2500621708
 20
289.4613404327
 30
0.0
 11
240.2500621708
 21
328.9613401552
 31
0.0
  0
ARC
  5
1B4
330
1F
100
AcDbEntity
  8
0
  6
Continuous
 62
     7
370
    25
100
AcDbCircle
 10
242.2500685605
 20
289.4613402062
 30
0.0
 40
2.0
100
AcDbArc
 50
180.0
 51
270.0
  0
LINE
  5
1B5
330
1F
100
AcDbEntity
  8
0
  6
Continuous
 62
     7
370
    25
100
AcDbLine
 10
258.2500688465
 20
287.4613401049
 30
0.0
 11
242.2500960263
 21
287.4613401049
 31
0.0
  0
ARC
  5
1B6
330
1F
100
AcDbEntity
  8
0
  6
Continuous
 62
     7
370
    25
100
AcDbCircle
 10
258.2500685605
 20
289.4613402062
 30
0.0
 40
2.0
100
AcDbArc
 50
270.0
 51
0.0
  0
LINE
  5
1B7
330
1F
100
AcDbEntity
  8
0
  6
Continuous
 62
     7
370
    25
100
AcDbLine
 10
260.2500430973
 20
328.9613401552
 30
0.0
 11
260.2500430973
 21
289.4613404327
 31
0.0
  0
LINE
  5
1B8
330
1F
100
AcDbEntity
  8
0
  6
Continuous
 62
     7
370
    25
100
AcDbLine
 10
279.2500965031
 20
289.4613404327
 30
0.0
 11
279.2500965031
 21
328.9613401552
 31
0.0
  0
ARC
  5
1B9
330
1F
100
AcDbEntity
  8
0
  6
Continuous
 62
     7
370
    25
100
AcDbCircle
 10
281.2500685605
 20
289.4613402062
 30
0.0
 40
2.0
100
AcDbArc
 50
180.0
 51
270.0
  0
LINE
  5
1BA
330
1F
100
AcDbEntity
  8
0
  6
Continuous
 62
     7
370
    25
100
AcDbLine
 10
297.2500435742
 20
287.4613401049
 30
0.0
 11
281.2500707539
 21
287.4613401049
 31
0.0
  0
ARC
  5
1BB
330
1F
100
AcDbEntity
  8
0
  6
Continuous
 62
     7
370
    25
100
AcDbCircle
 10
297.2500685605
 20
289.4613402062
 30
0.0
 40
2.000000000000114
100
AcDbArc
 50
270.0
 51
0.0
  0
LINE
  5
1BC
330
1F
100
AcDbEntity
  8
0
  6
Continuous
 62
     7
370
    25
100
AcDbLine
 10
299.2500774296
 20
328.9613401552
 30
0.0
 11
299.2500774296
 21
289.4613404327
 31
0.0
  0
LINE
  5
1BD
330
1F
100
AcDbEntity
  8
0
  6
Continuous
 62
     7
370
    25
100
AcDbLine
 10
318.2500712307
 20
289.4613404327
 30
0.0
 11
318.2500712307
 21
328.9613401552
 31
0.0
  0
ARC
  5
1BE
330
1F
100
AcDbEntity
  8
0
  6
Continuous
 62
     7
370
    25
100
AcDbCircle
 10
320.2500685605
 20
289.4613402062
 30
0.0
 40
2.0
100
AcDbArc
 50
180.0
 51
270.0
  0
LINE
  5
1BF
330
1F
100
AcDbEntity
  8
0
  6
Continuous
 62
     7
370
    25
100
AcDbLine
 10
336.2500779065
 20
287.4613401049
 30
0.0
 11
320.2500752839
 21
287.4613401049
 31
0.0
  0
ARC
  5
1C0
330
1F
100
AcDbEntity
  8
0
  6
Continuous
 62
     7
370
    25
100
AcDbCircle
 10
336.2500685605
 20
289.4613402062
 30
0.0
 40
2.0
100
AcDbArc
 50
270.0
 51
0.0
  0
LINE
  5
1C1
330
1F
100
AcDbEntity
  8
0
  6
Continuous
 62
     7
370
    25
100
AcDbLine
 10
338.2500819596
 20
328.9613401552
 30
0.0
 11
338.2500819596
 21
289.4613404327
 31
0.0
  0
LINE
  5
1C2
330
1F
100
AcDbEntity
  8
0
  6
Continuous
 62
     7
370
    25
100
AcDbLine
 10
357.2500757607
 20
289.4613404327
 30
0.0
 11
357.2500757607
 21
328.9613401552
 31
0.0
  0
ARC
  5
1C3
330
1F
100
AcDbEntity
  8
0
  6
Continuous
 62
     7
370
    25
100
AcDbCircle
 10
359.2500685605
 20
289.4613402062
 30
0.0
 40
2.0
100
AcDbArc
 50
180.0
 51
270.0
  0
LINE
  5
1C4
330
1F
100
AcDbEntity
  8
0
  6
Continuous
 62
     7
370
    25
100
AcDbLine
 10
375.2500824364
 20
287.4613401049
 30
0.0
 11
359.2500798138
 21
287.4613401049
 31
0.0
  0
ARC
  5
1C5
330
1F
100
AcDbEntity
  8
0
  6
Continuous
 62
     7
370
    25
100
AcDbCircle
 10
375.2500685605
 20
289.4613402062
 30
0.0
 40
2.000000000000057
100
AcDbArc
 50
270.0
 51
0.0
  0
LINE
  5
1C6
330
1F
100
AcDbEntity
  8
0
  6
Continuous
 62
     7
370
    25
100
AcDbLine
 10
377.2500566872
 20
328.9613401552
 30
0.0
 11
377.2500566872
 21
289.4613404327
 31
0.0
  0
LINE
  5
1C7
330
1F
100
AcDbEntity
  8
0
  6
Continuous
 62
     7
370
    25
100
AcDbLine
 10
435.2500550183
 20
289.4613404327
 30
0.0
 11
435.2500550183
 21
328.9613401552
 31
0.0
  0
ARC
  5
1C8
330
1F
100
AcDbEntity
  8
0
  6
Continuous
 62
     7
370
    25
100
AcDbCircle
 10
437.2500685605
 20
289.4613402062
 30
0.0
 40
2.0
100
AcDbArc
 50
180.0
 51
270.0
  0
LINE
  5
1C9
330
1F
100
AcDbEntity
  8
0
  6
Continuous
 62
     7
370
    25
100
AcDbLine
 10
453.250061694
 20
287.4613401049
 30
0.0
 11
437.2500590714
 21
287.4613401049
 31
0.0
  0
ARC
  5
1CA
330
1F
100
AcDbEntity
  8
0
  6
Continuous
 62
     7
370
    25
100
AcDbCircle
 10
453.2500685605
 20
289.4613402062
 30
0.0
 40
2.0
100
AcDbArc
 50
270.0
 51
0.0
  0
LINE
  5
1CB
330
1F
100
AcDbEntity
  8
0
  6
Continuous
 62
     7
370
    25
100
AcDbLine
 10
455.2500657471
 20
328.9613401552
 30
0.0
 11
455.2500657471
 21
289.4613404327
 31
0.0
  0
LINE
  5
1CC
330
1F
100
AcDbEntity
  8
0
  6
Continuous
 62
     7
370
    25
100
AcDbLine
 10
474.2500595482
 20
289.4613404327
 30
0.0
 11
474.2500595482
 21
328.9613401552
 31
0.0
  0
ARC
  5
1CD
330
1F
100
AcDbEntity
  8
0
  6
Continuous
 62
     7
370
    25
100
AcDbCircle
 10
476.2500685605
 20
289.4613402062
 30
0.0
 40
2.000000000000057
100
AcDbArc
 50
180.0
 51
270.0
  0
LINE
  5
1CE
330
1F
100
AcDbEntity
  8
0
  6
Continuous
 62
     7
370
    25
100
AcDbLine
 10
492.2500662239
 20
287.4613401049
 30
0.0
 11
476.2500636013
 21
287.4613401049
 31
0.0
  0
ARC
  5
1CF
330
1F
100
AcDbEntity
  8
0
  6
Continuous
 62
     7
370
    25
100
AcDbCircle
 10
492.2500685605
 20
289.4613402062
 30
0.0
 40
2.0
100
AcDbArc
 50
270.0
 51
0.0
  0
LINE
  5
1D0
330
1F
100
AcDbEntity
  8
0
  6
Continuous
 62
     7
370
    25
100
AcDbLine
 10
494.2500702771
 20
328.9613401552
 30
0.0
 11
494.2500702771
 21
289.4613404327
 31
0.0
  0
LINE
  5
1D1
330
1F
100
AcDbEntity
  8
0
  6
Continuous
 62
     7
370
    25
100
AcDbLine
 10
513.2500640782
 20
289.4613404327
 30
0.0
 11
513.2500640782
 21
328.9613401552
 31
0.0
  0
ARC
  5
1D2
330
1F
100
AcDbEntity
  8
0
  6
Continuous
 62
     7
370
    25
100
AcDbCircle
 10
515.2500685605
 20
289.4613402062
 30
0.0
 40
2.0
100
AcDbArc
 50
180.0
 51
270.0
  0
LINE
  5
1D3
330
1F
100
AcDbEntity
  8
0
  6
Continuous
 62
     7
370
    25
100
AcDbLine
 10
531.2500707539
 20
287.4613401049
 30
0.0
 11
515.2500681313
 21
287.4613401049
 31
0.0
  0
ARC
  5
1D4
330
1F
100
AcDbEntity
  8
0
  6
Continuous
 62
     7
370
    25
100
AcDbCircle
 10
531.2500685605
 20
289.4613402062
 30
0.0
 40
2.0
100
AcDbArc
 50
270.0
 51
0.0
  0
LINE
  5
1D5
330
1F
100
AcDbEntity
  8
0
  6
Continuous
 62
     7
370
    25
100
AcDbLine
 10
533.250074807
 20
328.9613401552
 30
0.0
 11
533.250074807
 21
289.4613404327
 31
0.0
  0
LINE
  5
1D6
330
1F
100
AcDbEntity
  8
0
  6
Continuous
 62
     7
370
    25
100
AcDbLine
 10
552.2500686081
 20
289.4613404327
 30
0.0
 11
552.2500686081
 21
328.9613401552
 31
0.0
  0
ARC
  5
1D7
330
1F
100
AcDbEntity
  8
0
  6
Continuous
 62
     7
370
    25
100
AcDbCircle
 10
554.2500685605
 20
289.4613402062
 30
0.0
 40
2.0
100
AcDbArc
 50
180.0
 51
270.0
  0
LINE
  5
1D8
330
1F
100
AcDbEntity
  8
0
  6
Continuous
 62
     7
370
    25
100
AcDbLine
 10
570.2500752839
 20
287.4613401049
 30
0.0
 11
554.2500726612
 21
287.4613401049
 31
0.0
  0
ARC
  5
1D9
330
1F
100
AcDbEntity
  8
0
  6
Continuous
 62
     7
370
    25
100
AcDbCircle
 10
570.2500685605
 20
289.4613402062
 30
0.0
 40
2.0
100
AcDbArc
 50
270.0
 51
0.0
  0
LINE
  5
1DA
330
1F
100
AcDbEntity
  8
0
  6
Continuous
 62
     7
370
    25
100
AcDbLine
 10
572.2500644358
 20
328.9613401552
 30
0.0
 11
572.2500644358
 21
289.4613404327
 31
0.0
  0
LINE
  5
1DB
330
1F
100
AcDbEntity
  8
0
  6
Continuous
 62
     7
370
    25
100
AcDbLine
 10
591.2500731381
 20
289.4613404327
 30
0.0
 11
591.2500731381
 21
328.9613401552
 31
0.0
  0
ARC
  5
1DC
330
1F
100
AcDbEntity
  8
0
  6
Continuous
 62
     7
370
    25
100
AcDbCircle
 10
593.2500685605
 20
289.4613402062
 30
0.0
 40
2.0
100
AcDbArc
 50
180.0
 51
270.0
  0
LINE
  5
1DD
330
1F
100
AcDbEntity
  8
0
  6
Continuous
 62
     7
370
    25
100
AcDbLine
 10
609.2500649126
 20
287.4613401049
 30
0.0
 11
593.25006229
 21
287.4613401049
 31
0.0
  0
ARC
  5
1DE
330
1F
100
AcDbEntity
  8
0
  6
Continuous
 62
     7
370
    25
100
AcDbCircle
 10
609.2500685605
 20
289.4613402062
 30
0.0
 40
2.0
100
AcDbArc
 50
270.0
 51
0.0
  0
LINE
  5
1DF
330
1F
100
AcDbEntity
  8
0
  6
Continuous
 62
     7
370
    25
100
AcDbLine
 10
611.2500689658
 20
328.9613401552
 30
0.0
 11
611.2500689658
 21
289.4613404327
 31
0.0
  0
LINE
  5
1E0
330
1F
100
AcDbEntity
  8
0
  6
Continuous
 62
     7
370
    25
100
AcDbLine
 10
630.2500627669
 20
289.4613404327
 30
0.0
 11
630.2500627669
 21
328.9613401552
 31
0.0
  0
ARC
  5
1E1
330
1F
100
AcDbEntity
  8
0
  6
Continuous
 62
     7
370
    25
100
AcDbCircle
 10
632.2500685605
 20
289.4613402062
 30
0.0
 40
2.0
100
AcDbArc
 50
180.0
 51
270.0
  0
LINE
  5
1E2
330
1F
100
AcDbEntity
  8
0
  6
Continuous
 62
     7
370
    25
100
AcDbLine
 10
648.2500694426
 20
287.4613401049
 30
0.0
 11
632.25006682
 21
287.4613401049
 31
0.0
  0
ARC
  5
1E3
330
1F
100
AcDbEntity
  8
0
  6
Continuous
 62
     7
370
    25
100
AcDbCircle
 10
648.2500685605
 20
289.4613402062
 30
0.0
 40
2.0
100
AcDbArc
 50
270.0
 51
0.0
  0
LINE
  5
1E4
330
1F
100
AcDbEntity
  8
0
  6
Continuous
 62
     7
370
    25
100
AcDbLine
 10
650.2500734957
 20
328.9613401552
 30
0.0
 11
650.2500734957
 21
289.4613404327
 31
0.0
  0
ARC
  5
1E5
330
1F
100
AcDbEntity
  8
0
  6
Continuous
 62
     7
370
    25
100
AcDbCircle
 10
682.2500685605
 20
329.4613402062
 30
0.0
 40
2.000000000000057
100
AcDbArc
 50
238.211669383
 51
270.0
  0
LINE
  5
1E6
330
1F
100
AcDbEntity
  8
0
  6
Continuous
 62
     7
370
    25
100
AcDbLine
 10
682.2500638398
 20
327.4613401422
 30
0.0
 11
691.5500722559
 21
327.4613401422
 31
0.0
  0
LINE
  5
1E7
330
1F
100
AcDbEntity
  8
0
  6
Continuous
 62
     7
370
    25
100
AcDbLine
 10
753.5055130454
 20
257.30057401
 30
0.0
 11
752.9055140646
 21
256.261337226
 31
0.0
  0
LWPOLYLINE
  5
1E8
330
1F
100
AcDbEntity
  8
0
  6
Continuous
 62
     7
370
    25
100
AcDbPolyline
 90
        6
 70
   128
 43
0.0
 10
752.9055140646
 20
256.261337226
 10
752.8722323211
 20
256.2805522734
 10
752.7736685904
 20
256.337459808
 10
752.6136114927
 20
256.4298693591
 10
752.3982077571
 20
256.5542344504
 10
752.3500695558
 20
256.5820251161
  0
LWPOLYLINE
  5
1E9
330
1F
100
AcDbEntity
  8
0
  6
Continuous
 62
     7
370
    25
100
AcDbPolyline
 90
        8
 70
   128
 43
0.0
 10
752.3500695558
 20
257.9676691943
 10
752.4362876745
 20
257.9178844148
 10
752.7357376846
 20
257.7450011426
 10
752.9982067378
 20
257.5934637838
 10
753.2136104735
 20
257.4690986925
 10
753.3736675712
 20
257.3766891414
 10
753.4722313019
 20
257.3197890573
 10
753.5055130454
 20
257.30057401
  0
LINE
  5
1EA
330
1F
100
AcDbEntity
  8
0
  6
Continuous
 62
     7
370
    25
100
AcDbLine
 10
820.3293578433
 20
291.6613404208
 30
0.0
 11
819.1500687706
 21
291.6613404208
 31
0.0
  0
SPLINE
  5
1EB
330
1F
100
AcDbEntity
  8
0
  6
Continuous
 62
     7
370
    25
100
AcDbSpline
210
0.0
220
0.0
230
1.0
 70
     8
 71
     3
 72
    16
 73
    12
 74
     0
 42
0.000000001
 43
0.00000001
 40
0.0
 40
0.0
 40
0.0
 40
0.0
 40
0.125829703957179
 40
0.2466497135358224
 40
0.3644360501855216
 40
0.4822100689009292
 40
0.6018445029060239
 40
0.723473051875676
 40
0.8464094410518388
 40
0.9818930914487771
 40
1.0
 40
1.0
 40
1.0
 40
1.0
 10
819.1500687705534
 20
291.6613404208164
 30
0.0
 10
816.3891162817648
 20
291.6810286322486
 30
0.0
 10
810.9771339037607
 20
291.7196212026598
 30
0.0
 10
802.9795012297587
 20
291.6480760608811
 30
0.0
 10
795.1713836413683
 20
290.9782879922984
 30
0.0
 10
787.5424636251287
 20
289.2829827782529
 30
0.0
 10
780.0600255893168
 20
286.7908492667529
 30
0.0
 10
772.6541606362991
 20
283.7805870019806
 30
0.0
 10
765.0068545372415
 20
280.4586293386433
 30
0.0
 10
759.4801544185389
 20
277.9404263764067
 30
0.0
 10
756.3223438684123
 20
276.7623658785287
 30
0.0
 10
755.9500671656983
 20
276.623483424757
 30
0.0
  0
LINE
  5
1EC
330
1F
100
AcDbEntity
  8
0
  6
Continuous
 62
     7
370
    25
100
AcDbLine
 10
820.3293578433
 20
310.4113393032
 30
0.0
 11
820.3293578433
 21
291.6613404208
 31
0.0
  0
LINE
  5
1ED
330
1F
100
AcDbEntity
  8
0
  6
Continuous
 62
     7
370
    25
100
AcDbLine
 10
755.9500671657
 20
312.4613404774
 30
0.0
 11
819.1500687706
 21
312.4613404774
 31
0.0
  0
SPLINE
  5
1EE
330
1F
100
AcDbEntity
  8
0
  6
Continuous
 62
     7
370
    25
100
AcDbSpline
210
0.0
220
0.0
230
1.0
 70
     8
 71
     3
 72
    12
 73
     8
 74
     0
 42
0.000000001
 43
0.00000001
 40
0.0
 40
0.0
 40
0.0
 40
0.0
 40
0.2286711878768555
 40
0.4574154772702536
 40
0.68615560954536
 40
0.914904377191127
 40
0.9999999999999999
 40
0.9999999999999999
 40
0.9999999999999999
 40
0.9999999999999999
 10
820.3293578433054
 20
310.4113393032293
 30
0.0
 10
820.2394402009555
 20
310.6568120369474
 30
0.0
 10
820.0595761714187
 20
311.1478359770118
 30
0.0
 10
819.7897226690135
 20
311.7909922814459
 30
0.0
 10
819.520009711219
 20
312.2551781910505
 30
0.0
 10
819.3062178219085
 20
312.443947104517
 30
0.0
 10
819.1833760356417
 20
312.457630396094
 30
0.0
 10
819.1500687705534
 20
312.4613404774408
 30
0.0
  0
LINE
  5
1EF
330
1F
100
AcDbEntity
  8
0
  6
Continuous
 62
     7
370
    25
100
AcDbLine
 10
650.2500734957
 20
312.4613404774
 30
0.0
 11
630.2500627669
 21
312.4613404774
 31
0.0
  0
LINE
  5
1F0
330
1F
100
AcDbEntity
  8
0
  6
Continuous
 62
     7
370
    25
100
AcDbLine
 10
611.2500689658
 20
312.4613404774
 30
0.0
 11
591.2500731381
 21
312.4613404774
 31
0.0
  0
LINE
  5
1F1
330
1F
100
AcDbEntity
  8
0
  6
Continuous
 62
     7
370
    25
100
AcDbLine
 10
572.2500644358
 20
312.4613404774
 30
0.0
 11
552.2500686081
 21
312.4613404774
 31
0.0
  0
LINE
  5
1F2
330
1F
100
AcDbEntity
  8
0
  6
Continuous
 62
     7
370
    25
100
AcDbLine
 10
533.250074807
 20
312.4613404774
 30
0.0
 11
513.2500640782
 21
312.4613404774
 31
0.0
  0
LINE
  5
1F3
330
1F
100
AcDbEntity
  8
0
  6
Continuous
 62
     7
370
    25
100
AcDbLine
 10
494.2500702771
 20
312.4613404774
 30
0.0
 11
474.2500595482
 21
312.4613404774
 31
0.0
  0
LINE
  5
1F4
330
1F
100
AcDbEntity
  8
0
  6
Continuous
 62
     7
370
    25
100
AcDbLine
 10
455.2500657471
 20
312.4613404774
 30
0.0
 11
435.2500550183
 21
312.4613404774
 31
0.0
  0
LINE
  5
1F5
330
1F
100
AcDbEntity
  8
0
  6
Continuous
 62
     7
370
    25
100
AcDbLine
 10
377.2500566872
 20
312.4613404774
 30
0.0
 11
357.2500757607
 21
312.4613404774
 31
0.0
  0
LINE
  5
1F6
330
1F
100
AcDbEntity
  8
0
  6
Continuous
 62
     7
370
    25
100
AcDbLine
 10
338.2500819596
 20
312.4613404774
 30
0.0
 11
318.2500712307
 21
312.4613404774
 31
0.0
  0
LINE
  5
1F7
330
1F
100
AcDbEntity
  8
0
  6
Continuous
 62
     7
370
    25
100
AcDbLine
 10
299.2500774296
 20
312.4613404774
 30
0.0
 11
279.2500965031
 21
312.4613404774
 31
0.0
  0
LINE
  5
1F8
330
1F
100
AcDbEntity
  8
0
  6
Continuous
 62
     7
370
    25
100
AcDbLine
 10
260.2500430973
 20
312.4613404774
 30
0.0
 11
240.2500621708
 21
312.4613404774
 31
0.0
  0
LINE
  5
1F9
330
1F
100
AcDbEntity
  8
0
  6
Continuous
 62
     7
370
    25
100
AcDbLine
 10
221.2500683697
 20
312.4613404774
 30
0.0
 11
201.2500874432
 21
312.4613404774
 31
0.0
  0
LINE
  5
1FA
330
1F
100
AcDbEntity
  8
0
  6
Continuous
 62
     7
370
    25
100
AcDbLine
 10
820.4000685098
 20
310.4113393032
 30
0.0
 11
821.2000690134
 21
310.4113393032
 31
0.0
  0
SPLINE
  5
1FB
330
1F
100
AcDbEntity
  8
0
  6
Continuous
 62
     7
370
    25
100
AcDbSpline
210
0.0
220
0.0
230
1.0
 70
     8
 71
     3
 72
    10
 73
     6
 74
     0
 42
0.000000001
 43
0.00000001
 40
0.0
 40
0.0
 40
0.0
 40
0.0
 40
0.0711256427963153
 40
0.535568989926151
 40
1.0
 40
1.0
 40
1.0
 40
1.0
 10
819.9718473212974
 20
311.3367200398188
 30
0.0
 10
819.9928932533394
 20
311.3233303889286
 30
0.0
 10
820.1513670206413
 20
311.222507654387
 30
0.0
 10
820.337852773809
 20
310.8937619460694
 30
0.0
 10
820.3793301147552
 20
310.5721454269683
 30
0.0
 10
820.4000685097831
 20
310.4113393032293
 30
0.0
  0
SPLINE
  5
1FC
330
1F
100
AcDbEntity
  8
0
  6
Continuous
 62
     7
370
    25
100
AcDbSpline
210
0.0
220
0.0
230
1.0
 70
     8
 71
     3
 72
    11
 73
     7
 74
     0
 42
0.000000001
 43
0.00000001
 40
0.0
 40
0.0
 40
0.0
 40
0.0
 40
0.2499982745277443
 40
0.4999999205156874
 40
0.7500014241286543
 40
1.0
 40
1.0
 40
1.0
 40
1.0
 10
819.1500687705534
 20
312.4613404774408
 30
0.0
 10
819.4186951785873
 20
312.4305252491161
 30
0.0
 10
819.9559516173333
 20
312.3688943768945
 30
0.0
 10
820.6335636076539
 20
311.8948351205422
 30
0.0
 10
821.1076217764017
 20
311.2172225982933
 30
0.0
 10
821.1692533880564
 20
310.6799660196186
 30
0.0
 10
821.2000690134423
 20
310.4113393032293
 30
0.0
  0
LINE
  5
1FD
330
1F
100
AcDbEntity
  8
0
  6
Continuous
 62
     7
370
    25
100
AcDbLine
 10
820.4000685098
 20
290.8234220499
 30
0.0
 11
821.2000690134
 21
290.8234220499
 31
0.0
  0
LINE
  5
1FE
330
1F
100
AcDbEntity
  8
0
  6
Continuous
 62
     7
370
    25
100
AcDbLine
 10
820.4000685098
 20
310.4113393032
 30
0.0
 11
820.4000685098
 21
290.8234220499
 31
0.0
  0
LINE
  5
1FF
330
1F
100
AcDbEntity
  8
0
  6
Continuous
 62
     7
370
    25
100
AcDbLine
 10
821.2000690134
 20
310.4113393032
 30
0.0
 11
821.2000690134
 21
290.8234220499
 31
0.0
  0
LINE
  5
200
330
1F
100
AcDbEntity
  8
0
  6
Continuous
 62
     7
370
    25
100
AcDbLine
 10
821.2000690134
 20
286.6613414639
 30
0.0
 11
820.4000685098
 21
286.6613414639
 31
0.0
  0
LINE
  5
201
330
1F
100
AcDbEntity
  8
0
  6
Continuous
 62
     7
370
    25
100
AcDbLine
 10
820.4000685098
 20
286.6613414639
 30
0.0
 11
820.4000685098
 21
290.8234220499
 31
0.0
  0
LINE
  5
202
330
1F
100
AcDbEntity
  8
0
  6
Continuous
 62
     7
370
    25
100
AcDbLine
 10
821.2000690134
 20
286.6613414639
 30
0.0
 11
821.2000690134
 21
290.8234220499
 31
0.0
  0
LINE
  5
203
330
1F
100
AcDbEntity
  8
0
  6
Continuous
 62
     7
370
    25
100
AcDbLine
 10
849.8215861352
 20
504.261899417
 30
0.0
 11
849.7309572729
 21
504.2196248227
 31
0.0
  0
LINE
  5
204
330
1F
100
AcDbEntity
  8
0
  6
Continuous
 62
     7
370
    25
100
AcDbLine
 10
849.8215861352
 20
504.261899417
 30
0.0
 11
855.0615049632
 21
493.0248592549
 31
0.0
  0
LINE
  5
205
330
1F
100
AcDbEntity
  8
0
  6
Continuous
 62
     7
370
    25
100
AcDbLine
 10
850.7518693539
 20
502.5035176927
 30
0.0
 11
855.1543503734
 21
493.0623654777
 31
0.0
  0
LWPOLYLINE
  5
206
330
1F
100
AcDbEntity
  8
0
  6
Continuous
 62
     7
370
    25
100
AcDbPolyline
 90
        5
 70
   128
 43
0.0
 10
850.6462126704
 20
502.7300898486
 10
850.6534136566
 20
502.7146522456
 10
850.6745248767
 20
502.6693825179
 10
850.7081046434
 20
502.5973652059
 10
850.7518693539
 20
502.5035176927
  0
LINE
  5
207
330
1F
100
AcDbEntity
  8
0
  6
Continuous
 62
     7
370
    25
100
AcDbLine
 10
789.0089619639
 20
580.9113417321
 30
0.0
 11
789.0089619639
 21
578.161347335
 31
0.0
  0
LINE
  5
208
330
1F
100
AcDbEntity
  8
0
  6
Continuous
 62
     7
370
    25
100
AcDbLine
 10
148.0089537533
 20
578.161347335
 30
0.0
 11
148.0089537533
 21
580.9113417321
 31
0.0
  0
LINE
  5
209
330
1F
100
AcDbEntity
  8
0
  6
Continuous
 62
     7
370
    25
100
AcDbLine
 10
765.1018053027
 20
616.9778142625
 30
0.0
 11
95.2589623364
 21
699.5073292905
 31
0.0
  0
ARC
  5
20A
330
1F
100
AcDbEntity
  8
0
  6
Continuous
 62
     7
370
    25
100
AcDbCircle
 10
763.8789785911
 20
607.0528490571
 30
0.0
 40
10.00000000000006
100
AcDbArc
 50
40.0
 51
82.9761397373
  0
LINE
  5
20B
330
1F
100
AcDbEntity
  8
0
  6
Continuous
 62
     7
370
    25
100
AcDbLine
 10
148.0089537533
 20
581.6613469773
 30
0.0
 11
148.0089537533
 21
580.9113417321
 31
0.0
  0
LINE
  5
20C
330
1F
100
AcDbEntity
  8
0
  6
Continuous
 62
     7
370
    25
100
AcDbLine
 10
147.2589485081
 20
581.6613469773
 30
0.0
 11
148.0089537533
 21
581.6613469773
 31
0.0
  0
LINE
  5
20D
330
1F
100
AcDbEntity
  8
0
  6
Continuous
 62
     7
370
    25
100
AcDbLine
 10
147.2589485081
 20
579.6613429242
 30
0.0
 11
147.2589485081
 21
581.6613469773
 31
0.0
  0
LINE
  5
20E
330
1F
100
AcDbEntity
  8
0
  6
Continuous
 62
     7
370
    25
100
AcDbLine
 10
95.2589623364
 20
579.6613429242
 30
0.0
 11
147.2589485081
 21
579.6613429242
 31
0.0
  0
LINE
  5
20F
330
1F
100
AcDbEntity
  8
0
  6
Continuous
 62
     7
370
    25
100
AcDbLine
 10
786.6694051506
 20
595.4495106393
 30
0.0
 11
771.5394235881
 21
613.4807203465
 31
0.0
  0
LINE
  5
210
330
1F
100
AcDbEntity
  8
0
  6
Continuous
 62
     7
370
    25
100
AcDbLine
 10
789.0089619639
 20
580.9113417321
 30
0.0
 11
789.0089619639
 21
589.0216265374
 31
0.0
  0
ARC
  5
211
330
1F
100
AcDbEntity
  8
0
  6
Continuous
 62
     7
370
    25
100
AcDbCircle
 10
779.0089612533
 20
589.0216378636
 30
0.0
 40
10.00000000000011
100
AcDbArc
 50
0.0
 51
40.0
  0
SPLINE
  5
212
330
1F
100
AcDbEntity
  8
0
  6
Continuous
 62
     7
370
    25
100
AcDbSpline
210
0.0
220
0.0
230
1.0
 70
     8
 71
     3
 72
    11
 73
     7
 74
     0
 42
0.000000001
 43
0.00000001
 40
0.0
 40
0.0
 40
0.0
 40
0.0
 40
0.2500014359422145
 40
0.5
 40
0.7499985640577854
 40
1.0
 40
1.0
 40
1.0
 40
1.0
 10
92.50898284038477
 20
699.661347692583
 30
0.0
 10
92.55032123745333
 20
699.648512862602
 30
0.0
 10
92.63299755671672
 20
699.62284335008
 30
0.0
 10
93.26890286518896
 20
699.5843384915333
 30
0.0
 10
94.17791445970991
 20
699.5458336329867
 30
0.0
 10
94.89861166432212
 20
699.5201641204644
 30
0.0
 10
95.25896233638697
 20
699.5073292904834
 30
0.0
  0
LINE
  5
213
330
1F
100
AcDbEntity
  8
0
  6
Continuous
 62
     7
370
    25
100
AcDbLine
 10
95.2589623364
 20
579.6613429242
 30
0.0
 11
92.5089828404
 21
579.6613429242
 31
0.0
  0
LINE
  5
214
330
1F
100
AcDbEntity
  8
0
  6
Continuous
 62
     7
370
    25
100
AcDbLine
 10
92.5089828404
 20
579.6613429242
 30
0.0
 11
92.5089828404
 21
699.6613476926
 31
0.0
  0
LINE
  5
215
330
1F
100
AcDbEntity
  8
0
  6
Continuous
 62
     7
370
    25
100
AcDbLine
 10
94.0089337262
 20
699.6613476926
 30
0.0
 11
92.5089828404
 21
699.6613476926
 31
0.0
  0
ARC
  5
216
330
1F
100
AcDbEntity
  8
0
  6
Continuous
 62
     7
370
    25
100
AcDbCircle
 10
789.0089612533
 20
580.9113402062
 30
0.0
 40
2.749999999999886
100
AcDbArc
 50
270.0
 51
0.0
  0
ARC
  5
217
330
1F
100
AcDbEntity
  8
0
  6
Continuous
 62
     7
370
    25
100
AcDbCircle
 10
789.0089612533
 20
580.9113402062
 30
0.0
 40
1.249999999999886
100
AcDbArc
 50
270.0
 51
0.0
  0
LINE
  5
218
330
1F
100
AcDbEntity
  8
0
  6
Continuous
 62
     7
370
    25
100
AcDbLine
 10
790.2589607718
 20
590.1613269502
 30
0.0
 11
790.2589607718
 21
580.9113417321
 31
0.0
  0
LINE
  5
219
330
1F
100
AcDbEntity
  8
0
  6
Continuous
 62
     7
370
    25
100
AcDbLine
 10
791.758961949
 20
590.1613269502
 30
0.0
 11
791.758961949
 21
580.9113417321
 31
0.0
  0
LINE
  5
21A
330
1F
100
AcDbEntity
  8
0
  6
Continuous
 62
     7
370
    25
100
AcDbLine
 10
791.758961949
 20
590.1613269502
 30
0.0
 11
790.2589607718
 21
590.1613269502
 31
0.0
  0
ARC
  5
21B
330
1F
100
AcDbEntity
  8
0
  6
Continuous
 62
     7
370
    25
100
AcDbCircle
 10
148.0089612533
 20
580.9113402062
 30
0.0
 40
2.750000000000114
100
AcDbArc
 50
207.0356917894
 51
270.0
  0
ARC
  5
21C
330
1F
100
AcDbEntity
  8
0
  6
Continuous
 62
     7
370
    25
100
AcDbCircle
 10
148.0089612533
 20
580.9113402062
 30
0.0
 40
1.250000000000131
100
AcDbArc
 50
233.1301023542
 51
270.0
  0
LINE
  5
21D
330
1F
100
AcDbEntity
  8
0
  6
Continuous
 62
     7
370
    25
100
AcDbLine
 10
31.59470481
 20
325.2613401541
 30
0.0
 11
31.59470481
 21
328.9613401552
 31
0.0
  0
LINE
  5
21E
330
1F
100
AcDbEntity
  8
0
  6
Continuous
 62
     7
370
    25
100
AcDbLine
 10
31.59470481
 20
325.2613401541
 30
0.0
 11
42.9173819455
 21
325.2613401541
 31
0.0
  0
LINE
  5
21F
330
1F
100
AcDbEntity
  8
0
  6
Continuous
 62
     7
370
    25
100
AcDbLine
 10
59.5054737957
 20
328.9613401552
 30
0.0
 11
59.5054737957
 21
325.2613401541
 31
0.0
  0
LINE
  5
220
330
1F
100
AcDbEntity
  8
0
  6
Continuous
 62
     7
370
    25
100
AcDbLine
 10
54.1827790173
 20
325.2613401541
 30
0.0
 11
59.5054737957
 21
325.2613401541
 31
0.0
  0
LINE
  5
221
330
1F
100
AcDbEntity
  8
0
  6
Continuous
 62
     7
370
    25
100
AcDbLine
 10
36.2867228421
 20
311.4613403135
 30
0.0
 11
36.2867228421
 21
315.3613392764
 31
0.0
  0
LINE
  5
222
330
1F
100
AcDbEntity
  8
0
  6
Continuous
 62
     7
370
    25
100
AcDbLine
 10
38.0960218342
 20
315.3613392764
 30
0.0
 11
38.0960218342
 21
311.4613403135
 31
0.0
  0
LINE
  5
223
330
1F
100
AcDbEntity
  8
0
  6
Continuous
 62
     7
370
    25
100
AcDbLine
 10
36.2867228421
 20
315.3613392764
 30
0.0
 11
38.0960218342
 21
315.3613392764
 31
0.0
  0
LINE
  5
224
330
1F
100
AcDbEntity
  8
0
  6
Continuous
 62
     7
370
    25
100
AcDbLine
 10
36.2867228421
 20
311.4613403135
 30
0.0
 11
38.0960218342
 21
311.4613403135
 31
0.0
  0
LINE
  5
225
330
1F
100
AcDbEntity
  8
0
  6
Continuous
 62
     7
370
    25
100
AcDbLine
 10
38.0960218342
 20
315.3613392764
 30
0.0
 11
42.7767745884
 21
315.3613392764
 31
0.0
  0
LINE
  5
226
330
1F
100
AcDbEntity
  8
0
  6
Continuous
 62
     7
370
    25
100
AcDbLine
 10
38.0960218342
 20
311.4613403135
 30
0.0
 11
43.5500852497
 21
311.4613403135
 31
0.0
  0
LINE
  5
227
330
1F
100
AcDbEntity
  8
0
  6
Continuous
 62
     7
370
    25
100
AcDbLine
 10
54.8134557637
 20
315.3613392764
 30
0.0
 11
54.8134557637
 21
311.4613403135
 31
0.0
  0
LINE
  5
228
330
1F
100
AcDbEntity
  8
0
  6
Continuous
 62
     7
370
    25
100
AcDbLine
 10
54.3233863743
 20
315.3613392764
 30
0.0
 11
54.8134557637
 21
315.3613392764
 31
0.0
  0
LINE
  5
229
330
1F
100
AcDbEntity
  8
0
  6
Continuous
 62
     7
370
    25
100
AcDbLine
 10
53.550075713
 20
311.4613403135
 30
0.0
 11
54.8134557637
 21
311.4613403135
 31
0.0
  0
LINE
  5
22A
330
1F
100
AcDbEntity
  8
0
  6
Continuous
 62
     7
370
    25
100
AcDbLine
 10
45.5500595005
 20
297.2613383585
 30
0.0
 11
35.7000939282
 21
297.2613383585
 31
0.0
  0
LINE
  5
22B
330
1F
100
AcDbEntity
  8
0
  6
Continuous
 62
     7
370
    25
100
AcDbLine
 10
55.4000846775
 20
297.2613383585
 30
0.0
 11
45.5500595005
 21
297.2613383585
 31
0.0
  0
LINE
  5
22C
330
1F
100
AcDbEntity
  8
0
  6
Continuous
 62
     7
370
    25
100
AcDbLine
 10
58.7071887883
 20
317.7613398561
 30
0.0
 11
60.4000799092
 21
317.7613398561
 31
0.0
  0
LINE
  5
22D
330
1F
100
AcDbEntity
  8
0
  6
Continuous
 62
     7
370
    25
100
AcDbLine
 10
30.7000390919
 20
317.7613398561
 30
0.0
 11
38.3929721745
 21
317.7613398561
 31
0.0
  0
LINE
  5
22E
330
1F
100
AcDbEntity
  8
0
  6
Continuous
 62
     7
370
    25
100
AcDbLine
 10
54.0118925007
 20
323.2613398263
 30
0.0
 11
56.447874728
 21
323.2613398263
 31
0.0
  0
LINE
  5
22F
330
1F
100
AcDbEntity
  8
0
  6
Continuous
 62
     7
370
    25
100
AcDbLine
 10
58.7450377377
 20
323.2613398263
 30
0.0
 11
59.55005807
 21
323.2613398263
 31
0.0
  0
LINE
  5
230
330
1F
100
AcDbEntity
  8
0
  6
Continuous
 62
     7
370
    25
100
AcDbLine
 10
31.5500609311
 20
323.2613398263
 30
0.0
 11
38.3551232251
 21
323.2613398263
 31
0.0
  0
LINE
  5
231
330
1F
100
AcDbEntity
  8
0
  6
Continuous
 62
     7
370
    25
100
AcDbLine
 10
40.6522266301
 20
323.2613398263
 30
0.0
 11
43.0882088574
 21
323.2613398263
 31
0.0
  0
LINE
  5
232
330
1F
100
AcDbEntity
  8
0
  6
Continuous
 62
     7
370
    25
100
AcDbLine
 10
62.2674338253
 20
311.4613403135
 30
0.0
 11
62.2674338253
 21
315.3613392764
 31
0.0
  0
LINE
  5
233
330
1F
100
AcDbEntity
  8
0
  6
Continuous
 62
     7
370
    25
100
AcDbLine
 10
54.8134557637
 20
315.3613392764
 30
0.0
 11
62.2674338253
 21
315.3613392764
 31
0.0
  0
LINE
  5
234
330
1F
100
AcDbEntity
  8
0
  6
Continuous
 62
     7
370
    25
100
AcDbLine
 10
54.8134557637
 20
311.4613403135
 30
0.0
 11
62.2674338253
 21
311.4613403135
 31
0.0
  0
LINE
  5
235
330
1F
100
AcDbEntity
  8
0
  6
Continuous
 62
     7
370
    25
100
AcDbLine
 10
28.8326851757
 20
315.3613392764
 30
0.0
 11
28.8326851757
 21
311.4613403135
 31
0.0
  0
LINE
  5
236
330
1F
100
AcDbEntity
  8
0
  6
Continuous
 62
     7
370
    25
100
AcDbLine
 10
28.8326851757
 20
315.3613392764
 30
0.0
 11
36.2867228421
 21
315.3613392764
 31
0.0
  0
LINE
  5
237
330
1F
100
AcDbEntity
  8
0
  6
Continuous
 62
     7
370
    25
100
AcDbLine
 10
28.8326851757
 20
311.4613403135
 30
0.0
 11
36.2867228421
 21
311.4613403135
 31
0.0
  0
LINE
  5
238
330
1F
100
AcDbEntity
  8
0
  6
Continuous
 62
     7
370
    25
100
AcDbLine
 10
30.5500738057
 20
328.9613401552
 30
0.0
 11
30.5500738057
 21
325.2613401541
 31
0.0
  0
LINE
  5
239
330
1F
100
AcDbEntity
  8
0
  6
Continuous
 62
     7
370
    25
100
AcDbLine
 10
30.5500738057
 20
325.2613401541
 30
0.0
 11
31.59470481
 21
325.2613401541
 31
0.0
  0
LINE
  5
23A
330
1F
100
AcDbEntity
  8
0
  6
Continuous
 62
     7
370
    25
100
AcDbLine
 10
60.5500451954
 20
325.2613401541
 30
0.0
 11
60.5500451954
 21
328.9613401552
 31
0.0
  0
LINE
  5
23B
330
1F
100
AcDbEntity
  8
0
  6
Continuous
 62
     7
370
    25
100
AcDbLine
 10
59.5054737957
 20
325.2613401541
 30
0.0
 11
60.5500451954
 21
325.2613401541
 31
0.0
  0
LINE
  5
23C
330
1F
100
AcDbEntity
  8
0
  6
Continuous
 62
     7
370
    25
100
AcDbLine
 10
28.8000814351
 20
315.3613392764
 30
0.0
 11
28.8326851757
 21
315.3613392764
 31
0.0
  0
LINE
  5
23D
330
1F
100
AcDbEntity
  8
0
  6
Continuous
 62
     7
370
    25
100
AcDbLine
 10
28.8000814351
 20
311.4613403135
 30
0.0
 11
28.8326851757
 21
311.4613403135
 31
0.0
  0
LINE
  5
23E
330
1F
100
AcDbEntity
  8
0
  6
Continuous
 62
     7
370
    25
100
AcDbLine
 10
62.2674338253
 20
315.3613392764
 30
0.0
 11
62.3000971707
 21
315.3613392764
 31
0.0
  0
LINE
  5
23F
330
1F
100
AcDbEntity
  8
0
  6
Continuous
 62
     7
370
    25
100
AcDbLine
 10
62.2674338253
 20
311.4613403135
 30
0.0
 11
62.3000971707
 21
311.4613403135
 31
0.0
  0
LWPOLYLINE
  5
240
330
1F
100
AcDbEntity
  8
0
  6
Continuous
 62
     7
370
    25
100
AcDbPolyline
 90
       16
 70
   128
 43
0.0
 10
877.3675448926
 20
455.6006823235
 10
877.3722983631
 20
455.5904824787
 10
877.4856142434
 20
455.3474892431
 10
877.7440674337
 20
454.7932256514
 10
878.1337402495
 20
453.9575759822
 10
878.6336146029
 20
452.8855938965
 10
879.2167417439
 20
451.6350735479
 10
879.8516876729
 20
450.2734203392
 10
880.5042244228
 20
448.8740448409
 10
881.1391778024
 20
447.5123990828
 10
881.7223049434
 20
446.2618712836
 10
882.2221792968
 20
445.1898891979
 10
882.611844662
 20
444.3542469793
 10
882.8703053029
 20
443.7999833876
 10
882.9836137327
 20
443.5569827014
 10
882.9883672031
 20
443.5467903071
  0
LWPOLYLINE
  5
241
330
1F
100
AcDbEntity
  8
0
  6
Continuous
 62
     7
370
    25
100
AcDbPolyline
 90
       16
 70
   128
 43
0.0
 10
873.7094588312
 20
455.1637728268
 10
873.7528808149
 20
455.0706480199
 10
873.9435784253
 20
454.6616931015
 10
874.2774687441
 20
453.9456699544
 10
874.7389353546
 20
452.9560540372
 10
875.3063939246
 20
451.739120906
 10
875.9533278378
 20
450.3517780953
 10
876.6494728359
 20
448.8588829094
 10
877.3622847827
 20
447.3302547389
 10
878.0584297808
 20
445.8373670035
 10
878.705363694
 20
444.4500167423
 10
879.2728297146
 20
443.2330836111
 10
879.7342963251
 20
442.2434676939
 10
880.0681791933
 20
441.5274445468
 10
880.2588768037
 20
441.118497079
 10
880.302306238
 20
441.0253722721
  0
LINE
  5
242
330
1F
100
AcDbEntity
  8
0
  6
Continuous
 62
     7
370
    25
100
AcDbLine
 10
41.2463657292
 20
317.8613406175
 30
0.0
 11
47.3568550976
 21
317.8613406175
 31
0.0
  0
LINE
  5
243
330
1F
100
AcDbEntity
  8
0
  6
Continuous
 62
     7
370
    25
100
AcDbLine
 10
53.274046603
 20
317.8613406175
 30
0.0
 11
56.8333975705
 21
317.8613406175
 31
0.0
  0
SPLINE
  5
244
330
1F
100
AcDbEntity
  8
0
  6
Continuous
 62
     7
370
    25
100
AcDbSpline
210
0.0
220
0.0
230
1.0
 70
     8
 71
     3
 72
    13
 73
     9
 74
     0
 42
0.000000001
 43
0.00000001
 40
0.0
 40
0.0
 40
0.0
 40
0.0
 40
0.0075378674181289
 40
0.2722927215890307
 40
0.4815441067566692
 40
0.6613551109735244
 40
0.8304517659584629
 40
0.9999999999999999
 40
0.9999999999999999
 40
0.9999999999999999
 40
0.9999999999999999
 10
56.83339757045669
 20
317.8613406175118
 30
0.0
 10
56.83415250516954
 20
317.8613372922795
 30
0.0
 10
56.86142324584609
 20
317.8612171738835
 30
0.0
 10
56.91004874968819
 20
317.8496383635834
 30
0.0
 10
56.96921202321437
 20
317.8069225439378
 30
0.0
 10
57.01017594290503
 20
317.7512426850959
 30
0.0
 10
57.03720732068829
 20
317.6851077206107
 30
0.0
 10
57.04076770363553
 20
317.635951164019
 30
0.0
 10
57.04255026897365
 20
317.6113401108723
 30
0.0
  0
SPLINE
  5
245
330
1F
100
AcDbEntity
  8
0
  6
Continuous
 62
     7
370
    25
100
AcDbSpline
210
0.0
220
0.0
230
1.0
 70
     8
 71
     3
 72
    13
 73
     9
 74
     0
 42
0.000000001
 43
0.00000001
 40
0.0
 40
0.0
 40
0.0
 40
0.0
 40
0.0075652362732028
 40
0.2723032912598906
 40
0.4815425244154646
 40
0.6613553381177936
 40
0.8304612791206274
 40
1.0
 40
1.0
 40
1.0
 40
1.0
 10
41.24636572917873
 20
317.8613406175118
 30
0.0
 10
41.24588871750345
 20
317.8613373045026
 30
0.0
 10
41.22871914811166
 20
317.8612180559716
 30
0.0
 10
41.19955589892377
 20
317.8496384713831
 30
0.0
 10
41.16331554179698
 20
317.8069209883435
 30
0.0
 10
41.13850087867099
 20
317.7512405386381
 30
0.0
 10
41.1220068667596
 20
317.6851124684489
 30
0.0
 10
41.11987772215797
 20
317.6359518387723
 30
0.0
 10
41.11881178935939
 20
317.6113401108723
 30
0.0
  0
SPLINE
  5
246
330
1F
100
AcDbEntity
  8
0
  6
Continuous
 62
     7
370
    25
100
AcDbSpline
210
0.0
220
0.0
230
1.0
 70
     8
 71
     3
 72
    13
 73
     9
 74
     0
 42
0.000000001
 43
0.00000001
 40
0.0
 40
0.0
 40
0.0
 40
0.0
 40
0.169548234041537
 40
0.3386448890264755
 40
0.5184558932433307
 40
0.7277072784109693
 40
0.992462132581871
 40
0.9999999999999999
 40
0.9999999999999999
 40
0.9999999999999999
 40
0.9999999999999999
 10
57.04255026897365
 20
316.9113403686624
 30
0.0
 10
57.04076770363564
 20
316.8867293155157
 30
0.0
 10
57.03720732068873
 20
316.8375727589239
 30
0.0
 10
57.01017594290514
 20
316.7714377944387
 30
0.0
 10
56.96921202321414
 20
316.7157579355969
 30
0.0
 10
56.91004874968808
 20
316.6730421159513
 30
0.0
 10
56.86142324584686
 20
316.6614633056511
 30
0.0
 10
56.83415250516988
 20
316.6613431872551
 30
0.0
 10
56.8333975704568
 20
316.6613398620229
 30
0.0
  0
LINE
  5
247
330
1F
100
AcDbEntity
  8
0
  6
Continuous
 62
     7
370
    25
100
AcDbLine
 10
56.8333975705
 20
316.661339862
 30
0.0
 11
53.8863651188
 21
316.661339862
 31
0.0
  0
LINE
  5
248
330
1F
100
AcDbEntity
  8
0
  6
Continuous
 62
     7
370
    25
100
AcDbLine
 10
47.3765246304
 20
316.661339862
 30
0.0
 11
41.2463657292
 21
316.661339862
 31
0.0
  0
SPLINE
  5
249
330
1F
100
AcDbEntity
  8
0
  6
Continuous
 62
     7
370
    25
100
AcDbSpline
210
0.0
220
0.0
230
1.0
 70
     8
 71
     3
 72
    13
 73
     9
 74
     0
 42
0.000000001
 43
0.00000001
 40
0.0
 40
0.0
 40
0.0
 40
0.0
 40
0.1695387208793726
 40
0.3386446618822065
 40
0.5184574755845354
 40
0.7276967087401095
 40
0.9924347637267972
 40
1.0
 40
1.0
 40
1.0
 40
1.0
 10
41.11881178935939
 20
316.9113403686624
 30
0.0
 10
41.11987772215808
 20
316.8867286407624
 30
0.0
 10
41.12200686675948
 20
316.8375680110857
 30
0.0
 10
41.13850087867099
 20
316.7714399408965
 30
0.0
 10
41.16331554179664
 20
316.7157594911912
 30
0.0
 10
41.19955589892443
 20
316.6730420081516
 30
0.0
 10
41.22871914810988
 20
316.661462423563
 30
0.0
 10
41.24588871750334
 20
316.6613431750321
 30
0.0
 10
41.24636572917873
 20
316.6613398620229
 30
0.0
  0
LINE
  5
24A
330
1F
100
AcDbEntity
  8
0
  6
Continuous
 62
     7
370
    25
100
AcDbLine
 10
57.042550269
 20
317.6113401109
 30
0.0
 11
57.042550269
 21
316.9113403687
 31
0.0
  0
LINE
  5
24B
330
1F
100
AcDbEntity
  8
0
  6
Continuous
 62
     7
370
    25
100
AcDbLine
 10
41.1188117894
 20
317.6113401109
 30
0.0
 11
41.1188117894
 21
316.9113403687
 31
0.0
  0
SPLINE
  5
24C
330
1F
100
AcDbEntity
  8
0
  6
Continuous
 62
     7
370
    25
100
AcDbSpline
210
0.0
220
0.0
230
1.0
 70
     8
 71
     3
 72
    12
 73
     8
 74
     0
 42
0.000000001
 43
0.00000001
 40
0.0
 40
0.0
 40
0.0
 40
0.0
 40
0.2289424042514167
 40
0.4594274339885988
 40
0.6825400103895445
 40
0.8947160093190745
 40
0.9999999999999999
 40
0.9999999999999999
 40
0.9999999999999999
 40
0.9999999999999999
 10
40.93052071651393
 20
316.6613398620229
 30
0.0
 10
40.7574223280448
 20
316.6786757702488
 30
0.0
 10
40.41005920542062
 20
316.713464396926
 30
0.0
 10
39.9518902091579
 20
316.9873222946851
 30
0.0
 10
39.62212052046876
 20
317.3843592681359
 30
0.0
 10
39.47416404379289
 20
317.7852512598314
 30
0.0
 10
39.46152424215998
 20
318.0301280507677
 30
0.0
 10
39.45733231624538
 20
318.1113401928287
 30
0.0
  0
LINE
  5
24D
330
1F
100
AcDbEntity
  8
0
  6
Continuous
 62
     7
370
    25
100
AcDbLine
 10
40.9305207165
 20
316.661339862
 30
0.0
 11
39.8000590237
 21
316.661339862
 31
0.0
  0
LINE
  5
24E
330
1F
100
AcDbEntity
  8
0
  6
Continuous
 62
     7
370
    25
100
AcDbLine
 10
39.6801940831
 20
323.4613404178
 30
0.0
 11
40.4073111447
 21
323.4613404178
 31
0.0
  0
LINE
  5
24F
330
1F
100
AcDbEntity
  8
0
  6
Continuous
 62
     7
370
    25
100
AcDbLine
 10
38.6000983151
 20
323.4613404178
 30
0.0
 11
39.6801940831
 21
323.4613404178
 31
0.0
  0
LINE
  5
250
330
1F
100
AcDbEntity
  8
0
  6
Continuous
 62
     7
370
    25
100
AcDbLine
 10
40.9305207165
 20
317.8613406175
 30
0.0
 11
41.2463657292
 21
317.8613406175
 31
0.0
  0
LINE
  5
251
330
1F
100
AcDbEntity
  8
0
  6
Continuous
 62
     7
370
    25
100
AcDbLine
 10
41.2463657292
 20
316.661339862
 30
0.0
 11
40.9305207165
 21
316.661339862
 31
0.0
  0
LINE
  5
252
330
1F
100
AcDbEntity
  8
0
  6
Continuous
 62
     7
370
    25
100
AcDbLine
 10
57.1492425831
 20
316.661339862
 30
0.0
 11
56.8333975705
 21
316.661339862
 31
0.0
  0
LINE
  5
253
330
1F
100
AcDbEntity
  8
0
  6
Continuous
 62
     7
370
    25
100
AcDbLine
 10
56.8333975705
 20
317.8613406175
 30
0.0
 11
57.1492425831
 21
317.8613406175
 31
0.0
  0
SPLINE
  5
254
330
1F
100
AcDbEntity
  8
0
  6
Continuous
 62
     7
370
    25
100
AcDbSpline
210
0.0
220
0.0
230
1.0
 70
     8
 71
     3
 72
    11
 73
     7
 74
     0
 42
0.000000001
 43
0.00000001
 40
0.0
 40
0.0
 40
0.0
 40
0.0
 40
0.2956132040449554
 40
0.6357514530605815
 40
0.9459941297475505
 40
1.0
 40
1.0
 40
1.0
 40
1.0
 10
57.1492425831216
 20
317.8613406175118
 30
0.0
 10
57.17493243621097
 20
317.863085259256
 30
0.0
 10
57.23018152930636
 20
317.86683731941
 30
0.0
 10
57.30623346471886
 20
317.9019563583529
 30
0.0
 10
57.35998402267861
 20
317.9402812620095
 30
0.0
 10
57.37630117748805
 20
317.9702511504902
 30
0.0
 10
57.37872046550685
 20
317.9746946820359
 30
0.0
  0
LINE
  5
255
330
1F
100
AcDbEntity
  8
0
  6
Continuous
 62
     7
370
    25
100
AcDbLine
 10
57.3000423344
 20
316.661339862
 30
0.0
 11
57.1492425831
 21
316.661339862
 31
0.0
  0
LINE
  5
256
330
1F
100
AcDbEntity
  8
0
  6
Continuous
 62
     7
370
    25
100
AcDbLine
 10
57.672452155
 20
323.4613404178
 30
0.0
 11
58.3995692166
 21
323.4613404178
 31
0.0
  0
LINE
  5
257
330
1F
100
AcDbEntity
  8
0
  6
Continuous
 62
     7
370
    25
100
AcDbLine
 10
56.6928498181
 20
323.4613404178
 30
0.0
 11
57.672452155
 21
323.4613404178
 31
0.0
  0
LINE
  5
258
330
1F
100
AcDbEntity
  8
0
  6
Continuous
 62
     7
370
    25
100
AcDbLine
 10
58.3995692166
 20
323.4613404178
 30
0.0
 11
58.5000626477
 21
323.4613404178
 31
0.0
  0
LINE
  5
259
330
1F
100
AcDbEntity
  8
0
  6
Continuous
 62
     7
370
    25
100
AcDbLine
 10
47.5055090817
 20
319.0613404417
 30
0.0
 11
53.3470622929
 21
319.0613404417
 31
0.0
  0
LINE
  5
25A
330
1F
100
AcDbEntity
  8
0
  6
Continuous
 62
     7
370
    25
100
AcDbLine
 10
53.6363832386
 20
312.2613408172
 30
0.0
 11
47.7947704228
 21
312.2613408172
 31
0.0
  0
ARC
  5
25B
330
1F
100
AcDbEntity
  8
0
  6
Continuous
 62
     7
370
    25
100
AcDbCircle
 10
47.798132681
 20
312.5081264563
 30
0.0
 40
0.2468085421065678
100
AcDbArc
 50
179.2540905701
 51
269.219438839
  0
LINE
  5
25C
330
1F
100
AcDbEntity
  8
0
  6
Continuous
 62
     7
370
    25
100
AcDbLine
 10
47.2279898556
 20
318.1113401928
 30
0.0
 11
47.2279898556
 21
318.811339935
 31
0.0
  0
LINE
  5
25D
330
1F
100
AcDbEntity
  8
0
  6
Continuous
 62
     7
370
    25
100
AcDbLine
 10
47.7947704228
 20
312.2613408172
 30
0.0
 11
47.6265661152
 21
312.2613408172
 31
0.0
  0
SPLINE
  5
25E
330
1F
100
AcDbEntity
  8
0
  6
Continuous
 62
     7
370
    25
100
AcDbSpline
210
0.0
220
0.0
230
1.0
 70
     8
 71
     3
 72
    11
 73
     7
 74
     0
 42
0.000000001
 43
0.00000001
 40
0.0
 40
0.0
 40
0.0
 40
0.0
 40
0.2852809856791148
 40
0.533212287250022
 40
0.7662982970987661
 40
1.0
 40
1.0
 40
1.0
 40
1.0
 10
47.35345763286525
 20
317.8809207433205
 30
0.0
 10
47.33477233920147
 20
317.8928386037813
 30
0.0
 10
47.29984807620291
 20
317.9151140092742
 30
0.0
 10
47.25996977917247
 20
317.9716319176222
 30
0.0
 10
47.23325224004171
 20
318.0375236118884
 30
0.0
 10
47.2297455255416
 20
318.0867130388951
 30
0.0
 10
47.22798985561305
 20
318.1113401928287
 30
0.0
  0
LINE
  5
25F
330
1F
100
AcDbEntity
  8
0
  6
Continuous
 62
     7
370
    25
100
AcDbLine
 10
47.4324337872
 20
317.8613406175
 30
0.0
 11
41.2463657292
 21
317.8613406175
 31
0.0
  0
LINE
  5
260
330
1F
100
AcDbEntity
  8
0
  6
Continuous
 62
     7
370
    25
100
AcDbLine
 10
40.9305207165
 20
317.8613406175
 30
0.0
 11
40.7502762707
 21
317.8613406175
 31
0.0
  0
SPLINE
  5
261
330
1F
100
AcDbEntity
  8
0
  6
Continuous
 62
     7
370
    25
100
AcDbSpline
210
0.0
220
0.0
230
1.0
 70
     8
 71
     3
 72
    13
 73
     9
 74
     0
 42
0.000000001
 43
0.00000001
 40
0.0
 40
0.0
 40
0.0
 40
0.0
 40
0.1695362074367349
 40
0.3386217836539757
 40
0.5184784453568524
 40
0.7276654787358047
 40
0.992405201502836
 40
0.9999999999999999
 40
0.9999999999999999
 40
0.9999999999999999
 40
0.9999999999999999
 10
47.22798985561305
 20
318.8113399350386
 30
0.0
 10
47.2297494319629
 20
318.8359505482185
 30
0.0
 10
47.2332639076678
 20
318.8851063589906
 30
0.0
 10
47.25992123657385
 20
318.9512555841248
 30
0.0
 10
47.30021795896855
 20
319.0069030013017
 30
0.0
 10
47.3580790077881
 20
319.0496484066421
 30
0.0
 10
47.4053421395213
 20
319.0612187623227
 30
0.0
 10
47.43169876020359
 20
319.0613371403797
 30
0.0
 10
47.43243378719253
 20
319.0613404416781
 30
0.0
  0
LINE
  5
262
330
1F
100
AcDbEntity
  8
0
  6
Continuous
 62
     7
370
    25
100
AcDbLine
 10
40.6572930249
 20
319.0613404417
 30
0.0
 11
47.4324337872
 21
319.0613404417
 31
0.0
  0
LINE
  5
263
330
1F
100
AcDbEntity
  8
0
  6
Continuous
 62
     7
370
    25
100
AcDbLine
 10
47.4324337872
 20
319.0613404417
 30
0.0
 11
47.5055090817
 21
319.0613404417
 31
0.0
  0
LINE
  5
264
330
1F
100
AcDbEntity
  8
0
  6
Continuous
 62
     7
370
    25
100
AcDbLine
 10
56.8333975705
 20
317.8613406175
 30
0.0
 11
53.9565793904
 21
317.8613406175
 31
0.0
  0
LINE
  5
265
330
1F
100
AcDbEntity
  8
0
  6
Continuous
 62
     7
370
    25
100
AcDbLine
 10
53.274046603
 20
319.0613404417
 30
0.0
 11
57.0000521572
 21
319.0613404417
 31
0.0
  0
LINE
  5
266
330
1F
100
AcDbEntity
  8
0
  6
Continuous
 62
     7
370
    25
100
AcDbLine
 10
42.7767745884
 20
316.2147585803
 30
0.0
 11
44.241022292
 21
316.661339862
 31
0.0
  0
SPLINE
  5
267
330
1F
100
AcDbEntity
  8
0
  6
Continuous
 62
     7
370
    25
100
AcDbSpline
210
0.0
220
0.0
230
1.0
 70
     8
 71
     3
 72
     9
 73
     5
 74
     0
 42
0.000000001
 43
0.00000001
 40
0.0
 40
0.0
 40
0.0
 40
0.0
 40
0.0702082830720141
 40
0.9999999999999999
 40
0.9999999999999999
 40
0.9999999999999999
 40
0.9999999999999999
 10
44.2410222919839
 20
316.6613398620229
 30
0.0
 10
44.27574871098383
 20
316.6608939274087
 30
0.0
 10
44.77036868287942
 20
316.6545423319185
 30
0.0
 10
45.25485667663553
 20
316.4266505093143
 30
0.0
 10
45.70532960018092
 20
316.2147585803013
 30
0.0
  0
LINE
  5
268
330
1F
100
AcDbEntity
  8
0
  6
Continuous
 62
     7
370
    25
100
AcDbLine
 10
45.7053296002
 20
316.2147585803
 30
0.0
 11
45.7053296002
 21
311.9079225266
 31
0.0
  0
SPLINE
  5
269
330
1F
100
AcDbEntity
  8
0
  6
Continuous
 62
     7
370
    25
100
AcDbSpline
210
0.0
220
0.0
230
1.0
 70
     8
 71
     3
 72
     9
 73
     5
 74
     0
 42
0.000000001
 43
0.00000001
 40
0.0
 40
0.0
 40
0.0
 40
0.0
 40
0.0702082865795759
 40
1.0
 40
1.0
 40
1.0
 40
1.0
 10
44.2410222919839
 20
311.4613403135281
 30
0.0
 10
44.27574871092011
 20
311.4617865694416
 30
0.0
 10
44.77036865719719
 20
311.4681427409881
 30
0.0
 10
45.25485666514228
 20
311.6960325088453
 30
0.0
 10
45.70532960018081
 20
311.9079225265722
 30
0.0
  0
LINE
  5
26A
330
1F
100
AcDbEntity
  8
0
  6
Continuous
 62
     7
370
    25
100
AcDbLine
 10
42.7767745884
 20
311.9079225266
 30
0.0
 11
44.241022292
 21
311.4613403135
 31
0.0
  0
LINE
  5
26B
330
1F
100
AcDbEntity
  8
0
  6
Continuous
 62
     7
370
    25
100
AcDbLine
 10
42.7767745884
 20
316.2147585803
 30
0.0
 11
42.7767745884
 21
311.9079225266
 31
0.0
  0
SPLINE
  5
26C
330
1F
100
AcDbEntity
  8
0
  6
Continuous
 62
     7
370
    25
100
AcDbSpline
210
0.0
220
0.0
230
1.0
 70
     8
 71
     3
 72
     9
 73
     5
 74
     0
 42
0.000000001
 43
0.00000001
 40
0.0
 40
0.0
 40
0.0
 40
0.0
 40
0.4427718963185196
 40
1.0
 40
1.0
 40
1.0
 40
1.0
 10
45.70532960018092
 20
316.2147585803013
 30
0.0
 10
45.9470840775692
 20
316.28526421174
 30
0.0
 10
46.49308638575145
 20
316.4445011281408
 30
0.0
 10
47.0604009895359
 20
316.4906781636667
 30
0.0
 10
47.37652463039333
 20
316.5164093056064
 30
0.0
  0
SPLINE
  5
26D
330
1F
100
AcDbEntity
  8
0
  6
Continuous
 62
     7
370
    25
100
AcDbSpline
210
0.0
220
0.0
230
1.0
 70
     8
 71
     3
 72
     9
 73
     5
 74
     0
 42
0.000000001
 43
0.00000001
 40
0.0
 40
0.0
 40
0.0
 40
0.0
 40
0.2575488887229213
 40
1.0
 40
1.0
 40
1.0
 40
1.0
 10
45.70532960018092
 20
311.9079225265722
 30
0.0
 10
45.94766667498462
 20
311.8405071952137
 30
0.0
 10
46.88860288327268
 20
311.5787497801739
 30
0.0
 10
47.86617961547257
 20
311.5113679948911
 30
0.0
 10
48.59198254665309
 20
311.4613403135281
 30
0.0
  0
LINE
  5
26E
330
1F
100
AcDbEntity
  8
0
  6
Continuous
 62
     7
370
    25
100
AcDbLine
 10
48.5919825467
 20
311.4613403135
 30
0.0
 11
44.241022292
 21
311.4613403135
 31
0.0
  0
LINE
  5
26F
330
1F
100
AcDbEntity
  8
0
  6
Continuous
 62
     7
370
    25
100
AcDbLine
 10
51.4786354931
 20
312.2613408172
 30
0.0
 11
51.4786354931
 21
311.9079225266
 31
0.0
  0
SPLINE
  5
270
330
1F
100
AcDbEntity
  8
0
  6
Continuous
 62
     7
370
    25
100
AcDbSpline
210
0.0
220
0.0
230
1.0
 70
     8
 71
     3
 72
     9
 73
     5
 74
     0
 42
0.000000001
 43
0.00000001
 40
0.0
 40
0.0
 40
0.0
 40
0.0
 40
0.2686388633493351
 40
1.0
 40
1.0
 40
1.0
 40
1.0
 10
48.59198254665309
 20
311.4613403135281
 30
0.0
 10
48.85446528050941
 20
311.4679687794569
 30
0.0
 10
49.83154927566813
 20
311.4926430423173
 30
0.0
 10
50.78287374668156
 20
311.7325002710975
 30
0.0
 10
51.47863549312526
 20
311.9079225265722
 30
0.0
  0
LINE
  5
271
330
1F
100
AcDbEntity
  8
0
  6
Continuous
 62
     7
370
    25
100
AcDbLine
 10
51.4786354931
 20
311.9079225266
 30
0.0
 11
52.9009811314
 21
311.4613403135
 31
0.0
  0
LINE
  5
272
330
1F
100
AcDbEntity
  8
0
  6
Continuous
 62
     7
370
    25
100
AcDbLine
 10
52.9009811314
 20
311.4613403135
 30
0.0
 11
48.5919825467
 21
311.4613403135
 31
0.0
  0
LINE
  5
273
330
1F
100
AcDbEntity
  8
0
  6
Continuous
 62
     7
370
    25
100
AcDbLine
 10
53.8863651188
 20
316.3616579526
 30
0.0
 11
54.3233863743
 21
316.2147585803
 31
0.0
  0
LINE
  5
274
330
1F
100
AcDbEntity
  8
0
  6
Continuous
 62
     7
370
    25
100
AcDbLine
 10
54.3233863743
 20
316.2147585803
 30
0.0
 11
54.3233863743
 21
311.9079225266
 31
0.0
  0
SPLINE
  5
275
330
1F
100
AcDbEntity
  8
0
  6
Continuous
 62
     7
370
    25
100
AcDbSpline
210
0.0
220
0.0
230
1.0
 70
     8
 71
     3
 72
     9
 73
     5
 74
     0
 42
0.000000001
 43
0.00000001
 40
0.0
 40
0.0
 40
0.0
 40
0.0
 40
0.0702102983776533
 40
1.0
 40
1.0
 40
1.0
 40
1.0
 10
52.90098113140041
 20
311.4613403135281
 30
0.0
 10
52.93471362131541
 20
311.4617865469167
 30
0.0
 10
53.41516293850246
 20
311.4681422155144
 30
0.0
 10
53.88579631117219
 20
311.6960324932416
 30
0.0
 10
54.32338637432033
 20
311.9079225265722
 30
0.0
  0
LINE
  5
276
330
1F
100
AcDbEntity
  8
0
  6
Continuous
 62
     7
370
    25
100
AcDbLine
 10
44.241022292
 20
311.4613403135
 30
0.0
 11
43.5500852497
 21
311.4613403135
 31
0.0
  0
LINE
  5
277
330
1F
100
AcDbEntity
  8
0
  6
Continuous
 62
     7
370
    25
100
AcDbLine
 10
53.550075713
 20
311.4613403135
 30
0.0
 11
52.9009811314
 21
311.4613403135
 31
0.0
  0
LINE
  5
278
330
1F
100
AcDbEntity
  8
0
  6
Continuous
 62
     7
370
    25
100
AcDbLine
 10
52.4638406666
 20
328.9613401552
 30
0.0
 11
52.4638406666
 21
324.9579222442
 31
0.0
  0
SPLINE
  5
279
330
1F
100
AcDbEntity
  8
0
  6
Continuous
 62
     7
370
    25
100
AcDbSpline
210
0.0
220
0.0
230
1.0
 70
     8
 71
     3
 72
     9
 73
     5
 74
     0
 42
0.000000001
 43
0.00000001
 40
0.0
 40
0.0
 40
0.0
 40
0.0
 40
0.0702072869578612
 40
1.0
 40
1.0
 40
1.0
 40
1.0
 10
49.64752120098048
 20
324.5113400311511
 30
0.0
 10
49.71428981876657
 20
324.5117861371758
 30
0.0
 10
50.66531101156835
 20
324.5181402642759
 30
0.0
 10
51.5972917589792
 20
324.7460310511709
 30
0.0
 10
52.46384066661758
 20
324.9579222441952
 30
0.0
  0
LINE
  5
27A
330
1F
100
AcDbEntity
  8
0
  6
Continuous
 62
     7
370
    25
100
AcDbLine
 10
46.8311421307
 20
324.9579222442
 30
0.0
 11
49.647521201
 21
324.5113400312
 31
0.0
  0
LINE
  5
27B
330
1F
100
AcDbEntity
  8
0
  6
Continuous
 62
     7
370
    25
100
AcDbLine
 10
46.8311421307
 20
328.9613401552
 30
0.0
 11
46.8311421307
 21
324.9579222442
 31
0.0
  0
SPLINE
  5
27C
330
1F
100
AcDbEntity
  8
0
  6
Continuous
 62
     7
370
    25
100
AcDbSpline
210
0.0
220
0.0
230
1.0
 70
     8
 71
     3
 72
     9
 73
     5
 74
     0
 42
0.000000001
 43
0.00000001
 40
0.0
 40
0.0
 40
0.0
 40
0.0
 40
0.2686379937258058
 40
1.0
 40
1.0
 40
1.0
 40
1.0
 10
44.87426203807765
 20
324.5113400311511
 30
0.0
 10
45.05220542642774
 20
324.5179687274938
 30
0.0
 10
45.71459642288423
 20
324.5426439279402
 30
0.0
 10
46.3594908492192
 20
324.7825003616323
 30
0.0
 10
46.83114213069839
 20
324.9579222441952
 30
0.0
  0
LINE
  5
27D
330
1F
100
AcDbEntity
  8
0
  6
Continuous
 62
     7
370
    25
100
AcDbLine
 10
49.647521201
 20
324.5113400312
 30
0.0
 11
44.8742620381
 21
324.5113400312
 31
0.0
  0
LINE
  5
27E
330
1F
100
AcDbEntity
  8
0
  6
Continuous
 62
     7
370
    25
100
AcDbLine
 10
52.4638406666
 20
324.9579222442
 30
0.0
 11
53.3233396443
 21
324.5113400312
 31
0.0
  0
LINE
  5
27F
330
1F
100
AcDbEntity
  8
0
  6
Continuous
 62
     7
370
    25
100
AcDbLine
 10
53.3233396443
 20
324.5113400312
 30
0.0
 11
49.647521201
 21
324.5113400312
 31
0.0
  0
SPLINE
  5
280
330
1F
100
AcDbEntity
  8
0
  6
Continuous
 62
     7
370
    25
100
AcDbSpline
210
0.0
220
0.0
230
1.0
 70
     8
 71
     3
 72
     9
 73
     5
 74
     0
 42
0.000000001
 43
0.00000001
 40
0.0
 40
0.0
 40
0.0
 40
0.0
 40
0.257548651201714
 40
1.0
 40
1.0
 40
1.0
 40
1.0
 10
42.9173819454568
 20
324.9579222441952
 30
0.0
 10
43.08165873844294
 20
324.8905069120426
 30
0.0
 10
43.71950635371735
 20
324.6287492525166
 30
0.0
 10
44.38222539327996
 20
324.5613676171863
 30
0.0
 10
44.87426203807765
 20
324.5113400311511
 30
0.0
  0
LINE
  5
281
330
1F
100
AcDbEntity
  8
0
  6
Continuous
 62
     7
370
    25
100
AcDbLine
 10
42.9173819455
 20
328.9613401552
 30
0.0
 11
42.9173819455
 21
324.9579222442
 31
0.0
  0
LINE
  5
282
330
1F
100
AcDbEntity
  8
0
  6
Continuous
 62
     7
370
    25
100
AcDbLine
 10
54.1827790173
 20
328.9613401552
 30
0.0
 11
54.1827790173
 21
324.9579222442
 31
0.0
  0
SPLINE
  5
283
330
1F
100
AcDbEntity
  8
0
  6
Continuous
 62
     7
370
    25
100
AcDbSpline
210
0.0
220
0.0
230
1.0
 70
     8
 71
     3
 72
     9
 73
     5
 74
     0
 42
0.000000001
 43
0.00000001
 40
0.0
 40
0.0
 40
0.0
 40
0.0
 40
0.0702081336340494
 40
1.0
 40
1.0
 40
1.0
 40
1.0
 10
53.32333964427882
 20
324.5113400311511
 30
0.0
 10
53.34371406778371
 20
324.5117861276962
 30
0.0
 10
53.63391439715082
 20
324.5181400431482
 30
0.0
 10
53.91833088252951
 20
324.7460310446142
 30
0.0
 10
54.18277901729518
 20
324.9579222441952
 30
0.0
  0
LINE
  5
284
330
1F
100
AcDbEntity
  8
0
  6
Continuous
 62
     7
370
    25
100
AcDbLine
 10
43.312441531
 20
324.7381357045
 30
0.0
 11
42.9173819455
 21
324.9579222442
 31
0.0
  0
LINE
  5
285
330
1F
100
AcDbEntity
  8
0
  6
Continuous
 62
     7
370
    25
100
AcDbLine
 10
44.8742620381
 20
324.5113400312
 30
0.0
 11
43.5500852497
 21
324.5113400312
 31
0.0
  0
LINE
  5
286
330
1F
100
AcDbEntity
  8
0
  6
Continuous
 62
     7
370
    25
100
AcDbLine
 10
53.550075713
 20
324.5113400312
 30
0.0
 11
53.3233396443
 21
324.5113400312
 31
0.0
  0
LINE
  5
287
330
1F
100
AcDbEntity
  8
0
  6
Continuous
 62
     7
370
    25
100
AcDbLine
 10
49.6604554089
 20
323.8147582428
 30
0.0
 11
51.8362037571
 21
324.2613399902
 31
0.0
  0
SPLINE
  5
288
330
1F
100
AcDbEntity
  8
0
  6
Continuous
 62
     7
370
    25
100
AcDbSpline
210
0.0
220
0.0
230
1.0
 70
     8
 71
     3
 72
     9
 73
     5
 74
     0
 42
0.000000001
 43
0.00000001
 40
0.0
 40
0.0
 40
0.0
 40
0.0
 40
0.0701874405504341
 40
1.0
 40
1.0
 40
1.0
 40
1.0
 10
51.83620375713283
 20
324.2613399901729
 30
0.0
 10
51.88776591639999
 20
324.2608938226498
 30
0.0
 10
52.62240104289517
 20
324.2545370226362
 30
0.0
 10
53.34241473076595
 20
324.0266502376256
 30
0.0
 10
54.01189250072402
 20
323.81475824279
 30
0.0
  0
LINE
  5
289
330
1F
100
AcDbEntity
  8
0
  6
Continuous
 62
     7
370
    25
100
AcDbLine
 10
54.0118925007
 20
323.8147582428
 30
0.0
 11
54.0118925007
 21
319.5079226547
 31
0.0
  0
SPLINE
  5
28A
330
1F
100
AcDbEntity
  8
0
  6
Continuous
 62
     7
370
    25
100
AcDbSpline
210
0.0
220
0.0
230
1.0
 70
     8
 71
     3
 72
     9
 73
     5
 74
     0
 42
0.000000001
 43
0.00000001
 40
0.0
 40
0.0
 40
0.0
 40
0.0
 40
0.0701874387234786
 40
1.0
 40
1.0
 40
1.0
 40
1.0
 10
51.83620375713283
 20
319.0613404416781
 30
0.0
 10
51.88776591644928
 20
319.0617866088103
 30
0.0
 10
52.62240106276938
 20
319.0681434034223
 30
0.0
 10
53.34241473966017
 20
319.2960304325175
 30
0.0
 10
54.01189250072414
 20
319.5079226547222
 30
0.0
  0
LINE
  5
28B
330
1F
100
AcDbEntity
  8
0
  6
Continuous
 62
     7
370
    25
100
AcDbLine
 10
49.6604554089
 20
319.5079226547
 30
0.0
 11
51.8362037571
 21
319.0613404417
 31
0.0
  0
LINE
  5
28C
330
1F
100
AcDbEntity
  8
0
  6
Continuous
 62
     7
370
    25
100
AcDbLine
 10
49.6604554089
 20
323.8147582428
 30
0.0
 11
49.6604554089
 21
319.5079226547
 31
0.0
  0
SPLINE
  5
28D
330
1F
100
AcDbEntity
  8
0
  6
Continuous
 62
     7
370
    25
100
AcDbSpline
210
0.0
220
0.0
230
1.0
 70
     8
 71
     3
 72
     9
 73
     5
 74
     0
 42
0.000000001
 43
0.00000001
 40
0.0
 40
0.0
 40
0.0
 40
0.0
 40
0.2686219082264212
 40
1.0
 40
1.0
 40
1.0
 40
1.0
 10
46.92954939922267
 20
324.2613399901729
 30
0.0
 10
47.17785208856063
 20
324.2547104226624
 30
0.0
 10
48.10220963995193
 20
324.2300305015262
 30
0.0
 10
49.00221280872741
 20
323.9901797949074
 30
0.0
 10
49.66045540889674
 20
323.81475824279
 30
0.0
  0
LINE
  5
28E
330
1F
100
AcDbEntity
  8
0
  6
Continuous
 62
     7
370
    25
100
AcDbLine
 10
46.9295493992
 20
324.2613399902
 30
0.0
 11
51.8362037571
 21
324.2613399902
 31
0.0
  0
SPLINE
  5
28F
330
1F
100
AcDbEntity
  8
0
  6
Continuous
 62
     7
370
    25
100
AcDbSpline
210
0.0
220
0.0
230
1.0
 70
     8
 71
     3
 72
     9
 73
     5
 74
     0
 42
0.000000001
 43
0.00000001
 40
0.0
 40
0.0
 40
0.0
 40
0.0
 40
0.2686218865750687
 40
1.0
 40
1.0
 40
1.0
 40
1.0
 10
46.92954939922267
 20
319.0613404416781
 30
0.0
 10
47.17785209211567
 20
319.0679698189684
 30
0.0
 10
48.10220973124524
 20
319.0926490339609
 30
0.0
 10
49.00221283603734
 20
319.3325005242514
 30
0.0
 10
49.66045540889674
 20
319.5079226547222
 30
0.0
  0
SPLINE
  5
290
330
1F
100
AcDbEntity
  8
0
  6
Continuous
 62
     7
370
    25
100
AcDbSpline
210
0.0
220
0.0
230
1.0
 70
     8
 71
     3
 72
     9
 73
     5
 74
     0
 42
0.000000001
 43
0.00000001
 40
0.0
 40
0.0
 40
0.0
 40
0.0
 40
0.2575491794510686
 40
1.0
 40
1.0
 40
1.0
 40
1.0
 10
44.19858378490382
 20
323.81475824279
 30
0.0
 10
44.4278516165183
 20
323.8821733979676
 30
0.0
 10
45.31804211179868
 20
324.1439298334618
 30
0.0
 10
46.24289305646767
 20
324.2113120260186
 30
0.0
 10
46.92954939922267
 20
324.2613399901729
 30
0.0
  0
SPLINE
  5
291
330
1F
100
AcDbEntity
  8
0
  6
Continuous
 62
     7
370
    25
100
AcDbSpline
210
0.0
220
0.0
230
1.0
 70
     8
 71
     3
 72
     9
 73
     5
 74
     0
 42
0.000000001
 43
0.00000001
 40
0.0
 40
0.0
 40
0.0
 40
0.0
 40
0.2575492091354179
 40
1.0
 40
1.0
 40
1.0
 40
1.0
 10
44.19858378490382
 20
319.5079226547222
 30
0.0
 10
44.42785161171259
 20
319.4405073244351
 30
0.0
 10
45.31804198573186
 20
319.1787502392027
 30
0.0
 10
46.24289301850681
 20
319.1113682516366
 30
0.0
 10
46.92954939922267
 20
319.0613404416781
 30
0.0
  0
LINE
  5
292
330
1F
100
AcDbEntity
  8
0
  6
Continuous
 62
     7
370
    25
100
AcDbLine
 10
44.1985837849
 20
323.8147582428
 30
0.0
 11
44.1985837849
 21
319.5079226547
 31
0.0
  0
SPLINE
  5
293
330
1F
100
AcDbEntity
  8
0
  6
Continuous
 62
     7
370
    25
100
AcDbSpline
210
0.0
220
0.0
230
1.0
 70
     8
 71
     3
 72
     9
 73
     5
 74
     0
 42
0.000000001
 43
0.00000001
 40
0.0
 40
0.0
 40
0.0
 40
0.0
 40
0.0702009922277017
 40
1.0
 40
1.0
 40
1.0
 40
1.0
 10
43.64342612346584
 20
319.0613404416781
 30
0.0
 10
43.65658499302128
 20
319.0617864570954
 30
0.0
 10
43.8440306278749
 20
319.0681398632682
 30
0.0
 10
44.02775606021303
 20
319.2960303273439
 30
0.0
 10
44.19858378490382
 20
319.5079226547222
 30
0.0
  0
SPLINE
  5
294
330
1F
100
AcDbEntity
  8
0
  6
Continuous
 62
     7
370
    25
100
AcDbSpline
210
0.0
220
0.0
230
1.0
 70
     8
 71
     3
 72
     9
 73
     5
 74
     0
 42
0.000000001
 43
0.00000001
 40
0.0
 40
0.0
 40
0.0
 40
0.0
 40
0.0702009940550078
 40
1.0
 40
1.0
 40
1.0
 40
1.0
 10
43.64342612346584
 20
324.2613399901729
 30
0.0
 10
43.65658499300873
 20
324.2608939743646
 30
0.0
 10
43.84403062280351
 20
324.2545405627889
 30
0.0
 10
44.02775605794351
 20
324.0266503428002
 30
0.0
 10
44.19858378490382
 20
323.81475824279
 30
0.0
  0
LINE
  5
295
330
1F
100
AcDbEntity
  8
0
  6
Continuous
 62
     7
370
    25
100
AcDbLine
 10
43.6434261235
 20
324.2613399902
 30
0.0
 11
46.9295493992
 21
324.2613399902
 31
0.0
  0
LINE
  5
296
330
1F
100
AcDbEntity
  8
0
  6
Continuous
 62
     7
370
    25
100
AcDbLine
 10
54.0118925007
 20
323.8147582428
 30
0.0
 11
53.4567348393
 21
324.2613399902
 31
0.0
  0
LINE
  5
297
330
1F
100
AcDbEntity
  8
0
  6
Continuous
 62
     7
370
    25
100
AcDbLine
 10
51.8362037571
 20
324.2613399902
 30
0.0
 11
53.5402409466
 21
324.2613399902
 31
0.0
  0
LINE
  5
298
330
1F
100
AcDbEntity
  8
0
  6
Continuous
 62
     7
370
    25
100
AcDbLine
 10
54.0118925007
 20
319.5079226547
 30
0.0
 11
53.4567348393
 21
319.0613404417
 31
0.0
  0
LINE
  5
299
330
1F
100
AcDbEntity
  8
0
  6
Continuous
 62
     7
370
    25
100
AcDbLine
 10
43.0882088574
 20
323.8147582428
 30
0.0
 11
43.6434261235
 21
324.2613399902
 31
0.0
  0
LINE
  5
29A
330
1F
100
AcDbEntity
  8
0
  6
Continuous
 62
     7
370
    25
100
AcDbLine
 10
43.0882088574
 20
319.5079226547
 30
0.0
 11
43.6434261235
 21
319.0613404417
 31
0.0
  0
LINE
  5
29B
330
1F
100
AcDbEntity
  8
0
  6
Continuous
 62
     7
370
    25
100
AcDbLine
 10
43.0882088574
 20
323.8147582428
 30
0.0
 11
43.0882088574
 21
319.5079226547
 31
0.0
  0
LINE
  5
29C
330
1F
100
AcDbEntity
  8
0
  6
Continuous
 62
     7
370
    25
100
AcDbLine
 10
35.008978072
 20
607.6613400632
 30
0.0
 11
50.0089637669
 21
607.6613400632
 31
0.0
  0
LINE
  5
29D
330
1F
100
AcDbEntity
  8
0
  6
Continuous
 62
     7
370
    25
100
AcDbLine
 10
35.008978072
 20
607.6613400632
 30
0.0
 11
50.0089637669
 21
607.6613400632
 31
0.0
  0
LINE
  5
29E
330
1F
100
AcDbEntity
  8
0
  6
Continuous
 62
     7
370
    25
100
AcDbLine
 10
9.258937064
 20
593.3613513165
 30
0.0
 11
9.258937064
 21
594.1613350564
 31
0.0
  0
LINE
  5
29F
330
1F
100
AcDbEntity
  8
0
  6
Continuous
 62
     7
370
    25
100
AcDbLine
 10
75.7589451702
 20
594.1613350564
 30
0.0
 11
75.7589451702
 21
593.3613513165
 31
0.0
  0
LINE
  5
2A0
330
1F
100
AcDbEntity
  8
0
  6
Continuous
 62
     7
370
    25
100
AcDbLine
 10
77.7589790257
 20
591.363344019
 30
0.0
 11
77.7589790257
 21
578.7613425904
 31
0.0
  0
LINE
  5
2A1
330
1F
100
AcDbEntity
  8
0
  6
Continuous
 62
     7
370
    25
100
AcDbLine
 10
75.7589451702
 20
593.3613513165
 30
0.0
 11
75.7609717282
 21
593.3613513165
 31
0.0
  0
LINE
  5
2A2
330
1F
100
AcDbEntity
  8
0
  6
Continuous
 62
     7
370
    25
100
AcDbLine
 10
7.2589628132
 20
580.561343258
 30
0.0
 11
7.2589628132
 21
591.363344019
 31
0.0
  0
LINE
  5
2A3
330
1F
100
AcDbEntity
  8
0
  6
Continuous
 62
     7
370
    25
100
AcDbLine
 10
75.7589451702
 20
591.8613408261
 30
0.0
 11
75.7589451702
 21
593.3613513165
 31
0.0
  0
LINE
  5
2A4
330
1F
100
AcDbEntity
  8
0
  6
Continuous
 62
     7
370
    25
100
AcDbLine
 10
20.2589742573
 20
578.7613425904
 30
0.0
 11
20.2589742573
 21
578.5613392049
 31
0.0
  0
LINE
  5
2A5
330
1F
100
AcDbEntity
  8
0
  6
Continuous
 62
     7
370
    25
100
AcDbLine
 10
9.2569701107
 20
593.3613513165
 30
0.0
 11
9.258937064
 21
593.3613513165
 31
0.0
  0
LINE
  5
2A6
330
1F
100
AcDbEntity
  8
0
  6
Continuous
 62
     7
370
    25
100
AcDbLine
 10
20.2589742573
 20
578.5613392049
 30
0.0
 11
9.258937064
 21
578.5613392049
 31
0.0
  0
ARC
  5
2A7
330
1F
100
AcDbEntity
  8
0
  6
Continuous
 62
     7
370
    25
100
AcDbCircle
 10
9.2589612533
 20
580.5613402062
 30
0.0
 40
2.000000000000002
100
AcDbArc
 50
180.0
 51
270.0
  0
LINE
  5
2A8
330
1F
100
AcDbEntity
  8
0
  6
Continuous
 62
     7
370
    25
100
AcDbLine
 10
9.258937064
 20
593.3613513165
 30
0.0
 11
9.258937064
 21
591.8613408261
 31
0.0
  0
ARC
  5
2A9
330
1F
100
AcDbEntity
  8
0
  6
Continuous
 62
     7
370
    25
100
AcDbCircle
 10
75.7609612533
 20
591.3633402062
 30
0.0
 40
1.998000000000062
100
AcDbArc
 50
0.0
 51
90.0
  0
ARC
  5
2AA
330
1F
100
AcDbEntity
  8
0
  6
Continuous
 62
     7
370
    25
100
AcDbCircle
 10
9.2569612533
 20
591.3633402062
 30
0.0
 40
1.998000000000056
100
AcDbArc
 50
90.0
 51
180.0
  0
LINE
  5
2AB
330
1F
100
AcDbEntity
  8
0
  6
Continuous
 62
     7
370
    25
100
AcDbLine
 10
77.7589790257
 20
576.461333459
 30
0.0
 11
20.2589742573
 21
576.461333459
 31
0.0
  0
LINE
  5
2AC
330
1F
100
AcDbEntity
  8
0
  6
Continuous
 62
     7
370
    25
100
AcDbLine
 10
20.2589742573
 20
576.461333459
 30
0.0
 11
20.2589742573
 21
578.5613392049
 31
0.0
  0
LINE
  5
2AD
330
1F
100
AcDbEntity
  8
0
  6
Continuous
 62
     7
370
    25
100
AcDbLine
 10
77.7589790257
 20
578.7613425904
 30
0.0
 11
77.7589790257
 21
576.461333459
 31
0.0
  0
LINE
  5
2AE
330
1F
100
AcDbEntity
  8
0
  6
Continuous
 62
     7
370
    25
100
AcDbLine
 10
869.6164637538
 20
480.504635399
 30
0.0
 11
869.6149401101
 21
480.5078987533
 31
0.0
  0
LWPOLYLINE
  5
2AF
330
1F
100
AcDbEntity
  8
0
  6
Continuous
 62
     7
370
    25
100
AcDbPolyline
 90
       31
 70
   128
 43
0.0
 10
897.0851264628
 20
421.5978939587
 10
897.0297537478
 20
421.7166562134
 10
896.8260176214
 20
422.1535582596
 10
896.4746407898
 20
422.90709508
 10
895.9794677528
 20
423.9689965301
 10
895.3459225329
 20
425.3276397043
 10
894.5809416207
 20
426.9681308919
 10
893.6929218205
 20
428.872506743
 10
892.6915786894
 20
431.019890731
 10
891.5878943833
 20
433.3867613727
 10
890.3939462932
 20
435.9471831971
 10
889.1228250893
 20
438.6731047684
 10
887.7884559067
 20
441.53467161
 10
886.4054642352
 20
444.500509327
 10
884.9889896544
 20
447.5381482893
 10
883.5545591744
 20
450.6142918521
 10
882.1178935202
 20
453.6952335888
 10
880.6947208675
 20
456.7472372704
 10
879.300642732
 20
459.7368423396
 10
877.950932804
 20
462.6313034945
 10
876.6603730353
 20
465.3989259654
 10
875.4431120785
 20
468.0093560868
 10
874.3124790223
 20
470.4340134316
 10
873.2808567317
 20
472.6463143283
 10
872.3595589133
 20
474.6220443898
 10
871.5586773785
 20
476.339552229
 10
870.8869814607
 20
477.7800027781
 10
870.3518360587
 20
478.9276306087
 10
869.959097329
 20
479.7698591405
 10
869.7130754324
 20
480.2974496537
 10
869.6164637538
 20
480.504635399
  0
LWPOLYLINE
  5
2B0
330
1F
100
AcDbEntity
  8
0
  6
Continuous
 62
     7
370
    25
100
AcDbPolyline
 90
        7
 70
   128
 43
0.0
 10
882.4978805812
 20
476.5423570329
 10
881.7630670699
 20
478.1181697303
 10
881.1758123072
 20
479.3775562697
 10
880.7442374261
 20
480.3030673915
 10
880.4743252428
 20
480.8818880969
 10
880.36983085
 20
481.1059866601
 10
880.3684897455
 20
481.108847683
  0
LWPOLYLINE
  5
2B1
330
1F
100
AcDbEntity
  8
0
  6
Continuous
 62
     7
370
    25
100
AcDbPolyline
 90
        6
 70
   128
 43
0.0
 10
904.4577292832
 20
429.4493083411
 10
904.3940417202
 20
429.585884934
 10
904.1657037767
 20
430.0755668932
 10
903.7745333942
 20
430.9144352132
 10
903.225962046
 20
432.0908520871
 10
902.5275744232
 20
433.5885379964
  0
LINE
  5
2B2
330
1F
100
AcDbEntity
  8
0
  6
Continuous
 62
     7
370
    25
100
AcDbLine
 10
878.3719502123
 20
469.5520435029
 30
0.0
 11
877.951588455
 21
470.4551730805
 31
0.0
  0
LINE
  5
2B3
330
1F
100
AcDbEntity
  8
0
  6
Continuous
 62
     7
370
    25
100
AcDbLine
 10
879.2815319928
 20
469.340730136
 30
0.0
 11
878.3719502123
 21
469.5520435029
 31
0.0
  0
LINE
  5
2B4
330
1F
100
AcDbEntity
  8
0
  6
Continuous
 62
     7
370
    25
100
AcDbLine
 10
882.4220709237
 20
470.6752632314
 30
0.0
 11
878.9793438943
 21
470.0061563903
 31
0.0
  0
SPLINE
  5
2B5
330
1F
100
AcDbEntity
  8
0
  6
Continuous
 62
     7
370
    25
100
AcDbSpline
210
0.0
220
0.0
230
1.0
 70
     8
 71
     3
 72
     9
 73
     5
 74
     0
 42
0.000000001
 43
0.00000001
 40
0.0
 40
0.0
 40
0.0
 40
0.0
 40
0.4990735959101715
 40
1.0
 40
1.0
 40
1.0
 40
1.0
 10
890.406567576732
 20
445.7288418465595
 30
0.0
 10
890.4908413334132
 20
445.7232731165911
 30
0.0
 10
890.6597017126674
 20
445.7121149827727
 30
0.0
 10
890.8163845887669
 20
445.7886400279154
 30
0.0
 10
890.8948711784737
 20
445.8269734436016
 30
0.0
  0
SPLINE
  5
2B6
330
1F
100
AcDbEntity
  8
0
  6
Continuous
 62
     7
370
    25
100
AcDbSpline
210
0.0
220
0.0
230
1.0
 70
     8
 71
     3
 72
     9
 73
     5
 74
     0
 42
0.000000001
 43
0.00000001
 40
0.0
 40
0.0
 40
0.0
 40
0.0
 40
0.8568415981855093
 40
1.0
 40
1.0
 40
1.0
 40
1.0
 10
891.6972316535371
 20
446.7810351901989
 30
0.0
 10
891.4602500474845
 20
446.8666250201092
 30
0.0
 10
891.1836742993478
 20
446.9665149298561
 30
0.0
 10
890.8931386688367
 20
446.9692153471084
 30
0.0
 10
890.8515460523026
 20
446.9696019345265
 30
0.0
  0
LINE
  5
2B7
330
1F
100
AcDbEntity
  8
0
  6
Continuous
 62
     7
370
    25
100
AcDbLine
 10
893.3845497402
 20
446.2312419468
 30
0.0
 11
891.6972316535
 21
446.7810351902
 31
0.0
  0
LINE
  5
2B8
330
1F
100
AcDbEntity
  8
0
  6
Continuous
 62
     7
370
    25
100
AcDbLine
 10
891.8073586853
 20
448.7823207432
 30
0.0
 11
892.4417458208
 21
449.1553191596
 31
0.0
  0
LINE
  5
2B9
330
1F
100
AcDbEntity
  8
0
  6
Continuous
 62
     7
370
    25
100
AcDbLine
 10
892.4772329362
 20
447.3760087543
 30
0.0
 11
891.8073586853
 21
448.7823207432
 31
0.0
  0
SPLINE
  5
2BA
330
1F
100
AcDbEntity
  8
0
  6
Continuous
 62
     7
370
    25
100
AcDbSpline
210
0.0
220
0.0
230
1.0
 70
     8
 71
     3
 72
     9
 73
     5
 74
     0
 42
0.000000001
 43
0.00000001
 40
0.0
 40
0.0
 40
0.0
 40
0.0
 40
0.5484387358901147
 40
1.0
 40
1.0
 40
1.0
 40
1.0
 10
889.8314796121972
 20
447.5804303341847
 30
0.0
 10
889.9925673129042
 20
447.6522712620934
 30
0.0
 10
890.2862878146944
 20
447.7832629722107
 30
0.0
 10
890.6017945307502
 20
447.7791324202429
 30
0.0
 10
890.7442651422875
 20
447.7772672229748
 30
0.0
  0
SPLINE
  5
2BB
330
1F
100
AcDbEntity
  8
0
  6
Continuous
 62
     7
370
    25
100
AcDbSpline
210
0.0
220
0.0
230
1.0
 70
     8
 71
     3
 72
    12
 73
     8
 74
     0
 42
0.000000001
 43
0.00000001
 40
0.0
 40
0.0
 40
0.0
 40
0.0
 40
0.2500597589900198
 40
0.3754523457159056
 40
0.500860704879818
 40
0.7505750405732932
 40
1.0
 40
1.0
 40
1.0
 40
1.0
 10
889.3547467621224
 20
445.7140896969776
 30
0.0
 10
889.2917477784376
 20
445.8795653544626
 30
0.0
 10
889.1971579240055
 20
446.1280188601868
 30
0.0
 10
889.189699544738
 20
446.4901956578336
 30
0.0
 10
889.244776689213
 20
446.843578063536
 30
0.0
 10
889.4330213136247
 20
447.2614695866921
 30
0.0
 10
889.6987115240191
 20
447.4741511857765
 30
0.0
 10
889.8314796121972
 20
447.5804303341847
 30
0.0
  0
SPLINE
  5
2BC
330
1F
100
AcDbEntity
  8
0
  6
Continuous
 62
     7
370
    25
100
AcDbSpline
210
0.0
220
0.0
230
1.0
 70
     8
 71
     3
 72
    11
 73
     7
 74
     0
 42
0.000000001
 43
0.00000001
 40
0.0
 40
0.0
 40
0.0
 40
0.0
 40
0.2003183940075066
 40
0.401555839492726
 40
0.6009091722226115
 40
1.0
 40
1.0
 40
1.0
 40
1.0
 10
890.4237113626855
 20
444.8974390083294
 30
0.0
 10
890.3332231790162
 20
444.9100002674236
 30
0.0
 10
890.1518316560981
 20
444.9351804160847
 30
0.0
 10
889.8995793193152
 20
445.0530655387306
 30
0.0
 10
889.5988333445008
 20
445.2825297719306
 30
0.0
 10
889.4524001951897
 20
445.5414324872102
 30
0.0
 10
889.3547467621224
 20
445.7140896969776
 30
0.0
  0
SPLINE
  5
2BD
330
1F
100
AcDbEntity
  8
0
  6
Continuous
 62
     7
370
    25
100
AcDbSpline
210
0.0
220
0.0
230
1.0
 70
     8
 71
     3
 72
    12
 73
     8
 74
     0
 42
0.000000001
 43
0.00000001
 40
0.0
 40
0.0
 40
0.0
 40
0.0
 40
0.1253370531298622
 40
0.2505905051575393
 40
0.5003921854198871
 40
0.7501463002724885
 40
1.0
 40
1.0
 40
1.0
 40
1.0
 10
898.7806476386445
 20
427.3006577545147
 30
0.0
 10
898.7869375019172
 20
427.2902976993851
 30
0.0
 10
898.7995130330595
 20
427.2695844993892
 30
0.0
 10
898.8397519774378
 20
427.245321801668
 30
0.0
 10
898.9128558930079
 20
427.2458004862982
 30
0.0
 10
899.0235836223069
 20
427.2848525362477
 30
0.0
 10
899.1088706338588
 20
427.3458902952927
 30
0.0
 10
899.1515226395982
 20
427.3764152580242
 30
0.0
  0
LINE
  5
2BE
330
1F
100
AcDbEntity
  8
0
  6
Continuous
 62
     7
370
    25
100
AcDbLine
 10
899.520684007
 20
427.8656650835
 30
0.0
 11
899.46438742
 21
427.9256571585
 31
0.0
  0
SPLINE
  5
2BF
330
1F
100
AcDbEntity
  8
0
  6
Continuous
 62
     7
370
    25
100
AcDbSpline
210
0.0
220
0.0
230
1.0
 70
     8
 71
     3
 72
    12
 73
     8
 74
     0
 42
0.000000001
 43
0.00000001
 40
0.0
 40
0.0
 40
0.0
 40
0.0
 40
0.2503961906863998
 40
0.4996919122678902
 40
0.6248623211927525
 40
0.7501961751043787
 40
1.0
 40
1.0
 40
1.0
 40
1.0
 10
900.5893505843537
 20
428.7283082061749
 30
0.0
 10
900.6488600790401
 20
428.7975947672357
 30
0.0
 10
900.7676175294484
 20
428.9358633810514
 30
0.0
 10
900.8870451649531
 20
429.1210692988076
 30
0.0
 10
900.9431025629932
 20
429.2542107072896
 30
0.0
 10
900.9732719062729
 20
429.3741018174567
 30
0.0
 10
900.9565359420551
 20
429.4341217535837
 30
0.0
 10
900.9453914793389
 20
429.4740889721851
 30
0.0
  0
LINE
  5
2C0
330
1F
100
AcDbEntity
  8
0
  6
Continuous
 62
     7
370
    25
100
AcDbLine
 10
900.7193036111
 20
428.4242798143
 30
0.0
 11
900.5893505844
 21
428.7283082062
 31
0.0
  0
SPLINE
  5
2C1
330
1F
100
AcDbEntity
  8
0
  6
Continuous
 62
     7
370
    25
100
AcDbSpline
210
0.0
220
0.0
230
1.0
 70
     8
 71
     3
 72
    15
 73
    11
 74
     0
 42
0.000000001
 43
0.00000001
 40
0.0
 40
0.0
 40
0.0
 40
0.0
 40
0.0729695262582585
 40
0.1459132736202566
 40
0.2915511052899172
 40
0.4371777648759506
 40
0.5829139316714466
 40
0.72860843730808
 40
0.8743357503858311
 40
1.0
 40
1.0
 40
1.0
 40
1.0
 10
900.1874141128915
 20
429.6223555260639
 30
0.0
 10
900.2224238607002
 20
429.6565763481238
 30
0.0
 10
900.2924309879676
 20
429.7250059026074
 30
0.0
 10
900.4363141353465
 20
429.8495849372302
 30
0.0
 10
900.6189851514924
 20
429.9852400007123
 30
0.0
 10
900.8303754531541
 20
430.1001186509421
 30
0.0
 10
901.0257902047324
 20
430.1712393263547
 30
0.0
 10
901.1943260053592
 20
430.1938924962779
 30
0.0
 10
901.3360220950053
 20
430.1826906415092
 30
0.0
 10
901.3820864399431
 20
430.123602316503
 30
0.0
 10
901.4034159215348
 20
430.0962422543507
 30
0.0
  0
SPLINE
  5
2C2
330
1F
100
AcDbEntity
  8
0
  6
Continuous
 62
     7
370
    25
100
AcDbSpline
210
0.0
220
0.0
230
1.0
 70
     8
 71
     3
 72
    11
 73
     7
 74
     0
 42
0.000000001
 43
0.00000001
 40
0.0
 40
0.0
 40
0.0
 40
0.0
 40
0.2502113617359931
 40
0.5001028207046694
 40
0.749901978195932
 40
1.0
 40
1.0
 40
1.0
 40
1.0
 10
899.5667583974259
 20
428.478601997469
 30
0.0
 10
899.5747294765946
 20
428.5581523407848
 30
0.0
 10
899.590661443667
 20
428.7171513199048
 30
0.0
 10
899.7205248719704
 20
429.0212133987146
 30
0.0
 10
899.9231287426798
 20
429.3400664588745
 30
0.0
 10
900.0992838846116
 20
429.5282216740372
 30
0.0
 10
900.1874141128915
 20
429.6223555260639
 30
0.0
  0
SPLINE
  5
2C3
330
1F
100
AcDbEntity
  8
0
  6
Continuous
 62
     7
370
    25
100
AcDbSpline
210
0.0
220
0.0
230
1.0
 70
     8
 71
     3
 72
    12
 73
     8
 74
     0
 42
0.000000001
 43
0.00000001
 40
0.0
 40
0.0
 40
0.0
 40
0.0
 40
0.1252587926962999
 40
0.2504298788717143
 40
0.5000711217662862
 40
0.7498600943309873
 40
1.0
 40
1.0
 40
1.0
 40
1.0
 10
898.7799323829072
 20
428.0748401337605
 30
0.0
 10
898.8154970413783
 20
428.1089239141783
 30
0.0
 10
898.8866014558573
 20
428.1770676094656
 30
0.0
 10
899.0330332927732
 20
428.2957193584476
 30
0.0
 10
899.2149601401084
 20
428.4085103599932
 30
0.0
 10
899.4127141906763
 20
428.4800974304881
 30
0.0
 10
899.5153863043963
 20
428.4791007083637
 30
0.0
 10
899.5667583974259
 20
428.478601997469
 30
0.0
  0
SPLINE
  5
2C4
330
1F
100
AcDbEntity
  8
0
  6
Continuous
 62
     7
370
    25
100
AcDbSpline
210
0.0
220
0.0
230
1.0
 70
     8
 71
     3
 72
    13
 73
     9
 74
     0
 42
0.000000001
 43
0.00000001
 40
0.0
 40
0.0
 40
0.0
 40
0.0
 40
0.249734020540794
 40
0.4990969305604742
 40
0.6243728160282519
 40
0.7495631874345401
 40
0.8747432281690777
 40
1.0
 40
1.0
 40
1.0
 40
1.0
 10
898.2032946976083
 20
426.7392863088589
 30
0.0
 10
898.1829760789033
 20
426.8113870021165
 30
0.0
 10
898.1423690354297
 20
426.9554812453367
 30
0.0
 10
898.2277980204859
 20
427.25138828961
 30
0.0
 10
898.3479810394495
 20
427.5052270505824
 30
0.0
 10
898.4666128209202
 20
427.7027594884933
 30
0.0
 10
898.6122692953082
 20
427.8984975543968
 30
0.0
 10
898.7240332726215
 20
428.0160472686576
 30
0.0
 10
898.7799323829072
 20
428.0748401337605
 30
0.0
  0
LINE
  5
2C5
330
1F
100
AcDbEntity
  8
0
  6
Continuous
 62
     7
370
    25
100
AcDbLine
 10
898.2849381598
 20
426.6715232783
 30
0.0
 11
898.2032946976
 21
426.7392863089
 31
0.0
  0
LINE
  5
2C6
330
1F
100
AcDbEntity
  8
0
  6
Continuous
 62
     7
370
    25
100
AcDbLine
 10
877.6060230764
 20
480.9514318162
 30
0.0
 11
877.5161988767
 21
480.9458885842
 31
0.0
  0
SPLINE
  5
2C7
330
1F
100
AcDbEntity
  8
0
  6
Continuous
 62
     7
370
    25
100
AcDbSpline
210
0.0
220
0.0
230
1.0
 70
     8
 71
     3
 72
    16
 73
    12
 74
     0
 42
0.000000001
 43
0.00000001
 40
0.0
 40
0.0
 40
0.0
 40
0.0
 40
0.0016059774671101
 40
0.1264725045680639
 40
0.2512470615013301
 40
0.3760203638374804
 40
0.5007911244329127
 40
0.6255600481484935
 40
0.7503284521941509
 40
0.8750965323469061
 40
1.0
 40
1.0
 40
1.0
 40
1.0
 10
872.6163506241696
 20
480.6723926716786
 30
0.0
 10
872.6155488331583
 20
480.6723481303355
 30
0.0
 10
872.5524069028228
 20
480.6688404502274
 30
0.0
 10
872.7797948364122
 20
480.6558793652177
 30
0.0
 10
873.3058318691069
 20
480.6398256676434
 30
0.0
 10
874.1519912071201
 20
480.6414370453789
 30
0.0
 10
875.1308380296928
 20
480.6770574925628
 30
0.0
 10
876.1107032718426
 20
480.7489704351363
 30
0.0
 10
876.9300431234946
 20
480.8392064105743
 30
0.0
 10
877.4994001580538
 20
480.9226161211898
 30
0.0
 10
877.5704692575711
 20
480.941823112783
 30
0.0
 10
877.606023076381
 20
480.9514318161945
 30
0.0
  0
LINE
  5
2C8
330
1F
100
AcDbEntity
  8
0
  6
Continuous
 62
     7
370
    25
100
AcDbLine
 10
890.8992521199
 20
445.826362496
 30
0.0
 11
891.2281580003
 21
445.0959150249
 31
0.0
  0
SPLINE
  5
2C9
330
1F
100
AcDbEntity
  8
0
  6
Continuous
 62
     7
370
    25
100
AcDbSpline
210
0.0
220
0.0
230
1.0
 70
     8
 71
     3
 72
    13
 73
     9
 74
     0
 42
0.000000001
 43
0.00000001
 40
0.0
 40
0.0
 40
0.0
 40
0.0
 40
0.2498402087962558
 40
0.375031360709129
 40
0.5002138554224799
 40
0.6259691093449572
 40
0.7505668437444687
 40
1.0
 40
1.0
 40
1.0
 40
1.0
 10
891.228158000316
 20
445.0959150248509
 30
0.0
 10
891.0551962141864
 20
445.0192793441213
 30
0.0
 10
890.7955658916078
 20
444.9042426822431
 30
0.0
 10
890.4270741195264
 20
444.8857764482699
 30
0.0
 10
890.1565509837311
 20
444.9374030236224
 30
0.0
 10
889.903900050491
 20
445.0516595119221
 30
0.0
 10
889.6032269656748
 20
445.2823926188158
 30
0.0
 10
889.4567368527207
 20
445.5411187026921
 30
0.0
 10
889.3590457471269
 20
445.713657563303
 30
0.0
  0
SPLINE
  5
2CA
330
1F
100
AcDbEntity
  8
0
  6
Continuous
 62
     7
370
    25
100
AcDbSpline
210
0.0
220
0.0
230
1.0
 70
     8
 71
     3
 72
    12
 73
     8
 74
     0
 42
0.000000001
 43
0.00000001
 40
0.0
 40
0.0
 40
0.0
 40
0.0
 40
0.250089499301819
 40
0.3754942994991418
 40
0.5009086660443878
 40
0.7506079093168222
 40
1.0
 40
1.0
 40
1.0
 40
1.0
 10
889.3590382965463
 20
445.7136724644642
 30
0.0
 10
889.2960220845082
 20
445.8791917221756
 30
0.0
 10
889.2014070428436
 20
446.1277089046301
 30
0.0
 10
889.1938896595602
 20
446.4899743697355
 30
0.0
 10
889.2489384130266
 20
446.8434198363514
 30
0.0
 10
889.4371372364672
 20
447.2613914427279
 30
0.0
 10
889.7028334395725
 20
447.4741028376351
 30
0.0
 10
889.8355997832673
 20
447.5803930812817
 30
0.0
  0
SPLINE
  5
2CB
330
1F
100
AcDbEntity
  8
0
  6
Continuous
 62
     7
370
    25
100
AcDbSpline
210
0.0
220
0.0
230
1.0
 70
     8
 71
     3
 72
    10
 73
     6
 74
     0
 42
0.000000001
 43
0.00000001
 40
0.0
 40
0.0
 40
0.0
 40
0.0
 40
0.2494672078735888
 40
0.4995837590881655
 40
1.0
 40
1.0
 40
1.0
 40
1.0
 10
889.8355997832673
 20
447.5803930812817
 30
0.0
 10
889.9966357598454
 20
447.6496265772087
 30
0.0
 10
890.3191268768663
 20
447.7882737783573
 30
0.0
 10
891.0185560287513
 20
447.8020930881822
 30
0.0
 10
891.5163555414496
 20
447.6618647852499
 30
0.0
 10
891.8482623728173
 20
447.5683678441982
 30
0.0
  0
LINE
  5
2CC
330
1F
100
AcDbEntity
  8
0
  6
Continuous
 62
     7
370
    25
100
AcDbLine
 10
891.8482623728
 20
447.5683678442
 30
0.0
 11
892.4815468224
 21
447.3755542689
 31
0.0
  0
LINE
  5
2CD
330
1F
100
AcDbEntity
  8
0
  6
Continuous
 62
     7
370
    25
100
AcDbLine
 10
892.4815468224
 20
447.3755542689
 30
0.0
 11
891.8114639552
 21
448.782305842
 31
0.0
  0
LINE
  5
2CE
330
1F
100
AcDbEntity
  8
0
  6
Continuous
 62
     7
370
    25
100
AcDbLine
 10
891.8114639552
 20
448.782305842
 30
0.0
 11
892.4458510908
 21
449.1552968079
 31
0.0
  0
LINE
  5
2CF
330
1F
100
AcDbEntity
  8
0
  6
Continuous
 62
     7
370
    25
100
AcDbLine
 10
892.4458510908
 20
449.1552968079
 30
0.0
 11
893.7172181638
 21
446.4229751879
 31
0.0
  0
LINE
  5
2D0
330
1F
100
AcDbEntity
  8
0
  6
Continuous
 62
     7
370
    25
100
AcDbLine
 10
893.7172181638
 20
446.4229751879
 30
0.0
 11
893.3890498908
 21
446.2303702289
 31
0.0
  0
LINE
  5
2D1
330
1F
100
AcDbEntity
  8
0
  6
Continuous
 62
     7
370
    25
100
AcDbLine
 10
893.3890498908
 20
446.2303702289
 30
0.0
 11
891.7015604409
 21
446.7805434519
 31
0.0
  0
SPLINE
  5
2D2
330
1F
100
AcDbEntity
  8
0
  6
Continuous
 62
     7
370
    25
100
AcDbSpline
210
0.0
220
0.0
230
1.0
 70
     8
 71
     3
 72
    10
 73
     6
 74
     0
 42
0.000000001
 43
0.00000001
 40
0.0
 40
0.0
 40
0.0
 40
0.0
 40
0.5008529232852541
 40
0.7508929069990898
 40
1.0
 40
1.0
 40
1.0
 40
1.0
 10
891.7015604408639
 20
446.7805434518795
 30
0.0
 10
891.4645989810681
 20
446.8547582801218
 30
0.0
 10
891.1093396402106
 20
446.966023255388
 30
0.0
 10
890.6051632045036
 20
447.0032057364152
 30
0.0
 10
890.3678183892313
 20
446.911525224994
 30
0.0
 10
890.2493677767175
 20
446.8657706433277
 30
0.0
  0
SPLINE
  5
2D3
330
1F
100
AcDbEntity
  8
0
  6
Continuous
 62
     7
370
    25
100
AcDbSpline
210
0.0
220
0.0
230
1.0
 70
     8
 71
     3
 72
    14
 73
    10
 74
     0
 42
0.000000001
 43
0.00000001
 40
0.0
 40
0.0
 40
0.0
 40
0.0
 40
0.249216514972761
 40
0.3735855936437773
 40
0.4993908521052742
 40
0.6238357725156248
 40
0.7495977733319904
 40
0.8747150066460052
 40
1.0
 40
1.0
 40
1.0
 40
1.0
 10
890.2493677767175
 20
446.8657706433277
 30
0.0
 10
890.187580792481
 20
446.8214587140675
 30
0.0
 10
890.0949596145146
 20
446.7550333473539
 30
0.0
 10
890.0128366660412
 20
446.6197403789585
 30
0.0
 10
889.9712292645257
 20
446.5078850645216
 30
0.0
 10
889.9509242530705
 20
446.3885310742973
 30
0.0
 10
889.9537370592471
 20
446.2679451461204
 30
0.0
 10
889.977861168121
 20
446.1502272068934
 30
0.0
 10
890.0084066948815
 20
446.078238956799
 30
0.0
 10
890.0236896904366
 20
446.0422207170467
 30
0.0
  0
SPLINE
  5
2D4
330
1F
100
AcDbEntity
  8
0
  6
Continuous
 62
     7
370
    25
100
AcDbSpline
210
0.0
220
0.0
230
1.0
 70
     8
 71
     3
 72
    13
 73
     9
 74
     0
 42
0.000000001
 43
0.00000001
 40
0.0
 40
0.0
 40
0.0
 40
0.0
 40
0.1251993262534029
 40
0.2503129012870224
 40
0.3722022016515684
 40
0.5005705693178983
 40
0.7498306860661496
 40
1.0
 40
1.0
 40
1.0
 40
1.0
 10
890.0236896904366
 20
446.0422132664661
 30
0.0
 10
890.044729806507
 20
446.0022869465658
 30
0.0
 10
890.0867956279023
 20
445.9224616530036
 30
0.0
 10
890.178800033978
 20
445.8288950894524
 30
0.0
 10
890.2880252735406
 20
445.7610047527351
 30
0.0
 10
890.4488913110902
 20
445.7117786521195
 30
0.0
 10
890.6649834043669
 20
445.7158520450396
 30
0.0
 10
890.8210678322665
 20
445.7894809991972
 30
0.0
 10
890.8992521198647
 20
445.8263624959927
 30
0.0
  0
SPLINE
  5
2D5
330
1F
100
AcDbEntity
  8
0
  6
Continuous
 62
     7
370
    25
100
AcDbSpline
210
0.0
220
0.0
230
1.0
 70
     8
 71
     3
 72
     9
 73
     5
 74
     0
 42
0.000000001
 43
0.00000001
 40
0.0
 40
0.0
 40
0.0
 40
0.0
 40
0.4991657027647369
 40
1.0
 40
1.0
 40
1.0
 40
1.0
 10
889.8355997832673
 20
447.5803930812817
 30
0.0
 10
889.8349143776663
 20
447.580397434685
 30
0.0
 10
889.8335412753136
 20
447.580406156044
 30
0.0
 10
889.8321675972732
 20
447.5804222658442
 30
0.0
 10
889.8314796121972
 20
447.5804303341847
 30
0.0
  0
LINE
  5
2D6
330
1F
100
AcDbEntity
  8
0
  6
Continuous
 62
     7
370
    25
100
AcDbLine
 10
889.3590382965
 20
445.7136724645
 30
0.0
 11
889.3547467621
 21
445.714089697
 31
0.0
  0
LINE
  5
2D7
330
1F
100
AcDbEntity
  8
0
  6
Continuous
 62
     7
370
    25
100
AcDbLine
 10
890.8992521199
 20
445.826362496
 30
0.0
 11
890.8948711785
 21
445.8269734436
 31
0.0
  0
LINE
  5
2D8
330
1F
100
AcDbEntity
  8
0
  6
Continuous
 62
     7
370
    25
100
AcDbLine
 10
892.4458510908
 20
449.1552968079
 30
0.0
 11
892.4417458208
 21
449.1553191596
 31
0.0
  0
LINE
  5
2D9
330
1F
100
AcDbEntity
  8
0
  6
Continuous
 62
     7
370
    25
100
AcDbLine
 10
891.8114639552
 20
448.782305842
 30
0.0
 11
891.8073586853
 21
448.7823207432
 31
0.0
  0
LINE
  5
2DA
330
1F
100
AcDbEntity
  8
0
  6
Continuous
 62
     7
370
    25
100
AcDbLine
 10
893.3890498908
 20
446.2303702289
 30
0.0
 11
893.3845497402
 21
446.2312419468
 31
0.0
  0
LWPOLYLINE
  5
2DB
330
1F
100
AcDbEntity
  8
0
  6
Continuous
 62
     7
370
    25
100
AcDbPolyline
 90
       17
 70
   128
 43
0.0
 10
883.2816965612
 20
474.8614613467
 10
884.1753788026
 20
472.9449484998
 10
885.1741663845
 20
470.8030555898
 10
886.2653113635
 20
468.463081544
 10
887.4348960551
 20
465.9549031907
 10
888.6679894956
 20
463.3105133229
 10
889.9488709601
 20
460.5636630708
 10
891.2611864241
 20
457.7493850642
 10
892.5882093342
 20
454.9035911017
 10
893.9129896196
 20
452.0625878626
 10
895.218636814
 20
449.2626149708
 10
896.4884839686
 20
446.5394128614
 10
897.7063409718
 20
443.9277086907
 10
898.8566659125
 20
441.4608363563
 10
899.9247736963
 20
439.1702671104
 10
900.8970521124
 20
437.0852221304
 10
901.7610810431
 20
435.2322999888
  0
LINE
  5
2DC
330
1F
100
AcDbEntity
  8
0
  6
Continuous
 62
     7
370
    25
100
AcDbLine
 10
878.3729411395
 20
469.558704322
 30
0.0
 11
877.952460173
 21
470.4621021205
 31
0.0
  0
LINE
  5
2DD
330
1F
100
AcDbEntity
  8
0
  6
Continuous
 62
     7
370
    25
100
AcDbLine
 10
877.952460173
 20
470.4621021205
 30
0.0
 11
882.144313279
 21
471.2772999459
 31
0.0
  0
LINE
  5
2DE
330
1F
100
AcDbEntity
  8
0
  6
Continuous
 62
     7
370
    25
100
AcDbLine
 10
882.144313279
 20
471.2772999459
 30
0.0
 11
882.423024598
 21
470.6820134574
 31
0.0
  0
LINE
  5
2DF
330
1F
100
AcDbEntity
  8
0
  6
Continuous
 62
     7
370
    25
100
AcDbLine
 10
882.423024598
 20
470.6820134574
 30
0.0
 11
878.9802975686
 21
470.0129066163
 31
0.0
  0
LINE
  5
2E0
330
1F
100
AcDbEntity
  8
0
  6
Continuous
 62
     7
370
    25
100
AcDbLine
 10
878.9802975686
 20
470.0129066163
 30
0.0
 11
879.282575074
 21
469.3472866469
 31
0.0
  0
LINE
  5
2E1
330
1F
100
AcDbEntity
  8
0
  6
Continuous
 62
     7
370
    25
100
AcDbLine
 10
879.282575074
 20
469.3472866469
 30
0.0
 11
878.3729411395
 21
469.558704322
 31
0.0
  0
LINE
  5
2E2
330
1F
100
AcDbEntity
  8
0
  6
Continuous
 62
     7
370
    25
100
AcDbLine
 10
878.3729411395
 20
469.558704322
 30
0.0
 11
878.3719502123
 21
469.5520435029
 31
0.0
  0
LINE
  5
2E3
330
1F
100
AcDbEntity
  8
0
  6
Continuous
 62
     7
370
    25
100
AcDbLine
 10
879.282575074
 20
469.3472866469
 30
0.0
 11
879.2815319928
 21
469.340730136
 31
0.0
  0
LINE
  5
2E4
330
1F
100
AcDbEntity
  8
0
  6
Continuous
 62
     7
370
    25
100
AcDbLine
 10
877.952460173
 20
470.4621021205
 30
0.0
 11
877.951588455
 21
470.4551730805
 31
0.0
  0
LINE
  5
2E5
330
1F
100
AcDbEntity
  8
0
  6
Continuous
 62
     7
370
    25
100
AcDbLine
 10
882.423024598
 20
470.6820134574
 30
0.0
 11
882.4220709237
 21
470.6752632314
 31
0.0
  0
SPLINE
  5
2E6
330
1F
100
AcDbEntity
  8
0
  6
Continuous
 62
     7
370
    25
100
AcDbSpline
210
0.0
220
0.0
230
1.0
 70
     8
 71
     3
 72
    12
 73
     8
 74
     0
 42
0.000000001
 43
0.00000001
 40
0.0
 40
0.0
 40
0.0
 40
0.0
 40
0.0304637354093651
 40
0.0888071504522396
 40
0.3925526542380844
 40
0.6962783418974713
 40
1.0
 40
1.0
 40
1.0
 40
1.0
 10
883.327487829532
 20
475.8439396077137
 30
0.0
 10
883.3232536315529
 20
475.8536001791782
 30
0.0
 10
883.3109101992089
 20
475.8817624452947
 30
0.0
 10
883.2493275160855
 20
476.0046075559378
 30
0.0
 10
883.1039153321334
 20
476.2007714282481
 30
0.0
 10
882.8340179767534
 20
476.4160390464692
 30
0.0
 10
882.6257658535975
 20
476.4868898195305
 30
0.0
 10
882.5216404827493
 20
476.5223149710636
 30
0.0
  0
SPLINE
  5
2E7
330
1F
100
AcDbEntity
  8
0
  6
Continuous
 62
     7
370
    25
100
AcDbSpline
210
0.0
220
0.0
230
1.0
 70
     8
 71
     3
 72
    11
 73
     7
 74
     0
 42
0.000000001
 43
0.00000001
 40
0.0
 40
0.0
 40
0.0
 40
0.0
 40
0.3703818938880858
 40
0.7442573383653919
 40
0.9442258912103095
 40
1.0
 40
1.0
 40
1.0
 40
1.0
 10
882.4978805812257
 20
476.5423570328693
 30
0.0
 10
882.4993991445143
 20
476.5395089566445
 30
0.0
 10
882.5024505946258
 20
476.5337859403047
 30
0.0
 10
882.5097777834884
 20
476.526936959922
 30
0.0
 10
882.5173415235511
 20
476.5234668263859
 30
0.0
 10
882.5208707950767
 20
476.5225211997812
 30
0.0
 10
882.5216404827493
 20
476.5223149710637
 30
0.0
  0
SPLINE
  5
2E8
330
1F
100
AcDbEntity
  8
0
  6
Continuous
 62
     7
370
    25
100
AcDbSpline
210
0.0
220
0.0
230
1.0
 70
     8
 71
     3
 72
    12
 73
     8
 74
     0
 42
0.000000001
 43
0.00000001
 40
0.0
 40
0.0
 40
0.0
 40
0.0
 40
0.0304750982773146
 40
0.0888150381333465
 40
0.3925530324499591
 40
0.6962751781494381
 40
1.0
 40
1.0
 40
1.0
 40
1.0
 10
902.5258682402032
 20
434.6728805953007
 30
0.0
 10
902.5305935421936
 20
434.6633242711887
 30
0.0
 10
902.5443647160436
 20
434.6354738182487
 30
0.0
 10
902.5994539319305
 20
434.5081499978953
 30
0.0
 10
902.6568467700766
 20
434.2693955788952
 30
0.0
 10
902.6482779292031
 20
433.9242122643582
 30
0.0
 10
902.5680126922487
 20
433.7206009232539
 30
0.0
 10
902.5278798969644
 20
433.6187948041897
 30
0.0
  0
SPLINE
  5
2E9
330
1F
100
AcDbEntity
  8
0
  6
Continuous
 62
     7
370
    25
100
AcDbSpline
210
0.0
220
0.0
230
1.0
 70
     8
 71
     3
 72
    10
 73
     6
 74
     0
 42
0.000000001
 43
0.00000001
 40
0.0
 40
0.0
 40
0.0
 40
0.0
 40
0.2117676289436897
 40
0.48792487262541
 40
1.0
 40
1.0
 40
1.0
 40
1.0
 10
902.5278798969644
 20
433.6187948041897
 30
0.0
 10
902.5267556556051
 20
433.616070982489
 30
0.0
 10
902.5241653384506
 20
433.609795139656
 30
0.0
 10
902.5236942963658
 20
433.5987774586723
 30
0.0
 10
902.5260463873493
 20
433.5925704071507
 30
0.0
 10
902.5275744231599
 20
433.5885379963856
 30
0.0
  0
LINE
  5
2EA
330
1F
100
AcDbEntity
  8
0
  6
Continuous
 62
     7
370
    25
100
AcDbLine
 10
881.1019621523
 20
481.1183546239
 30
0.0
 11
900.1886509093
 21
481.3438985997
 31
0.0
  0
SPLINE
  5
2EB
330
1F
100
AcDbEntity
  8
0
  6
Continuous
 62
     7
370
    25
100
AcDbSpline
210
0.0
220
0.0
230
1.0
 70
     8
 71
     3
 72
    12
 73
     8
 74
     0
 42
0.000000001
 43
0.00000001
 40
0.0
 40
0.0
 40
0.0
 40
0.0
 40
0.2239045510199364
 40
0.447773306107398
 40
0.6716895282850621
 40
0.8955764766198839
 40
1.0
 40
1.0
 40
1.0
 40
1.0
 10
880.8696754010575
 20
481.1129604035359
 30
0.0
 10
880.8722594204559
 20
481.1133364211718
 30
0.0
 10
880.877427046142
 20
481.1140883963292
 30
0.0
 10
880.9200674780984
 20
481.1153324143067
 30
0.0
 10
880.9831357241471
 20
481.1165605670857
 30
0.0
 10
881.0481895743811
 20
481.1175992357433
 30
0.0
 10
881.0889862315219
 20
481.1181723403317
 30
0.0
 10
881.1019621523278
 20
481.118354623888
 30
0.0
  0
ELLIPSE
  5
2EC
330
1F
100
AcDbEntity
  8
0
  6
Continuous
 62
     7
370
    25
100
AcDbEllipse
 10
881.3924868537
 20
442.2136531453
 30
0.0
 11
-0.5253275307420608
 21
38.90192097551841
 31
0.0
210
0.0
220
0.0
230
1.0
 40
0.0054572115
 41
6.270607687629711
 42
6.271508242389279
  0
SPLINE
  5
2ED
330
1F
100
AcDbEntity
  8
0
  6
Continuous
 62
     7
370
    25
100
AcDbSpline
210
0.0
220
0.0
230
1.0
 70
     8
 71
     3
 72
    12
 73
     8
 74
     0
 42
0.000000001
 43
0.00000001
 40
0.0
 40
0.0
 40
0.0
 40
0.0
 40
0.2238881848669211
 40
0.4477885926153206
 40
0.6716699020386405
 40
0.8955658122675515
 40
1.0
 40
1.0
 40
1.0
 40
1.0
 10
881.1053000124352
 20
481.111202066515
 30
0.0
 10
881.0774024935725
 20
481.1109249909002
 30
0.0
 10
881.0216059328189
 20
481.1103708245442
 30
0.0
 10
880.9493583137087
 20
481.1104142624966
 30
0.0
 10
880.8965282718655
 20
481.1109823493835
 30
0.0
 10
880.872785142471
 20
481.1117982627267
 30
0.0
 10
880.8705728083245
 20
481.1123521053655
 30
0.0
 10
880.869869116153
 20
481.1125282698612
 30
0.0
  0
LINE
  5
2EE
330
1F
100
AcDbEntity
  8
0
  6
Continuous
 62
     7
370
    25
100
AcDbLine
 10
881.1053000124
 20
481.1112020665
 30
0.0
 11
900.2075306805
 21
481.3034121448
 31
0.0
  0
LINE
  5
2EF
330
1F
100
AcDbEntity
  8
0
  6
Continuous
 62
     7
370
    25
100
AcDbLine
 10
900.2075306805
 20
481.3034121448
 30
0.0
 11
901.6861356529
 21
481.3218448812
 31
0.0
  0
LINE
  5
2F0
330
1F
100
AcDbEntity
  8
0
  6
Continuous
 62
     7
370
    25
100
AcDbLine
 10
899.1584740313
 20
427.3702908808
 30
0.0
 11
899.2881588372
 21
427.0722155028
 31
0.0
  0
SPLINE
  5
2F1
330
1F
100
AcDbEntity
  8
0
  6
Continuous
 62
     7
370
    25
100
AcDbSpline
210
0.0
220
0.0
230
1.0
 70
     8
 71
     3
 72
     9
 73
     5
 74
     0
 42
0.000000001
 43
0.00000001
 40
0.0
 40
0.0
 40
0.0
 40
0.0
 40
0.5006033195922069
 40
0.9999999999999999
 40
0.9999999999999999
 40
0.9999999999999999
 40
0.9999999999999999
 10
899.2881588371652
 20
427.0722155028324
 30
0.0
 10
899.1809627033157
 20
426.9785477878171
 30
0.0
 10
898.9668288179536
 20
426.7914381316295
 30
0.0
 10
898.772967129463
 20
426.6930623280963
 30
0.0
 10
898.6761532457726
 20
426.6439337783794
 30
0.0
  0
SPLINE
  5
2F2
330
1F
100
AcDbEntity
  8
0
  6
Continuous
 62
     7
370
    25
100
AcDbSpline
210
0.0
220
0.0
230
1.0
 70
     8
 71
     3
 72
     9
 73
     5
 74
     0
 42
0.000000001
 43
0.00000001
 40
0.0
 40
0.0
 40
0.0
 40
0.0
 40
0.4996464523241587
 40
1.0
 40
1.0
 40
1.0
 40
1.0
 10
898.676145795192
 20
426.6439337783794
 30
0.0
 10
898.5658006082815
 20
426.6115984486055
 30
0.0
 10
898.3449540749031
 20
426.5468820283776
 30
0.0
 10
898.2551500496259
 20
426.6710790939053
 30
0.0
 10
898.2102162869828
 20
426.733221536253
 30
0.0
  0
SPLINE
  5
2F3
330
1F
100
AcDbEntity
  8
0
  6
Continuous
 62
     7
370
    25
100
AcDbSpline
210
0.0
220
0.0
230
1.0
 70
     8
 71
     3
 72
    14
 73
    10
 74
     0
 42
0.000000001
 43
0.00000001
 40
0.0
 40
0.0
 40
0.0
 40
0.0
 40
0.2497258672942045
 40
0.4990579663339245
 40
0.624313111736064
 40
0.7494722023973605
 40
0.8746154416345076
 40
0.9373007262103803
 40
0.9999999999999999
 40
0.9999999999999999
 40
0.9999999999999999
 40
0.9999999999999999
 10
898.2102162869828
 20
426.733221536253
 30
0.0
 10
898.1898937026511
 20
426.8053351933101
 30
0.0
 10
898.1492805786802
 20
426.9494487984637
 30
0.0
 10
898.234635849101
 20
427.2454678484804
 30
0.0
 10
898.3548907069799
 20
427.4992110306464
 30
0.0
 10
898.4733104193623
 20
427.6970923598319
 30
0.0
 10
898.595305173486
 20
427.8592604646641
 30
0.0
 10
898.7022849108588
 20
427.9821297882286
 30
0.0
 10
898.7586125197708
 20
428.0399956596002
 30
0.0
 10
898.7867794664758
 20
428.0689318233471
 30
0.0
  0
SPLINE
  5
2F4
330
1F
100
AcDbEntity
  8
0
  6
Continuous
 62
     7
370
    25
100
AcDbSpline
210
0.0
220
0.0
230
1.0
 70
     8
 71
     3
 72
    11
 73
     7
 74
     0
 42
0.000000001
 43
0.00000001
 40
0.0
 40
0.0
 40
0.0
 40
0.0
 40
0.249906929884579
 40
0.4997043417248842
 40
0.7496622160058979
 40
1.0
 40
1.0
 40
1.0
 40
1.0
 10
898.7867794664758
 20
428.0689318233471
 30
0.0
 10
898.8587979688509
 20
428.1356516509298
 30
0.0
 10
899.0028034125497
 20
428.2690620671102
 30
0.0
 10
899.2220383145033
 20
428.4021281163297
 30
0.0
 10
899.4195495506093
 20
428.4742620331709
 30
0.0
 10
899.5222573087781
 20
428.4731670757162
 30
0.0
 10
899.5736501844781
 20
428.4726191812496
 30
0.0
  0
SPLINE
  5
2F5
330
1F
100
AcDbEntity
  8
0
  6
Continuous
 62
     7
370
    25
100
AcDbSpline
210
0.0
220
0.0
230
1.0
 70
     8
 71
     3
 72
    11
 73
     7
 74
     0
 42
0.000000001
 43
0.00000001
 40
0.0
 40
0.0
 40
0.0
 40
0.0
 40
0.2502405164354242
 40
0.5001406617380326
 40
0.7499336122834143
 40
1.0
 40
1.0
 40
1.0
 40
1.0
 10
899.5736501844781
 20
428.4726191812496
 30
0.0
 10
899.5816081873762
 20
428.5521841812161
 30
0.0
 10
899.5975133688881
 20
428.7112059587494
 30
0.0
 10
899.7273800897083
 20
429.0152910735338
 30
0.0
 10
899.9299496285587
 20
429.3341888253995
 30
0.0
 10
900.1061202500044
 20
429.5223516107168
 30
0.0
 10
900.1942537458795
 20
429.6164844685536
 30
0.0
  0
SPLINE
  5
2F6
330
1F
100
AcDbEntity
  8
0
  6
Continuous
 62
     7
370
    25
100
AcDbSpline
210
0.0
220
0.0
230
1.0
 70
     8
 71
     3
 72
    14
 73
    10
 74
     0
 42
0.000000001
 43
0.00000001
 40
0.0
 40
0.0
 40
0.0
 40
0.0
 40
0.1250795317963204
 40
0.2500925349979669
 40
0.3751134997140781
 40
0.5002287904205003
 40
0.6253141479616111
 40
0.7504363131047382
 40
1.0
 40
1.0
 40
1.0
 40
1.0
 10
900.1942537458795
 20
429.6164844685536
 30
0.0
 10
900.2648788201219
 20
429.6836890418692
 30
0.0
 10
900.4060914038123
 20
429.818062443037
 30
0.0
 10
900.6259641115406
 20
429.978947106236
 30
0.0
 10
900.8372916754502
 20
430.094438011277
 30
0.0
 10
901.0322872932328
 20
430.164856639325
 30
0.0
 10
901.2026168710262
 20
430.1895252488029
 30
0.0
 10
901.3914953881987
 20
430.1638457439112
 30
0.0
 10
901.461025388334
 20
430.0636977545126
 30
0.0
 10
901.5073366197007
 20
429.996993070219
 30
0.0
  0
SPLINE
  5
2F7
330
1F
100
AcDbEntity
  8
0
  6
Continuous
 62
     7
370
    25
100
AcDbSpline
210
0.0
220
0.0
230
1.0
 70
     8
 71
     3
 72
    13
 73
     9
 74
     0
 42
0.000000001
 43
0.00000001
 40
0.0
 40
0.0
 40
0.0
 40
0.0
 40
0.2495865776194402
 40
0.3747627367305038
 40
0.499914433730048
 40
0.6240391616341671
 40
0.7502507939549946
 40
1.0
 40
1.0
 40
1.0
 40
1.0
 10
901.5073366197007
 20
429.996993070219
 30
0.0
 10
901.5311423434507
 20
429.9119499258886
 30
0.0
 10
901.5668874474843
 20
429.784254751679
 30
0.0
 10
901.5012431234672
 20
429.5312734155362
 30
0.0
 10
901.4100110250183
 20
429.3199196522391
 30
0.0
 10
901.2789182484519
 20
429.0930683929529
 30
0.0
 10
901.0607972878227
 20
428.7828590701758
 30
0.0
 10
900.8598217879907
 20
428.5636580172688
 30
0.0
 10
900.726314607467
 20
428.4180436783772
 30
0.0
  0
LINE
  5
2F8
330
1F
100
AcDbEntity
  8
0
  6
Continuous
 62
     7
370
    25
100
AcDbLine
 10
900.7263146075
 20
428.4180436784
 30
0.0
 11
900.5963094266
 21
428.7221614772
 31
0.0
  0
SPLINE
  5
2F9
330
1F
100
AcDbEntity
  8
0
  6
Continuous
 62
     7
370
    25
100
AcDbSpline
210
0.0
220
0.0
230
1.0
 70
     8
 71
     3
 72
    12
 73
     8
 74
     0
 42
0.000000001
 43
0.00000001
 40
0.0
 40
0.0
 40
0.0
 40
0.0
 40
0.2503664537588768
 40
0.499652505893635
 40
0.6247971347633885
 40
0.7501751161880351
 40
0.9999999999999999
 40
0.9999999999999999
 40
0.9999999999999999
 40
0.9999999999999999
 10
900.5963094266313
 20
428.7221614771824
 30
0.0
 10
900.6558208644321
 20
428.791450703225
 30
0.0
 10
900.7745869314518
 20
428.9297301528231
 30
0.0
 10
900.8939909484391
 20
429.1149431752717
 30
0.0
 10
900.9500553608963
 20
429.2481057953369
 30
0.0
 10
900.9802124263681
 20
429.368012098182
 30
0.0
 10
900.9634689722302
 20
429.4280491558322
 30
0.0
 10
900.9523205192941
 20
429.4680241995792
 30
0.0
  0
SPLINE
  5
2FA
330
1F
100
AcDbEntity
  8
0
  6
Continuous
 62
     7
370
    25
100
AcDbSpline
210
0.0
220
0.0
230
1.0
 70
     8
 71
     3
 72
    12
 73
     8
 74
     0
 42
0.000000001
 43
0.00000001
 40
0.0
 40
0.0
 40
0.0
 40
0.0
 40
0.2501446576279713
 40
0.4997613018594605
 40
0.6263192283842111
 40
0.7505473220042768
 40
1.0
 40
1.0
 40
1.0
 40
1.0
 10
900.9523130687135
 20
429.4680241995792
 30
0.0
 10
900.9310034478062
 20
429.4971238820757
 30
0.0
 10
900.8884291870256
 20
429.5552618225221
 30
0.0
 10
900.7637893733897
 20
429.5426580367551
 30
0.0
 10
900.6485435065276
 20
429.4958580872856
 30
0.0
 10
900.5223221972656
 20
429.4225470299277
 30
0.0
 10
900.42618229478
 20
429.3345944263748
 30
0.0
 10
900.3620035680192
 20
429.2758811765652
 30
0.0
  0
SPLINE
  5
2FB
330
1F
100
AcDbEntity
  8
0
  6
Continuous
 62
     7
370
    25
100
AcDbSpline
210
0.0
220
0.0
230
1.0
 70
     8
 71
     3
 72
    13
 73
     9
 74
     0
 42
0.000000001
 43
0.00000001
 40
0.0
 40
0.0
 40
0.0
 40
0.0
 40
0.1244601362551399
 40
0.2497171294135556
 40
0.3738621698589381
 40
0.5000417858546503
 40
0.7495803564790948
 40
1.0
 40
1.0
 40
1.0
 40
1.0
 10
900.3620035680192
 20
429.2758811765652
 30
0.0
 10
900.3219623295291
 20
429.2332932648372
 30
0.0
 10
900.241623488236
 20
429.147844771975
 30
0.0
 10
900.1430216058218
 20
429.0047904923724
 30
0.0
 10
900.0714397191176
 20
428.8658059855337
 30
0.0
 10
900.0071284875064
 20
428.693189590387
 30
0.0
 10
899.9904609327665
 20
428.5149447274043
 30
0.0
 10
900.0228648791377
 20
428.4183036967809
 30
0.0
 10
900.0390954049485
 20
428.3698980265598
 30
0.0
  0
LINE
  5
2FC
330
1F
100
AcDbEntity
  8
0
  6
Continuous
 62
     7
370
    25
100
AcDbLine
 10
900.0390954049
 20
428.3698980266
 30
0.0
 11
899.5276279481
 21
427.859563058
 31
0.0
  0
SPLINE
  5
2FD
330
1F
100
AcDbEntity
  8
0
  6
Continuous
 62
     7
370
    25
100
AcDbSpline
210
0.0
220
0.0
230
1.0
 70
     8
 71
     3
 72
    14
 73
    10
 74
     0
 42
0.000000001
 43
0.00000001
 40
0.0
 40
0.0
 40
0.0
 40
0.0
 40
0.2504884747558066
 40
0.4998627105098915
 40
0.6270851074808654
 40
0.7498770299572307
 40
0.8748102043753545
 40
0.9373795724067777
 40
1.0
 40
1.0
 40
1.0
 40
1.0
 10
899.5276204975503
 20
427.8595630579929
 30
0.0
 10
899.5063241604818
 20
427.8866479827182
 30
0.0
 10
899.4638262180861
 20
427.940697351258
 30
0.0
 10
899.3782796684887
 20
427.9771690042256
 30
0.0
 10
899.2771612986926
 20
427.9573338658267
 30
0.0
 10
899.1892644633034
 20
427.9181056596826
 30
0.0
 10
899.1102568316063
 20
427.8668579617398
 30
0.0
 10
899.0460523051918
 20
427.8137797819861
 30
0.0
 10
899.0147590976687
 20
427.783678200529
 30
0.0
 10
898.9991061123269
 20
427.7686212712269
 30
0.0
  0
SPLINE
  5
2FE
330
1F
100
AcDbEntity
  8
0
  6
Continuous
 62
     7
370
    25
100
AcDbSpline
210
0.0
220
0.0
230
1.0
 70
     8
 71
     3
 72
    13
 73
     9
 74
     0
 42
0.000000001
 43
0.00000001
 40
0.0
 40
0.0
 40
0.0
 40
0.0
 40
0.2492171422810975
 40
0.3727836301798417
 40
0.4995340278238469
 40
0.6251817094159883
 40
0.7500023175584543
 40
0.9999999999999999
 40
0.9999999999999999
 40
0.9999999999999999
 40
0.9999999999999999
 10
898.9991061123269
 20
427.7686212712269
 30
0.0
 10
898.9589236425081
 20
427.7252199332937
 30
0.0
 10
898.8988179578367
 20
427.6602994059122
 30
0.0
 10
898.8386395678393
 20
427.5654797004237
 30
0.0
 10
898.8045513815708
 20
427.4969206502313
 30
0.0
 10
898.7818786978278
 20
427.4330353014478
 30
0.0
 10
898.7679151973349
 20
427.35770580895
 30
0.0
 10
898.779705373166
 20
427.3198497835717
 30
0.0
 10
898.787569228019
 20
427.2946004324894
 30
0.0
  0
SPLINE
  5
2FF
330
1F
100
AcDbEntity
  8
0
  6
Continuous
 62
     7
370
    25
100
AcDbSpline
210
0.0
220
0.0
230
1.0
 70
     8
 71
     3
 72
    12
 73
     8
 74
     0
 42
0.000000001
 43
0.00000001
 40
0.0
 40
0.0
 40
0.0
 40
0.0
 40
0.2498303379493997
 40
0.4996698456669168
 40
0.7494296496953374
 40
0.874655183809223
 40
1.0
 40
1.0
 40
1.0
 40
1.0
 10
898.787569228019
 20
427.2945929819088
 30
0.0
 10
898.8018292676096
 20
427.2755304727305
 30
0.0
 10
898.8303498701911
 20
427.2374047547037
 30
0.0
 10
898.9202476546416
 20
427.2398337946787
 30
0.0
 10
899.0121489906446
 20
427.2732925856
 30
0.0
 10
899.0945225147161
 20
427.3226914193594
 30
0.0
 10
899.1371500949256
 20
427.3544193590221
 30
0.0
 10
899.1584740312951
 20
427.3702908807736
 30
0.0
  0
SPLINE
  5
300
330
1F
100
AcDbEntity
  8
0
  6
Continuous
 62
     7
370
    25
100
AcDbSpline
210
0.0
220
0.0
230
1.0
 70
     8
 71
     3
 72
     9
 73
     5
 74
     0
 42
0.000000001
 43
0.00000001
 40
0.0
 40
0.0
 40
0.0
 40
0.0
 40
0.4998435846253699
 40
1.0
 40
1.0
 40
1.0
 40
1.0
 10
898.7867794664758
 20
428.0689318233471
 30
0.0
 10
898.7856399697513
 20
428.0699148334213
 30
0.0
 10
898.78336026314
 20
428.0718814687937
 30
0.0
 10
898.7810752479259
 20
428.073853706446
 30
0.0
 10
898.7799323829072
 20
428.0748401337605
 30
0.0
  0
SPLINE
  5
301
330
1F
100
AcDbEntity
  8
0
  6
Continuous
 62
     7
370
    25
100
AcDbSpline
210
0.0
220
0.0
230
1.0
 70
     8
 71
     3
 72
     9
 73
     5
 74
     0
 42
0.000000001
 43
0.00000001
 40
0.0
 40
0.0
 40
0.0
 40
0.0
 40
0.4997419750520217
 40
1.0
 40
1.0
 40
1.0
 40
1.0
 10
898.2102162869828
 20
426.733221536253
 30
0.0
 10
898.2090642534084
 20
426.7342325922287
 30
0.0
 10
898.2067589966318
 20
426.7362557482296
 30
0.0
 10
898.2044498611592
 20
426.7382757745043
 30
0.0
 10
898.2032946976083
 20
426.7392863088589
 30
0.0
  0
SPLINE
  5
302
330
1F
100
AcDbEntity
  8
0
  6
Continuous
 62
     7
370
    25
100
AcDbSpline
210
0.0
220
0.0
230
1.0
 70
    24
 71
     3
 72
     9
 73
     5
 74
     0
 42
0.000000001
 43
0.00000001
 40
0.0
 40
0.0
 40
0.0
 40
0.0
 40
0.4996770963524481
 40
1.0
 40
1.0
 40
1.0
 40
1.0
 10
900.1942537458795
 20
429.6164844685536
 30
0.0
 10
900.1931134394329
 20
429.6174632936951
 30
0.0
 10
900.1908313527514
 20
429.61942220906
 30
0.0
 10
900.1885536831567
 20
429.6213773328515
 30
0.0
 10
900.1874141128915
 20
429.6223555260639
 30
0.0
  0
SPLINE
  5
303
330
1F
100
AcDbEntity
  8
0
  6
Continuous
 62
     7
370
    25
100
AcDbSpline
210
0.0
220
0.0
230
1.0
 70
     8
 71
     3
 72
     9
 73
     5
 74
     0
 42
0.000000001
 43
0.00000001
 40
0.0
 40
0.0
 40
0.0
 40
0.0
 40
0.4992157234966516
 40
1.0
 40
1.0
 40
1.0
 40
1.0
 10
899.5736501844781
 20
428.4726191812496
 30
0.0
 10
899.5725025159804
 20
428.4736152361667
 30
0.0
 10
899.5702035729709
 20
428.4756104756395
 30
0.0
 10
899.5679079895224
 20
428.4776037813239
 30
0.0
 10
899.5667583974259
 20
428.478601997469
 30
0.0
  0
LINE
  5
304
330
1F
100
AcDbEntity
  8
0
  6
Continuous
 62
     7
370
    25
100
AcDbLine
 10
899.5276204976
 20
427.859563058
 30
0.0
 11
899.520684007
 21
427.8656650835
 31
0.0
  0
SPLINE
  5
305
330
1F
100
AcDbEntity
  8
0
  6
Continuous
 62
     7
370
    25
100
AcDbSpline
210
0.0
220
0.0
230
1.0
 70
     8
 71
     3
 72
     9
 73
     5
 74
     0
 42
0.000000001
 43
0.00000001
 40
0.0
 40
0.0
 40
0.0
 40
0.0
 40
0.4997419750520217
 40
1.0
 40
1.0
 40
1.0
 40
1.0
 10
900.9523130687135
 20
429.4680241995792
 30
0.0
 10
900.9511610351391
 20
429.469035255555
 30
0.0
 10
900.9488557783625
 20
429.4710584115558
 30
0.0
 10
900.9465466428899
 20
429.4730784378306
 30
0.0
 10
900.9453914793389
 20
429.4740889721851
 30
0.0
  0
SPLINE
  5
306
330
1F
100
AcDbEntity
  8
0
  6
Continuous
 62
     7
370
    25
100
AcDbSpline
210
0.0
220
0.0
230
1.0
 70
     8
 71
     3
 72
     9
 73
     5
 74
     0
 42
0.000000001
 43
0.00000001
 40
0.0
 40
0.0
 40
0.0
 40
0.0
 40
0.5002591393826807
 40
1.0
 40
1.0
 40
1.0
 40
1.0
 10
899.1584740312951
 20
427.3702908807736
 30
0.0
 10
899.1573139032645
 20
427.3713113455298
 30
0.0
 10
899.1549948491197
 20
427.3733512178198
 30
0.0
 10
899.152679642798
 20
427.3753942642452
 30
0.0
 10
899.1515226395982
 20
427.3764152580242
 30
0.0
  0
LINE
  5
307
330
1F
100
AcDbEntity
  8
0
  6
Continuous
 62
     7
370
    25
100
AcDbLine
 10
900.5963094266
 20
428.7221614772
 30
0.0
 11
900.5893505844
 21
428.7283082062
 31
0.0
  0
SPLINE
  5
308
330
1F
100
AcDbEntity
  8
0
  6
Continuous
 62
     7
370
    25
100
AcDbSpline
210
0.0
220
0.0
230
1.0
 70
     8
 71
     3
 72
     9
 73
     5
 74
     0
 42
0.000000001
 43
0.00000001
 40
0.0
 40
0.0
 40
0.0
 40
0.0
 40
0.5002872652638648
 40
1.0
 40
1.0
 40
1.0
 40
1.0
 10
900.726314607467
 20
428.4180436783772
 30
0.0
 10
900.725144580773
 20
428.4190808720973
 30
0.0
 10
900.7228058710449
 20
428.4211540684229
 30
0.0
 10
900.7204705838673
 20
428.4232382981834
 30
0.0
 10
900.7193036111253
 20
428.4242798143368
 30
0.0
  0
LWPOLYLINE
  5
309
330
1F
100
AcDbEntity
  8
0
  6
Continuous
 62
     7
370
    25
100
AcDbPolyline
 90
        9
 70
   128
 43
0.0
 10
904.0277413758
 20
477.6954535895
 10
905.6440479787
 20
474.2292795831
 10
907.2814918788
 20
470.7177762443
 10
908.9335836204
 20
467.1748463565
 10
910.5938039454
 20
463.6144970113
 10
912.2555814417
 20
460.050809806
 10
913.9123372467
 20
456.4978663379
 10
915.5575297507
 20
452.9697482043
 10
917.1846471461
 20
449.480387991
  0
LWPOLYLINE
  5
30A
330
1F
100
AcDbEntity
  8
0
  6
Continuous
 62
     7
370
    25
100
AcDbPolyline
 90
        9
 70
   128
 43
0.0
 10
902.6070497664
 20
480.7421450072
 10
902.6725999745
 20
480.6015674525
 10
902.7713350685
 20
480.389821952
 10
902.9028378161
 20
480.1078174764
 10
903.0665568741
 20
479.7567312175
 10
903.2617918881
 20
479.3380532914
 10
903.4877232941
 20
478.853527134
 10
903.7433974179
 20
478.3052240067
 10
904.0277413758
 20
477.6954535895
  0
SPLINE
  5
30B
330
1F
100
AcDbEntity
  8
0
  6
Continuous
 62
     7
370
    25
100
AcDbSpline
210
0.0
220
0.0
230
1.0
 70
     8
 71
     3
 72
    11
 73
     7
 74
     0
 42
0.000000001
 43
0.00000001
 40
0.0
 40
0.0
 40
0.0
 40
0.0
 40
0.2933142905116893
 40
0.5865989245716858
 40
0.8805067868477501
 40
1.0
 40
1.0
 40
1.0
 40
1.0
 10
901.6861356528657
 20
481.3218448811512
 30
0.0
 10
901.7988356959413
 20
481.3121840317129
 30
0.0
 10
902.0242243872049
 20
481.2928633096266
 30
0.0
 10
902.3249667033514
 20
481.1236775112121
 30
0.0
 10
902.5133991305419
 20
480.9231029278094
 30
0.0
 10
902.5860500753967
 20
480.7827219918919
 30
0.0
 10
902.6070497663873
 20
480.742145007227
 30
0.0
  0
LWPOLYLINE
  5
30C
330
1F
100
AcDbEntity
  8
0
  6
Continuous
 62
     7
370
    25
100
AcDbPolyline
 90
        5
 70
   128
 43
0.0
 10
917.1846471461
 20
449.480387991
 10
917.7663810285
 20
448.2328553253
 10
918.1861765417
 20
447.3325942212
 10
918.4346385034
 20
446.7997734004
 10
918.5070655974
 20
446.6444511467
  0
LINE
  5
30D
330
1F
100
AcDbEntity
  8
0
  6
Continuous
 62
     7
370
    25
100
AcDbLine
 10
877.6054642828
 20
480.9614155942
 30
0.0
 11
877.5156177314
 21
480.9558723622
 31
0.0
  0
SPLINE
  5
30E
330
1F
100
AcDbEntity
  8
0
  6
Continuous
 62
     7
370
    25
100
AcDbSpline
210
0.0
220
0.0
230
1.0
 70
     8
 71
     3
 72
    16
 73
    12
 74
     0
 42
0.000000001
 43
0.00000001
 40
0.0
 40
0.0
 40
0.0
 40
0.0
 40
0.0576601528316057
 40
0.1755107475650098
 40
0.2933506910918313
 40
0.4111772875363815
 40
0.5289945196859777
 40
0.6468098874875703
 40
0.7646235511933166
 40
0.8825263908616183
 40
1.0
 40
1.0
 40
1.0
 40
1.0
 10
872.7035782965081
 20
480.6871150189381
 30
0.0
 10
872.6645753914495
 20
480.6856508069505
 30
0.0
 10
872.545855119513
 20
480.6811939172627
 30
0.0
 10
872.763269694758
 20
480.6660799035226
 30
0.0
 10
873.3103450621592
 20
480.6497146234471
 30
0.0
 10
874.1516440841771
 20
480.6514028238492
 30
0.0
 10
875.1326099277264
 20
480.6871160287233
 30
0.0
 10
876.1123864998026
 20
480.7591191216364
 30
0.0
 10
876.9317820191907
 20
480.849460160904
 30
0.0
 10
877.4994963219143
 20
480.93271841375
 30
0.0
 10
877.5701845980459
 20
480.9518615037726
 30
0.0
 10
877.6054642828362
 20
480.9614155941944
 30
0.0
  0
LINE
  5
30F
330
1F
100
AcDbEntity
  8
0
  6
Continuous
 62
     7
370
    25
100
AcDbLine
 10
902.6070497664
 20
480.7421450072
 30
0.0
 11
902.5881699952
 21
480.7826314622
 31
0.0
  0
LINE
  5
310
330
1F
100
AcDbEntity
  8
0
  6
Continuous
 62
     7
370
    25
100
AcDbLine
 10
752.5500692161
 20
235.7613403851
 30
0.0
 11
695.550065461
 21
235.7613403851
 31
0.0
  0
LINE
  5
311
330
1F
100
AcDbEntity
  8
0
  6
Continuous
 62
     7
370
    25
100
AcDbLine
 10
750.5500688883
 20
229.7613431269
 30
0.0
 11
697.5500695141
 21
229.7613431269
 31
0.0
  0
LINE
  5
312
330
1F
100
AcDbEntity
  8
0
  6
Continuous
 62
     7
370
    25
100
AcDbLine
 10
171.5500466259
 20
229.7613431269
 30
0.0
 11
118.5500733288
 21
229.7613431269
 31
0.0
  0
LINE
  5
313
330
1F
100
AcDbEntity
  8
0
  6
Continuous
 62
     7
370
    25
100
AcDbLine
 10
173.5500804814
 20
235.7613403851
 30
0.0
 11
116.5500394734
 21
235.7613403851
 31
0.0
  0
LINE
  5
314
330
1F
100
AcDbEntity
  8
0
  6
Continuous
 62
     7
370
    25
100
AcDbLine
 10
769.0500691267
 20
327.7613400982
 30
0.0
 11
769.0500691267
 21
328.9613401552
 31
0.0
  0
LINE
  5
315
330
1F
100
AcDbEntity
  8
0
  6
Continuous
 62
     7
370
    25
100
AcDbLine
 10
679.0500692757
 20
327.7613400982
 30
0.0
 11
769.0500691267
 21
327.7613400982
 31
0.0
  0
LINE
  5
316
330
1F
100
AcDbEntity
  8
0
  6
Continuous
 62
     7
370
    25
100
AcDbLine
 10
679.0500692757
 20
327.7613400982
 30
0.0
 11
679.0500692757
 21
328.9613401552
 31
0.0
  0
LINE
  5
317
330
1F
100
AcDbEntity
  8
0
  6
Continuous
 62
     7
370
    25
100
AcDbLine
 10
755.0097182127
 20
264.7613395506
 30
0.0
 11
693.0904201897
 21
264.7613395506
 31
0.0
  0
LINE
  5
318
330
1F
100
AcDbEntity
  8
0
  6
Continuous
 62
     7
370
    25
100
AcDbLine
 10
190.0500766667
 20
327.7613400982
 30
0.0
 11
190.0500766667
 21
328.9613401552
 31
0.0
  0
LINE
  5
319
330
1F
100
AcDbEntity
  8
0
  6
Continuous
 62
     7
370
    25
100
AcDbLine
 10
100.0500432881
 20
327.7613400982
 30
0.0
 11
190.0500766667
 21
327.7613400982
 31
0.0
  0
LINE
  5
31A
330
1F
100
AcDbEntity
  8
0
  6
Continuous
 62
     7
370
    25
100
AcDbLine
 10
100.0500432881
 20
327.7613400982
 30
0.0
 11
100.0500432881
 21
328.9613401552
 31
0.0
  0
LINE
  5
31B
330
1F
100
AcDbEntity
  8
0
  6
Continuous
 62
     7
370
    25
100
AcDbLine
 10
176.0097257527
 20
264.7613395506
 30
0.0
 11
114.0903942021
 21
264.7613395506
 31
0.0
  0
LINE
  5
31C
330
1F
100
AcDbEntity
  8
0
  6
Continuous
 62
     7
370
    25
100
AcDbLine
 10
863.5768741103
 20
517.1472315246
 30
0.0
 11
847.388312194
 21
509.5983777696
 31
0.0
  0
SPLINE
  5
31D
330
1F
100
AcDbEntity
  8
0
  6
Continuous
 62
     7
370
    25
100
AcDbSpline
210
0.0
220
0.0
230
1.0
 70
     8
 71
     3
 72
    11
 73
     7
 74
     0
 42
0.000000001
 43
0.00000001
 40
0.0
 40
0.0
 40
0.0
 40
0.0
 40
0.2889746234831559
 40
0.5779516012264927
 40
0.8674421336874044
 40
1.0
 40
1.0
 40
1.0
 40
1.0
 10
847.3883121939557
 20
509.5983777695636
 30
0.0
 10
847.0847842468455
 20
509.5081014534692
 30
0.0
 10
846.4777258797999
 20
509.3275480858042
 30
0.0
 10
845.3292132395131
 20
509.5669330477357
 30
0.0
 10
844.2946569166014
 20
509.9587261669967
 30
0.0
 10
843.6677041387065
 20
510.2255630684396
 30
0.0
 10
843.4707894655126
 20
510.3093717747669
 30
0.0
  0
SPLINE
  5
31E
330
1F
100
AcDbEntity
  8
0
  6
Continuous
 62
     7
370
    25
100
AcDbSpline
210
0.0
220
0.0
230
1.0
 70
     8
 71
     3
 72
    11
 73
     7
 74
     0
 42
0.000000001
 43
0.00000001
 40
0.0
 40
0.0
 40
0.0
 40
0.0
 40
0.2888079226106463
 40
0.5776158512699006
 40
0.8669331486217744
 40
1.0
 40
1.0
 40
1.0
 40
1.0
 10
843.4707894655126
 20
510.3093717747669
 30
0.0
 10
843.918487707825
 20
510.1731647782233
 30
0.0
 10
844.813884201826
 20
509.9007507822836
 30
0.0
 10
845.9610415501984
 20
509.4007383859138
 30
0.0
 10
846.6359401913703
 20
508.8644790114869
 30
0.0
 10
846.8572878549261
 20
508.4654351670001
 30
0.0
 10
846.927020672168
 20
508.3397213870029
 30
0.0
  0
LINE
  5
31F
330
1F
100
AcDbEntity
  8
0
  6
Continuous
 62
     7
370
    25
100
AcDbLine
 10
846.9270206722
 20
508.339721387
 30
0.0
 11
847.4210910233
 21
507.2801892215
 31
0.0
  0
CIRCLE
  5
320
330
1F
100
AcDbEntity
  8
0
  6
Continuous
 62
     7
370
    25
100
AcDbCircle
 10
852.608961251
 20
556.1613402062
 30
0.0
 40
6.347663105371566
  0
SPLINE
  5
321
330
1F
100
AcDbEntity
  8
0
  6
Continuous
 62
     7
370
    25
100
AcDbSpline
210
0.0
220
0.0
230
1.0
 70
     8
 71
     3
 72
    12
 73
     8
 74
     0
 42
0.000000001
 43
0.00000001
 40
0.0
 40
0.0
 40
0.0
 40
0.0
 40
0.2096804043095073
 40
0.4420468299294121
 40
0.6744341501949326
 40
0.9068215007258328
 40
1.0
 40
1.0
 40
1.0
 40
1.0
 10
7.361721220816908
 20
573.8613341504077
 30
0.0
 10
7.257438073574041
 20
574.1136661646775
 30
0.0
 10
7.037589038059622
 20
574.6456308342657
 30
0.0
 10
6.701655533530415
 20
575.3670060541854
 30
0.0
 10
6.354730093527494
 20
575.9103702964911
 30
0.0
 10
6.076356737544253
 20
576.1389948096045
 30
0.0
 10
5.914988144297806
 20
576.1563703261244
 30
0.0
 10
5.868803683127699
 20
576.1613432818393
 30
0.0
  0
LINE
  5
322
330
1F
100
AcDbEntity
  8
0
  6
Continuous
 62
     7
370
    25
100
AcDbLine
 10
5.8688036831
 20
576.1613432818
 30
0.0
 11
9.258937064
 21
576.1613432818
 31
0.0
  0
LINE
  5
323
330
1F
100
AcDbEntity
  8
0
  6
Continuous
 62
     7
370
    25
100
AcDbLine
 10
20.0089327725
 20
576.1613432818
 30
0.0
 11
82.2589508923
 21
576.1613432818
 31
0.0
  0
LINE
  5
324
330
1F
100
AcDbEntity
  8
0
  6
Continuous
 62
     7
370
    25
100
AcDbLine
 10
145.6160656842
 20
576.1613432818
 30
0.0
 11
145.7160822781
 21
576.1613432818
 31
0.0
  0
LINE
  5
325
330
1F
100
AcDbEntity
  8
0
  6
Continuous
 62
     7
370
    25
100
AcDbLine
 10
791.3018539282
 20
576.1613432818
 30
0.0
 11
791.5928549798
 21
576.1613432818
 31
0.0
  0
SPLINE
  5
326
330
1F
100
AcDbEntity
  8
0
  6
Continuous
 62
     7
370
    25
100
AcDbSpline
210
0.0
220
0.0
230
1.0
 70
     8
 71
     3
 72
    12
 73
     8
 74
     0
 42
0.000000001
 43
0.00000001
 40
0.0
 40
0.0
 40
0.0
 40
0.0
 40
0.209684739504267
 40
0.4420510648681755
 40
0.6744388102137377
 40
0.9068280546898723
 40
1.0
 40
1.0
 40
1.0
 40
1.0
 10
5.061756792868799
 20
575.3542665892583
 30
0.0
 10
5.086100943006988
 20
575.2499795610486
 30
0.0
 10
5.137422548562753
 20
575.0301247829613
 30
0.0
 10
5.558344535081639
 20
574.6941613318039
 30
0.0
 10
6.210134350191354
 20
574.3472632707247
 30
0.0
 10
6.859564652894723
 20
574.0688983002473
 30
0.0
 10
7.249986800103247
 20
573.9075190686677
 30
0.0
 10
7.361721220816908
 20
573.8613341504077
 30
0.0
  0
LINE
  5
327
330
1F
100
AcDbEntity
  8
0
  6
Continuous
 62
     7
370
    25
100
AcDbLine
 10
5.0617567929
 20
575.3542665893
 30
0.0
 11
5.8617107304
 21
575.3542665893
 31
0.0
  0
SPLINE
  5
328
330
1F
100
AcDbEntity
  8
0
  6
Continuous
 62
     7
370
    25
100
AcDbSpline
210
0.0
220
0.0
230
1.0
 70
     8
 71
     3
 72
    11
 73
     7
 74
     0
 42
0.000000001
 43
0.00000001
 40
0.0
 40
0.0
 40
0.0
 40
0.0
 40
0.2543260501348381
 40
0.5088634499736637
 40
0.7634142917925644
 40
1.0
 40
1.0
 40
1.0
 40
1.0
 10
5.861710730399428
 20
575.3542665892581
 30
0.0
 10
5.885088496762503
 20
575.2276859399087
 30
0.0
 10
5.931863456849706
 20
574.9744194503229
 30
0.0
 10
6.290697851384808
 20
574.5944649718775
 30
0.0
 10
6.789931931026061
 20
574.2232503950977
 30
0.0
 10
7.175830006771911
 20
573.9789947140266
 30
0.0
 10
7.361721220816908
 20
573.8613341504077
 30
0.0
  0
CIRCLE
  5
329
330
1F
100
AcDbEntity
  8
0
  6
Continuous
 62
     7
370
    25
100
AcDbCircle
 10
82.608961251
 20
556.1613402062
 30
0.0
 40
6.347663105371566
  0
CIRCLE
  5
32A
330
1F
100
AcDbEntity
  8
0
  6
Continuous
 62
     7
370
    25
100
AcDbCircle
 10
472.608961251
 20
556.1613402062
 30
0.0
 40
6.347663105371566
  0
LINE
  5
32B
330
1F
100
AcDbEntity
  8
0
  6
Continuous
 62
     7
370
    25
100
AcDbLine
 10
813.0247872057
 20
328.9613401552
 30
0.0
 11
5.8688036831
 21
328.9613401552
 31
0.0
  0
SPLINE
  5
32C
330
1F
100
AcDbEntity
  8
0
  6
Continuous
 62
     7
370
    25
100
AcDbSpline
210
0.0
220
0.0
230
1.0
 70
     8
 71
     3
 72
    12
 73
     8
 74
     0
 42
0.000000001
 43
0.00000001
 40
0.0
 40
0.0
 40
0.0
 40
0.0
 40
0.2096811462842254
 40
0.442050055844559
 40
0.6744325121733143
 40
0.9068206486332673
 40
1.0
 40
1.0
 40
1.0
 40
1.0
 10
5.868803683127699
 20
328.9613401552032
 30
0.0
 10
5.973079923142555
 20
328.9856819206261
 30
0.0
 10
6.1929152232576
 20
329.0369992610507
 30
0.0
 10
6.528965021114663
 20
329.4579057295216
 30
0.0
 10
6.875772488279197
 20
330.10972645911
 30
0.0
 10
7.154171163712308
 20
330.7591535025155
 30
0.0
 10
7.315537278904993
 20
331.1495938551327
 30
0.0
 10
7.361721220816908
 20
331.2613402062414
 30
0.0
  0
SPLINE
  5
32D
330
1F
100
AcDbEntity
  8
0
  6
Continuous
 62
     7
370
    25
100
AcDbSpline
210
0.0
220
0.0
230
1.0
 70
     8
 71
     3
 72
    11
 73
     7
 74
     0
 42
0.000000001
 43
0.00000001
 40
0.0
 40
0.0
 40
0.0
 40
0.0
 40
0.2543230818607372
 40
0.5088623783241827
 40
0.7634073217479471
 40
1.0
 40
1.0
 40
1.0
 40
1.0
 10
7.361721220816908
 20
573.8613341504077
 30
0.0
 10
7.235135706290197
 20
574.0613071752696
 30
0.0
 10
6.9818570596486
 20
574.4614232335028
 30
0.0
 10
6.601974672560851
 20
574.963071871225
 30
0.0
 10
6.230700342067408
 20
575.2991364029305
 30
0.0
 10
5.986460045378172
 20
575.3411200966304
 30
0.0
 10
5.868803683127588
 20
575.3613446408253
 30
0.0
  0
LINE
  5
32E
330
1F
100
AcDbEntity
  8
0
  6
Continuous
 62
     7
370
    25
100
AcDbLine
 10
5.8688036831
 20
576.1613432818
 30
0.0
 11
5.8688036831
 21
575.3613446408
 31
0.0
  0
SPLINE
  5
32F
330
1F
100
AcDbEntity
  8
0
  6
Continuous
 62
     7
370
    25
100
AcDbSpline
210
0.0
220
0.0
230
1.0
 70
     8
 71
     3
 72
    12
 73
     8
 74
     0
 42
0.000000001
 43
0.00000001
 40
0.0
 40
0.0
 40
0.0
 40
0.0
 40
0.209681860336722
 40
0.4420503709121361
 40
0.6744330927942237
 40
0.9068226461379247
 40
1.0
 40
1.0
 40
1.0
 40
1.0
 10
7.361721220816797
 20
331.2613402062414
 30
0.0
 10
7.109389968970703
 20
331.1570539730825
 30
0.0
 10
6.577426339440695
 20
330.9371981974093
 30
0.0
 10
5.856044298459429
 20
330.6012473822734
 30
0.0
 10
5.312740361571922
 20
330.2543216004312
 30
0.0
 10
5.084024639152918
 20
329.9759585145495
 30
0.0
 10
5.066711747923502
 20
329.8145938724656
 30
0.0
 10
5.06175679286891
 20
329.768411259849
 30
0.0
  0
LINE
  5
330
330
1F
100
AcDbEntity
  8
0
  6
Continuous
 62
     7
370
    25
100
AcDbLine
 10
5.0617567929
 20
575.3542665893
 30
0.0
 11
5.0617567929
 21
329.7684112598
 31
0.0
  0
SPLINE
  5
331
330
1F
100
AcDbEntity
  8
0
  6
Continuous
 62
     7
370
    25
100
AcDbSpline
210
0.0
220
0.0
230
1.0
 70
     8
 71
     3
 72
    11
 73
     7
 74
     0
 42
0.000000001
 43
0.00000001
 40
0.0
 40
0.0
 40
0.0
 40
0.0
 40
0.254315252921698
 40
0.5088670715156496
 40
0.7634047069192588
 40
1.0
 40
1.0
 40
1.0
 40
1.0
 10
7.361721220816908
 20
331.2613402062414
 30
0.0
 10
7.161759520980859
 20
331.1347567411722
 30
0.0
 10
6.761650115658768
 20
330.8814720622864
 30
0.0
 10
6.260000631019058
 20
330.5015581226356
 30
0.0
 10
5.923979775991572
 20
330.1302983027725
 30
0.0
 10
5.881955325366506
 20
329.8860661321562
 30
0.0
 10
5.861710730399428
 20
329.768411259849
 30
0.0
  0
LINE
  5
332
330
1F
100
AcDbEntity
  8
0
  6
Continuous
 62
     7
370
    25
100
AcDbLine
 10
5.0617567929
 20
329.7684112598
 30
0.0
 11
5.8617107304
 21
329.7684112598
 31
0.0
  0
LINE
  5
333
330
1F
100
AcDbEntity
  8
0
  6
Continuous
 62
     7
370
    25
100
AcDbLine
 10
5.8688036831
 20
328.9613401552
 30
0.0
 11
5.8688036831
 21
329.7613401932
 31
0.0
  0
SPLINE
  5
334
330
1F
100
AcDbEntity
  8
0
  6
Continuous
 62
     7
370
    25
100
AcDbSpline
210
0.0
220
0.0
230
1.0
 70
     8
 71
     3
 72
    11
 73
     7
 74
     0
 42
0.000000001
 43
0.00000001
 40
0.0
 40
0.0
 40
0.0
 40
0.0
 40
0.2543221841321336
 40
0.5088700860590827
 40
0.7634101771816062
 40
1.0
 40
1.0
 40
1.0
 40
1.0
 10
5.868803683127699
 20
329.7613401932012
 30
0.0
 10
5.995382432415486
 20
329.7846950618889
 30
0.0
 10
6.248652273043387
 20
329.83142552734
 30
0.0
 10
6.628639011918458
 20
330.190299400822
 30
0.0
 10
6.999804141289534
 20
330.6895464136234
 30
0.0
 10
7.244057931785175
 20
331.0754436512207
 30
0.0
 10
7.361721220816908
 20
331.2613402062414
 30
0.0
  0
LINE
  5
335
330
1F
100
AcDbEntity
  8
0
  6
Continuous
 62
     7
370
    25
100
AcDbLine
 10
443.3589689167
 20
317.3881486559
 30
0.0
 11
455.2500657471
 21
317.3881486559
 31
0.0
  0
LINE
  5
336
330
1F
100
AcDbEntity
  8
0
  6
Continuous
 62
     7
370
    25
100
AcDbLine
 10
474.2500595482
 20
317.3881486559
 30
0.0
 11
491.6589669617
 21
317.3881486559
 31
0.0
  0
LINE
  5
337
330
1F
100
AcDbEntity
  8
0
  6
Continuous
 62
     7
370
    25
100
AcDbLine
 10
443.6476342114
 20
316.8881495052
 30
0.0
 11
455.2500657471
 21
316.8881495052
 31
0.0
  0
LINE
  5
338
330
1F
100
AcDbEntity
  8
0
  6
Continuous
 62
     7
370
    25
100
AcDbLine
 10
474.2500595482
 20
316.8881495052
 30
0.0
 11
491.3702718647
 21
316.8881495052
 31
0.0
  0
ENDSEC
  0
SECTION
  2
OBJECTS
  0
DICTIONARY
  5
C
330
0
100
AcDbDictionary
281
     1
  3
ACAD_GROUP
350
D
  3
ACAD_LAYOUT
350
1A
  3
ACAD_MLINESTYLE
350
17
  3
ACAD_PLOTSETTINGS
350
19
  3
ACAD_PLOTSTYLENAME
350
E
  3
ACAD_SCALELIST
350
47
  0
DICTIONARY
  5
D
102
{ACAD_REACTORS
330
C
102
}
330
C
100
AcDbDictionary
281
     1
  0
DICTIONARY
  5
1A
102
{ACAD_REACTORS
330
C
102
}
330
C
100
AcDbDictionary
281
     1
  3
Layout1
350
1E
  3
Layout2
350
26
  3
Model
350
22
  0
DICTIONARY
  5
17
102
{ACAD_REACTORS
330
C
102
}
330
C
100
AcDbDictionary
281
     1
  3
Standard
350
18
  0
DICTIONARY
  5
19
102
{ACAD_REACTORS
330
C
102
}
330
C
100
AcDbDictionary
281
     1
  0
ACDBDICTIONARYWDFLT
  5
E
102
{ACAD_REACTORS
330
C
102
}
330
C
100
AcDbDictionary
281
     1
  3
Normal
350
F
100
AcDbDictionaryWithDefault
340
F
  0
DICTIONARY
  5
47
102
{ACAD_REACTORS
330
C
102
}
330
C
100
AcDbDictionary
281
     1
  3
A0
350
48
  3
A1
350
49
  3
A2
350
4A
  3
A3
350
4B
  3
A4
350
4C
  3
A5
350
4D
  3
A6
350
4E
  3
A7
350
4F
  3
A8
350
50
  3
A9
350
51
  3
B0
350
52
  3
B1
350
53
  3
B2
350
54
  3
B3
350
55
  3
B4
350
56
  3
B5
350
57
  3
B6
350
58
  3
B7
350
59
  3
B8
350
5A
  3
B9
350
5B
  3
C0
350
5C
  3
C1
350
5D
  3
C2
350
5E
  3
C3
350
5F
  3
C4
350
60
  3
C5
350
61
  3
C6
350
62
  3
C7
350
63
  3
C8
350
64
  3
C9
350
65
  3
D0
350
66
  3
D1
350
67
  3
D2
350
68
  0
LAYOUT
  5
1E
102
{ACAD_REACTORS
330
1A
102
}
330
1A
100
AcDbPlotSettings
  1

  2
none_device
  4

  6

 40
0.0
 41
0.0
 42
0.0
 43
0.0
 44
0.0
 45
0.0
 46
0.0
 47
0.0
 48
0.0
 49
0.0
140
0.0
141
0.0
142
1.0
143
1.0
 70
   688
 72
     1
 73
     0
 74
     5
  7

 75
    16
147
1.0
148
0.0
149
0.0
100
AcDbLayout
  1
Layout1
 70
     1
 71
     1
 10
0.0
 20
0.0
 11
420.0
 21
297.0
 12
0.0
 22
0.0
 32
0.0
 14
1.0000000000E+20
 24
1.0000000000E+20
 34
1.0000000000E+20
 15
-1.0000000000E+20
 25
-1.0000000000E+20
 35
-1.0000000000E+20
146
0.0
 13
0.0
 23
0.0
 33
0.0
 16
1.0
 26
0.0
 36
0.0
 17
0.0
 27
1.0
 37
0.0
 76
     0
330
1B
  0
LAYOUT
  5
26
102
{ACAD_REACTORS
330
1A
102
}
330
1A
100
AcDbPlotSettings
  1

  2
none_device
  4

  6

 40
0.0
 41
0.0
 42
0.0
 43
0.0
 44
0.0
 45
0.0
 46
0.0
 47
0.0
 48
0.0
 49
0.0
140
0.0
141
0.0
142
1.0
143
1.0
 70
   688
 72
     1
 73
     0
 74
     5
  7

 75
    16
147
1.0
148
0.0
149
0.0
100
AcDbLayout
  1
Layout2
 70
     1
 71
     2
 10
0.0
 20
0.0
 11
0.0
 21
0.0
 12
0.0
 22
0.0
 32
0.0
 14
0.0
 24
0.0
 34
0.0
 15
0.0
 25
0.0
 35
0.0
146
0.0
 13
0.0
 23
0.0
 33
0.0
 16
1.0
 26
0.0
 36
0.0
 17
0.0
 27
1.0
 37
0.0
 76
     0
330
23
  0
LAYOUT
  5
22
102
{ACAD_REACTORS
330
1A
102
}
330
1A
100
AcDbPlotSettings
  1

  2
none_device
  4
Letter_(8.50_x_11.00_Inches)
  6

 40
6.35
 41
6.35
 42
6.35000508
 43
6.35000508
 44
215.9
 45
279.4
 46
0.0
 47
0.0
 48
0.0
 49
0.0
140
0.0
141
0.0
142
1.0
143
1.0
 70
  1712
 72
     1
 73
     0
 74
     0
  7

 75
     0
147
1.0
148
0.0
149
0.0
100
AcDbLayout
  1
Model
 70
     1
 71
     0
 10
0.0
 20
0.0
 11
935.0
 21
935.0
 12
0.0
 22
0.0
 32
0.0
 14
0.0
 24
0.0
 34
0.0
 15
935.0
 25
935.0
 35
0.0
146
0.0
 13
0.0
 23
0.0
 33
0.0
 16
1.0
 26
0.0
 36
0.0
 17
0.0
 27
1.0
 37
0.0
 76
     0
330
1F
331
29
  0
MLINESTYLE
  5
18
102
{ACAD_REACTORS
330
17
102
}
330
17
100
AcDbMlineStyle
  2
Standard
 70
     0
  3

 62
   256
 51
90.0
 52
90.0
 71
     2
 49
0.5
 62
   256
  6
BYLAYER
 49
-0.5
 62
   256
  6
BYLAYER
  0
ACDBPLACEHOLDER
  5
F
102
{ACAD_REACTORS
330
E
102
}
330
E
  0
SCALE
  5
48
102
{ACAD_REACTORS
330
47
102
}
330
47
100
AcDbScale
 70
     0
300
1:1
140
1.0
141
1.0
290
     1
  0
SCALE
  5
49
102
{ACAD_REACTORS
330
47
102
}
330
47
100
AcDbScale
 70
     0
300
1:2
140
1.0
141
2.0
290
     0
  0
SCALE
  5
4A
102
{ACAD_REACTORS
330
47
102
}
330
47
100
AcDbScale
 70
     0
300
1:4
140
1.0
141
4.0
290
     0
  0
SCALE
  5
4B
102
{ACAD_REACTORS
330
47
102
}
330
47
100
AcDbScale
 70
     0
300
1:5
140
1.0
141
5.0
290
     0
  0
SCALE
  5
4C
102
{ACAD_REACTORS
330
47
102
}
330
47
100
AcDbScale
 70
     0
300
1:8
140
1.0
141
8.0
290
     0
  0
SCALE
  5
4D
102
{ACAD_REACTORS
330
47
102
}
330
47
100
AcDbScale
 70
     0
300
1:10
140
1.0
141
10.0
290
     0
  0
SCALE
  5
4E
102
{ACAD_REACTORS
330
47
102
}
330
47
100
AcDbScale
 70
     0
300
1:16
140
1.0
141
16.0
290
     0
  0
SCALE
  5
4F
102
{ACAD_REACTORS
330
47
102
}
330
47
100
AcDbScale
 70
     0
300
1:20
140
1.0
141
20.0
290
     0
  0
SCALE
  5
50
102
{ACAD_REACTORS
330
47
102
}
330
47
100
AcDbScale
 70
     0
300
1:30
140
1.0
141
30.0
290
     0
  0
SCALE
  5
51
102
{ACAD_REACTORS
330
47
102
}
330
47
100
AcDbScale
 70
     0
300
1:40
140
1.0
141
40.0
290
     0
  0
SCALE
  5
52
102
{ACAD_REACTORS
330
47
102
}
330
47
100
AcDbScale
 70
     0
300
1:50
140
1.0
141
50.0
290
     0
  0
SCALE
  5
53
102
{ACAD_REACTORS
330
47
102
}
330
47
100
AcDbScale
 70
     0
300
1:100
140
1.0
141
100.0
290
     0
  0
SCALE
  5
54
102
{ACAD_REACTORS
330
47
102
}
330
47
100
AcDbScale
 70
     0
300
2:1
140
2.0
141
1.0
290
     0
  0
SCALE
  5
55
102
{ACAD_REACTORS
330
47
102
}
330
47
100
AcDbScale
 70
     0
300
4:1
140
4.0
141
1.0
290
     0
  0
SCALE
  5
56
102
{ACAD_REACTORS
330
47
102
}
330
47
100
AcDbScale
 70
     0
300
8:1
140
8.0
141
1.0
290
     0
  0
SCALE
  5
57
102
{ACAD_REACTORS
330
47
102
}
330
47
100
AcDbScale
 70
     0
300
10:1
140
10.0
141
1.0
290
     0
  0
SCALE
  5
58
102
{ACAD_REACTORS
330
47
102
}
330
47
100
AcDbScale
 70
     0
300
100:1
140
100.0
141
1.0
290
     0
  0
SCALE
  5
59
102
{ACAD_REACTORS
330
47
102
}
330
47
100
AcDbScale
 70
     0
300
1/128" = 1'-0"
140
0.0078125
141
12.0
290
     0
  0
SCALE
  5
5A
102
{ACAD_REACTORS
330
47
102
}
330
47
100
AcDbScale
 70
     0
300
1/64" = 1'-0"
140
0.015625
141
12.0
290
     0
  0
SCALE
  5
5B
102
{ACAD_REACTORS
330
47
102
}
330
47
100
AcDbScale
 70
     0
300
1/32" = 1'-0"
140
0.03125
141
12.0
290
     0
  0
SCALE
  5
5C
102
{ACAD_REACTORS
330
47
102
}
330
47
100
AcDbScale
 70
     0
300
1/16" = 1'-0"
140
0.0625
141
12.0
290
     0
  0
SCALE
  5
5D
102
{ACAD_REACTORS
330
47
102
}
330
47
100
AcDbScale
 70
     0
300
3/32" = 1'-0"
140
0.09375
141
12.0
290
     0
  0
SCALE
  5
5E
102
{ACAD_REACTORS
330
47
102
}
330
47
100
AcDbScale
 70
     0
300
1/8" = 1'-0"
140
0.125
141
12.0
290
     0
  0
SCALE
  5
5F
102
{ACAD_REACTORS
330
47
102
}
330
47
100
AcDbScale
 70
     0
300
3/16" = 1'-0"
140
0.1875
141
12.0
290
     0
  0
SCALE
  5
60
102
{ACAD_REACTORS
330
47
102
}
330
47
100
AcDbScale
 70
     0
300
1/4" = 1'-0"
140
0.25
141
12.0
290
     0
  0
SCALE
  5
61
102
{ACAD_REACTORS
330
47
102
}
330
47
100
AcDbScale
 70
     0
300
3/8" = 1'-0"
140
0.375
141
12.0
290
     0
  0
SCALE
  5
62
102
{ACAD_REACTORS
330
47
102
}
330
47
100
AcDbScale
 70
     0
300
1/2" = 1'-0"
140
0.5
141
12.0
290
     0
  0
SCALE
  5
63
102
{ACAD_REACTORS
330
47
102
}
330
47
100
AcDbScale
 70
     0
300
3/4" = 1'-0"
140
0.75
141
12.0
290
     0
  0
SCALE
  5
64
102
{ACAD_REACTORS
330
47
102
}
330
47
100
AcDbScale
 70
     0
300
1" = 1'-0"
140
1.0
141
12.0
290
     0
  0
SCALE
  5
65
102
{ACAD_REACTORS
330
47
102
}
330
47
100
AcDbScale
 70
     0
300
1-1/2" = 1'-0"
140
1.5
141
12.0
290
     0
  0
SCALE
  5
66
102
{ACAD_REACTORS
330
47
102
}
330
47
100
AcDbScale
 70
     0
300
3" = 1'-0"
140
3.0
141
12.0
290
     0
  0
SCALE
  5
67
102
{ACAD_REACTORS
330
47
102
}
330
47
100
AcDbScale
 70
     0
300
6" = 1'-0"
140
6.0
141
12.0
290
     0
  0
SCALE
  5
68
102
{ACAD_REACTORS
330
47
102
}
330
47
100
AcDbScale
 70
     0
300
1'-0" = 1'-0"
140
12.0
141
12.0
290
     0
  0
ENDSEC
  0
EOF
