  0
SECTION
  2
HEADER
  9
$ACADVER
  1
AC1015
  9
$ACADMAINTVER
 70
     6
  9
$DWGCODEPAGE
  3
ANSI_1252
  9
$INSBASE
 10
0.0
 20
0.0
 30
0.0
  9
$EXTMIN
 10
0.0
 20
0.0
 30
0.0
  9
$EXTMAX
 10
500.0
 20
1400.0
 30
0.0
  9
$LIMMIN
 10
0.0
 20
0.0
  9
$LIMMAX
 10
500.0
 20
1400.0
  9
$ORTHOMODE
 70
     0
  9
$REGENMODE
 70
     1
  9
$FILLMODE
 70
     1
  9
$QTEXTMODE
 70
     0
  9
$MIRRTEXT
 70
     1
  9
$LTSCALE
 40
1.0
  9
$ATTMODE
 70
     1
  9
$TEXTSIZE
 40
3.5
  9
$TRACEWID
 40
1.0
  9
$TEXTSTYLE
  7
Standard
  9
$CLAYER
  8
0
  9
$CELTYPE
  6
ByLayer
  9
$CECOLOR
 62
   256
  9
$CELTSCALE
 40
1.0
  9
$DISPSILH
 70
     0
  9
$DIMSCALE
 40
1.0
  9
$DIMASZ
 40
3.302
  9
$DIMEXO
 40
1.0
  9
$DIMDLI
 40
3.75
  9
$DIMRND
 40
0.0
  9
$DIMDLE
 40
0.0
  9
$DIMEXE
 40
1.0
  9
$DIMTP
 40
0.0
  9
$DIMTM
 40
0.0
  9
$DIMTXT
 40
3.5
  9
$DIMCEN
 40
2.5
  9
$DIMTSZ
 40
0.0
  9
$DIMTOL
 70
     0
  9
$DIMLIM
 70
     0
  9
$DIMTIH
 70
     1
  9
$DIMTOH
 70
     1
  9
$DIMSE1
 70
     0
  9
$DIMSE2
 70
     0
  9
$DIMTAD
 70
     1
  9
$DIMZIN
 70
     0
  9
$DIMBLK
  1

  9
$DIMASO
 70
     1
  9
$DIMSHO
 70
     1
  9
$DIMPOST
  1

  9
$DIMAPOST
  1

  9
$DIMALT
 70
     0
  9
$DIMALTD
 70
     3
  9
$DIMALTF
 40
0.0393700787
  9
$DIMLFAC
 40
5.0
  9
$DIMTOFL
 70
     1
  9
$DIMTVP
 40
0.0
  9
$DIMTIX
 70
     0
  9
$DIMSOXD
 70
     0
  9
$DIMSAH
 70
     0
  9
$DIMBLK1
  1

  9
$DIMBLK2
  1

  9
$DIMSTYLE
  2
ISO-25
  9
$DIMCLRD
 70
     0
  9
$DIMCLRE
 70
     0
  9
$DIMCLRT
 70
     0
  9
$DIMTFAC
 40
1.0
  9
$DIMGAP
 40
5.0
  9
$DIMJUST
 70
     0
  9
$DIMSD1
 70
     0
  9
$DIMSD2
 70
     0
  9
$DIMTOLJ
 70
     0
  9
$DIMTZIN
 70
     0
  9
$DIMALTZ
 70
     0
  9
$DIMALTTZ
 70
     0
  9
$DIMUPT
 70
     0
  9
$DIMDEC
 70
     1
  9
$DIMTDEC
 70
     1
  9
$DIMALTU
 70
     2
  9
$DIMALTTD
 70
     3
  9
$DIMTXSTY
  7
Standard
  9
$DIMAUNIT
 70
     0
  9
$DIMADEC
 70
     1
  9
$DIMALTRND
 40
0.0
  9
$DIMAZIN
 70
     0
  9
$DIMDSEP
 70
    44
  9
$DIMATFIT
 70
     3
  9
$DIMFRAC
 70
     0
  9
$DIMLDRBLK
  1

  9
$DIMLUNIT
 70
     2
  9
$DIMLWD
 70
    -2
  9
$DIMLWE
 70
    -2
  9
$DIMTMOVE
 70
     0
  9
$LUNITS
 70
     2
  9
$LUPREC
 70
     1
  9
$SKETCHINC
 40
1.0
  9
$FILLETRAD
 40
10.0
  9
$AUNITS
 70
     0
  9
$AUPREC
 70
     1
  9
$MENU
  1
.
  9
$ELEVATION
 40
0.0
  9
$PELEVATION
 40
0.0
  9
$THICKNESS
 40
0.0
  9
$LIMCHECK
 70
     0
  9
$CHAMFERA
 40
0.0
  9
$CHAMFERB
 40
0.0
  9
$CHAMFERC
 40
0.0
  9
$CHAMFERD
 40
0.0
  9
$SKPOLY
 70
     0
  9
$TDCREATE
 40
2458136.409709259
  9
$TDUCREATE
 40
2458136.409709259
  9
$TDUPDATE
 40
2458136.409710706
  9
$TDUUPDATE
 40
2458136.409710706
  9
$TDINDWG
 40
0.0000000116
  9
$TDUSRTIMER
 40
0.0000000116
  9
$USRTIMER
 70
     1
  9
$ANGBASE
 50
0.0
  9
$ANGDIR
 70
     0
  9
$PDMODE
 70
     0
  9
$PDSIZE
 40
-1.0
  9
$PLINEWID
 40
0.0
  9
$SPLFRAME
 70
     0
  9
$SPLINETYPE
 70
     6
  9
$SPLINESEGS
 70
     8
  9
$HANDSEED
  5
3B1
  9
$SURFTAB1
 70
     6
  9
$SURFTAB2
 70
     6
  9
$SURFTYPE
 70
     6
  9
$SURFU
 70
     6
  9
$SURFV
 70
     6
  9
$UCSBASE
  2

  9
$UCSNAME
  2

  9
$UCSORG
 10
0.0
 20
0.0
 30
0.0
  9
$UCSXDIR
 10
1.0
 20
0.0
 30
0.0
  9
$UCSYDIR
 10
0.0
 20
1.0
 30
0.0
  9
$UCSORTHOREF
  2

  9
$UCSORTHOVIEW
 70
     0
  9
$UCSORGTOP
 10
0.0
 20
0.0
 30
0.0
  9
$UCSORGBOTTOM
 10
0.0
 20
0.0
 30
0.0
  9
$UCSORGLEFT
 10
0.0
 20
0.0
 30
0.0
  9
$UCSORGRIGHT
 10
0.0
 20
0.0
 30
0.0
  9
$UCSORGFRONT
 10
0.0
 20
0.0
 30
0.0
  9
$UCSORGBACK
 10
0.0
 20
0.0
 30
0.0
  9
$PUCSBASE
  2

  9
$PUCSNAME
  2

  9
$PUCSORG
 10
0.0
 20
0.0
 30
0.0
  9
$PUCSXDIR
 10
1.0
 20
0.0
 30
0.0
  9
$PUCSYDIR
 10
0.0
 20
1.0
 30
0.0
  9
$PUCSORTHOREF
  2

  9
$PUCSORTHOVIEW
 70
     0
  9
$PUCSORGTOP
 10
0.0
 20
0.0
 30
0.0
  9
$PUCSORGBOTTOM
 10
0.0
 20
0.0
 30
0.0
  9
$PUCSORGLEFT
 10
0.0
 20
0.0
 30
0.0
  9
$PUCSORGRIGHT
 10
0.0
 20
0.0
 30
0.0
  9
$PUCSORGFRONT
 10
0.0
 20
0.0
 30
0.0
  9
$PUCSORGBACK
 10
0.0
 20
0.0
 30
0.0
  9
$USERI1
 70
     0
  9
$USERI2
 70
     0
  9
$USERI3
 70
     0
  9
$USERI4
 70
     0
  9
$USERI5
 70
     0
  9
$USERR1
 40
0.0
  9
$USERR2
 40
0.0
  9
$USERR3
 40
0.0
  9
$USERR4
 40
0.0
  9
$USERR5
 40
0.0
  9
$WORLDVIEW
 70
     1
  9
$SHADEDGE
 70
     3
  9
$SHADEDIF
 70
    70
  9
$TILEMODE
 70
     1
  9
$MAXACTVP
 70
    64
  9
$PINSBASE
 10
0.0
 20
0.0
 30
0.0
  9
$PLIMCHECK
 70
     0
  9
$PEXTMIN
 10
1.0000000000E+20
 20
1.0000000000E+20
 30
1.0000000000E+20
  9
$PEXTMAX
 10
-1.0000000000E+20
 20
-1.0000000000E+20
 30
-1.0000000000E+20
  9
$PLIMMIN
 10
0.0
 20
0.0
  9
$PLIMMAX
 10
420.0
 20
297.0
  9
$UNITMODE
 70
     0
  9
$VISRETAIN
 70
     1
  9
$PLINEGEN
 70
     0
  9
$PSLTSCALE
 70
     1
  9
$TREEDEPTH
 70
  3020
  9
$CMLSTYLE
  2
Standard
  9
$CMLJUST
 70
     0
  9
$CMLSCALE
 40
20.0
  9
$PROXYGRAPHICS
 70
     1
  9
$MEASUREMENT
 70
     1
  9
$CELWEIGHT
370
    -1
  9
$ENDCAPS
280
     0
  9
$JOINSTYLE
280
     0
  9
$LWDISPLAY
290
     1
  9
$INSUNITS
 70
     4
  9
$HYPERLINKBASE
  1

  9
$STYLESHEET
  1

  9
$XEDIT
290
     1
  9
$CEPSNTYPE
380
     0
  9
$PSTYLEMODE
290
     1
  9
$FINGERPRINTGUID
  2
{3D051370-8454-4E2F-BC48-9FC9C53E050F}
  9
$VERSIONGUID
  2
{FAEB1C32-E019-11D5-929B-00C0DF256EC4}
  9
$EXTNAMES
290
     1
  9
$PSVPSCALE
 40
0.0
  9
$OLESTARTUP
290
     0
  0
ENDSEC
  0
SECTION
  2
CLASSES
  0
CLASS
  1
ACDBDICTIONARYWDFLT
  2
AcDbDictionaryWithDefault
  3
ObjectDBX Classes
 90
        0
280
     0
281
     0
  0
CLASS
  1
VISUALSTYLE
  2
AcDbVisualStyle
  3
ObjectDBX Classes
 90
     4095
280
     0
281
     0
  0
CLASS
  1
MATERIAL
  2
AcDbMaterial
  3
ObjectDBX Classes
 90
     1153
280
     0
281
     0
  0
CLASS
  1
SCALE
  2
AcDbScale
  3
ObjectDBX Classes
 90
     1153
280
     0
281
     0
  0
CLASS
  1
TABLESTYLE
  2
AcDbTableStyle
  3
ObjectDBX Classes
 90
     4095
280
     0
281
     0
  0
CLASS
  1
MLEADERSTYLE
  2
AcDbMLeaderStyle
  3
ACDB_MLEADERSTYLE_CLASS
 90
     4095
280
     0
281
     0
  0
CLASS
  1
SUN
  2
AcDbSun
  3
SCENEOE
 90
     1153
280
     0
281
     0
  0
CLASS
  1
ACDBPLACEHOLDER
  2
AcDbPlaceHolder
  3
ObjectDBX Classes
 90
        0
280
     0
281
     0
  0
CLASS
  1
LAYOUT
  2
AcDbLayout
  3
ObjectDBX Classes
 90
        0
280
     0
281
     0
  0
ENDSEC
  0
SECTION
  2
TABLES
  0
TABLE
  2
VPORT
  5
8
330
0
100
AcDbSymbolTable
 70
     1
  0
VPORT
  5
29
330
8
100
AcDbSymbolTableRecord
100
AcDbViewportTableRecord
  2
*Active
 70
     0
 10
0.0
 20
0.0
 11
1.0
 21
1.0
 12
250.0
 22
700.0
 13
0.0
 23
0.0
 14
10.0
 24
10.0
 15
10.0
 25
10.0
 16
0.0
 26
0.0
 36
1.0
 17
0.0
 27
0.0
 37
0.0
 40
1400.0
 41
0.3571428571
 42
50.0
 43
0.0
 44
0.0
 50
0.0
 51
0.0
 71
     0
 72
  2000
 73
     1
 74
     3
 75
     0
 76
     0
 77
     0
 78
     0
281
     0
 65
     1
110
0.0
120
0.0
130
0.0
111
1.0
121
0.0
131
0.0
112
0.0
122
1.0
132
0.0
 79
     0
146
0.0
  0
ENDTAB
  0
TABLE
  2
LTYPE
  5
5
330
0
100
AcDbSymbolTable
 70
     6
  0
LTYPE
  5
14
330
5
100
AcDbSymbolTableRecord
100
AcDbLinetypeTableRecord
  2
ByBlock
 70
     0
  3

 72
    65
 73
     0
 40
0.0
  0
LTYPE
  5
15
330
5
100
AcDbSymbolTableRecord
100
AcDbLinetypeTableRecord
  2
ByLayer
 70
     0
  3

 72
    65
 73
     0
 40
0.0
  0
LTYPE
  5
16
330
5
100
AcDbSymbolTableRecord
100
AcDbLinetypeTableRecord
  2
Continuous
 70
     0
  3
Solid line
 72
    65
 73
     0
 40
0.0
  0
LTYPE
  5
6E
330
5
100
AcDbSymbolTableRecord
100
AcDbLinetypeTableRecord
  2
HIDDEN
 70
     0
  3
Hidden __ __ __ __ __ __ __ __ __ __ __ __ __ __
 72
    65
 73
     2
 40
1.905
 49
1.27
 74
     0
 49
-0.635
 74
     0
  0
LTYPE
  5
6F
330
5
100
AcDbSymbolTableRecord
100
AcDbLinetypeTableRecord
  2
PHANTOM
 70
     0
  3
Phantom ______  __  __  ______  __  __  ______
 72
    65
 73
     6
 40
12.7
 49
6.35
 74
     0
 49
-1.27
 74
     0
 49
1.27
 74
     0
 49
-1.27
 74
     0
 49
1.27
 74
     0
 49
-1.27
 74
     0
  0
LTYPE
  5
70
330
5
100
AcDbSymbolTableRecord
100
AcDbLinetypeTableRecord
  2
CENTER
 70
     0
  3
Center ____ _ ____ _ ____ _ ____ _ ____ _ ____
 72
    65
 73
     4
 40
10.16
 49
6.35
 74
     0
 49
-1.27
 74
     0
 49
1.27
 74
     0
 49
-1.27
 74
     0
  0
LTYPE
  5
71
330
5
100
AcDbSymbolTableRecord
100
AcDbLinetypeTableRecord
  2
CENTERX2
 70
     0
  3
Center (2x) ________  __  ________  __  _____
 72
    65
 73
     4
 40
20.32
 49
12.7
 74
     0
 49
-2.54
 74
     0
 49
2.54
 74
     0
 49
-2.54
 74
     0
  0
LTYPE
  5
72
330
5
100
AcDbSymbolTableRecord
100
AcDbLinetypeTableRecord
  2
DOT2
 70
     0
  3
Dot (.5x) ........................................
 72
    65
 73
     2
 40
0.635
 49
0.0
 74
     0
 49
-0.635
 74
     0
  0
ENDTAB
  0
TABLE
  2
LAYER
  5
2
330
0
100
AcDbSymbolTable
 70
     4
  0
LAYER
  5
10
330
2
100
AcDbSymbolTableRecord
100
AcDbLayerTableRecord
  2
0
 70
     0
 62
     7
  6
Continuous
370
    -3
390
F
  0
LAYER
  5
73
330
2
100
AcDbSymbolTableRecord
100
AcDbLayerTableRecord
  2
FORMAT
 70
     0
 62
     7
  6
Continuous
370
    -3
390
F
  0
LAYER
  5
74
330
2
100
AcDbSymbolTableRecord
100
AcDbLayerTableRecord
  2
SLD-0
 70
     0
 62
     1
  6
Continuous
370
    -3
390
F
  0
LAYER
  5
75
330
2
100
AcDbSymbolTableRecord
100
AcDbLayerTableRecord
  2
WATERMARK
 70
     0
 62
     1
  6
Continuous
370
    -3
390
F
  0
ENDTAB
  0
TABLE
  2
STYLE
  5
3
330
0
100
AcDbSymbolTable
 70
     1
  0
STYLE
  5
11
330
3
100
AcDbSymbolTableRecord
100
AcDbTextStyleTableRecord
  2
Standard
 70
     0
 40
0.0
 41
1.0
 50
0.0
 71
     0
 42
3.5
  3
txt
  4

  0
ENDTAB
  0
TABLE
  2
VIEW
  5
6
330
0
100
AcDbSymbolTable
 70
     0
  0
ENDTAB
  0
TABLE
  2
UCS
  5
7
330
0
100
AcDbSymbolTable
 70
     0
  0
ENDTAB
  0
TABLE
  2
APPID
  5
9
330
0
100
AcDbSymbolTable
 70
     1
  0
APPID
  5
12
330
9
100
AcDbSymbolTableRecord
100
AcDbRegAppTableRecord
  2
ACAD
 70
     0
  0
ENDTAB
  0
TABLE
  2
DIMSTYLE
  5
A
330
0
100
AcDbSymbolTable
 70
     1
100
AcDbDimStyleTable
  0
DIMSTYLE
105
27
330
A
100
AcDbSymbolTableRecord
100
AcDbDimStyleTableRecord
  2
ISO-25
 70
     0
 41
2.5
 42
0.625
 43
3.75
 44
1.25
 73
     0
 74
     0
 77
     1
 78
     8
140
2.5
141
2.5
143
0.0393700787
147
0.625
171
     3
172
     1
178
     0
271
     2
272
     2
274
     3
278
    44
283
     0
284
     8
340
11
  0
ENDTAB
  0
TABLE
  2
BLOCK_RECORD
  5
1
330
0
100
AcDbSymbolTable
 70
     1
  0
BLOCK_RECORD
  5
1F
330
1
100
AcDbSymbolTableRecord
100
AcDbBlockTableRecord
  2
*Model_Space
340
22
  0
BLOCK_RECORD
  5
1B
330
1
100
AcDbSymbolTableRecord
100
AcDbBlockTableRecord
  2
*Paper_Space
340
1E
  0
BLOCK_RECORD
  5
23
330
1
100
AcDbSymbolTableRecord
100
AcDbBlockTableRecord
  2
*Paper_Space0
340
26
  0
ENDTAB
  0
ENDSEC
  0
SECTION
  2
BLOCKS
  0
BLOCK
  5
20
330
1F
100
AcDbEntity
  8
0
100
AcDbBlockBegin
  2
*Model_Space
 70
     0
 10
0.0
 20
0.0
 30
0.0
  3
*Model_Space
  1

  0
ENDBLK
  5
21
330
1F
100
AcDbEntity
  8
0
100
AcDbBlockEnd
  0
BLOCK
  5
1C
330
1B
100
AcDbEntity
 67
     1
  8
0
100
AcDbBlockBegin
  2
*Paper_Space
 70
     0
 10
0.0
 20
0.0
 30
0.0
  3
*Paper_Space
  1

  0
ENDBLK
  5
1D
330
1B
100
AcDbEntity
 67
     1
  8
0
100
AcDbBlockEnd
  0
BLOCK
  5
24
330
23
100
AcDbEntity
  8
0
100
AcDbBlockBegin
  2
*Paper_Space0
 70
     0
 10
0.0
 20
0.0
 30
0.0
  3
*Paper_Space0
  1

  0
ENDBLK
  5
25
330
23
100
AcDbEntity
  8
0
100
AcDbBlockEnd
  0
ENDSEC
  0
SECTION
  2
ENTITIES
  0
LINE
  5
76
330
1F
100
AcDbEntity
  8
0
  6
Continuous
 62
     7
370
    25
100
AcDbLine
 10
331.8659935963
 20
1018.109917819
 30
0.0
 11
331.8659935963
 21
973.1099011297
 31
0.0
  0
LINE
  5
77
330
1F
100
AcDbEntity
  8
0
  6
Continuous
 62
     7
370
    25
100
AcDbLine
 10
343.8659955632
 20
973.1099011297
 30
0.0
 11
343.8659955632
 21
1018.109917819
 31
0.0
  0
LINE
  5
78
330
1F
100
AcDbEntity
  8
0
  6
Continuous
 62
     7
370
    25
100
AcDbLine
 10
331.8659935963
 20
1113.1099464292
 30
0.0
 11
331.8659935963
 21
1055.6099416609
 31
0.0
  0
LINE
  5
79
330
1F
100
AcDbEntity
  8
0
  6
Continuous
 62
     7
370
    25
100
AcDbLine
 10
331.8659935963
 20
1049.6098996992
 30
0.0
 11
331.8659935963
 21
1018.109917819
 31
0.0
  0
LINE
  5
7A
330
1F
100
AcDbEntity
  8
0
  6
Continuous
 62
     7
370
    25
100
AcDbLine
 10
343.8659955632
 20
1018.109917819
 30
0.0
 11
343.8659955632
 21
1049.6098996992
 31
0.0
  0
LINE
  5
7B
330
1F
100
AcDbEntity
  8
0
  6
Continuous
 62
     7
370
    25
100
AcDbLine
 10
343.8659955632
 20
1055.6099416609
 30
0.0
 11
343.8659955632
 21
1113.1099464292
 31
0.0
  0
SPLINE
  5
7C
330
1F
100
AcDbEntity
  8
0
  6
Continuous
 62
     7
370
    25
100
AcDbSpline
210
0.0
220
0.0
230
1.0
 70
     8
 71
     3
 72
    12
 73
     8
 74
     0
 42
0.000000001
 43
0.00000001
 40
0.0
 40
0.0
 40
0.0
 40
0.0
 40
0.2508373766272139
 40
0.5356712410874335
 40
0.7059321881453466
 40
0.8486474407012193
 40
0.9999999999999999
 40
0.9999999999999999
 40
0.9999999999999999
 40
0.9999999999999999
 10
342.9234896671518
 20
969.8626996869866
 30
0.0
 10
343.0370556640711
 20
970.0180921296692
 30
0.0
 10
343.2795794830214
 20
970.3499376614102
 30
0.0
 10
343.5760959284166
 20
970.513517909482
 30
0.0
 10
344.048922540233
 20
970.6189966636387
 30
0.0
 10
344.5897347175656
 20
970.6025876231604
 30
0.0
 10
344.8668424991087
 20
970.5910868646612
 30
0.0
 10
345.0094659697756
 20
970.5851675863091
 30
0.0
  0
SPLINE
  5
7D
330
1F
100
AcDbEntity
  8
0
  6
Continuous
 62
     7
370
    25
100
AcDbSpline
210
0.0
220
0.0
230
1.0
 70
     8
 71
     3
 72
    10
 73
     6
 74
     0
 42
0.000000001
 43
0.00000001
 40
0.0
 40
0.0
 40
0.0
 40
0.0
 40
0.2503258084846375
 40
0.6141532044683684
 40
0.9999999999999999
 40
0.9999999999999999
 40
0.9999999999999999
 40
0.9999999999999999
 10
331.86599359629
 20
975.658297717077
 30
0.0
 10
331.7922880343708
 20
975.6410533496753
 30
0.0
 10
331.6114576704788
 20
975.5987457523767
 30
0.0
 10
331.138463465774
 20
975.6186166399451
 30
0.0
 10
330.863858510253
 20
975.6292311422371
 30
0.0
 10
330.7225231897577
 20
975.6346942777459
 30
0.0
  0
SPLINE
  5
7E
330
1F
100
AcDbEntity
  8
0
  6
Continuous
 62
     7
370
    25
100
AcDbSpline
210
0.0
220
0.0
230
1.0
 70
     8
 71
     3
 72
    19
 73
    15
 74
     0
 42
0.000000001
 43
0.00000001
 40
0.0
 40
0.0
 40
0.0
 40
0.0
 40
0.0741262730470763
 40
0.1455051573477933
 40
0.213711949614006
 40
0.2773785239481278
 40
0.3869479394473521
 40
0.4697470291853464
 40
0.5678121276659749
 40
0.6314620828960129
 40
0.7030871231926691
 40
0.7811331446051153
 40
0.8644720390565813
 40
1.0
 40
1.0
 40
1.0
 40
1.0
 10
330.7912100922808
 20
975.634396254522
 30
0.0
 10
330.568368709331
 20
975.6269702479957
 30
0.0
 10
330.1309452539642
 20
975.6123934697006
 30
0.0
 10
329.5217352942195
 20
975.3800783807897
 30
0.0
 10
329.0117384828733
 20
975.0342026956071
 30
0.0
 10
328.5196114084617
 20
974.4900230716237
 30
0.0
 10
328.1918621667106
 20
973.764668495594
 30
0.0
 10
328.1236776613276
 20
972.8734114024564
 30
0.0
 10
328.3131217229629
 20
972.1417838488027
 30
0.0
 10
328.676322163935
 20
971.5408756255695
 30
0.0
 10
329.1281167280785
 20
971.0867547120387
 30
0.0
 10
329.725788362196
 20
970.7371710190899
 30
0.0
 10
330.5951371451001
 20
970.5325263098364
 30
0.0
 10
331.1679304237903
 20
970.5842147812532
 30
0.0
 10
331.5226186883196
 20
970.6162216062371
 30
0.0
  0
SPLINE
  5
7F
330
1F
100
AcDbEntity
  8
0
  6
Continuous
 62
     7
370
    25
100
AcDbSpline
210
0.0
220
0.0
230
1.0
 70
     8
 71
     3
 72
     9
 73
     5
 74
     0
 42
0.000000001
 43
0.00000001
 40
0.0
 40
0.0
 40
0.0
 40
0.0
 40
0.5632062668145719
 40
1.0
 40
1.0
 40
1.0
 40
1.0
 10
331.593220390056
 20
970.6201555127923
 30
0.0
 10
331.8794827555664
 20
970.5885960010021
 30
0.0
 10
332.3877554477887
 20
970.5325605595492
 30
0.0
 10
332.6888255016103
 20
970.0566339573891
 30
0.0
 10
332.8203310143694
 20
969.8487522001092
 30
0.0
  0
SPLINE
  5
80
330
1F
100
AcDbEntity
  8
0
  6
Continuous
 62
     7
370
    25
100
AcDbSpline
210
0.0
220
0.0
230
1.0
 70
     8
 71
     3
 72
    19
 73
    15
 74
     0
 42
0.000000001
 43
0.00000001
 40
0.0
 40
0.0
 40
0.0
 40
0.0
 40
0.0741263656723677
 40
0.1455055566495211
 40
0.2137126419634074
 40
0.2773794898383435
 40
0.3869434246817053
 40
0.4697493994371841
 40
0.5678149192504689
 40
0.631465147949918
 40
0.7030859448765074
 40
0.7811323016104701
 40
0.8644715541240635
 40
0.9999999999999999
 40
0.9999999999999999
 40
0.9999999999999999
 40
0.9999999999999999
 10
344.9407865178331
 20
970.5854060048882
 30
0.0
 10
345.1636249345185
 20
970.5928573674416
 30
0.0
 10
345.6010432210971
 20
970.607483939867
 30
0.0
 10
346.210253987411
 20
970.8397797380467
 30
0.0
 10
346.7202513783907
 20
971.1856597394271
 30
0.0
 10
347.2123621195451
 20
971.729826509253
 30
0.0
 10
347.5401438789117
 20
972.4551670155905
 30
0.0
 10
347.6083109808291
 20
973.3464331500669
 30
0.0
 10
347.4188646177964
 20
974.0780735229526
 30
0.0
 10
347.0556834293658
 20
974.6789849523022
 30
0.0
 10
346.6038500237993
 20
975.133042342711
 30
0.0
 10
346.0062039181347
 20
975.4826364718396
 30
0.0
 10
345.1368510008043
 20
975.6872650437174
 30
0.0
 10
344.5640582881936
 20
975.6356201127147
 30
0.0
 10
344.2093704712137
 20
975.6036402578179
 30
0.0
  0
LINE
  5
81
330
1F
100
AcDbEntity
  8
0
  6
Continuous
 62
     7
370
    25
100
AcDbLine
 10
166.8659944904
 20
1113.1099464292
 30
0.0
 11
166.8659944904
 21
1055.6099416609
 31
0.0
  0
LINE
  5
82
330
1F
100
AcDbEntity
  8
0
  6
Continuous
 62
     7
370
    25
100
AcDbLine
 10
166.8659944904
 20
1049.6098996992
 30
0.0
 11
166.8659944904
 21
1018.109917819
 31
0.0
  0
LINE
  5
83
330
1F
100
AcDbEntity
  8
0
  6
Continuous
 62
     7
370
    25
100
AcDbLine
 10
178.8659964573
 20
1018.109917819
 30
0.0
 11
178.8659964573
 21
1049.6098996992
 31
0.0
  0
LINE
  5
84
330
1F
100
AcDbEntity
  8
0
  6
Continuous
 62
     7
370
    25
100
AcDbLine
 10
178.8659964573
 20
1055.6099416609
 30
0.0
 11
178.8659964573
 21
1113.1099464292
 31
0.0
  0
LINE
  5
85
330
1F
100
AcDbEntity
  8
0
  6
Continuous
 62
     7
370
    25
100
AcDbLine
 10
166.8659944904
 20
1018.109917819
 30
0.0
 11
166.8659944904
 21
973.1099011297
 31
0.0
  0
LINE
  5
86
330
1F
100
AcDbEntity
  8
0
  6
Continuous
 62
     7
370
    25
100
AcDbLine
 10
178.8659964573
 20
973.1099011297
 30
0.0
 11
178.8659964573
 21
1018.109917819
 31
0.0
  0
SPLINE
  5
87
330
1F
100
AcDbEntity
  8
0
  6
Continuous
 62
     7
370
    25
100
AcDbSpline
210
0.0
220
0.0
230
1.0
 70
     8
 71
     3
 72
    12
 73
     8
 74
     0
 42
0.000000001
 43
0.00000001
 40
0.0
 40
0.0
 40
0.0
 40
0.0
 40
0.2508373766272139
 40
0.5356712410874335
 40
0.7059321881453466
 40
0.8486474407012193
 40
0.9999999999999999
 40
0.9999999999999999
 40
0.9999999999999999
 40
0.9999999999999999
 10
177.9234905612215
 20
969.8626996869866
 30
0.0
 10
178.0370565581408
 20
970.0180921296692
 30
0.0
 10
178.279580377091
 20
970.3499376614102
 30
0.0
 10
178.5760968224863
 20
970.513517909482
 30
0.0
 10
179.0489234343027
 20
970.6189966636387
 30
0.0
 10
179.5897356116353
 20
970.6025876231604
 30
0.0
 10
179.8668433931783
 20
970.5910868646612
 30
0.0
 10
180.0094668638453
 20
970.5851675863091
 30
0.0
  0
SPLINE
  5
88
330
1F
100
AcDbEntity
  8
0
  6
Continuous
 62
     7
370
    25
100
AcDbSpline
210
0.0
220
0.0
230
1.0
 70
     8
 71
     3
 72
    10
 73
     6
 74
     0
 42
0.000000001
 43
0.00000001
 40
0.0
 40
0.0
 40
0.0
 40
0.0
 40
0.2503258084846375
 40
0.6141532044683684
 40
0.9999999999999999
 40
0.9999999999999999
 40
0.9999999999999999
 40
0.9999999999999999
 10
166.8659944903597
 20
975.658297717077
 30
0.0
 10
166.7922889284405
 20
975.6410533496753
 30
0.0
 10
166.6114585645486
 20
975.5987457523767
 30
0.0
 10
166.1384643598436
 20
975.6186166399451
 30
0.0
 10
165.8638594043227
 20
975.6292311422371
 30
0.0
 10
165.7225240838274
 20
975.6346942777459
 30
0.0
  0
SPLINE
  5
89
330
1F
100
AcDbEntity
  8
0
  6
Continuous
 62
     7
370
    25
100
AcDbSpline
210
0.0
220
0.0
230
1.0
 70
     8
 71
     3
 72
    19
 73
    15
 74
     0
 42
0.000000001
 43
0.00000001
 40
0.0
 40
0.0
 40
0.0
 40
0.0
 40
0.0741255282386677
 40
0.1455044699593024
 40
0.21371131709368
 40
0.2773779426436411
 40
0.3869474462847141
 40
0.4697466026294783
 40
0.5678117799974407
 40
0.631461786429949
 40
0.7030868843445403
 40
0.7811329685402055
 40
0.8644719300326811
 40
1.0
 40
1.0
 40
1.0
 40
1.0
 10
165.7912035357699
 20
975.634396254522
 30
0.0
 10
165.5683646908625
 20
975.6269699931813
 30
0.0
 10
165.1309438888118
 20
975.6123926370959
 30
0.0
 10
164.5217361797788
 20
975.3800783702876
 30
0.0
 10
164.011739378977
 20
975.0342026981169
 30
0.0
 10
163.5196123015581
 20
974.4900230704226
 30
0.0
 10
163.1918630610123
 20
973.7646684958804
 30
0.0
 10
163.1236785553303
 20
972.8734114023737
 30
0.0
 10
163.3131226170444
 20
972.1417838488172
 30
0.0
 10
163.6763230580018
 20
971.5408756255658
 30
0.0
 10
164.1281176221491
 20
971.0867547120397
 30
0.0
 10
164.7257892562654
 20
970.7371710190896
 30
0.0
 10
165.5951380391698
 20
970.5325263098364
 30
0.0
 10
166.1679313178601
 20
970.5842147812531
 30
0.0
 10
166.5226195823893
 20
970.6162216062371
 30
0.0
  0
SPLINE
  5
8A
330
1F
100
AcDbEntity
  8
0
  6
Continuous
 62
     7
370
    25
100
AcDbSpline
210
0.0
220
0.0
230
1.0
 70
     8
 71
     3
 72
     9
 73
     5
 74
     0
 42
0.000000001
 43
0.00000001
 40
0.0
 40
0.0
 40
0.0
 40
0.0
 40
0.5632063164996572
 40
1.0
 40
1.0
 40
1.0
 40
1.0
 10
166.5932138335451
 20
970.6201555127923
 30
0.0
 10
166.8794802750474
 20
970.5885960182055
 30
0.0
 10
167.3877601595512
 20
970.5325606122411
 30
0.0
 10
167.6888223811316
 20
970.0566339569499
 30
0.0
 10
167.8203244578585
 20
969.8487522001092
 30
0.0
  0
SPLINE
  5
8B
330
1F
100
AcDbEntity
  8
0
  6
Continuous
 62
     7
370
    25
100
AcDbSpline
210
0.0
220
0.0
230
1.0
 70
     8
 71
     3
 72
    19
 73
    15
 74
     0
 42
0.000000001
 43
0.00000001
 40
0.0
 40
0.0
 40
0.0
 40
0.0
 40
0.0741271104768901
 40
0.1455062440341729
 40
0.2137132744799393
 40
0.2773800711390782
 40
0.3869439178454512
 40
0.4697498259889624
 40
0.5678152669149781
 40
0.631465444411999
 40
0.7030861837243618
 40
0.781132477675157
 40
0.864471663147796
 40
1.0
 40
1.0
 40
1.0
 40
1.0
 10
179.9407799613222
 20
970.5854060048882
 30
0.0
 10
180.163620916053
 20
970.5928571126548
 30
0.0
 10
180.6010418559935
 20
970.6074831070855
 30
0.0
 10
181.2102548729612
 20
970.8397797276089
 30
0.0
 10
181.7202522744966
 20
971.1856597419218
 30
0.0
 10
182.2123630126404
 20
971.7298265080593
 30
0.0
 10
182.5401447732136
 20
972.455167015875
 30
0.0
 10
182.6083118748318
 20
973.3464331499848
 30
0.0
 10
182.4188655118779
 20
974.078073522967
 30
0.0
 10
182.0556843234326
 20
974.6789849522986
 30
0.0
 10
181.6038509178699
 20
975.1330423427121
 30
0.0
 10
181.0062048122041
 20
975.4826364718391
 30
0.0
 10
180.1368518948741
 20
975.6872650437174
 30
0.0
 10
179.5640591822633
 20
975.6356201127148
 30
0.0
 10
179.2093713652834
 20
975.6036402578179
 30
0.0
  0
LINE
  5
8C
330
1F
100
AcDbEntity
  8
0
  6
Continuous
 62
     7
370
    25
100
AcDbLine
 10
163.1159980666
 20
1133.1099273557
 30
0.0
 11
163.1159980666
 21
1129.7346355314
 31
0.0
  0
LINE
  5
8D
330
1F
100
AcDbEntity
  8
0
  6
Continuous
 62
     7
370
    25
100
AcDbLine
 10
182.615992881
 20
1129.7346355314
 30
0.0
 11
182.615992881
 21
1133.1099273557
 31
0.0
  0
LINE
  5
8E
330
1F
100
AcDbEntity
  8
0
  6
Continuous
 62
     7
370
    25
100
AcDbLine
 10
182.615992881
 20
1133.1099273557
 30
0.0
 11
180.8830921423
 21
1134.092152297
 31
0.0
  0
LINE
  5
8F
330
1F
100
AcDbEntity
  8
0
  6
Continuous
 62
     7
370
    25
100
AcDbLine
 10
164.836575545
 20
1134.0851785536
 30
0.0
 11
163.1159980666
 21
1133.1099273557
 31
0.0
  0
ARC
  5
90
330
1F
100
AcDbEntity
  8
0
  6
Continuous
 62
     7
370
    25
100
AcDbCircle
 10
168.1159950268
 20
1129.7346273379
 30
0.0
 40
5.000000000000028
100
AcDbArc
 50
180.0
 51
194.2434605735
  0
ARC
  5
91
330
1F
100
AcDbEntity
  8
0
  6
Continuous
 62
     7
370
    25
100
AcDbCircle
 10
177.6159950268
 20
1129.7346273379
 30
0.0
 40
5.0
100
AcDbArc
 50
345.7565394265
 51
0.0
  0
LINE
  5
92
330
1F
100
AcDbEntity
  8
0
  6
Continuous
 62
     7
370
    25
100
AcDbLine
 10
163.2697035444
 20
1128.5043956632
 30
0.0
 11
164.6122907173
 21
1123.2154371137
 31
0.0
  0
LINE
  5
93
330
1F
100
AcDbEntity
  8
0
  6
Continuous
 62
     7
370
    25
100
AcDbLine
 10
181.1197002303
 20
1123.2154371137
 30
0.0
 11
182.4622874033
 21
1128.5043956632
 31
0.0
  0
ARC
  5
94
330
1F
100
AcDbEntity
  8
0
  6
Continuous
 62
     7
370
    25
100
AcDbCircle
 10
159.7659950268
 20
1121.9852098211
 30
0.0
 40
5.000000000000024
100
AcDbArc
 50
0.0
 51
14.2434605736
  0
ARC
  5
95
330
1F
100
AcDbEntity
  8
0
  6
Continuous
 62
     7
370
    25
100
AcDbCircle
 10
185.9659950268
 20
1121.9852098211
 30
0.0
 40
5.0
100
AcDbArc
 50
165.7565394265
 51
180.0
  0
LINE
  5
96
330
1F
100
AcDbEntity
  8
0
  6
Continuous
 62
     7
370
    25
100
AcDbLine
 10
164.7659961951
 20
1121.9851972456
 30
0.0
 11
164.7659961951
 21
1115.609944045
 31
0.0
  0
LINE
  5
97
330
1F
100
AcDbEntity
  8
0
  6
Continuous
 62
     7
370
    25
100
AcDbLine
 10
180.9659947526
 20
1115.609944045
 30
0.0
 11
180.9659947526
 21
1121.9851972456
 31
0.0
  0
LINE
  5
98
330
1F
100
AcDbEntity
  8
0
  6
Continuous
 62
     7
370
    25
100
AcDbLine
 10
164.8659978878
 20
1115.609944045
 30
0.0
 11
164.8659978878
 21
1113.3599283094
 31
0.0
  0
LINE
  5
99
330
1F
100
AcDbEntity
  8
0
  6
Continuous
 62
     7
370
    25
100
AcDbLine
 10
180.8659930598
 20
1113.3599283094
 30
0.0
 11
180.8659930598
 21
1115.609944045
 31
0.0
  0
LINE
  5
9A
330
1F
100
AcDbEntity
  8
0
  6
Continuous
 62
     7
370
    25
100
AcDbLine
 10
164.8659978878
 20
1113.3599283094
 30
0.0
 11
165.1159946692
 21
1113.1099464292
 31
0.0
  0
LINE
  5
9B
330
1F
100
AcDbEntity
  8
0
  6
Continuous
 62
     7
370
    25
100
AcDbLine
 10
180.6159962785
 20
1113.1099464292
 30
0.0
 11
180.8659930598
 21
1113.3599283094
 31
0.0
  0
ARC
  5
9C
330
1F
100
AcDbEntity
  8
0
  6
Continuous
 62
     7
370
    25
100
AcDbCircle
 10
164.3659988592
 20
1134.9678841403
 30
0.0
 40
0.9999926247766798
100
AcDbArc
 50
297.7806209366
 51
359.9851705462
  0
ARC
  5
9D
330
1F
100
AcDbEntity
  8
0
  6
Continuous
 62
     7
370
    25
100
AcDbCircle
 10
181.3660768394
 20
1134.9676768493
 30
0.0
 40
1.00008520950164
100
AcDbArc
 50
180.3171157419
 51
241.3038395757
  0
ARC
  5
9E
330
1F
100
AcDbEntity
  8
0
  6
Continuous
 62
     7
370
    25
100
AcDbCircle
 10
333.1159950268
 20
1129.7346273379
 30
0.0
 40
5.0
100
AcDbArc
 50
180.0
 51
194.2434605735
  0
ARC
  5
9F
330
1F
100
AcDbEntity
  8
0
  6
Continuous
 62
     7
370
    25
100
AcDbCircle
 10
342.6159950268
 20
1129.7346273379
 30
0.0
 40
5.0
100
AcDbArc
 50
345.7565394265
 51
0.0
  0
LINE
  5
A0
330
1F
100
AcDbEntity
  8
0
  6
Continuous
 62
     7
370
    25
100
AcDbLine
 10
347.615991987
 20
1133.1099273557
 30
0.0
 11
345.8830912482
 21
1134.092152297
 31
0.0
  0
LINE
  5
A1
330
1F
100
AcDbEntity
  8
0
  6
Continuous
 62
     7
370
    25
100
AcDbLine
 10
329.836574651
 20
1134.0851785536
 30
0.0
 11
328.1159971726
 21
1133.1099273557
 31
0.0
  0
LINE
  5
A2
330
1F
100
AcDbEntity
  8
0
  6
Continuous
 62
     7
370
    25
100
AcDbLine
 10
328.1159971726
 20
1133.1099273557
 30
0.0
 11
328.1159971726
 21
1129.7346355314
 31
0.0
  0
LINE
  5
A3
330
1F
100
AcDbEntity
  8
0
  6
Continuous
 62
     7
370
    25
100
AcDbLine
 10
347.615991987
 20
1129.7346355314
 30
0.0
 11
347.615991987
 21
1133.1099273557
 31
0.0
  0
LINE
  5
A4
330
1F
100
AcDbEntity
  8
0
  6
Continuous
 62
     7
370
    25
100
AcDbLine
 10
328.2697026503
 20
1128.5043956632
 30
0.0
 11
329.6122898233
 21
1123.2154371137
 31
0.0
  0
LINE
  5
A5
330
1F
100
AcDbEntity
  8
0
  6
Continuous
 62
     7
370
    25
100
AcDbLine
 10
346.1196993363
 20
1123.2154371137
 30
0.0
 11
347.4622865093
 21
1128.5043956632
 31
0.0
  0
ARC
  5
A6
330
1F
100
AcDbEntity
  8
0
  6
Continuous
 62
     7
370
    25
100
AcDbCircle
 10
324.7659950268
 20
1121.9852098211
 30
0.0
 40
5.0
100
AcDbArc
 50
0.0
 51
14.2434605735
  0
ARC
  5
A7
330
1F
100
AcDbEntity
  8
0
  6
Continuous
 62
     7
370
    25
100
AcDbCircle
 10
350.9659950268
 20
1121.9852098211
 30
0.0
 40
5.0
100
AcDbArc
 50
165.7565394265
 51
180.0
  0
LINE
  5
A8
330
1F
100
AcDbEntity
  8
0
  6
Continuous
 62
     7
370
    25
100
AcDbLine
 10
329.765995301
 20
1121.9851972456
 30
0.0
 11
329.765995301
 21
1115.609944045
 31
0.0
  0
LINE
  5
A9
330
1F
100
AcDbEntity
  8
0
  6
Continuous
 62
     7
370
    25
100
AcDbLine
 10
345.9659938586
 20
1115.609944045
 30
0.0
 11
345.9659938586
 21
1121.9851972456
 31
0.0
  0
LINE
  5
AA
330
1F
100
AcDbEntity
  8
0
  6
Continuous
 62
     7
370
    25
100
AcDbLine
 10
329.8659969938
 20
1113.3599283094
 30
0.0
 11
330.1159937751
 21
1113.1099464292
 31
0.0
  0
LINE
  5
AB
330
1F
100
AcDbEntity
  8
0
  6
Continuous
 62
     7
370
    25
100
AcDbLine
 10
345.6159953844
 20
1113.1099464292
 30
0.0
 11
345.8659921658
 21
1113.3599283094
 31
0.0
  0
LINE
  5
AC
330
1F
100
AcDbEntity
  8
0
  6
Continuous
 62
     7
370
    25
100
AcDbLine
 10
329.8659969938
 20
1115.609944045
 30
0.0
 11
329.8659969938
 21
1113.3599283094
 31
0.0
  0
LINE
  5
AD
330
1F
100
AcDbEntity
  8
0
  6
Continuous
 62
     7
370
    25
100
AcDbLine
 10
345.8659921658
 20
1113.3599283094
 30
0.0
 11
345.8659921658
 21
1115.609944045
 31
0.0
  0
ARC
  5
AE
330
1F
100
AcDbEntity
  8
0
  6
Continuous
 62
     7
370
    25
100
AcDbCircle
 10
329.3659744488
 20
1134.9679067598
 30
0.0
 40
1.000023597866489
100
AcDbArc
 50
297.7812089612
 51
359.9838750346
  0
ARC
  5
AF
330
1F
100
AcDbEntity
  8
0
  6
Continuous
 62
     7
370
    25
100
AcDbCircle
 10
346.3660513106
 20
1134.9676536106
 30
0.0
 40
1.000052996311967
100
AcDbArc
 50
180.3157945261
 51
241.3044383221
  0
LINE
  5
B0
330
1F
100
AcDbEntity
  8
0
  6
Continuous
 62
     7
370
    25
100
AcDbLine
 10
172.5251053345
 20
674.7560502882
 30
0.0
 11
172.5251053345
 21
673.1196047659
 31
0.0
  0
LINE
  5
B1
330
1F
100
AcDbEntity
  8
0
  6
Continuous
 62
     7
370
    25
100
AcDbLine
 10
172.5251053345
 20
666.6349174375
 30
0.0
 11
172.5251053345
 21
660.0786151285
 31
0.0
  0
LINE
  5
B2
330
1F
100
AcDbEntity
  8
0
  6
Continuous
 62
     7
370
    25
100
AcDbLine
 10
173.5251073611
 20
661.7503167982
 30
0.0
 11
173.5251073611
 21
662.7272369261
 31
0.0
  0
LINE
  5
B3
330
1F
100
AcDbEntity
  8
0
  6
Continuous
 62
     7
370
    25
100
AcDbLine
 10
173.5251073611
 20
665.6579973097
 30
0.0
 11
173.5251073611
 21
666.6349174375
 31
0.0
  0
LINE
  5
B4
330
1F
100
AcDbEntity
  8
0
  6
Continuous
 62
     7
370
    25
100
AcDbLine
 10
173.5251073611
 20
673.1462182398
 30
0.0
 11
173.5251073611
 21
674.7560502882
 31
0.0
  0
SPLINE
  5
B5
330
1F
100
AcDbEntity
  8
0
  6
Continuous
 62
     7
370
    25
100
AcDbSpline
210
0.0
220
0.0
230
1.0
 70
     8
 71
     3
 72
    10
 73
     6
 74
     0
 42
0.000000001
 43
0.00000001
 40
0.0
 40
0.0
 40
0.0
 40
0.0
 40
0.2987219175446064
 40
0.8831954642560327
 40
0.9999999999999999
 40
0.9999999999999999
 40
0.9999999999999999
 40
0.9999999999999999
 10
173.5251073610529
 20
674.7560502881829
 30
0.0
 10
173.5351447741157
 20
675.0502686322927
 30
0.0
 10
173.56482119613
 20
675.920148918127
 30
0.0
 10
173.7076635207347
 20
676.9133353038335
 30
0.0
 10
173.9644749466601
 20
677.5564227296746
 30
0.0
 10
174.0072493326411
 20
677.6635350580041
 30
0.0
  0
SPLINE
  5
B6
330
1F
100
AcDbEntity
  8
0
  6
Continuous
 62
     7
370
    25
100
AcDbSpline
210
0.0
220
0.0
230
1.0
 70
     8
 71
     3
 72
     9
 73
     5
 74
     0
 42
0.000000001
 43
0.00000001
 40
0.0
 40
0.0
 40
0.0
 40
0.0
 40
0.4873570362295159
 40
1.0
 40
1.0
 40
1.0
 40
1.0
 10
172.9862217676386
 20
677.7514519090478
 30
0.0
 10
172.851931143668
 20
677.2741158464858
 30
0.0
 10
172.5763823899051
 20
676.294677719861
 30
0.0
 10
172.5424834086926
 20
675.2774995300766
 30
0.0
 10
172.525105334495
 20
674.7560502881829
 30
0.0
  0
LINE
  5
B7
330
1F
100
AcDbEntity
  8
0
  6
Continuous
 62
     7
370
    25
100
AcDbLine
 10
337.5659932267
 20
675.8952738638
 30
0.0
 11
337.5659932267
 21
673.1174291963
 31
0.0
  0
LINE
  5
B8
330
1F
100
AcDbEntity
  8
0
  6
Continuous
 62
     7
370
    25
100
AcDbLine
 10
337.5659932267
 20
666.6349174375
 30
0.0
 11
337.5659932267
 21
660.0786747331
 31
0.0
  0
LINE
  5
B9
330
1F
100
AcDbEntity
  8
0
  6
Continuous
 62
     7
370
    25
100
AcDbLine
 10
338.5659952533
 20
661.7503167982
 30
0.0
 11
338.5659952533
 21
662.7272369261
 31
0.0
  0
LINE
  5
BA
330
1F
100
AcDbEntity
  8
0
  6
Continuous
 62
     7
370
    25
100
AcDbLine
 10
338.5659952533
 20
665.6579973097
 30
0.0
 11
338.5659952533
 21
666.6349174375
 31
0.0
  0
LINE
  5
BB
330
1F
100
AcDbEntity
  8
0
  6
Continuous
 62
     7
370
    25
100
AcDbLine
 10
338.5659952533
 20
673.1508972044
 30
0.0
 11
338.5659952533
 21
675.8952738638
 31
0.0
  0
SPLINE
  5
BC
330
1F
100
AcDbEntity
  8
0
  6
Continuous
 62
     7
370
    25
100
AcDbSpline
210
0.0
220
0.0
230
1.0
 70
     8
 71
     3
 72
     9
 73
     5
 74
     0
 42
0.000000001
 43
0.00000001
 40
0.0
 40
0.0
 40
0.0
 40
0.0
 40
0.4957526831982123
 40
0.9999999999999999
 40
0.9999999999999999
 40
0.9999999999999999
 40
0.9999999999999999
 10
338.5659952532991
 20
675.895273863775
 30
0.0
 10
338.569710076335
 20
676.1909998500455
 30
0.0
 10
338.5772033752354
 20
676.7875190344959
 30
0.0
 10
338.7060547970366
 20
677.369880733748
 30
0.0
 10
338.7710277807459
 20
677.6635350580041
 30
0.0
  0
LINE
  5
BD
330
1F
100
AcDbEntity
  8
0
  6
Continuous
 62
     7
370
    25
100
AcDbLine
 10
337.9659925472
 20
678.6414386625
 30
0.0
 11
337.8659983051
 21
678.2247127886
 31
0.0
  0
SPLINE
  5
BE
330
1F
100
AcDbEntity
  8
0
  6
Continuous
 62
     7
370
    25
100
AcDbSpline
210
0.0
220
0.0
230
1.0
 70
     8
 71
     3
 72
     9
 73
     5
 74
     0
 42
0.000000001
 43
0.00000001
 40
0.0
 40
0.0
 40
0.0
 40
0.0
 40
0.1165778226608187
 40
1.0
 40
1.0
 40
1.0
 40
1.0
 10
337.7313365113482
 20
677.6635350580041
 30
0.0
 10
337.7145762246257
 20
677.596451572434
 30
0.0
 10
337.5708071411068
 20
677.0210120588198
 30
0.0
 10
337.5682512009551
 20
676.4233031603108
 30
0.0
 10
337.5659932267412
 20
675.895273863775
 30
0.0
  0
LINE
  5
BF
330
1F
100
AcDbEntity
  8
0
  6
Continuous
 62
     7
370
    25
100
AcDbLine
 10
171.9660063159
 20
677.663535058
 30
0.0
 11
171.966110624
 21
673.2985379095
 31
0.0
  0
LINE
  5
C0
330
1F
100
AcDbEntity
  8
0
  6
Continuous
 62
     7
370
    25
100
AcDbLine
 10
338.6663024199
 20
661.7503167982
 30
0.0
 11
338.6662800681
 21
662.7272369261
 31
0.0
  0
LINE
  5
C1
330
1F
100
AcDbEntity
  8
0
  6
Continuous
 62
     7
370
    25
100
AcDbLine
 10
338.6662204635
 20
665.6579973097
 30
0.0
 11
338.6661981117
 21
666.6349174375
 31
0.0
  0
LINE
  5
C2
330
1F
100
AcDbEntity
  8
0
  6
Continuous
 62
     7
370
    25
100
AcDbLine
 10
338.6660640013
 20
673.2569338674
 30
0.0
 11
338.6659969461
 21
676.6594054098
 31
0.0
  0
LINE
  5
C3
330
1F
100
AcDbEntity
  8
0
  6
Continuous
 62
     7
370
    25
100
AcDbLine
 10
337.1659939062
 20
676.6594054098
 30
0.0
 11
337.1660833132
 21
673.2645334596
 31
0.0
  0
LINE
  5
C4
330
1F
100
AcDbEntity
  8
0
  6
Continuous
 62
     7
370
    25
100
AcDbLine
 10
338.6659969461
 20
676.6594054098
 30
0.0
 11
338.5078062188
 21
677.663535058
 31
0.0
  0
LINE
  5
C5
330
1F
100
AcDbEntity
  8
0
  6
Continuous
 62
     7
370
    25
100
AcDbLine
 10
337.0078478825
 20
677.663535058
 30
0.0
 11
337.1659939062
 21
676.6594054098
 31
0.0
  0
LINE
  5
C6
330
1F
100
AcDbEntity
  8
0
  6
Continuous
 62
     7
370
    25
100
AcDbLine
 10
172.8659917485
 20
679.9135507936
 30
0.0
 11
172.9659934413
 21
679.9135507936
 31
0.0
  0
LINE
  5
C7
330
1F
100
AcDbEntity
  8
0
  6
Continuous
 62
     7
370
    25
100
AcDbLine
 10
337.8659983051
 20
679.9135507936
 30
0.0
 11
337.9659925472
 21
679.9135507936
 31
0.0
  0
LINE
  5
C8
330
1F
100
AcDbEntity
  8
0
  6
Continuous
 62
     7
370
    25
100
AcDbLine
 10
344.3659965765
 20
428.1374851162
 30
0.0
 11
344.3659965765
 21
428.4837694759
 31
0.0
  0
SPLINE
  5
C9
330
1F
100
AcDbEntity
  8
0
  6
Continuous
 62
     7
370
    25
100
AcDbSpline
210
0.0
220
0.0
230
1.0
 70
     8
 71
     3
 72
    15
 73
    11
 74
     0
 42
0.000000001
 43
0.00000001
 40
0.0
 40
0.0
 40
0.0
 40
0.0
 40
0.0509667123836346
 40
0.1846226814896479
 40
0.3213246686048369
 40
0.462336976719699
 40
0.6057216429261788
 40
0.7497042492485602
 40
0.890820702920876
 40
1.0
 40
1.0
 40
1.0
 40
1.0
 10
321.5913225781664
 20
417.3091204757515
 30
0.0
 10
321.6638900097653
 20
417.090895810899
 30
0.0
 10
321.9267595021071
 20
416.3003950917437
 30
0.0
 10
322.6497944423839
 20
415.0164356449534
 30
0.0
 10
323.7508899474904
 20
413.502309862149
 30
0.0
 10
325.1089277882092
 20
412.1471122129198
 30
0.0
 10
326.6808877700382
 20
411.0022877225691
 30
0.0
 10
328.4147026985541
 20
410.1399944177473
 30
0.0
 10
330.1164316332477
 20
409.5943018051683
 30
0.0
 10
331.2378423559974
 20
409.4948428800673
 30
0.0
 10
331.7270030152544
 20
409.4514587814633
 30
0.0
  0
SPLINE
  5
CA
330
1F
100
AcDbEntity
  8
0
  6
Continuous
 62
     7
370
    25
100
AcDbSpline
210
0.0
220
0.0
230
1.0
 70
     8
 71
     3
 72
    16
 73
    12
 74
     0
 42
0.000000001
 43
0.00000001
 40
0.0
 40
0.0
 40
0.0
 40
0.0
 40
0.0687013814269352
 40
0.1843639995744086
 40
0.3023864460209934
 40
0.4215911147827205
 40
0.5439109278720623
 40
0.6665981905742185
 40
0.7888731701765811
 40
0.9088645290291428
 40
1.0
 40
1.0
 40
1.0
 40
1.0
 10
344.0050308477625
 20
409.4605186874691
 30
0.0
 10
344.3631731743941
 20
409.4818537769065
 30
0.0
 10
345.3242681390551
 20
409.5391076826978
 30
0.0
 10
346.8558990205644
 20
409.9740125122446
 30
0.0
 10
348.5497467423734
 20
410.7173715106451
 30
0.0
 10
350.1362711350248
 20
411.7531351015982
 30
0.0
 10
351.5645039992287
 20
413.0414250750755
 30
0.0
 10
352.7947563732039
 20
414.5512194501177
 30
0.0
 10
353.7605354738346
 20
416.2240336568333
 30
0.0
 10
354.426318527015
 20
417.8623320756166
 30
0.0
 10
354.6196705175558
 20
418.9399402131644
 30
0.0
 10
354.7031332623705
 20
419.4051029081169
 30
0.0
  0
SPLINE
  5
CB
330
1F
100
AcDbEntity
  8
0
  6
Continuous
 62
     7
370
    25
100
AcDbSpline
210
0.0
220
0.0
230
1.0
 70
     8
 71
     3
 72
    12
 73
     8
 74
     0
 42
0.000000001
 43
0.00000001
 40
0.0
 40
0.0
 40
0.0
 40
0.0
 40
0.1325768618867913
 40
0.3844995943736355
 40
0.6363928131052838
 40
0.8882996975504287
 40
1.0
 40
1.0
 40
1.0
 40
1.0
 10
331.7237545621142
 20
409.4225579793278
 30
0.0
 10
332.2608811145311
 20
409.3874058098999
 30
0.0
 10
333.8186562692028
 20
409.2854574405237
 30
0.0
 10
336.4360934910041
 20
409.1997648871557
 30
0.0
 10
339.5543514334408
 20
409.2042211293281
 30
0.0
 10
342.0835615578135
 20
409.2949364705095
 30
0.0
 10
343.5559241132376
 20
409.3925661078474
 30
0.0
 10
344.0082345974192
 20
409.4225579793278
 30
0.0
  0
LINE
  5
CC
330
1F
100
AcDbEntity
  8
0
  6
Continuous
 62
     7
370
    25
100
AcDbLine
 10
344.3659965765
 20
537.1418299074
 30
0.0
 11
344.3659965765
 21
537.4881179924
 31
0.0
  0
LINE
  5
CD
330
1F
100
AcDbEntity
  8
0
  6
Continuous
 62
     7
370
    25
100
AcDbLine
 10
344.3659965765
 20
646.1461784239
 30
0.0
 11
344.3659965765
 21
646.4924516077
 31
0.0
  0
SPLINE
  5
CE
330
1F
100
AcDbEntity
  8
0
  6
Continuous
 62
     7
370
    25
100
AcDbSpline
210
0.0
220
0.0
230
1.0
 70
     8
 71
     3
 72
    17
 73
    13
 74
     0
 42
0.000000001
 43
0.00000001
 40
0.0
 40
0.0
 40
0.0
 40
0.0
 40
0.0445335418947576
 40
0.1486892386428139
 40
0.2550963948613027
 40
0.3626381562366721
 40
0.4723274769440692
 40
0.5827817366463924
 40
0.6934704182872142
 40
0.8012330398011215
 40
0.907832004329573
 40
1.0
 40
1.0
 40
1.0
 40
1.0
 10
331.7260418903574
 20
659.8374845380608
 30
0.0
 10
331.4684344540266
 20
659.8282821436967
 30
0.0
 10
330.6083309916237
 20
659.7975570552925
 30
0.0
 10
329.1668288295035
 20
659.41787130727
 30
0.0
 10
327.4534241293657
 20
658.7269880687585
 30
0.0
 10
325.846029862815
 20
657.7316395407975
 30
0.0
 10
324.3881301637664
 20
656.4851648095708
 30
0.0
 10
323.1261270567733
 20
655.0079942076098
 30
0.0
 10
322.1064952611283
 20
653.3629375666711
 30
0.0
 10
321.3776403054545
 20
651.6065535214293
 30
0.0
 10
320.9360557095333
 20
649.8754062491452
 30
0.0
 10
320.89825776489
 20
648.7511526233737
 30
0.0
 10
320.8807309043154
 20
648.2298375959222
 30
0.0
  0
SPLINE
  5
CF
330
1F
100
AcDbEntity
  8
0
  6
Continuous
 62
     7
370
    25
100
AcDbSpline
210
0.0
220
0.0
230
1.0
 70
     8
 71
     3
 72
    16
 73
    12
 74
     0
 42
0.000000001
 43
0.00000001
 40
0.0
 40
0.0
 40
0.0
 40
0.0
 40
0.1127295405986864
 40
0.2309958643581198
 40
0.3536896973358278
 40
0.4794035971428373
 40
0.6083458357209282
 40
0.7377396663968276
 40
0.8666695227414679
 40
0.9929751829341336
 40
1.0
 40
1.0
 40
1.0
 40
1.0
 10
354.5884539258226
 20
650.5832673902337
 30
0.0
 10
354.4409576660843
 20
651.1263255870465
 30
0.0
 10
354.1387207739006
 20
652.2391146297707
 30
0.0
 10
353.349451811493
 20
653.8483063826326
 30
0.0
 10
352.3157448487299
 20
655.3873136962285
 30
0.0
 10
351.0249446472764
 20
656.7928477255014
 30
0.0
 10
349.5115799008997
 20
657.9965919662347
 30
0.0
 10
347.8159701045627
 20
658.9587435984716
 30
0.0
 10
345.999173152326
 20
659.5763606420041
 30
0.0
 10
344.7066048613172
 20
659.8754908464331
 30
0.0
 10
344.0429404825106
 20
659.867782404095
 30
0.0
 10
344.0079738270983
 20
659.8673762674157
 30
0.0
  0
SPLINE
  5
D0
330
1F
100
AcDbEntity
  8
0
  6
Continuous
 62
     7
370
    25
100
AcDbSpline
210
0.0
220
0.0
230
1.0
 70
     8
 71
     3
 72
    12
 73
     8
 74
     0
 42
0.000000001
 43
0.00000001
 40
0.0
 40
0.0
 40
0.0
 40
0.0
 40
0.1325767545938026
 40
0.3844998772729884
 40
0.6363930172176046
 40
0.8882998353347606
 40
1.0
 40
1.0
 40
1.0
 40
1.0
 10
344.0082345974192
 20
659.8761381501977
 30
0.0
 10
343.4711077470346
 20
659.911285016774
 30
0.0
 10
341.9133293213548
 20
660.0132181643049
 30
0.0
 10
339.2959000955198
 20
660.0989511177045
 30
0.0
 10
336.1776366695458
 20
660.0944681504812
 30
0.0
 10
333.6484289805609
 20
660.0037281172858
 30
0.0
 10
332.1760651377534
 20
659.9061225937514
 30
0.0
 10
331.7237545621142
 20
659.8761381501977
 30
0.0
  0
LINE
  5
D1
330
1F
100
AcDbEntity
  8
0
  6
Continuous
 62
     7
370
    25
100
AcDbLine
 10
179.3659974706
 20
428.1374851162
 30
0.0
 11
179.3659974706
 21
428.4837694759
 31
0.0
  0
SPLINE
  5
D2
330
1F
100
AcDbEntity
  8
0
  6
Continuous
 62
     7
370
    25
100
AcDbSpline
210
0.0
220
0.0
230
1.0
 70
     8
 71
     3
 72
    15
 73
    11
 74
     0
 42
0.000000001
 43
0.00000001
 40
0.0
 40
0.0
 40
0.0
 40
0.0
 40
0.0509667365713656
 40
0.1846227691076937
 40
0.3213244969689095
 40
0.4623372575901833
 40
0.6057219918440133
 40
0.7497046664975147
 40
0.8908211871407347
 40
1.0
 40
1.0
 40
1.0
 40
1.0
 10
156.5913234722361
 20
417.3091204757515
 30
0.0
 10
156.6638908681751
 20
417.0908957831652
 30
0.0
 10
156.9267602313416
 20
416.3003949635465
 30
0.0
 10
157.6497966606412
 20
415.0164385372166
 30
0.0
 10
158.7508823059608
 20
413.5023047401911
 30
0.0
 10
160.1089292502704
 20
412.1471150825956
 30
0.0
 10
161.6808881316529
 20
411.002287234527
 30
0.0
 10
163.4147037121233
 20
410.1399945053898
 30
0.0
 10
165.1164302615717
 20
409.594302668327
 30
0.0
 10
166.2378383170018
 20
409.4948430586076
 30
0.0
 10
166.7269964587435
 20
409.4514587814633
 30
0.0
  0
SPLINE
  5
D3
330
1F
100
AcDbEntity
  8
0
  6
Continuous
 62
     7
370
    25
100
AcDbSpline
210
0.0
220
0.0
230
1.0
 70
     8
 71
     3
 72
    16
 73
    12
 74
     0
 42
0.000000001
 43
0.00000001
 40
0.0
 40
0.0
 40
0.0
 40
0.0
 40
0.0687018172258995
 40
0.1843643896035547
 40
0.3023867893464939
 40
0.4215914109367484
 40
0.543911175621898
 40
0.6665983897744553
 40
0.7888730844405414
 40
0.9088645650931193
 40
1.0
 40
1.0
 40
1.0
 40
1.0
 10
179.0050242912516
 20
409.4605186874691
 30
0.0
 10
179.3631691304198
 20
409.4818536314231
 30
0.0
 10
180.3242667742534
 20
409.5391069047444
 30
0.0
 10
181.8558998989835
 20
409.9740125424245
 30
0.0
 10
183.5497475934856
 20
410.7173715276351
 30
0.0
 10
185.1362722207995
 20
411.7531350008429
 30
0.0
 10
186.5645041485389
 20
413.041425472462
 30
0.0
 10
187.7947592593236
 20
414.5512169904788
 30
0.0
 10
188.7605253755805
 20
416.2240376953414
 30
0.0
 10
189.4263211864037
 20
417.8623303988418
 30
0.0
 10
189.6196719906322
 20
418.9399399681138
 30
0.0
 10
189.7031341564402
 20
419.4051029081169
 30
0.0
  0
SPLINE
  5
D4
330
1F
100
AcDbEntity
  8
0
  6
Continuous
 62
     7
370
    25
100
AcDbSpline
210
0.0
220
0.0
230
1.0
 70
     8
 71
     3
 72
    12
 73
     8
 74
     0
 42
0.000000001
 43
0.00000001
 40
0.0
 40
0.0
 40
0.0
 40
0.0
 40
0.1325768618867913
 40
0.3844995943736355
 40
0.6363928131052838
 40
0.8882996975504287
 40
1.0
 40
1.0
 40
1.0
 40
1.0
 10
166.7237554561839
 20
409.4225579793278
 30
0.0
 10
167.2608820086007
 20
409.3874058098999
 30
0.0
 10
168.8186571632725
 20
409.2854574405237
 30
0.0
 10
171.4360943850738
 20
409.1997648871557
 30
0.0
 10
174.5543523275105
 20
409.2042211293281
 30
0.0
 10
177.0835624518832
 20
409.2949364705095
 30
0.0
 10
178.5559250073072
 20
409.3925661078474
 30
0.0
 10
179.0082354914889
 20
409.4225579793278
 30
0.0
  0
LINE
  5
D5
330
1F
100
AcDbEntity
  8
0
  6
Continuous
 62
     7
370
    25
100
AcDbLine
 10
179.3659974706
 20
537.1418299074
 30
0.0
 11
179.3659974706
 21
537.4881179924
 31
0.0
  0
LINE
  5
D6
330
1F
100
AcDbEntity
  8
0
  6
Continuous
 62
     7
370
    25
100
AcDbLine
 10
179.3659974706
 20
646.1461784239
 30
0.0
 11
179.3659974706
 21
646.4924516077
 31
0.0
  0
SPLINE
  5
D7
330
1F
100
AcDbEntity
  8
0
  6
Continuous
 62
     7
370
    25
100
AcDbSpline
210
0.0
220
0.0
230
1.0
 70
     8
 71
     3
 72
    17
 73
    13
 74
     0
 42
0.000000001
 43
0.00000001
 40
0.0
 40
0.0
 40
0.0
 40
0.0
 40
0.0445335386520585
 40
0.1486896365261639
 40
0.2550963963763829
 40
0.362638149921125
 40
0.4723274626415206
 40
0.5827819898789218
 40
0.6934704406070917
 40
0.8012330542742897
 40
0.9078320110407634
 40
1.0
 40
1.0
 40
1.0
 40
1.0
 10
166.7260427844271
 20
659.8374845380608
 30
0.0
 10
166.4684353771411
 20
659.8282820571912
 30
0.0
 10
165.6083296475005
 20
659.7975565955041
 30
0.0
 10
164.1668259655433
 20
659.4178743866569
 30
0.0
 10
162.4534236943102
 20
658.7269857495268
 30
0.0
 10
160.8460300670424
 20
657.731640268369
 30
0.0
 10
159.3881320281542
 20
656.4851619610914
 30
0.0
 10
158.1261186423368
 20
655.0079991592011
 30
0.0
 10
157.106497916979
 20
653.362934863286
 30
0.0
 10
156.3776406076094
 20
651.6065539138306
 30
0.0
 10
155.936056727879
 20
649.8754061667582
 30
0.0
 10
155.8982586983302
 20
648.7511525972735
 30
0.0
 10
155.8807317983851
 20
648.2298375959222
 30
0.0
  0
SPLINE
  5
D8
330
1F
100
AcDbEntity
  8
0
  6
Continuous
 62
     7
370
    25
100
AcDbSpline
210
0.0
220
0.0
230
1.0
 70
     8
 71
     3
 72
    16
 73
    12
 74
     0
 42
0.000000001
 43
0.00000001
 40
0.0
 40
0.0
 40
0.0
 40
0.0
 40
0.112729545416492
 40
0.2309958742303607
 40
0.3536897124517258
 40
0.479403617631463
 40
0.6083462454093841
 40
0.7377396551884141
 40
0.8666695170432248
 40
0.9929751826339088
 40
1.0
 40
1.0
 40
1.0
 40
1.0
 10
189.5884548198923
 20
650.5832673902337
 30
0.0
 10
189.4409585544124
 20
651.1263255796265
 30
0.0
 10
189.1387216504634
 20
652.2391146071458
 30
0.0
 10
188.3494527807821
 20
653.848306479842
 30
0.0
 10
187.3157454463288
 20
655.3873133130861
 30
0.0
 10
186.0249453768778
 20
656.7928506382789
 30
0.0
 10
184.5115749403805
 20
657.996587220929
 30
0.0
 10
182.8159700248595
 20
658.9587459210246
 30
0.0
 10
180.9991737582439
 20
659.5763601884134
 30
0.0
 10
179.7066057581704
 20
659.8754908508145
 30
0.0
 10
179.0429413767195
 20
659.8677824043142
 30
0.0
 10
179.007974721168
 20
659.8673762674157
 30
0.0
  0
SPLINE
  5
D9
330
1F
100
AcDbEntity
  8
0
  6
Continuous
 62
     7
370
    25
100
AcDbSpline
210
0.0
220
0.0
230
1.0
 70
     8
 71
     3
 72
    12
 73
     8
 74
     0
 42
0.000000001
 43
0.00000001
 40
0.0
 40
0.0
 40
0.0
 40
0.0
 40
0.1325767545938026
 40
0.3844998772729884
 40
0.6363930172176046
 40
0.8882998353347606
 40
1.0
 40
1.0
 40
1.0
 40
1.0
 10
179.0082354914889
 20
659.8761381501977
 30
0.0
 10
178.4711086411044
 20
659.911285016774
 30
0.0
 10
176.9133302154245
 20
660.0132181643049
 30
0.0
 10
174.2959009895894
 20
660.0989511177045
 30
0.0
 10
171.1776375636155
 20
660.0944681504812
 30
0.0
 10
168.6484298746306
 20
660.0037281172858
 30
0.0
 10
167.1760660318231
 20
659.9061225937514
 30
0.0
 10
166.7237554561839
 20
659.8761381501977
 30
0.0
  0
LINE
  5
DA
330
1F
100
AcDbEntity
  8
0
  6
Continuous
 62
     7
370
    25
100
AcDbLine
 10
329.8659969938
 20
659.5413686628
 30
0.0
 11
329.8659969938
 21
669.3997086878
 31
0.0
  0
LINE
  5
DB
330
1F
100
AcDbEntity
  8
0
  6
Continuous
 62
     7
370
    25
100
AcDbLine
 10
323.865992285
 20
669.3997086878
 30
0.0
 11
323.865992285
 21
655.7971240873
 31
0.0
  0
LINE
  5
DC
330
1F
100
AcDbEntity
  8
0
  6
Continuous
 62
     7
370
    25
100
AcDbLine
 10
323.865992285
 20
674.6635438795
 30
0.0
 11
323.865992285
 21
669.3997086878
 31
0.0
  0
LINE
  5
DD
330
1F
100
AcDbEntity
  8
0
  6
Continuous
 62
     7
370
    25
100
AcDbLine
 10
329.8659969938
 20
669.3997086878
 30
0.0
 11
329.8659969938
 21
674.6635438795
 31
0.0
  0
LINE
  5
DE
330
1F
100
AcDbEntity
  8
0
  6
Continuous
 62
     7
370
    25
100
AcDbLine
 10
351.8659968745
 20
655.8052899237
 30
0.0
 11
351.8659968745
 21
669.3997086878
 31
0.0
  0
LINE
  5
DF
330
1F
100
AcDbEntity
  8
0
  6
Continuous
 62
     7
370
    25
100
AcDbLine
 10
345.8659921658
 20
669.3997086878
 30
0.0
 11
345.8659921658
 21
659.5686377878
 31
0.0
  0
LINE
  5
E0
330
1F
100
AcDbEntity
  8
0
  6
Continuous
 62
     7
370
    25
100
AcDbLine
 10
345.8659921658
 20
674.6635438795
 30
0.0
 11
345.8659921658
 21
669.3997086878
 31
0.0
  0
LINE
  5
E1
330
1F
100
AcDbEntity
  8
0
  6
Continuous
 62
     7
370
    25
100
AcDbLine
 10
351.8659968745
 20
669.3997086878
 30
0.0
 11
351.8659968745
 21
674.6635438795
 31
0.0
  0
LINE
  5
E2
330
1F
100
AcDbEntity
  8
0
  6
Continuous
 62
     7
370
    25
100
AcDbLine
 10
164.8659978878
 20
659.5413686628
 30
0.0
 11
164.8659978878
 21
669.3997086878
 31
0.0
  0
LINE
  5
E3
330
1F
100
AcDbEntity
  8
0
  6
Continuous
 62
     7
370
    25
100
AcDbLine
 10
158.8659931791
 20
669.3997086878
 30
0.0
 11
158.8659931791
 21
655.7971240873
 31
0.0
  0
LINE
  5
E4
330
1F
100
AcDbEntity
  8
0
  6
Continuous
 62
     7
370
    25
100
AcDbLine
 10
158.8659931791
 20
674.6635438795
 30
0.0
 11
158.8659931791
 21
669.3997086878
 31
0.0
  0
LINE
  5
E5
330
1F
100
AcDbEntity
  8
0
  6
Continuous
 62
     7
370
    25
100
AcDbLine
 10
164.8659978878
 20
669.3997086878
 30
0.0
 11
164.8659978878
 21
674.6635438795
 31
0.0
  0
LINE
  5
E6
330
1F
100
AcDbEntity
  8
0
  6
Continuous
 62
     7
370
    25
100
AcDbLine
 10
186.8659977686
 20
655.8052899237
 30
0.0
 11
186.8659977686
 21
669.3997086878
 31
0.0
  0
LINE
  5
E7
330
1F
100
AcDbEntity
  8
0
  6
Continuous
 62
     7
370
    25
100
AcDbLine
 10
180.8659930598
 20
669.3997086878
 30
0.0
 11
180.8659930598
 21
659.5686377878
 31
0.0
  0
LINE
  5
E8
330
1F
100
AcDbEntity
  8
0
  6
Continuous
 62
     7
370
    25
100
AcDbLine
 10
180.8659930598
 20
674.6635438795
 30
0.0
 11
180.8659930598
 21
669.3997086878
 31
0.0
  0
LINE
  5
E9
330
1F
100
AcDbEntity
  8
0
  6
Continuous
 62
     7
370
    25
100
AcDbLine
 10
186.8659977686
 20
669.3997086878
 30
0.0
 11
186.8659977686
 21
674.6635438795
 31
0.0
  0
LINE
  5
EA
330
1F
100
AcDbEntity
  8
0
  6
Continuous
 62
     7
370
    25
100
AcDbLine
 10
324.873199023
 20
982.1635486479
 30
0.0
 11
331.8659935963
 21
982.1635486479
 31
0.0
  0
LINE
  5
EB
330
1F
100
AcDbEntity
  8
0
  6
Continuous
 62
     7
370
    25
100
AcDbLine
 10
343.8659955632
 20
982.1635486479
 30
0.0
 11
350.8731995594
 21
982.1635486479
 31
0.0
  0
LINE
  5
EC
330
1F
100
AcDbEntity
  8
0
  6
Continuous
 62
     7
370
    25
100
AcDbLine
 10
159.8731999171
 20
982.1635486479
 30
0.0
 11
166.8659944904
 21
982.1635486479
 31
0.0
  0
LINE
  5
ED
330
1F
100
AcDbEntity
  8
0
  6
Continuous
 62
     7
370
    25
100
AcDbLine
 10
178.8659964573
 20
982.1635486479
 30
0.0
 11
185.8732004535
 21
982.1635486479
 31
0.0
  0
SPLINE
  5
EE
330
1F
100
AcDbEntity
  8
0
  6
Continuous
 62
     7
370
    25
100
AcDbSpline
210
0.0
220
0.0
230
1.0
 70
     8
 71
     3
 72
    10
 73
     6
 74
     0
 42
0.000000001
 43
0.00000001
 40
0.0
 40
0.0
 40
0.0
 40
0.0
 40
0.1311537553531385
 40
0.7916761571082702
 40
1.0
 40
1.0
 40
1.0
 40
1.0
 10
325.300370610927
 20
968.7123896474664
 30
0.0
 10
325.4516342963294
 20
968.8411457308335
 30
0.0
 10
326.3646989115737
 20
969.6183489531895
 30
0.0
 10
327.6429149945034
 20
970.4670036023729
 30
0.0
 10
328.8511300136415
 20
970.9901533553736
 30
0.0
 10
329.1408245336756
 20
971.1155893201653
 30
0.0
  0
SPLINE
  5
EF
330
1F
100
AcDbEntity
  8
0
  6
Continuous
 62
     7
370
    25
100
AcDbSpline
210
0.0
220
0.0
230
1.0
 70
     8
 71
     3
 72
    10
 73
     6
 74
     0
 42
0.000000001
 43
0.00000001
 40
0.0
 40
0.0
 40
0.0
 40
0.0
 40
0.4341965855392334
 40
0.8082812181709842
 40
1.0
 40
1.0
 40
1.0
 40
1.0
 10
346.5827752721056
 20
971.1225034589593
 30
0.0
 10
347.1938834472275
 20
970.8191951324475
 30
0.0
 10
348.3314954798241
 20
970.2545697258942
 30
0.0
 10
349.638075468755
 20
969.3717720950673
 30
0.0
 10
350.3129107135219
 20
968.7936595617207
 30
0.0
 10
350.5415742170557
 20
968.5977699155633
 30
0.0
  0
SPLINE
  5
F0
330
1F
100
AcDbEntity
  8
0
  6
Continuous
 62
     7
370
    25
100
AcDbSpline
210
0.0
220
0.0
230
1.0
 70
     8
 71
     3
 72
    10
 73
     6
 74
     0
 42
0.000000001
 43
0.00000001
 40
0.0
 40
0.0
 40
0.0
 40
0.0
 40
0.1584503419660681
 40
0.6580373873102252
 40
1.0
 40
1.0
 40
1.0
 40
1.0
 10
350.8731995594248
 20
974.4297863836114
 30
0.0
 10
350.5380527693244
 20
974.6544061613347
 30
0.0
 10
349.1462027083739
 20
975.5872423410312
 30
0.0
 10
346.7851784659219
 20
976.6166580355332
 30
0.0
 10
344.7094607617147
 20
977.1457355990352
 30
0.0
 10
343.8659955632433
 20
977.3607255811517
 30
0.0
  0
SPLINE
  5
F1
330
1F
100
AcDbEntity
  8
0
  6
Continuous
 62
     7
370
    25
100
AcDbSpline
210
0.0
220
0.0
230
1.0
 70
     8
 71
     3
 72
    10
 73
     6
 74
     0
 42
0.000000001
 43
0.00000001
 40
0.0
 40
0.0
 40
0.0
 40
0.0
 40
0.0696317018132348
 40
0.5613793093275169
 40
1.0
 40
1.0
 40
1.0
 40
1.0
 10
331.86599359629
 20
977.3948194379632
 30
0.0
 10
331.6924884984942
 20
977.3634283278421
 30
0.0
 10
330.2936691471211
 20
977.1103493528952
 30
0.0
 10
327.9048974808434
 20
976.1831199929122
 30
0.0
 10
325.8445477206855
 20
975.0459516652527
 30
0.0
 10
324.873199022983
 20
974.5098354215448
 30
0.0
  0
SPLINE
  5
F2
330
1F
100
AcDbEntity
  8
0
  6
Continuous
 62
     7
370
    25
100
AcDbSpline
210
0.0
220
0.0
230
1.0
 70
     8
 71
     3
 72
    10
 73
     6
 74
     0
 42
0.000000001
 43
0.00000001
 40
0.0
 40
0.0
 40
0.0
 40
0.0
 40
0.1311537553531385
 40
0.7916761571082702
 40
1.0
 40
1.0
 40
1.0
 40
1.0
 10
160.3003715049967
 20
968.7123896474664
 30
0.0
 10
160.4516351903991
 20
968.8411457308335
 30
0.0
 10
161.3646998056434
 20
969.6183489531895
 30
0.0
 10
162.642915888573
 20
970.4670036023729
 30
0.0
 10
163.8511309077112
 20
970.9901533553736
 30
0.0
 10
164.1408254277453
 20
971.1155893201653
 30
0.0
  0
SPLINE
  5
F3
330
1F
100
AcDbEntity
  8
0
  6
Continuous
 62
     7
370
    25
100
AcDbSpline
210
0.0
220
0.0
230
1.0
 70
     8
 71
     3
 72
    10
 73
     6
 74
     0
 42
0.000000001
 43
0.00000001
 40
0.0
 40
0.0
 40
0.0
 40
0.0
 40
0.4341971128088077
 40
0.8082821997127742
 40
1.0
 40
1.0
 40
1.0
 40
1.0
 10
181.5827761661753
 20
971.1225034589593
 30
0.0
 10
182.1938841124907
 20
970.8191948581206
 30
0.0
 10
183.3314957191513
 20
970.2545689408915
 30
0.0
 10
184.6380765373869
 20
969.3717752787032
 30
0.0
 10
185.3129068020705
 20
968.7936597547249
 30
0.0
 10
185.5415676605448
 20
968.5977699155633
 30
0.0
  0
SPLINE
  5
F4
330
1F
100
AcDbEntity
  8
0
  6
Continuous
 62
     7
370
    25
100
AcDbSpline
210
0.0
220
0.0
230
1.0
 70
     8
 71
     3
 72
    10
 73
     6
 74
     0
 42
0.000000001
 43
0.00000001
 40
0.0
 40
0.0
 40
0.0
 40
0.0
 40
0.1584503419660681
 40
0.6580373873102252
 40
1.0
 40
1.0
 40
1.0
 40
1.0
 10
185.8732004534945
 20
974.4297863836114
 30
0.0
 10
185.538053663394
 20
974.6544061613347
 30
0.0
 10
184.1462036024436
 20
975.5872423410312
 30
0.0
 10
181.7851793599916
 20
976.6166580355332
 30
0.0
 10
179.7094616557844
 20
977.1457355990352
 30
0.0
 10
178.865996457313
 20
977.3607255811517
 30
0.0
  0
SPLINE
  5
F5
330
1F
100
AcDbEntity
  8
0
  6
Continuous
 62
     7
370
    25
100
AcDbSpline
210
0.0
220
0.0
230
1.0
 70
     8
 71
     3
 72
    10
 73
     6
 74
     0
 42
0.000000001
 43
0.00000001
 40
0.0
 40
0.0
 40
0.0
 40
0.0
 40
0.0696317018132348
 40
0.5613793093275169
 40
1.0
 40
1.0
 40
1.0
 40
1.0
 10
166.8659944903597
 20
977.3948194379632
 30
0.0
 10
166.6924893925639
 20
977.3634283278421
 30
0.0
 10
165.2936700411908
 20
977.1103493528952
 30
0.0
 10
162.904898374913
 20
976.1831199929122
 30
0.0
 10
160.8445486147551
 20
975.0459516652527
 30
0.0
 10
159.8731999170527
 20
974.5098354215448
 30
0.0
  0
LINE
  5
F6
330
1F
100
AcDbEntity
  8
0
  6
Continuous
 62
     7
370
    25
100
AcDbLine
 10
337.9659925472
 20
677.663535058
 30
0.0
 11
355.3606544506
 21
677.663535058
 31
0.0
  0
LINE
  5
F7
330
1F
100
AcDbEntity
  8
0
  6
Continuous
 62
     7
370
    25
100
AcDbLine
 10
320.3857441318
 20
677.663535058
 30
0.0
 11
337.8659983051
 21
677.663535058
 31
0.0
  0
LINE
  5
F8
330
1F
100
AcDbEntity
  8
0
  6
Continuous
 62
     7
370
    25
100
AcDbLine
 10
155.3857450258
 20
677.663535058
 30
0.0
 11
172.8659917485
 21
677.663535058
 31
0.0
  0
LINE
  5
F9
330
1F
100
AcDbEntity
  8
0
  6
Continuous
 62
     7
370
    25
100
AcDbLine
 10
172.9659934413
 20
677.663535058
 30
0.0
 11
190.3606478941
 21
677.663535058
 31
0.0
  0
LINE
  5
FA
330
1F
100
AcDbEntity
  8
0
  6
Continuous
 62
     7
370
    25
100
AcDbLine
 10
190.5189950835
 20
278.4624250526
 30
0.0
 11
190.5189950835
 21
279.8436360354
 31
0.0
  0
LINE
  5
FB
330
1F
100
AcDbEntity
  8
0
  6
Continuous
 62
     7
370
    25
100
AcDbLine
 10
155.2129958641
 20
279.8436360354
 30
0.0
 11
155.2129958641
 21
278.4624250526
 31
0.0
  0
LINE
  5
FC
330
1F
100
AcDbEntity
  8
0
  6
Continuous
 62
     7
370
    25
100
AcDbLine
 10
155.339998461
 20
281.6099153752
 30
0.0
 11
155.339998461
 21
280.1010088916
 31
0.0
  0
LINE
  5
FD
330
1F
100
AcDbEntity
  8
0
  6
Continuous
 62
     7
370
    25
100
AcDbLine
 10
190.3919924867
 20
280.7369233961
 30
0.0
 11
190.3919924867
 21
281.6099153752
 31
0.0
  0
LINE
  5
FE
330
1F
100
AcDbEntity
  8
0
  6
Continuous
 62
     7
370
    25
100
AcDbLine
 10
180.6800191176
 20
269.1111715431
 30
0.0
 11
188.0490307581
 21
274.5052577848
 31
0.0
  0
LINE
  5
FF
330
1F
100
AcDbEntity
  8
0
  6
Continuous
 62
     7
370
    25
100
AcDbLine
 10
157.6829601896
 20
274.5052577848
 30
0.0
 11
165.0519718301
 21
269.1111715431
 31
0.0
  0
LINE
  5
100
330
1F
100
AcDbEntity
  8
0
  6
Continuous
 62
     7
370
    25
100
AcDbLine
 10
163.688940264
 20
271.8755977149
 30
0.0
 11
163.688940264
 21
272.1057983036
 31
0.0
  0
LINE
  5
101
330
1F
100
AcDbEntity
  8
0
  6
Continuous
 62
     7
370
    25
100
AcDbLine
 10
162.1649463546
 20
272.1057983036
 30
0.0
 11
162.1649463546
 21
271.8755977149
 31
0.0
  0
LINE
  5
102
330
1F
100
AcDbEntity
  8
0
  6
Continuous
 62
     7
370
    25
100
AcDbLine
 10
179.1474495899
 20
271.8755977149
 30
0.0
 11
179.1474495899
 21
272.1057983036
 31
0.0
  0
LINE
  5
103
330
1F
100
AcDbEntity
  8
0
  6
Continuous
 62
     7
370
    25
100
AcDbLine
 10
177.62344823
 20
272.1057983036
 30
0.0
 11
177.62344823
 21
271.8755977149
 31
0.0
  0
LINE
  5
104
330
1F
100
AcDbEntity
  8
0
  6
Continuous
 62
     7
370
    25
100
AcDbLine
 10
181.3572470915
 20
271.8755977149
 30
0.0
 11
181.3572470915
 21
272.1057983036
 31
0.0
  0
LINE
  5
105
330
1F
100
AcDbEntity
  8
0
  6
Continuous
 62
     7
370
    25
100
AcDbLine
 10
179.8332457316
 20
272.1057983036
 30
0.0
 11
179.8332457316
 21
271.8755977149
 31
0.0
  0
LINE
  5
106
330
1F
100
AcDbEntity
  8
0
  6
Continuous
 62
     7
370
    25
100
AcDbLine
 10
165.8987452161
 20
271.8755977149
 30
0.0
 11
165.8987452161
 21
272.1057983036
 31
0.0
  0
LINE
  5
107
330
1F
100
AcDbEntity
  8
0
  6
Continuous
 62
     7
370
    25
100
AcDbLine
 10
164.3747438562
 20
272.1057983036
 30
0.0
 11
164.3747438562
 21
271.8755977149
 31
0.0
  0
LINE
  5
108
330
1F
100
AcDbEntity
  8
0
  6
Continuous
 62
     7
370
    25
100
AcDbLine
 10
183.5670445931
 20
271.8755977149
 30
0.0
 11
183.5670445931
 21
272.1057983036
 31
0.0
  0
LINE
  5
109
330
1F
100
AcDbEntity
  8
0
  6
Continuous
 62
     7
370
    25
100
AcDbLine
 10
182.0430506837
 20
272.1057983036
 30
0.0
 11
182.0430506837
 21
271.8755977149
 31
0.0
  0
LINE
  5
10A
330
1F
100
AcDbEntity
  8
0
  6
Continuous
 62
     7
370
    25
100
AcDbLine
 10
168.1085427177
 20
271.8755977149
 30
0.0
 11
168.1085427177
 21
272.1057983036
 31
0.0
  0
LINE
  5
10B
330
1F
100
AcDbEntity
  8
0
  6
Continuous
 62
     7
370
    25
100
AcDbLine
 10
166.5845413577
 20
272.1057983036
 30
0.0
 11
166.5845413577
 21
271.8755977149
 31
0.0
  0
LINE
  5
10C
330
1F
100
AcDbEntity
  8
0
  6
Continuous
 62
     7
370
    25
100
AcDbLine
 10
176.9376446378
 20
271.8755977149
 30
0.0
 11
176.9376446378
 21
272.1057983036
 31
0.0
  0
LINE
  5
10D
330
1F
100
AcDbEntity
  8
0
  6
Continuous
 62
     7
370
    25
100
AcDbLine
 10
175.4136507284
 20
272.1057983036
 30
0.0
 11
175.4136507284
 21
271.8755977149
 31
0.0
  0
LINE
  5
10E
330
1F
100
AcDbEntity
  8
0
  6
Continuous
 62
     7
370
    25
100
AcDbLine
 10
172.5281451714
 20
271.8755977149
 30
0.0
 11
172.5281451714
 21
272.1057983036
 31
0.0
  0
LINE
  5
10F
330
1F
100
AcDbEntity
  8
0
  6
Continuous
 62
     7
370
    25
100
AcDbLine
 10
171.0041438114
 20
272.1057983036
 30
0.0
 11
171.0041438114
 21
271.8755977149
 31
0.0
  0
LINE
  5
110
330
1F
100
AcDbEntity
  8
0
  6
Continuous
 62
     7
370
    25
100
AcDbLine
 10
174.7278471362
 20
271.8755977149
 30
0.0
 11
174.7278471362
 21
272.1057983036
 31
0.0
  0
LINE
  5
111
330
1F
100
AcDbEntity
  8
0
  6
Continuous
 62
     7
370
    25
100
AcDbLine
 10
173.2038457763
 20
272.1057983036
 30
0.0
 11
173.2038457763
 21
271.8755977149
 31
0.0
  0
LINE
  5
112
330
1F
100
AcDbEntity
  8
0
  6
Continuous
 62
     7
370
    25
100
AcDbLine
 10
170.3183402192
 20
271.8755977149
 30
0.0
 11
170.3183402192
 21
272.1057983036
 31
0.0
  0
LINE
  5
113
330
1F
100
AcDbEntity
  8
0
  6
Continuous
 62
     7
370
    25
100
AcDbLine
 10
168.7943463099
 20
272.1057983036
 30
0.0
 11
168.7943463099
 21
271.8755977149
 31
0.0
  0
LINE
  5
114
330
1F
100
AcDbEntity
  8
0
  6
Continuous
 62
     7
370
    25
100
AcDbLine
 10
182.4671973359
 20
271.0705103273
 30
0.0
 11
182.4671973359
 21
271.300710916
 31
0.0
  0
LINE
  5
115
330
1F
100
AcDbEntity
  8
0
  6
Continuous
 62
     7
370
    25
100
AcDbLine
 10
180.943195976
 20
271.300710916
 30
0.0
 11
180.943195976
 21
271.0705103273
 31
0.0
  0
LINE
  5
116
330
1F
100
AcDbEntity
  8
0
  6
Continuous
 62
     7
370
    25
100
AcDbLine
 10
175.8377973807
 20
271.0705103273
 30
0.0
 11
175.8377973807
 21
271.300710916
 31
0.0
  0
LINE
  5
117
330
1F
100
AcDbEntity
  8
0
  6
Continuous
 62
     7
370
    25
100
AcDbLine
 10
174.3137960207
 20
271.300710916
 30
0.0
 11
174.3137960207
 21
271.0705103273
 31
0.0
  0
LINE
  5
118
330
1F
100
AcDbEntity
  8
0
  6
Continuous
 62
     7
370
    25
100
AcDbLine
 10
173.6279924285
 20
271.0705103273
 30
0.0
 11
173.6279924285
 21
271.300710916
 31
0.0
  0
LINE
  5
119
330
1F
100
AcDbEntity
  8
0
  6
Continuous
 62
     7
370
    25
100
AcDbLine
 10
172.1039985192
 20
271.300710916
 30
0.0
 11
172.1039985192
 21
271.0705103273
 31
0.0
  0
LINE
  5
11A
330
1F
100
AcDbEntity
  8
0
  6
Continuous
 62
     7
370
    25
100
AcDbLine
 10
169.2083974254
 20
271.0705103273
 30
0.0
 11
169.2083974254
 21
271.300710916
 31
0.0
  0
LINE
  5
11B
330
1F
100
AcDbEntity
  8
0
  6
Continuous
 62
     7
370
    25
100
AcDbLine
 10
167.6843960654
 20
271.300710916
 30
0.0
 11
167.6843960654
 21
271.0705103273
 31
0.0
  0
LINE
  5
11C
330
1F
100
AcDbEntity
  8
0
  6
Continuous
 62
     7
370
    25
100
AcDbLine
 10
180.2573923838
 20
271.0705103273
 30
0.0
 11
180.2573923838
 21
271.300710916
 31
0.0
  0
LINE
  5
11D
330
1F
100
AcDbEntity
  8
0
  6
Continuous
 62
     7
370
    25
100
AcDbLine
 10
178.7333984744
 20
271.300710916
 30
0.0
 11
178.7333984744
 21
271.0705103273
 31
0.0
  0
LINE
  5
11E
330
1F
100
AcDbEntity
  8
0
  6
Continuous
 62
     7
370
    25
100
AcDbLine
 10
166.9985924732
 20
271.0705103273
 30
0.0
 11
166.9985924732
 21
271.300710916
 31
0.0
  0
LINE
  5
11F
330
1F
100
AcDbEntity
  8
0
  6
Continuous
 62
     7
370
    25
100
AcDbLine
 10
165.4745985639
 20
271.300710916
 30
0.0
 11
165.4745985639
 21
271.0705103273
 31
0.0
  0
LINE
  5
120
330
1F
100
AcDbEntity
  8
0
  6
Continuous
 62
     7
370
    25
100
AcDbLine
 10
171.418194927
 20
271.0705103273
 30
0.0
 11
171.418194927
 21
271.300710916
 31
0.0
  0
LINE
  5
121
330
1F
100
AcDbEntity
  8
0
  6
Continuous
 62
     7
370
    25
100
AcDbLine
 10
169.894193567
 20
271.300710916
 30
0.0
 11
169.894193567
 21
271.0705103273
 31
0.0
  0
LINE
  5
122
330
1F
100
AcDbEntity
  8
0
  6
Continuous
 62
     7
370
    25
100
AcDbLine
 10
178.0475948822
 20
271.0705103273
 30
0.0
 11
178.0475948822
 21
271.300710916
 31
0.0
  0
LINE
  5
123
330
1F
100
AcDbEntity
  8
0
  6
Continuous
 62
     7
370
    25
100
AcDbLine
 10
176.5235935223
 20
271.300710916
 30
0.0
 11
176.5235935223
 21
271.0705103273
 31
0.0
  0
LINE
  5
124
330
1F
100
AcDbEntity
  8
0
  6
Continuous
 62
     7
370
    25
100
AcDbLine
 10
164.7887949717
 20
271.0705103273
 30
0.0
 11
164.7887949717
 21
271.300710916
 31
0.0
  0
LINE
  5
125
330
1F
100
AcDbEntity
  8
0
  6
Continuous
 62
     7
370
    25
100
AcDbLine
 10
163.2647936117
 20
271.300710916
 30
0.0
 11
163.2647936117
 21
271.0705103273
 31
0.0
  0
LINE
  5
126
330
1F
100
AcDbEntity
  8
0
  6
Continuous
 62
     7
370
    25
100
AcDbLine
 10
181.4745639336
 20
270.1795475478
 30
0.0
 11
181.4745639336
 21
270.4097481365
 31
0.0
  0
LINE
  5
127
330
1F
100
AcDbEntity
  8
0
  6
Continuous
 62
     7
370
    25
100
AcDbLine
 10
179.9505625736
 20
270.4097481365
 30
0.0
 11
179.9505625736
 21
270.1795475478
 31
0.0
  0
LINE
  5
128
330
1F
100
AcDbEntity
  8
0
  6
Continuous
 62
     7
370
    25
100
AcDbLine
 10
174.8451639783
 20
270.1795475478
 30
0.0
 11
174.8451639783
 21
270.4097481365
 31
0.0
  0
LINE
  5
129
330
1F
100
AcDbEntity
  8
0
  6
Continuous
 62
     7
370
    25
100
AcDbLine
 10
173.3211626184
 20
270.4097481365
 30
0.0
 11
173.3211626184
 21
270.1795475478
 31
0.0
  0
LINE
  5
12A
330
1F
100
AcDbEntity
  8
0
  6
Continuous
 62
     7
370
    25
100
AcDbLine
 10
179.264766432
 20
270.1795475478
 30
0.0
 11
179.264766432
 21
270.4097481365
 31
0.0
  0
LINE
  5
12B
330
1F
100
AcDbEntity
  8
0
  6
Continuous
 62
     7
370
    25
100
AcDbLine
 10
177.7407650721
 20
270.4097481365
 30
0.0
 11
177.7407650721
 21
270.1795475478
 31
0.0
  0
LINE
  5
12C
330
1F
100
AcDbEntity
  8
0
  6
Continuous
 62
     7
370
    25
100
AcDbLine
 10
172.4108283293
 20
270.1795475478
 30
0.0
 11
172.4108283293
 21
270.4097481365
 31
0.0
  0
LINE
  5
12D
330
1F
100
AcDbEntity
  8
0
  6
Continuous
 62
     7
370
    25
100
AcDbLine
 10
170.8868269694
 20
270.4097481365
 30
0.0
 11
170.8868269694
 21
270.1795475478
 31
0.0
  0
LINE
  5
12E
330
1F
100
AcDbEntity
  8
0
  6
Continuous
 62
     7
370
    25
100
AcDbLine
 10
177.0549614799
 20
270.1795475478
 30
0.0
 11
177.0549614799
 21
270.4097481365
 31
0.0
  0
LINE
  5
12F
330
1F
100
AcDbEntity
  8
0
  6
Continuous
 62
     7
370
    25
100
AcDbLine
 10
175.5309675705
 20
270.4097481365
 30
0.0
 11
175.5309675705
 21
270.1795475478
 31
0.0
  0
LINE
  5
130
330
1F
100
AcDbEntity
  8
0
  6
Continuous
 62
     7
370
    25
100
AcDbLine
 10
170.2010233772
 20
270.1795475478
 30
0.0
 11
170.2010233772
 21
270.4097481365
 31
0.0
  0
LINE
  5
131
330
1F
100
AcDbEntity
  8
0
  6
Continuous
 62
     7
370
    25
100
AcDbLine
 10
168.6770220172
 20
270.4097481365
 30
0.0
 11
168.6770220172
 21
270.1795475478
 31
0.0
  0
LINE
  5
132
330
1F
100
AcDbEntity
  8
0
  6
Continuous
 62
     7
370
    25
100
AcDbLine
 10
167.9912258756
 20
270.1795475478
 30
0.0
 11
167.9912258756
 21
270.4097481365
 31
0.0
  0
LINE
  5
133
330
1F
100
AcDbEntity
  8
0
  6
Continuous
 62
     7
370
    25
100
AcDbLine
 10
166.4672245157
 20
270.4097481365
 30
0.0
 11
166.4672245157
 21
270.1795475478
 31
0.0
  0
LINE
  5
134
330
1F
100
AcDbEntity
  8
0
  6
Continuous
 62
     7
370
    25
100
AcDbLine
 10
165.781428374
 20
270.1795475478
 30
0.0
 11
165.781428374
 21
270.4097481365
 31
0.0
  0
LINE
  5
135
330
1F
100
AcDbEntity
  8
0
  6
Continuous
 62
     7
370
    25
100
AcDbLine
 10
164.2574270141
 20
270.4097481365
 30
0.0
 11
164.2574270141
 21
270.1795475478
 31
0.0
  0
SPLINE
  5
136
330
1F
100
AcDbEntity
  8
0
  6
Continuous
 62
     7
370
    25
100
AcDbSpline
210
0.0
220
0.0
230
1.0
 70
     8
 71
     3
 72
    10
 73
     6
 74
     0
 42
0.000000001
 43
0.00000001
 40
0.0
 40
0.0
 40
0.0
 40
0.0
 40
0.2476675366036219
 40
0.6400764950121305
 40
1.0
 40
1.0
 40
1.0
 40
1.0
 10
179.4651050936922
 20
268.7960790390793
 30
0.0
 10
179.5805590403862
 20
268.8001712988084
 30
0.0
 10
179.8789403242177
 20
268.8107474094282
 30
0.0
 10
180.3193789281108
 20
268.9023150444058
 30
0.0
 10
180.5633167714191
 20
269.0435860545224
 30
0.0
 10
180.6800191175684
 20
269.1111715431038
 30
0.0
  0
SPLINE
  5
137
330
1F
100
AcDbEntity
  8
0
  6
Continuous
 62
     7
370
    25
100
AcDbSpline
210
0.0
220
0.0
230
1.0
 70
     8
 71
     3
 72
    10
 73
     6
 74
     0
 42
0.000000001
 43
0.00000001
 40
0.0
 40
0.0
 40
0.0
 40
0.0
 40
0.2651638631280123
 40
0.6929867933870403
 40
1.0
 40
1.0
 40
1.0
 40
1.0
 10
165.0519718301043
 20
269.1111715431038
 30
0.0
 10
165.1358397400918
 20
269.0598333992493
 30
0.0
 10
165.3550225251242
 20
268.9256648316757
 30
0.0
 10
165.780673563848
 20
268.8171244646535
 30
0.0
 10
166.1236030749707
 20
268.8022807261375
 30
0.0
 10
166.2668784033999
 20
268.7960790390793
 30
0.0
  0
LINE
  5
138
330
1F
100
AcDbEntity
  8
0
  6
Continuous
 62
     7
370
    25
100
AcDbLine
 10
166.2668784034
 20
268.7960790391
 30
0.0
 11
179.4651050937
 21
268.7960790391
 31
0.0
  0
LINE
  5
139
330
1F
100
AcDbEntity
  8
0
  6
Continuous
 62
     7
370
    25
100
AcDbLine
 10
355.5189941895
 20
278.4624250526
 30
0.0
 11
355.5189941895
 21
279.8436360354
 31
0.0
  0
LINE
  5
13A
330
1F
100
AcDbEntity
  8
0
  6
Continuous
 62
     7
370
    25
100
AcDbLine
 10
320.2129949701
 20
279.8436360354
 30
0.0
 11
320.2129949701
 21
278.4624250526
 31
0.0
  0
LINE
  5
13B
330
1F
100
AcDbEntity
  8
0
  6
Continuous
 62
     7
370
    25
100
AcDbLine
 10
320.3399975669
 20
281.6099153752
 30
0.0
 11
320.3399975669
 21
280.1010088916
 31
0.0
  0
LINE
  5
13C
330
1F
100
AcDbEntity
  8
0
  6
Continuous
 62
     7
370
    25
100
AcDbLine
 10
355.3919915926
 20
280.7369233961
 30
0.0
 11
355.3919915926
 21
281.6099153752
 31
0.0
  0
LINE
  5
13D
330
1F
100
AcDbEntity
  8
0
  6
Continuous
 62
     7
370
    25
100
AcDbLine
 10
322.6829592955
 20
274.5052577848
 30
0.0
 11
330.051970936
 21
269.1111715431
 31
0.0
  0
LINE
  5
13E
330
1F
100
AcDbEntity
  8
0
  6
Continuous
 62
     7
370
    25
100
AcDbLine
 10
345.6800182235
 20
269.1111715431
 30
0.0
 11
353.049029864
 21
274.5052577848
 31
0.0
  0
LINE
  5
13F
330
1F
100
AcDbEntity
  8
0
  6
Continuous
 62
     7
370
    25
100
AcDbLine
 10
328.6889393699
 20
271.8755977149
 30
0.0
 11
328.6889393699
 21
272.1057983036
 31
0.0
  0
LINE
  5
140
330
1F
100
AcDbEntity
  8
0
  6
Continuous
 62
     7
370
    25
100
AcDbLine
 10
327.1649454605
 20
272.1057983036
 30
0.0
 11
327.1649454605
 21
271.8755977149
 31
0.0
  0
LINE
  5
141
330
1F
100
AcDbEntity
  8
0
  6
Continuous
 62
     7
370
    25
100
AcDbLine
 10
330.898744322
 20
271.8755977149
 30
0.0
 11
330.898744322
 21
272.1057983036
 31
0.0
  0
LINE
  5
142
330
1F
100
AcDbEntity
  8
0
  6
Continuous
 62
     7
370
    25
100
AcDbLine
 10
329.3747429621
 20
272.1057983036
 30
0.0
 11
329.3747429621
 21
271.8755977149
 31
0.0
  0
LINE
  5
143
330
1F
100
AcDbEntity
  8
0
  6
Continuous
 62
     7
370
    25
100
AcDbLine
 10
333.1085418236
 20
271.8755977149
 30
0.0
 11
333.1085418236
 21
272.1057983036
 31
0.0
  0
LINE
  5
144
330
1F
100
AcDbEntity
  8
0
  6
Continuous
 62
     7
370
    25
100
AcDbLine
 10
331.5845404637
 20
272.1057983036
 30
0.0
 11
331.5845404637
 21
271.8755977149
 31
0.0
  0
LINE
  5
145
330
1F
100
AcDbEntity
  8
0
  6
Continuous
 62
     7
370
    25
100
AcDbLine
 10
335.3183393252
 20
271.8755977149
 30
0.0
 11
335.3183393252
 21
272.1057983036
 31
0.0
  0
LINE
  5
146
330
1F
100
AcDbEntity
  8
0
  6
Continuous
 62
     7
370
    25
100
AcDbLine
 10
333.7943454158
 20
272.1057983036
 30
0.0
 11
333.7943454158
 21
271.8755977149
 31
0.0
  0
LINE
  5
147
330
1F
100
AcDbEntity
  8
0
  6
Continuous
 62
     7
370
    25
100
AcDbLine
 10
337.5281442773
 20
271.8755977149
 30
0.0
 11
337.5281442773
 21
272.1057983036
 31
0.0
  0
LINE
  5
148
330
1F
100
AcDbEntity
  8
0
  6
Continuous
 62
     7
370
    25
100
AcDbLine
 10
336.0041429174
 20
272.1057983036
 30
0.0
 11
336.0041429174
 21
271.8755977149
 31
0.0
  0
LINE
  5
149
330
1F
100
AcDbEntity
  8
0
  6
Continuous
 62
     7
370
    25
100
AcDbLine
 10
339.7278462422
 20
271.8755977149
 30
0.0
 11
339.7278462422
 21
272.1057983036
 31
0.0
  0
LINE
  5
14A
330
1F
100
AcDbEntity
  8
0
  6
Continuous
 62
     7
370
    25
100
AcDbLine
 10
338.2038448822
 20
272.1057983036
 30
0.0
 11
338.2038448822
 21
271.8755977149
 31
0.0
  0
LINE
  5
14B
330
1F
100
AcDbEntity
  8
0
  6
Continuous
 62
     7
370
    25
100
AcDbLine
 10
341.9376437437
 20
271.8755977149
 30
0.0
 11
341.9376437437
 21
272.1057983036
 31
0.0
  0
LINE
  5
14C
330
1F
100
AcDbEntity
  8
0
  6
Continuous
 62
     7
370
    25
100
AcDbLine
 10
340.4136498344
 20
272.1057983036
 30
0.0
 11
340.4136498344
 21
271.8755977149
 31
0.0
  0
LINE
  5
14D
330
1F
100
AcDbEntity
  8
0
  6
Continuous
 62
     7
370
    25
100
AcDbLine
 10
344.1474486959
 20
271.8755977149
 30
0.0
 11
344.1474486959
 21
272.1057983036
 31
0.0
  0
LINE
  5
14E
330
1F
100
AcDbEntity
  8
0
  6
Continuous
 62
     7
370
    25
100
AcDbLine
 10
342.6234473359
 20
272.1057983036
 30
0.0
 11
342.6234473359
 21
271.8755977149
 31
0.0
  0
LINE
  5
14F
330
1F
100
AcDbEntity
  8
0
  6
Continuous
 62
     7
370
    25
100
AcDbLine
 10
346.3572461974
 20
271.8755977149
 30
0.0
 11
346.3572461974
 21
272.1057983036
 31
0.0
  0
LINE
  5
150
330
1F
100
AcDbEntity
  8
0
  6
Continuous
 62
     7
370
    25
100
AcDbLine
 10
344.8332448375
 20
272.1057983036
 30
0.0
 11
344.8332448375
 21
271.8755977149
 31
0.0
  0
LINE
  5
151
330
1F
100
AcDbEntity
  8
0
  6
Continuous
 62
     7
370
    25
100
AcDbLine
 10
348.567043699
 20
271.8755977149
 30
0.0
 11
348.567043699
 21
272.1057983036
 31
0.0
  0
LINE
  5
152
330
1F
100
AcDbEntity
  8
0
  6
Continuous
 62
     7
370
    25
100
AcDbLine
 10
347.0430497896
 20
272.1057983036
 30
0.0
 11
347.0430497896
 21
271.8755977149
 31
0.0
  0
LINE
  5
153
330
1F
100
AcDbEntity
  8
0
  6
Continuous
 62
     7
370
    25
100
AcDbLine
 10
329.7887940776
 20
271.0705103273
 30
0.0
 11
329.7887940776
 21
271.300710916
 31
0.0
  0
LINE
  5
154
330
1F
100
AcDbEntity
  8
0
  6
Continuous
 62
     7
370
    25
100
AcDbLine
 10
328.2647927177
 20
271.300710916
 30
0.0
 11
328.2647927177
 21
271.0705103273
 31
0.0
  0
LINE
  5
155
330
1F
100
AcDbEntity
  8
0
  6
Continuous
 62
     7
370
    25
100
AcDbLine
 10
331.9985915792
 20
271.0705103273
 30
0.0
 11
331.9985915792
 21
271.300710916
 31
0.0
  0
LINE
  5
156
330
1F
100
AcDbEntity
  8
0
  6
Continuous
 62
     7
370
    25
100
AcDbLine
 10
330.4745976698
 20
271.300710916
 30
0.0
 11
330.4745976698
 21
271.0705103273
 31
0.0
  0
LINE
  5
157
330
1F
100
AcDbEntity
  8
0
  6
Continuous
 62
     7
370
    25
100
AcDbLine
 10
334.2083965313
 20
271.0705103273
 30
0.0
 11
334.2083965313
 21
271.300710916
 31
0.0
  0
LINE
  5
158
330
1F
100
AcDbEntity
  8
0
  6
Continuous
 62
     7
370
    25
100
AcDbLine
 10
332.6843951714
 20
271.300710916
 30
0.0
 11
332.6843951714
 21
271.0705103273
 31
0.0
  0
LINE
  5
159
330
1F
100
AcDbEntity
  8
0
  6
Continuous
 62
     7
370
    25
100
AcDbLine
 10
336.4181940329
 20
271.0705103273
 30
0.0
 11
336.4181940329
 21
271.300710916
 31
0.0
  0
LINE
  5
15A
330
1F
100
AcDbEntity
  8
0
  6
Continuous
 62
     7
370
    25
100
AcDbLine
 10
334.8941926729
 20
271.300710916
 30
0.0
 11
334.8941926729
 21
271.0705103273
 31
0.0
  0
LINE
  5
15B
330
1F
100
AcDbEntity
  8
0
  6
Continuous
 62
     7
370
    25
100
AcDbLine
 10
338.6279915344
 20
271.0705103273
 30
0.0
 11
338.6279915344
 21
271.300710916
 31
0.0
  0
LINE
  5
15C
330
1F
100
AcDbEntity
  8
0
  6
Continuous
 62
     7
370
    25
100
AcDbLine
 10
337.1039976251
 20
271.300710916
 30
0.0
 11
337.1039976251
 21
271.0705103273
 31
0.0
  0
LINE
  5
15D
330
1F
100
AcDbEntity
  8
0
  6
Continuous
 62
     7
370
    25
100
AcDbLine
 10
340.8377964866
 20
271.0705103273
 30
0.0
 11
340.8377964866
 21
271.300710916
 31
0.0
  0
LINE
  5
15E
330
1F
100
AcDbEntity
  8
0
  6
Continuous
 62
     7
370
    25
100
AcDbLine
 10
339.3137951267
 20
271.300710916
 30
0.0
 11
339.3137951267
 21
271.0705103273
 31
0.0
  0
LINE
  5
15F
330
1F
100
AcDbEntity
  8
0
  6
Continuous
 62
     7
370
    25
100
AcDbLine
 10
343.0475939882
 20
271.0705103273
 30
0.0
 11
343.0475939882
 21
271.300710916
 31
0.0
  0
LINE
  5
160
330
1F
100
AcDbEntity
  8
0
  6
Continuous
 62
     7
370
    25
100
AcDbLine
 10
341.5235926282
 20
271.300710916
 30
0.0
 11
341.5235926282
 21
271.0705103273
 31
0.0
  0
LINE
  5
161
330
1F
100
AcDbEntity
  8
0
  6
Continuous
 62
     7
370
    25
100
AcDbLine
 10
345.2573914897
 20
271.0705103273
 30
0.0
 11
345.2573914897
 21
271.300710916
 31
0.0
  0
LINE
  5
162
330
1F
100
AcDbEntity
  8
0
  6
Continuous
 62
     7
370
    25
100
AcDbLine
 10
343.7333975804
 20
271.300710916
 30
0.0
 11
343.7333975804
 21
271.0705103273
 31
0.0
  0
LINE
  5
163
330
1F
100
AcDbEntity
  8
0
  6
Continuous
 62
     7
370
    25
100
AcDbLine
 10
347.4671964419
 20
271.0705103273
 30
0.0
 11
347.4671964419
 21
271.300710916
 31
0.0
  0
LINE
  5
164
330
1F
100
AcDbEntity
  8
0
  6
Continuous
 62
     7
370
    25
100
AcDbLine
 10
345.9431950819
 20
271.300710916
 30
0.0
 11
345.9431950819
 21
271.0705103273
 31
0.0
  0
LINE
  5
165
330
1F
100
AcDbEntity
  8
0
  6
Continuous
 62
     7
370
    25
100
AcDbLine
 10
330.78142748
 20
270.1795475478
 30
0.0
 11
330.78142748
 21
270.4097481365
 31
0.0
  0
LINE
  5
166
330
1F
100
AcDbEntity
  8
0
  6
Continuous
 62
     7
370
    25
100
AcDbLine
 10
329.25742612
 20
270.4097481365
 30
0.0
 11
329.25742612
 21
270.1795475478
 31
0.0
  0
LINE
  5
167
330
1F
100
AcDbEntity
  8
0
  6
Continuous
 62
     7
370
    25
100
AcDbLine
 10
332.9912249815
 20
270.1795475478
 30
0.0
 11
332.9912249815
 21
270.4097481365
 31
0.0
  0
LINE
  5
168
330
1F
100
AcDbEntity
  8
0
  6
Continuous
 62
     7
370
    25
100
AcDbLine
 10
331.4672236216
 20
270.4097481365
 30
0.0
 11
331.4672236216
 21
270.1795475478
 31
0.0
  0
LINE
  5
169
330
1F
100
AcDbEntity
  8
0
  6
Continuous
 62
     7
370
    25
100
AcDbLine
 10
335.2010224831
 20
270.1795475478
 30
0.0
 11
335.2010224831
 21
270.4097481365
 31
0.0
  0
LINE
  5
16A
330
1F
100
AcDbEntity
  8
0
  6
Continuous
 62
     7
370
    25
100
AcDbLine
 10
333.6770285737
 20
270.4097481365
 30
0.0
 11
333.6770285737
 21
270.1795475478
 31
0.0
  0
LINE
  5
16B
330
1F
100
AcDbEntity
  8
0
  6
Continuous
 62
     7
370
    25
100
AcDbLine
 10
337.4108274352
 20
270.1795475478
 30
0.0
 11
337.4108274352
 21
270.4097481365
 31
0.0
  0
LINE
  5
16C
330
1F
100
AcDbEntity
  8
0
  6
Continuous
 62
     7
370
    25
100
AcDbLine
 10
335.8868260753
 20
270.4097481365
 30
0.0
 11
335.8868260753
 21
270.1795475478
 31
0.0
  0
LINE
  5
16D
330
1F
100
AcDbEntity
  8
0
  6
Continuous
 62
     7
370
    25
100
AcDbLine
 10
339.8451630842
 20
270.1795475478
 30
0.0
 11
339.8451630842
 21
270.4097481365
 31
0.0
  0
LINE
  5
16E
330
1F
100
AcDbEntity
  8
0
  6
Continuous
 62
     7
370
    25
100
AcDbLine
 10
338.3211617243
 20
270.4097481365
 30
0.0
 11
338.3211617243
 21
270.1795475478
 31
0.0
  0
LINE
  5
16F
330
1F
100
AcDbEntity
  8
0
  6
Continuous
 62
     7
370
    25
100
AcDbLine
 10
342.0549680364
 20
270.1795475478
 30
0.0
 11
342.0549680364
 21
270.4097481365
 31
0.0
  0
LINE
  5
170
330
1F
100
AcDbEntity
  8
0
  6
Continuous
 62
     7
370
    25
100
AcDbLine
 10
340.5309666764
 20
270.4097481365
 30
0.0
 11
340.5309666764
 21
270.1795475478
 31
0.0
  0
LINE
  5
171
330
1F
100
AcDbEntity
  8
0
  6
Continuous
 62
     7
370
    25
100
AcDbLine
 10
344.264765538
 20
270.1795475478
 30
0.0
 11
344.264765538
 21
270.4097481365
 31
0.0
  0
LINE
  5
172
330
1F
100
AcDbEntity
  8
0
  6
Continuous
 62
     7
370
    25
100
AcDbLine
 10
342.740764178
 20
270.4097481365
 30
0.0
 11
342.740764178
 21
270.1795475478
 31
0.0
  0
LINE
  5
173
330
1F
100
AcDbEntity
  8
0
  6
Continuous
 62
     7
370
    25
100
AcDbLine
 10
346.4745630395
 20
270.1795475478
 30
0.0
 11
346.4745630395
 21
270.4097481365
 31
0.0
  0
LINE
  5
174
330
1F
100
AcDbEntity
  8
0
  6
Continuous
 62
     7
370
    25
100
AcDbLine
 10
344.9505616796
 20
270.4097481365
 30
0.0
 11
344.9505616796
 21
270.1795475478
 31
0.0
  0
SPLINE
  5
175
330
1F
100
AcDbEntity
  8
0
  6
Continuous
 62
     7
370
    25
100
AcDbSpline
210
0.0
220
0.0
230
1.0
 70
     8
 71
     3
 72
    10
 73
     6
 74
     0
 42
0.000000001
 43
0.00000001
 40
0.0
 40
0.0
 40
0.0
 40
0.0
 40
0.2651624655896293
 40
0.6929831410204197
 40
1.0
 40
1.0
 40
1.0
 40
1.0
 10
330.0519709360346
 20
269.1111715431038
 30
0.0
 10
330.1358388456948
 20
269.0598334014489
 30
0.0
 10
330.3550216298715
 20
268.9256648396238
 30
0.0
 10
330.7806749204339
 20
268.8171238437975
 30
0.0
 10
331.123607089153
 20
268.8022805868996
 30
0.0
 10
331.2668849599108
 20
268.7960790390793
 30
0.0
  0
SPLINE
  5
176
330
1F
100
AcDbEntity
  8
0
  6
Continuous
 62
     7
370
    25
100
AcDbSpline
210
0.0
220
0.0
230
1.0
 70
     8
 71
     3
 72
    10
 73
     6
 74
     0
 42
0.000000001
 43
0.00000001
 40
0.0
 40
0.0
 40
0.0
 40
0.0
 40
0.2476687409191424
 40
0.6400747448374037
 40
1.0
 40
1.0
 40
1.0
 40
1.0
 10
344.4651116502031
 20
268.7960790390793
 30
0.0
 10
344.5805656783968
 20
268.8001712007939
 30
0.0
 10
344.8789449060791
 20
268.8107469777593
 30
0.0
 10
345.3193793414772
 20
268.9023162699426
 30
0.0
 10
345.5633157902283
 20
269.0435861556307
 30
0.0
 10
345.6800182234987
 20
269.1111715431038
 30
0.0
  0
LINE
  5
177
330
1F
100
AcDbEntity
  8
0
  6
Continuous
 62
     7
370
    25
100
AcDbLine
 10
331.2668849599
 20
268.7960790391
 30
0.0
 11
344.4651116502
 21
268.7960790391
 31
0.0
  0
SPLINE
  5
178
330
1F
100
AcDbEntity
  8
0
  6
Continuous
 62
     7
370
    25
100
AcDbSpline
210
0.0
220
0.0
230
1.0
 70
     8
 71
     3
 72
     9
 73
     5
 74
     0
 42
0.000000001
 43
0.00000001
 40
0.0
 40
0.0
 40
0.0
 40
0.0
 40
0.0361630507287732
 40
0.9999999999999999
 40
0.9999999999999999
 40
0.9999999999999999
 40
0.9999999999999999
 10
315.6853032183394
 20
280.1528872842613
 30
0.0
 10
315.6900780943835
 20
280.1704583761406
 30
0.0
 10
315.8221155178835
 20
280.6563435966937
 30
0.0
 10
316.0845098920157
 20
281.1419092536976
 30
0.0
 10
316.3374152850851
 20
281.6099153752152
 30
0.0
  0
LINE
  5
179
330
1F
100
AcDbEntity
  8
0
  6
Continuous
 62
     7
370
    25
100
AcDbLine
 10
294.4143463742
 20
281.6099153752
 30
0.0
 11
294.8248808157
 21
280.646875679
 31
0.0
  0
ARC
  5
17A
330
1F
100
AcDbEntity
  8
0
  6
Continuous
 62
     7
370
    25
100
AcDbCircle
 10
294.7311917664
 20
269.947275915
 30
0.0
 40
0.9999999999999749
100
AcDbArc
 50
190.6555437002
 51
253.8963089622
  0
ARC
  5
17B
330
1F
100
AcDbEntity
  8
0
  6
Continuous
 62
     7
370
    25
100
AcDbCircle
 10
316.0007982872
 20
269.947275915
 30
0.0
 40
0.9999999999999614
100
AcDbArc
 50
286.1036910378
 51
349.3444562998
  0
SPLINE
  5
17C
330
1F
100
AcDbEntity
  8
0
  6
Continuous
 62
     7
370
    25
100
AcDbSpline
210
0.0
220
0.0
230
1.0
 70
     8
 71
     3
 72
    17
 73
    13
 74
     0
 42
0.000000001
 43
0.00000001
 40
0.0
 40
0.0
 40
0.0
 40
0.0
 40
0.0568454944130336
 40
0.1651281888416257
 40
0.273185490927614
 40
0.3810463873113519
 40
0.4887962532873378
 40
0.5965119798146206
 40
0.7042562190646395
 40
0.812088680066392
 40
0.9200909280202227
 40
1.0
 40
1.0
 40
1.0
 40
1.0
 10
294.4538158249601
 20
268.9865158791367
 30
0.0
 10
294.8235907600548
 20
268.88439793621
 30
0.0
 10
295.8977350865612
 20
268.5877596337758
 30
0.0
 10
297.7979252711673
 20
268.1885469897842
 30
0.0
 10
300.1653540178334
 20
267.8366233134533
 30
0.0
 10
302.6150384596873
 20
267.619128935546
 30
0.0
 10
305.1058431137167
 20
267.5366290076017
 30
0.0
 10
307.5998963724226
 20
267.5907651239244
 30
0.0
 10
310.0593610334672
 20
267.7799147860183
 30
0.0
 10
312.4426252637293
 20
268.104041905764
 30
0.0
 10
314.5272006345735
 20
268.5110237776495
 30
0.0
 10
315.7557405410739
 20
268.8446441856032
 30
0.0
 10
316.278175718759
 20
268.9865158791367
 30
0.0
  0
SPLINE
  5
17D
330
1F
100
AcDbEntity
  8
0
  6
Continuous
 62
     7
370
    25
100
AcDbSpline
210
0.0
220
0.0
230
1.0
 70
     8
 71
     3
 72
    10
 73
     6
 74
     0
 42
0.000000001
 43
0.00000001
 40
0.0
 40
0.0
 40
0.0
 40
0.0
 40
0.1102519095063516
 40
0.7179883936105059
 40
1.0
 40
1.0
 40
1.0
 40
1.0
 10
291.2237395417437
 20
281.3362108464066
 30
0.0
 10
291.3319218943845
 20
280.9050284507857
 30
0.0
 10
292.0364328088652
 20
278.0970593464765
 30
0.0
 10
292.904573883126
 20
274.2125650398947
 30
0.0
 10
293.5213898533204
 20
270.845519141448
 30
0.0
 10
293.7168937992796
 20
269.7783114309136
 30
0.0
  0
SPLINE
  5
17E
330
1F
100
AcDbEntity
  8
0
  6
Continuous
 62
     7
370
    25
100
AcDbSpline
210
0.0
220
0.0
230
1.0
 70
     8
 71
     3
 72
     9
 73
     5
 74
     0
 42
0.000000001
 43
0.00000001
 40
0.0
 40
0.0
 40
0.0
 40
0.0
 40
0.5245016702311864
 40
1.0
 40
1.0
 40
1.0
 40
1.0
 10
316.9844311547026
 20
269.7627248163048
 30
0.0
 10
317.3741592308147
 20
271.7632662689393
 30
0.0
 10
318.1172037209119
 20
275.577441830578
 30
0.0
 10
319.064866836506
 20
279.4822265820528
 30
0.0
 10
319.5154790651545
 20
281.3389452094856
 30
0.0
  0
SPLINE
  5
17F
330
1F
100
AcDbEntity
  8
0
  6
Continuous
 62
     7
370
    25
100
AcDbSpline
210
0.0
220
0.0
230
1.0
 70
     8
 71
     3
 72
     9
 73
     5
 74
     0
 42
0.000000001
 43
0.00000001
 40
0.0
 40
0.0
 40
0.0
 40
0.0
 40
0.35797474577053
 40
1.0
 40
1.0
 40
1.0
 40
1.0
 10
319.5056964528307
 20
281.3387142414871
 30
0.0
 10
319.5100476517566
 20
281.365487997048
 30
0.0
 10
319.5222026961479
 20
281.4402802997932
 30
0.0
 10
319.5752297296341
 20
281.5435887446451
 30
0.0
 10
319.6092744242891
 20
281.6099153752152
 30
0.0
  0
LINE
  5
180
330
1F
100
AcDbEntity
  8
0
  6
Continuous
 62
     7
370
    25
100
AcDbLine
 10
291.1234286499
 20
281.6099153752
 30
0.0
 11
291.2241828513
 21
281.338811099
 31
0.0
  0
LINE
  5
181
330
1F
100
AcDbEntity
  8
0
  6
Continuous
 62
     7
370
    25
100
AcDbLine
 10
194.4143486094
 20
281.6099153752
 30
0.0
 11
194.8248830509
 21
280.646875679
 31
0.0
  0
SPLINE
  5
182
330
1F
100
AcDbEntity
  8
0
  6
Continuous
 62
     7
370
    25
100
AcDbSpline
210
0.0
220
0.0
230
1.0
 70
     8
 71
     3
 72
     9
 73
     5
 74
     0
 42
0.000000001
 43
0.00000001
 40
0.0
 40
0.0
 40
0.0
 40
0.0
 40
0.0361630571491724
 40
0.9999999999999999
 40
0.9999999999999999
 40
0.9999999999999999
 40
0.9999999999999999
 10
215.6853054535136
 20
280.1528872842613
 30
0.0
 10
215.6900803303635
 20
280.1704583760821
 30
0.0
 10
215.8221177527035
 20
280.6563435087539
 30
0.0
 10
216.0845102309291
 20
281.1419092121249
 30
0.0
 10
216.337413794969
 20
281.6099153752152
 30
0.0
  0
ARC
  5
183
330
1F
100
AcDbEntity
  8
0
  6
Continuous
 62
     7
370
    25
100
AcDbCircle
 10
194.7311917664
 20
269.9472759149
 30
0.0
 40
1.000000000000017
100
AcDbArc
 50
190.6555437002
 51
253.8963089622
  0
ARC
  5
184
330
1F
100
AcDbEntity
  8
0
  6
Continuous
 62
     7
370
    25
100
AcDbCircle
 10
216.0007982872
 20
269.9472759149
 30
0.0
 40
1.000000000000017
100
AcDbArc
 50
286.1036910378
 51
349.3444562998
  0
SPLINE
  5
185
330
1F
100
AcDbEntity
  8
0
  6
Continuous
 62
     7
370
    25
100
AcDbSpline
210
0.0
220
0.0
230
1.0
 70
     8
 71
     3
 72
    17
 73
    13
 74
     0
 42
0.000000001
 43
0.00000001
 40
0.0
 40
0.0
 40
0.0
 40
0.0
 40
0.0568454937138937
 40
0.1651283314137871
 40
0.2731854797458901
 40
0.381046374803052
 40
0.4887964001235673
 40
0.5965119643862644
 40
0.704256360932757
 40
0.8120888206082834
 40
0.9200910672337996
 40
1.0
 40
1.0
 40
1.0
 40
1.0
 10
194.4538143348441
 20
268.9865158791367
 30
0.0
 10
194.8235892384725
 20
268.8843979067174
 30
0.0
 10
195.8977344142041
 20
268.5877592588445
 30
0.0
 10
197.7979258188317
 20
268.1885477998666
 30
0.0
 10
200.1653534460199
 20
267.8366229398267
 30
0.0
 10
202.6150382414024
 20
267.6191288995213
 30
0.0
 10
205.105842881774
 20
267.536628983069
 30
0.0
 10
207.599897275715
 20
267.5907653691444
 30
0.0
 10
210.0593621626884
 20
267.7799145244204
 30
0.0
 10
212.4426273730284
 20
268.1040420128318
 30
0.0
 10
214.5272022879676
 20
268.5110232990725
 30
0.0
 10
215.7557403533243
 20
268.844644141779
 30
0.0
 10
216.2781742286429
 20
268.9865158791367
 30
0.0
  0
SPLINE
  5
186
330
1F
100
AcDbEntity
  8
0
  6
Continuous
 62
     7
370
    25
100
AcDbSpline
210
0.0
220
0.0
230
1.0
 70
     8
 71
     3
 72
    10
 73
     6
 74
     0
 42
0.000000001
 43
0.00000001
 40
0.0
 40
0.0
 40
0.0
 40
0.0
 40
0.1102519061057478
 40
0.7179884023088564
 40
1.0
 40
1.0
 40
1.0
 40
1.0
 10
191.2237380516276
 20
281.3362108464066
 30
0.0
 10
191.3319203776915
 20
280.9050284481889
 30
0.0
 10
192.0364311493618
 20
278.0970592063412
 30
0.0
 10
192.9045767139385
 20
274.2125652176917
 30
0.0
 10
193.5213922369952
 20
270.8455191561472
 30
0.0
 10
193.7168960344538
 20
269.7783114309136
 30
0.0
  0
SPLINE
  5
187
330
1F
100
AcDbEntity
  8
0
  6
Continuous
 62
     7
370
    25
100
AcDbSpline
210
0.0
220
0.0
230
1.0
 70
     8
 71
     3
 72
     9
 73
     5
 74
     0
 42
0.000000001
 43
0.00000001
 40
0.0
 40
0.0
 40
0.0
 40
0.0
 40
0.5245016397419244
 40
1.0
 40
1.0
 40
1.0
 40
1.0
 10
216.9844296645865
 20
269.7627248163048
 30
0.0
 10
217.3741558305484
 20
271.7632663348425
 30
0.0
 10
218.1171967220004
 20
275.5774422438482
 30
0.0
 10
219.0648635515273
 20
279.482226634547
 30
0.0
 10
219.5154775750384
 20
281.3389452094856
 30
0.0
  0
SPLINE
  5
188
330
1F
100
AcDbEntity
  8
0
  6
Continuous
 62
     7
370
    25
100
AcDbSpline
210
0.0
220
0.0
230
1.0
 70
     8
 71
     3
 72
     9
 73
     5
 74
     0
 42
0.000000001
 43
0.00000001
 40
0.0
 40
0.0
 40
0.0
 40
0.0
 40
0.35797474577053
 40
1.0
 40
1.0
 40
1.0
 40
1.0
 10
219.5056986880049
 20
281.3387142414871
 30
0.0
 10
219.5100498869307
 20
281.365487997048
 30
0.0
 10
219.5222049313221
 20
281.4402802997932
 30
0.0
 10
219.5752319648083
 20
281.5435887446451
 30
0.0
 10
219.6092766594633
 20
281.6099153752152
 30
0.0
  0
LINE
  5
189
330
1F
100
AcDbEntity
  8
0
  6
Continuous
 62
     7
370
    25
100
AcDbLine
 10
191.1234308851
 20
281.6099153752
 30
0.0
 11
191.2241850865
 21
281.338811099
 31
0.0
  0
LINE
  5
18A
330
1F
100
AcDbEntity
  8
0
  6
Continuous
 62
     7
370
    25
100
AcDbLine
 10
55.3659920466
 20
281.5476881261
 30
0.0
 11
155.339998461
 21
281.5476881261
 31
0.0
  0
LINE
  5
18B
330
1F
100
AcDbEntity
  8
0
  6
Continuous
 62
     7
370
    25
100
AcDbLine
 10
190.3919924867
 20
281.5476881261
 30
0.0
 11
191.1465574872
 21
281.5476881261
 31
0.0
  0
LINE
  5
18C
330
1F
100
AcDbEntity
  8
0
  6
Continuous
 62
     7
370
    25
100
AcDbLine
 10
219.5809272003
 20
281.5476881261
 30
0.0
 11
291.1465589773
 21
281.5476881261
 31
0.0
  0
LINE
  5
18D
330
1F
100
AcDbEntity
  8
0
  6
Continuous
 62
     7
370
    25
100
AcDbLine
 10
319.5809324157
 20
281.5476881261
 30
0.0
 11
320.3399975669
 21
281.5476881261
 31
0.0
  0
LINE
  5
18E
330
1F
100
AcDbEntity
  8
0
  6
Continuous
 62
     7
370
    25
100
AcDbLine
 10
355.3919915926
 20
281.5476881261
 30
0.0
 11
455.365998007
 21
281.5476881261
 31
0.0
  0
ARC
  5
18F
330
1F
100
AcDbEntity
  8
0
  6
Continuous
 62
     7
370
    25
100
AcDbCircle
 10
395.3659950268
 20
999.1099185795
 30
0.0
 40
14.00200000000001
100
AcDbArc
 50
270.0
 51
0.0
  0
ARC
  5
190
330
1F
100
AcDbEntity
  8
0
  6
Continuous
 62
     7
370
    25
100
AcDbCircle
 10
395.3659950268
 20
999.1099185795
 30
0.0
 40
5.99799999999999
100
AcDbArc
 50
270.0
 51
0.0
  0
LINE
  5
191
330
1F
100
AcDbEntity
  8
0
  6
Continuous
 62
     7
370
    25
100
AcDbLine
 10
409.3679909479
 20
1016.1099435682
 30
0.0
 11
409.3679909479
 21
1026.1099340315
 31
0.0
  0
LINE
  5
192
330
1F
100
AcDbEntity
  8
0
  6
Continuous
 62
     7
370
    25
100
AcDbLine
 10
401.3639961254
 20
1026.1099340315
 30
0.0
 11
401.3639961254
 21
1016.1099435682
 31
0.0
  0
LINE
  5
193
330
1F
100
AcDbEntity
  8
0
  6
Continuous
 62
     7
370
    25
100
AcDbLine
 10
409.3679909479
 20
999.1099240179
 30
0.0
 11
409.3679909479
 21
1016.1099435682
 31
0.0
  0
LINE
  5
194
330
1F
100
AcDbEntity
  8
0
  6
Continuous
 62
     7
370
    25
100
AcDbLine
 10
401.3639961254
 20
1016.1099435682
 30
0.0
 11
401.3639961254
 21
999.1099240179
 31
0.0
  0
LINE
  5
195
330
1F
100
AcDbEntity
  8
0
  6
Continuous
 62
     7
370
    25
100
AcDbLine
 10
115.3659944308
 20
985.1078988905
 30
0.0
 11
166.8659944904
 21
985.1078988905
 31
0.0
  0
LINE
  5
196
330
1F
100
AcDbEntity
  8
0
  6
Continuous
 62
     7
370
    25
100
AcDbLine
 10
178.8659964573
 20
985.1078988905
 30
0.0
 11
331.8659935963
 21
985.1078988905
 31
0.0
  0
LINE
  5
197
330
1F
100
AcDbEntity
  8
0
  6
Continuous
 62
     7
370
    25
100
AcDbLine
 10
343.8659955632
 20
985.1078988905
 30
0.0
 11
395.3659956228
 21
985.1078988905
 31
0.0
  0
LINE
  5
198
330
1F
100
AcDbEntity
  8
0
  6
Continuous
 62
     7
370
    25
100
AcDbLine
 10
395.3659956228
 20
993.1119086141
 30
0.0
 11
343.8659955632
 21
993.1119086141
 31
0.0
  0
LINE
  5
199
330
1F
100
AcDbEntity
  8
0
  6
Continuous
 62
     7
370
    25
100
AcDbLine
 10
331.8659935963
 20
993.1119086141
 30
0.0
 11
178.8659964573
 21
993.1119086141
 31
0.0
  0
LINE
  5
19A
330
1F
100
AcDbEntity
  8
0
  6
Continuous
 62
     7
370
    25
100
AcDbLine
 10
166.8659944904
 20
993.1119086141
 30
0.0
 11
115.3659944308
 21
993.1119086141
 31
0.0
  0
ARC
  5
19B
330
1F
100
AcDbEntity
  8
0
  6
Continuous
 62
     7
370
    25
100
AcDbCircle
 10
115.3659950268
 20
999.1099185795
 30
0.0
 40
14.00199999999998
100
AcDbArc
 50
180.0
 51
270.0
  0
ARC
  5
19C
330
1F
100
AcDbEntity
  8
0
  6
Continuous
 62
     7
370
    25
100
AcDbCircle
 10
115.3659950268
 20
999.1099185795
 30
0.0
 40
5.997999999999962
100
AcDbArc
 50
180.0
 51
270.0
  0
LINE
  5
19D
330
1F
100
AcDbEntity
  8
0
  6
Continuous
 62
     7
370
    25
100
AcDbLine
 10
101.3639991057
 20
1026.1099340315
 30
0.0
 11
101.3639991057
 21
1016.1099435682
 31
0.0
  0
LINE
  5
19E
330
1F
100
AcDbEntity
  8
0
  6
Continuous
 62
     7
370
    25
100
AcDbLine
 10
109.3679939282
 20
1016.1099435682
 30
0.0
 11
109.3679939282
 21
1026.1099340315
 31
0.0
  0
LINE
  5
19F
330
1F
100
AcDbEntity
  8
0
  6
Continuous
 62
     7
370
    25
100
AcDbLine
 10
101.3639991057
 20
1016.1099435682
 30
0.0
 11
101.3639991057
 21
999.1099240179
 31
0.0
  0
LINE
  5
1A0
330
1F
100
AcDbEntity
  8
0
  6
Continuous
 62
     7
370
    25
100
AcDbLine
 10
109.3679939282
 20
999.1099240179
 30
0.0
 11
109.3679939282
 21
1016.1099435682
 31
0.0
  0
LINE
  5
1A1
330
1F
100
AcDbEntity
  8
0
  6
Continuous
 62
     7
370
    25
100
AcDbLine
 10
188.1159965765
 20
658.6353482599
 30
0.0
 11
188.1159965765
 21
665.109932601
 31
0.0
  0
LWPOLYLINE
  5
1A2
330
1F
100
AcDbEntity
  8
0
  6
Continuous
 62
     7
370
    25
100
AcDbPolyline
 90
        3
 70
   128
 43
0.0
 10
157.3242445361
 20
667.597383439
 10
157.4889694226
 20
666.7576135988
 10
157.6159943712
 20
665.109932601
  0
LINE
  5
1A3
330
1F
100
AcDbEntity
  8
0
  6
Continuous
 62
     7
370
    25
100
AcDbLine
 10
157.6159943712
 20
665.109932601
 30
0.0
 11
157.6159943712
 21
658.6353482599
 31
0.0
  0
LWPOLYLINE
  5
1A4
330
1F
100
AcDbEntity
  8
0
  6
Continuous
 62
     7
370
    25
100
AcDbPolyline
 90
        3
 70
   128
 43
0.0
 10
188.1159965765
 20
665.109932601
 10
188.2430215251
 20
666.7576135988
 10
188.4077464115
 20
667.597383439
  0
LWPOLYLINE
  5
1A5
330
1F
100
AcDbEntity
  8
0
  6
Continuous
 62
     7
370
    25
100
AcDbPolyline
 90
        3
 70
   128
 43
0.0
 10
322.3242436421
 20
667.597383439
 10
322.4889685285
 20
666.7576135988
 10
322.6159934771
 20
665.109932601
  0
LINE
  5
1A6
330
1F
100
AcDbEntity
  8
0
  6
Continuous
 62
     7
370
    25
100
AcDbLine
 10
322.6159934771
 20
665.109932601
 30
0.0
 11
322.6159934771
 21
658.6353482599
 31
0.0
  0
LINE
  5
1A7
330
1F
100
AcDbEntity
  8
0
  6
Continuous
 62
     7
370
    25
100
AcDbLine
 10
353.1159956825
 20
658.6353482599
 30
0.0
 11
353.1159956825
 21
665.109932601
 31
0.0
  0
LWPOLYLINE
  5
1A8
330
1F
100
AcDbEntity
  8
0
  6
Continuous
 62
     7
370
    25
100
AcDbPolyline
 90
        3
 70
   128
 43
0.0
 10
353.1159956825
 20
665.109932601
 10
353.243020631
 20
666.7576135988
 10
353.4077455175
 20
667.597383439
  0
LINE
  5
1A9
330
1F
100
AcDbEntity
  8
0
  6
Continuous
 62
     7
370
    25
100
AcDbLine
 10
55.3659920466
 20
281.6099153752
 30
0.0
 11
455.365998007
 21
281.6099153752
 31
0.0
  0
CIRCLE
  5
1AA
330
1F
100
AcDbEntity
  8
0
  6
Continuous
 62
     7
370
    25
100
AcDbCircle
 10
255.3731996602
 20
819.739444169
 30
0.0
 40
19.0
  0
SPLINE
  5
1AB
330
1F
100
AcDbEntity
  8
0
  6
Continuous
 62
     7
370
    25
100
AcDbSpline
210
0.0
220
0.0
230
1.0
 70
     8
 71
     3
 72
    12
 73
     8
 74
     0
 42
0.000000001
 43
0.00000001
 40
0.0
 40
0.0
 40
0.0
 40
0.0
 40
0.2096819656679667
 40
0.4420452171498667
 40
0.6744313571755787
 40
0.9068149182742922
 40
1.0
 40
1.0
 40
1.0
 40
1.0
 10
95.67320094225256
 20
626.6894491309945
 30
0.0
 10
95.42087012239575
 20
626.5851617922168
 30
0.0
 10
94.88891387283532
 20
626.3653063593993
 30
0.0
 10
94.16752555510784
 20
626.0293474953374
 30
0.0
 10
93.62416276681046
 20
625.6824293779246
 30
0.0
 10
93.39555307639169
 20
625.4040584200485
 30
0.0
 10
93.3781794386033
 20
625.2427008613644
 30
0.0
 10
93.37320671198218
 20
625.1965166921441
 30
0.0
  0
SPLINE
  5
1AC
330
1F
100
AcDbEntity
  8
0
  6
Continuous
 62
     7
370
    25
100
AcDbSpline
210
0.0
220
0.0
230
1.0
 70
     8
 71
     3
 72
    11
 73
     7
 74
     0
 42
0.000000001
 43
0.00000001
 40
0.0
 40
0.0
 40
0.0
 40
0.0
 40
0.254320659159383
 40
0.5088730922856882
 40
0.7634168008221098
 40
1.0
 40
1.0
 40
1.0
 40
1.0
 10
95.67320094225256
 20
626.6894491309945
 30
0.0
 10
95.47322522882293
 20
626.5628670626803
 30
0.0
 10
95.07309155501389
 20
626.3095875660642
 30
0.0
 10
94.57147530001598
 20
625.9296450937192
 30
0.0
 10
94.2354196628443
 20
625.558432299935
 30
0.0
 10
94.19343162210961
 20
625.3141777655752
 30
0.0
 10
94.17320535299628
 20
625.1965166921441
 30
0.0
  0
LINE
  5
1AD
330
1F
100
AcDbEntity
  8
0
  6
Continuous
 62
     7
370
    25
100
AcDbLine
 10
93.373206712
 20
625.1965166921
 30
0.0
 11
94.173205353
 21
625.1965166921
 31
0.0
  0
SPLINE
  5
1AE
330
1F
100
AcDbEntity
  8
0
  6
Continuous
 62
     7
370
    25
100
AcDbSpline
210
0.0
220
0.0
230
1.0
 70
     8
 71
     3
 72
    12
 73
     8
 74
     0
 42
0.000000001
 43
0.00000001
 40
0.0
 40
0.0
 40
0.0
 40
0.0
 40
0.2096824620539044
 40
0.4420469057031899
 40
0.6744282488270343
 40
0.9068212380786906
 40
1.0
 40
1.0
 40
1.0
 40
1.0
 10
417.3731927644953
 20
625.1965166921441
 30
0.0
 10
417.348854341398
 20
625.3008039791425
 30
0.0
 10
417.297544734889
 20
625.5206596221483
 30
0.0
 10
416.8766272310793
 20
625.8566170300363
 30
0.0
 10
416.2248129117653
 20
626.2035280323261
 30
0.0
 10
415.5753854701993
 20
626.4818930058151
 30
0.0
 10
415.1849432497152
 20
626.6432645361853
 30
0.0
 10
415.073198534225
 20
626.6894491309945
 30
0.0
  0
LINE
  5
1AF
330
1F
100
AcDbEntity
  8
0
  6
Continuous
 62
     7
370
    25
100
AcDbLine
 10
417.3731927645
 20
625.1965166921
 30
0.0
 11
416.5731941235
 21
625.1965166921
 31
0.0
  0
SPLINE
  5
1B0
330
1F
100
AcDbEntity
  8
0
  6
Continuous
 62
     7
370
    25
100
AcDbSpline
210
0.0
220
0.0
230
1.0
 70
     8
 71
     3
 72
    11
 73
     7
 74
     0
 42
0.000000001
 43
0.00000001
 40
0.0
 40
0.0
 40
0.0
 40
0.0
 40
0.2543116083319173
 40
0.5088596034376309
 40
0.7634133574036761
 40
1.0
 40
1.0
 40
1.0
 40
1.0
 10
416.5731941234812
 20
625.1965166921441
 30
0.0
 10
416.5498413179206
 20
625.3231009330809
 30
0.0
 10
416.5031139999872
 20
625.5763870770644
 30
0.0
 10
416.1442286188392
 20
625.9563087293312
 30
0.0
 10
415.6450121926753
 20
626.3275326052476
 30
0.0
 10
415.2590971835315
 20
626.5717887842998
 30
0.0
 10
415.073198534225
 20
626.6894491309945
 30
0.0
  0
SPLINE
  5
1B1
330
1F
100
AcDbEntity
  8
0
  6
Continuous
 62
     7
370
    25
100
AcDbSpline
210
0.0
220
0.0
230
1.0
 70
     8
 71
     3
 72
    12
 73
     8
 74
     0
 42
0.000000001
 43
0.00000001
 40
0.0
 40
0.0
 40
0.0
 40
0.0
 40
0.2096828817967245
 40
0.4420471485049757
 40
0.6744297835554217
 40
0.9068177811972423
 40
1.0
 40
1.0
 40
1.0
 40
1.0
 10
94.18026850340216
 20
624.3894399995629
 30
0.0
 10
94.28455608311931
 20
624.4137844367903
 30
0.0
 10
94.50441202387819
 20
624.465106647579
 30
0.0
 10
94.84036450991753
 20
624.8860218129888
 30
0.0
 10
95.18729808446813
 20
625.5378271770143
 30
0.0
 10
95.46565148094274
 20
626.1872558023833
 30
0.0
 10
95.62701632889085
 20
626.5776993602731
 30
0.0
 10
95.67320094225256
 20
626.6894491309945
 30
0.0
  0
LINE
  5
1B2
330
1F
100
AcDbEntity
  8
0
  6
Continuous
 62
     7
370
    25
100
AcDbLine
 10
94.1802685034
 20
624.3894399996
 30
0.0
 11
94.1802685034
 21
625.1894386406
 31
0.0
  0
SPLINE
  5
1B3
330
1F
100
AcDbEntity
  8
0
  6
Continuous
 62
     7
370
    25
100
AcDbSpline
210
0.0
220
0.0
230
1.0
 70
     8
 71
     3
 72
    11
 73
     7
 74
     0
 42
0.000000001
 43
0.00000001
 40
0.0
 40
0.0
 40
0.0
 40
0.0
 40
0.2543122779064396
 40
0.5088629304700076
 40
0.7634135698517923
 40
1.0
 40
1.0
 40
1.0
 40
1.0
 10
94.18026850340216
 20
625.189438640577
 30
0.0
 10
94.30685110964235
 20
625.2127983348428
 30
0.0
 10
94.56013497186147
 20
625.2595396191284
 30
0.0
 10
94.94008027886808
 20
625.6184113344988
 30
0.0
 10
95.3112816513117
 20
626.1176399138285
 30
0.0
 10
95.55553922996305
 20
626.503551188335
 30
0.0
 10
95.67320094225256
 20
626.6894491309945
 30
0.0
  0
LINE
  5
1B4
330
1F
100
AcDbEntity
  8
0
  6
Continuous
 62
     7
370
    25
100
AcDbLine
 10
94.1802685034
 20
624.3894399996
 30
0.0
 11
155.3731982481
 21
624.3894399996
 31
0.0
  0
LINE
  5
1B5
330
1F
100
AcDbEntity
  8
0
  6
Continuous
 62
     7
370
    25
100
AcDbLine
 10
155.3731982481
 20
626.689449131
 30
0.0
 11
155.3731982481
 21
624.3894399996
 31
0.0
  0
SPLINE
  5
1B6
330
1F
100
AcDbEntity
  8
0
  6
Continuous
 62
     7
370
    25
100
AcDbSpline
210
0.0
220
0.0
230
1.0
 70
     8
 71
     3
 72
    12
 73
     8
 74
     0
 42
0.000000001
 43
0.00000001
 40
0.0
 40
0.0
 40
0.0
 40
0.0
 40
0.2096817265580597
 40
0.442044713065548
 40
0.6744305880907476
 40
0.9068150245374902
 40
1.0
 40
1.0
 40
1.0
 40
1.0
 10
415.0731985342249
 20
626.6894491309945
 30
0.0
 10
415.1774858860743
 20
626.4371184177483
 30
0.0
 10
415.3973413464491
 20
625.9051623929411
 30
0.0
 10
415.7332999866453
 20
625.1837722493993
 30
0.0
 10
416.0802195396323
 20
624.6404156523552
 30
0.0
 10
416.3585884742994
 20
624.4117848454248
 30
0.0
 10
416.5199467580818
 20
624.3944123747215
 30
0.0
 10
416.5661309730753
 20
624.3894399995629
 30
0.0
  0
SPLINE
  5
1B7
330
1F
100
AcDbEntity
  8
0
  6
Continuous
 62
     7
370
    25
100
AcDbSpline
210
0.0
220
0.0
230
1.0
 70
     8
 71
     3
 72
    11
 73
     7
 74
     0
 42
0.000000001
 43
0.00000001
 40
0.0
 40
0.0
 40
0.0
 40
0.0
 40
0.2543200368503259
 40
0.5088718471004356
 40
0.7634173797285505
 40
1.0
 40
1.0
 40
1.0
 40
1.0
 10
415.0731985342249
 20
626.6894491309945
 30
0.0
 10
415.1997804928602
 20
626.4894730474352
 30
0.0
 10
415.4530597700185
 20
626.0893386330298
 30
0.0
 10
415.8330051072491
 20
625.5877263285273
 30
0.0
 10
416.2042130069965
 20
625.2516497002005
 30
0.0
 10
416.4484695285908
 20
625.2096637850137
 30
0.0
 10
416.5661309730753
 20
625.189438640577
 30
0.0
  0
LINE
  5
1B8
330
1F
100
AcDbEntity
  8
0
  6
Continuous
 62
     7
370
    25
100
AcDbLine
 10
416.5661309731
 20
624.3894399996
 30
0.0
 11
416.5661309731
 21
625.1894386406
 31
0.0
  0
LINE
  5
1B9
330
1F
100
AcDbEntity
  8
0
  6
Continuous
 62
     7
370
    25
100
AcDbLine
 10
236.3732003492
 20
971.289456069
 30
0.0
 11
236.3732003492
 21
985.1078988905
 31
0.0
  0
LINE
  5
1BA
330
1F
100
AcDbEntity
  8
0
  6
Continuous
 62
     7
370
    25
100
AcDbLine
 10
236.3732003492
 20
993.1119086141
 30
0.0
 11
236.3732003492
 21
1012.7894284124
 31
0.0
  0
LINE
  5
1BB
330
1F
100
AcDbEntity
  8
0
  6
Continuous
 62
     7
370
    25
100
AcDbLine
 10
324.873199023
 20
1012.7894284124
 30
0.0
 11
324.873199023
 21
993.1119086141
 31
0.0
  0
LINE
  5
1BC
330
1F
100
AcDbEntity
  8
0
  6
Continuous
 62
     7
370
    25
100
AcDbLine
 10
324.873199023
 20
985.1078988905
 30
0.0
 11
324.873199023
 21
971.289456069
 31
0.0
  0
ARC
  5
1BD
330
1F
100
AcDbEntity
  8
0
  6
Continuous
 62
     7
370
    25
100
AcDbCircle
 10
337.8731996602
 20
971.289444169
 30
0.0
 40
13.00000000000006
100
AcDbArc
 50
180.0
 51
360.0
  0
LINE
  5
1BE
330
1F
100
AcDbEntity
  8
0
  6
Continuous
 62
     7
370
    25
100
AcDbLine
 10
350.8731995594
 20
971.289456069
 30
0.0
 11
350.8731995594
 21
985.1078988905
 31
0.0
  0
LINE
  5
1BF
330
1F
100
AcDbEntity
  8
0
  6
Continuous
 62
     7
370
    25
100
AcDbLine
 10
350.8731995594
 20
993.1119086141
 30
0.0
 11
350.8731995594
 21
1012.7894284124
 31
0.0
  0
LINE
  5
1C0
330
1F
100
AcDbEntity
  8
0
  6
Continuous
 62
     7
370
    25
100
AcDbLine
 10
355.3732012284
 20
626.689449131
 30
0.0
 11
355.3732012284
 21
677.389443099
 31
0.0
  0
ARC
  5
1C1
330
1F
100
AcDbEntity
  8
0
  6
Continuous
 62
     7
370
    25
100
AcDbCircle
 10
352.3731996602
 20
677.389444169
 30
0.0
 40
3.0
100
AcDbArc
 50
0.0
 51
90.0
  0
LINE
  5
1C2
330
1F
100
AcDbEntity
  8
0
  6
Continuous
 62
     7
370
    25
100
AcDbLine
 10
352.3732025993
 20
680.3894342775
 30
0.0
 11
323.3731959831
 21
680.3894342775
 31
0.0
  0
ARC
  5
1C3
330
1F
100
AcDbEntity
  8
0
  6
Continuous
 62
     7
370
    25
100
AcDbCircle
 10
323.3731996602
 20
677.389444169
 30
0.0
 40
3.0
100
AcDbArc
 50
90.0
 51
180.0
  0
ARC
  5
1C4
330
1F
100
AcDbEntity
  8
0
  6
Continuous
 62
     7
370
    25
100
AcDbCircle
 10
187.3731996602
 20
677.389444169
 30
0.0
 40
3.000000000000114
100
AcDbArc
 50
0.0
 51
90.0
  0
LINE
  5
1C5
330
1F
100
AcDbEntity
  8
0
  6
Continuous
 62
     7
370
    25
100
AcDbLine
 10
187.3731960428
 20
680.3894342775
 30
0.0
 11
158.3731968772
 21
680.3894342775
 31
0.0
  0
ARC
  5
1C6
330
1F
100
AcDbEntity
  8
0
  6
Continuous
 62
     7
370
    25
100
AcDbCircle
 10
158.3731996602
 20
677.389444169
 30
0.0
 40
3.000000000000114
100
AcDbArc
 50
90.0
 51
180.0
  0
LINE
  5
1C7
330
1F
100
AcDbEntity
  8
0
  6
Continuous
 62
     7
370
    25
100
AcDbLine
 10
159.8731999171
 20
1012.7894284124
 30
0.0
 11
159.8731999171
 21
993.1119086141
 31
0.0
  0
LINE
  5
1C8
330
1F
100
AcDbEntity
  8
0
  6
Continuous
 62
     7
370
    25
100
AcDbLine
 10
159.8731999171
 20
985.1078988905
 30
0.0
 11
159.8731999171
 21
971.289456069
 31
0.0
  0
ARC
  5
1C9
330
1F
100
AcDbEntity
  8
0
  6
Continuous
 62
     7
370
    25
100
AcDbCircle
 10
172.8731996602
 20
971.289444169
 30
0.0
 40
13.00000000000003
100
AcDbArc
 50
180.0
 51
0.0
  0
LINE
  5
1CA
330
1F
100
AcDbEntity
  8
0
  6
Continuous
 62
     7
370
    25
100
AcDbLine
 10
185.8732004535
 20
971.289456069
 30
0.0
 11
185.8732004535
 21
985.1078988905
 31
0.0
  0
LINE
  5
1CB
330
1F
100
AcDbEntity
  8
0
  6
Continuous
 62
     7
370
    25
100
AcDbLine
 10
185.8732004535
 20
993.1119086141
 30
0.0
 11
185.8732004535
 21
1012.7894284124
 31
0.0
  0
LINE
  5
1CC
330
1F
100
AcDbEntity
  8
0
  6
Continuous
 62
     7
370
    25
100
AcDbLine
 10
210.3731979501
 20
971.289456069
 30
0.0
 11
210.3731979501
 21
985.1078988905
 31
0.0
  0
LINE
  5
1CD
330
1F
100
AcDbEntity
  8
0
  6
Continuous
 62
     7
370
    25
100
AcDbLine
 10
210.3731979501
 20
993.1119086141
 30
0.0
 11
210.3731979501
 21
1012.7894284124
 31
0.0
  0
ARC
  5
1CE
330
1F
100
AcDbEntity
  8
0
  6
Continuous
 62
     7
370
    25
100
AcDbCircle
 10
223.3731996602
 20
971.289444169
 30
0.0
 40
13.0
100
AcDbArc
 50
180.0
 51
0.0
  0
LINE
  5
1CF
330
1F
100
AcDbEntity
  8
0
  6
Continuous
 62
     7
370
    25
100
AcDbLine
 10
155.3731982481
 20
677.389443099
 30
0.0
 11
155.3731982481
 21
626.689449131
 31
0.0
  0
LINE
  5
1D0
330
1F
100
AcDbEntity
  8
0
  6
Continuous
 62
     7
370
    25
100
AcDbLine
 10
320.3731973541
 20
677.389443099
 30
0.0
 11
320.3731973541
 21
626.689449131
 31
0.0
  0
LINE
  5
1D1
330
1F
100
AcDbEntity
  8
0
  6
Continuous
 62
     7
370
    25
100
AcDbLine
 10
190.3732021224
 20
626.689449131
 30
0.0
 11
190.3732021224
 21
677.389443099
 31
0.0
  0
LINE
  5
1D2
330
1F
100
AcDbEntity
  8
0
  6
Continuous
 62
     7
370
    25
100
AcDbLine
 10
190.3732021224
 20
624.3894399996
 30
0.0
 11
320.3731973541
 21
624.3894399996
 31
0.0
  0
LINE
  5
1D3
330
1F
100
AcDbEntity
  8
0
  6
Continuous
 62
     7
370
    25
100
AcDbLine
 10
190.3732021224
 20
624.3894399996
 30
0.0
 11
190.3732021224
 21
626.689449131
 31
0.0
  0
LINE
  5
1D4
330
1F
100
AcDbEntity
  8
0
  6
Continuous
 62
     7
370
    25
100
AcDbLine
 10
320.3731973541
 20
626.689449131
 30
0.0
 11
320.3731973541
 21
624.3894399996
 31
0.0
  0
SPLINE
  5
1D5
330
1F
100
AcDbEntity
  8
0
  6
Continuous
 62
     7
370
    25
100
AcDbSpline
210
0.0
220
0.0
230
1.0
 70
     8
 71
     3
 72
    12
 73
     8
 74
     0
 42
0.000000001
 43
0.00000001
 40
0.0
 40
0.0
 40
0.0
 40
0.0
 40
0.209680800669471
 40
0.4420487941272118
 40
0.6744352694297169
 40
0.9068206346561534
 40
1.0
 40
1.0
 40
1.0
 40
1.0
 10
415.0731985342249
 20
1012.78942841242
 30
0.0
 10
415.3255310428529
 20
1012.893705638532
 30
0.0
 10
415.8574981128086
 20
1013.113542752423
 30
0.0
 10
416.5788644692122
 20
1013.449577588893
 30
0.0
 10
417.1222400720002
 20
1013.796456056182
 30
0.0
 10
417.3508432576903
 20
1014.07489948431
 30
0.0
 10
417.3682195293378
 20
1014.236184749952
 30
0.0
 10
417.3731927644953
 20
1014.282345950109
 30
0.0
  0
LINE
  5
1D6
330
1F
100
AcDbEntity
  8
0
  6
Continuous
 62
     7
370
    25
100
AcDbLine
 10
417.3731927645
 20
625.1965166921
 30
0.0
 11
417.3731927645
 21
1014.2823459501
 31
0.0
  0
LINE
  5
1D7
330
1F
100
AcDbEntity
  8
0
  6
Continuous
 62
     7
370
    25
100
AcDbLine
 10
355.3732012284
 20
624.3894399996
 30
0.0
 11
416.5661309731
 21
624.3894399996
 31
0.0
  0
LINE
  5
1D8
330
1F
100
AcDbEntity
  8
0
  6
Continuous
 62
     7
370
    25
100
AcDbLine
 10
355.3732012284
 20
624.3894399996
 30
0.0
 11
355.3732012284
 21
626.689449131
 31
0.0
  0
LINE
  5
1D9
330
1F
100
AcDbEntity
  8
0
  6
Continuous
 62
     7
370
    25
100
AcDbLine
 10
93.373206712
 20
1014.2823459501
 30
0.0
 11
93.373206712
 21
625.1965166921
 31
0.0
  0
SPLINE
  5
1DA
330
1F
100
AcDbEntity
  8
0
  6
Continuous
 62
     7
370
    25
100
AcDbSpline
210
0.0
220
0.0
230
1.0
 70
     8
 71
     3
 72
    12
 73
     8
 74
     0
 42
0.000000001
 43
0.00000001
 40
0.0
 40
0.0
 40
0.0
 40
0.0
 40
0.2096813022236532
 40
0.4420446180471068
 40
0.6744277710644128
 40
0.9068211013428423
 40
0.9999999999999999
 40
0.9999999999999999
 40
0.9999999999999999
 40
0.9999999999999999
 10
93.37320671198215
 20
1014.282345950109
 30
0.0
 10
93.39754495593449
 20
1014.178063140385
 30
0.0
 10
93.44885420305266
 20
1013.958216857934
 30
0.0
 10
93.86977692703957
 20
1013.622282193744
 30
0.0
 10
94.52158323895901
 20
1013.275344492748
 30
0.0
 10
95.17101414518261
 20
1012.996985031928
 30
0.0
 10
95.56145625767071
 20
1012.835613117225
 30
0.0
 10
95.67320094225254
 20
1012.78942841242
 30
0.0
  0
LINE
  5
1DB
330
1F
100
AcDbEntity
  8
0
  6
Continuous
 62
     7
370
    25
100
AcDbLine
 10
185.8732004535
 20
1012.7894284124
 30
0.0
 11
185.8732004535
 21
1015.089452445
 31
0.0
  0
LINE
  5
1DC
330
1F
100
AcDbEntity
  8
0
  6
Continuous
 62
     7
370
    25
100
AcDbLine
 10
210.3731979501
 20
1015.089452445
 30
0.0
 11
185.8732004535
 21
1015.089452445
 31
0.0
  0
LINE
  5
1DD
330
1F
100
AcDbEntity
  8
0
  6
Continuous
 62
     7
370
    25
100
AcDbLine
 10
210.3731979501
 20
1015.089452445
 30
0.0
 11
210.3731979501
 21
1012.7894284124
 31
0.0
  0
SPLINE
  5
1DE
330
1F
100
AcDbEntity
  8
0
  6
Continuous
 62
     7
370
    25
100
AcDbSpline
210
0.0
220
0.0
230
1.0
 70
     8
 71
     3
 72
    11
 73
     7
 74
     0
 42
0.000000001
 43
0.00000001
 40
0.0
 40
0.0
 40
0.0
 40
0.0
 40
0.2543213911409244
 40
0.5088774430284654
 40
0.7634276564655862
 40
1.0
 40
1.0
 40
1.0
 40
1.0
 10
415.0731985342249
 20
1012.78942841242
 30
0.0
 10
415.2731746486036
 20
1012.916010201379
 30
0.0
 10
415.6733113940629
 20
1013.169290575518
 30
0.0
 10
416.174926757358
 20
1013.549241552033
 30
0.0
 10
416.5109715321169
 20
1013.920499397985
 30
0.0
 10
416.5529656675039
 20
1014.164710266835
 30
0.0
 10
416.5731941234812
 20
1014.282345950109
 30
0.0
  0
LINE
  5
1DF
330
1F
100
AcDbEntity
  8
0
  6
Continuous
 62
     7
370
    25
100
AcDbLine
 10
417.3731927645
 20
1014.2823459501
 30
0.0
 11
416.5731941235
 21
1014.2823459501
 31
0.0
  0
SPLINE
  5
1E0
330
1F
100
AcDbEntity
  8
0
  6
Continuous
 62
     7
370
    25
100
AcDbSpline
210
0.0
220
0.0
230
1.0
 70
     8
 71
     3
 72
    12
 73
     8
 74
     0
 42
0.000000001
 43
0.00000001
 40
0.0
 40
0.0
 40
0.0
 40
0.0
 40
0.209681202857519
 40
0.4420436090158102
 40
0.674433424064352
 40
0.9068149994802766
 40
1.0
 40
1.0
 40
1.0
 40
1.0
 10
95.67320094225256
 20
1012.78942841242
 30
0.0
 10
95.56891379573997
 20
1013.041759954512
 30
0.0
 10
95.34905876824986
 20
1013.573717726669
 30
0.0
 10
95.0130943596322
 20
1014.295098510473
 30
0.0
 10
94.66618733216079
 20
1014.838509930393
 30
0.0
 10
94.38780883246156
 20
1015.0670782438
 30
0.0
 10
94.22645255800316
 20
1015.084473502678
 30
0.0
 10
94.18026850340216
 20
1015.089452445013
 30
0.0
  0
SPLINE
  5
1E1
330
1F
100
AcDbEntity
  8
0
  6
Continuous
 62
     7
370
    25
100
AcDbSpline
210
0.0
220
0.0
230
1.0
 70
     8
 71
     3
 72
    11
 73
     7
 74
     0
 42
0.000000001
 43
0.00000001
 40
0.0
 40
0.0
 40
0.0
 40
0.0
 40
0.2543284684582676
 40
0.508868634087094
 40
0.7634186226851568
 40
1.0
 40
1.0
 40
1.0
 40
1.0
 10
95.67320094225256
 20
1012.78942841242
 30
0.0
 10
95.54662228479651
 20
1012.989419157333
 30
0.0
 10
95.29335960871987
 20
1013.389567114857
 30
0.0
 10
94.91337667735633
 20
1013.891126335446
 30
0.0
 10
94.5421935579113
 20
1014.22725505275
 30
0.0
 10
94.29793131565518
 20
1014.269222765306
 30
0.0
 10
94.18026850340216
 20
1014.289438902837
 30
0.0
  0
LINE
  5
1E2
330
1F
100
AcDbEntity
  8
0
  6
Continuous
 62
     7
370
    25
100
AcDbLine
 10
94.1802685034
 20
1015.089452445
 30
0.0
 11
94.1802685034
 21
1014.2894389028
 31
0.0
  0
LINE
  5
1E3
330
1F
100
AcDbEntity
  8
0
  6
Continuous
 62
     7
370
    25
100
AcDbLine
 10
159.8731999171
 20
1015.089452445
 30
0.0
 11
109.3679939282
 21
1015.089452445
 31
0.0
  0
LINE
  5
1E4
330
1F
100
AcDbEntity
  8
0
  6
Continuous
 62
     7
370
    25
100
AcDbLine
 10
101.3639991057
 20
1015.089452445
 30
0.0
 11
94.1802685034
 21
1015.089452445
 31
0.0
  0
LINE
  5
1E5
330
1F
100
AcDbEntity
  8
0
  6
Continuous
 62
     7
370
    25
100
AcDbLine
 10
159.8731999171
 20
1015.089452445
 30
0.0
 11
159.8731999171
 21
1012.7894284124
 31
0.0
  0
SPLINE
  5
1E6
330
1F
100
AcDbEntity
  8
0
  6
Continuous
 62
     7
370
    25
100
AcDbSpline
210
0.0
220
0.0
230
1.0
 70
     8
 71
     3
 72
    12
 73
     8
 74
     0
 42
0.000000001
 43
0.00000001
 40
0.0
 40
0.0
 40
0.0
 40
0.0
 40
0.209682142067701
 40
0.4420455890304839
 40
0.6744274042706611
 40
0.9068145820832944
 40
1.0
 40
1.0
 40
1.0
 40
1.0
 10
416.5661309730753
 20
1015.089452445013
 30
0.0
 10
416.4618434197403
 20
1015.06510799685
 30
0.0
 10
416.2419875345993
 20
1015.013785763006
 30
0.0
 10
415.9060345967428
 20
1014.592870784882
 30
0.0
 10
415.559102774215
 20
1013.941064694614
 30
0.0
 10
415.2807423825618
 20
1013.291634133069
 30
0.0
 10
415.1193828688838
 20
1012.901183288587
 30
0.0
 10
415.0731985342249
 20
1012.78942841242
 30
0.0
  0
LINE
  5
1E7
330
1F
100
AcDbEntity
  8
0
  6
Continuous
 62
     7
370
    25
100
AcDbLine
 10
416.5661309731
 20
1015.089452445
 30
0.0
 11
416.5661309731
 21
1014.2894389028
 31
0.0
  0
SPLINE
  5
1E8
330
1F
100
AcDbEntity
  8
0
  6
Continuous
 62
     7
370
    25
100
AcDbSpline
210
0.0
220
0.0
230
1.0
 70
     8
 71
     3
 72
    11
 73
     7
 74
     0
 42
0.000000001
 43
0.00000001
 40
0.0
 40
0.0
 40
0.0
 40
0.0
 40
0.2543107876385058
 40
0.5088659531853507
 40
0.7634007767341077
 40
0.9999999999999999
 40
0.9999999999999999
 40
0.9999999999999999
 40
0.9999999999999999
 10
416.5661309730753
 20
1014.289438902837
 30
0.0
 10
416.4395465709501
 20
1014.266088720251
 30
0.0
 10
416.1862561264351
 20
1014.219365916907
 30
0.0
 10
415.8063419308441
 20
1013.860441364959
 30
0.0
 10
415.4350900778367
 20
1013.361277121447
 30
0.0
 10
415.1908560079798
 20
1012.975346750833
 30
0.0
 10
415.073198534225
 20
1012.78942841242
 30
0.0
  0
LINE
  5
1E9
330
1F
100
AcDbEntity
  8
0
  6
Continuous
 62
     7
370
    25
100
AcDbLine
 10
324.873199023
 20
1015.089452445
 30
0.0
 11
236.3732003492
 21
1015.089452445
 31
0.0
  0
LINE
  5
1EA
330
1F
100
AcDbEntity
  8
0
  6
Continuous
 62
     7
370
    25
100
AcDbLine
 10
324.873199023
 20
1015.089452445
 30
0.0
 11
324.873199023
 21
1012.7894284124
 31
0.0
  0
LINE
  5
1EB
330
1F
100
AcDbEntity
  8
0
  6
Continuous
 62
     7
370
    25
100
AcDbLine
 10
236.3732003492
 20
1012.7894284124
 30
0.0
 11
236.3732003492
 21
1015.089452445
 31
0.0
  0
LINE
  5
1EC
330
1F
100
AcDbEntity
  8
0
  6
Continuous
 62
     7
370
    25
100
AcDbLine
 10
93.373206712
 20
1014.2823459501
 30
0.0
 11
94.173205353
 21
1014.2823459501
 31
0.0
  0
SPLINE
  5
1ED
330
1F
100
AcDbEntity
  8
0
  6
Continuous
 62
     7
370
    25
100
AcDbSpline
210
0.0
220
0.0
230
1.0
 70
     8
 71
     3
 72
    11
 73
     7
 74
     0
 42
0.000000001
 43
0.00000001
 40
0.0
 40
0.0
 40
0.0
 40
0.0
 40
0.2543123422133022
 40
0.5088553000324909
 40
0.7634126746722268
 40
1.0
 40
1.0
 40
1.0
 40
1.0
 10
94.17320535299628
 20
1014.282345950109
 30
0.0
 10
94.19655691980378
 20
1014.15575899693
 30
0.0
 10
94.24328122909456
 20
1013.902470298947
 30
0.0
 10
94.60218058106948
 20
1013.522590813168
 30
0.0
 10
95.10138282416766
 20
1013.151341324395
 30
0.0
 10
95.48730158035931
 20
1012.907087117643
 30
0.0
 10
95.67320094225256
 20
1012.78942841242
 30
0.0
  0
LINE
  5
1EE
330
1F
100
AcDbEntity
  8
0
  6
Continuous
 62
     7
370
    25
100
AcDbLine
 10
416.5661309731
 20
1015.089452445
 30
0.0
 11
409.3679909479
 21
1015.089452445
 31
0.0
  0
LINE
  5
1EF
330
1F
100
AcDbEntity
  8
0
  6
Continuous
 62
     7
370
    25
100
AcDbLine
 10
401.3639961254
 20
1015.089452445
 30
0.0
 11
350.8731995594
 21
1015.089452445
 31
0.0
  0
LINE
  5
1F0
330
1F
100
AcDbEntity
  8
0
  6
Continuous
 62
     7
370
    25
100
AcDbLine
 10
350.8731995594
 20
1012.7894284124
 30
0.0
 11
350.8731995594
 21
1015.089452445
 31
0.0
  0
LINE
  5
1F1
330
1F
100
AcDbEntity
  8
0
  6
Continuous
 62
     7
370
    25
100
AcDbLine
 10
169.6605731618
 20
1154.1098954077
 30
0.0
 11
169.9084316265
 21
1154.3410422201
 31
0.0
  0
LWPOLYLINE
  5
1F2
330
1F
100
AcDbEntity
  8
0
  6
Continuous
 62
     7
370
    25
100
AcDbPolyline
 90
        3
 70
   128
 43
0.0
 10
349.3659918082
 20
1144.1099049444
 10
349.181187607
 20
1146.1633445616
 10
348.8659982455
 20
1147.4640371198
  0
ARC
  5
1F3
330
1F
100
AcDbEntity
  8
0
  6
Continuous
 62
     7
370
    25
100
AcDbCircle
 10
337.8659950268
 20
1144.1099185795
 30
0.0
 40
11.4999999999998
100
AcDbArc
 50
60.408154206
 51
119.591845794
  0
ARC
  5
1F4
330
1F
100
AcDbEntity
  8
0
  6
Continuous
 62
     7
370
    25
100
AcDbCircle
 10
337.8659950268
 20
1144.1099185795
 30
0.0
 40
11.5
100
AcDbArc
 50
163.0425737057
 51
196.9574262943
  0
LWPOLYLINE
  5
1F5
330
1F
100
AcDbEntity
  8
0
  6
Continuous
 62
     7
370
    25
100
AcDbPolyline
 90
        3
 70
   128
 43
0.0
 10
348.8659982455
 20
1140.7558323736
 10
349.181187607
 20
1142.0565249319
 10
349.3659918082
 20
1144.1099049444
  0
ARC
  5
1F6
330
1F
100
AcDbEntity
  8
0
  6
Continuous
 62
     7
370
    25
100
AcDbCircle
 10
172.8659950268
 20
1144.1099185795
 30
0.0
 40
11.49999999999999
100
AcDbArc
 50
163.042573706
 51
196.957426294
  0
ARC
  5
1F7
330
1F
100
AcDbEntity
  8
0
  6
Continuous
 62
     7
370
    25
100
AcDbCircle
 10
172.8659950268
 20
1144.1099185795
 30
0.0
 40
11.50000000000005
100
AcDbArc
 50
343.0425737057
 51
16.9574262943
  0
ARC
  5
1F8
330
1F
100
AcDbEntity
  8
0
  6
Continuous
 62
     7
370
    25
100
AcDbCircle
 10
172.8659950268
 20
1144.1099185795
 30
0.0
 40
11.49999999999977
100
AcDbArc
 50
60.408154206
 51
119.591845794
  0
ARC
  5
1F9
330
1F
100
AcDbEntity
  8
0
  6
Continuous
 62
     7
370
    25
100
AcDbCircle
 10
172.8659950268
 20
1144.1099185795
 30
0.0
 40
10.99999999999984
100
AcDbArc
 50
95.3800226714
 51
114.6199773287
  0
ARC
  5
1FA
330
1F
100
AcDbEntity
  8
0
  6
Continuous
 62
     7
370
    25
100
AcDbCircle
 10
172.8659950268
 20
1144.1099185795
 30
0.0
 40
10.99999999999993
100
AcDbArc
 50
65.3800226713
 51
83.1328758069
  0
ARC
  5
1FB
330
1F
100
AcDbEntity
  8
0
  6
Continuous
 62
     7
370
    25
100
AcDbCircle
 10
337.8659950268
 20
1144.1099185795
 30
0.0
 40
10.99999999999986
100
AcDbArc
 50
95.3800226713
 51
114.6199773287
  0
ARC
  5
1FC
330
1F
100
AcDbEntity
  8
0
  6
Continuous
 62
     7
370
    25
100
AcDbCircle
 10
337.8659950268
 20
1144.1099185795
 30
0.0
 40
10.9999999999999
100
AcDbArc
 50
65.3800226713
 51
82.553435593
  0
ARC
  5
1FD
330
1F
100
AcDbEntity
  8
0
  6
Continuous
 62
     7
370
    25
100
AcDbCircle
 10
337.8659950268
 20
973.1099185795
 30
0.0
 40
6.0
100
AcDbArc
 50
180.0
 51
360.0
  0
LINE
  5
1FE
330
1F
100
AcDbEntity
  8
0
  6
Continuous
 62
     7
370
    25
100
AcDbLine
 10
331.5591712367
 20
970.6099035139
 30
0.0
 11
331.3841496479
 21
970.6099035139
 31
0.0
  0
SPLINE
  5
1FF
330
1F
100
AcDbEntity
  8
0
  6
Continuous
 62
     7
370
    25
100
AcDbSpline
210
0.0
220
0.0
230
1.0
 70
     8
 71
     3
 72
     9
 73
     5
 74
     0
 42
0.000000001
 43
0.00000001
 40
0.0
 40
0.0
 40
0.0
 40
0.0
 40
0.190252214955747
 40
1.0
 40
1.0
 40
1.0
 40
1.0
 10
332.828139222835
 20
969.8510171766106
 30
0.0
 10
332.8048816897696
 20
969.8864580778304
 30
0.0
 10
332.6826358958331
 20
970.0727418550151
 30
0.0
 10
332.6119983603633
 20
970.2857042558882
 30
0.0
 10
332.5547997724756
 20
970.4581500882928
 30
0.0
  0
SPLINE
  5
200
330
1F
100
AcDbEntity
  8
0
  6
Continuous
 62
     7
370
    25
100
AcDbSpline
210
0.0
220
0.0
230
1.0
 70
     8
 71
     3
 72
     9
 73
     5
 74
     0
 42
0.000000001
 43
0.00000001
 40
0.0
 40
0.0
 40
0.0
 40
0.0
 40
0.7994168853385696
 40
1.0
 40
1.0
 40
1.0
 40
1.0
 10
331.8759848248705
 20
973.0607272977654
 30
0.0
 10
331.840047132257
 20
973.273046109519
 30
0.0
 10
331.7950922491759
 20
973.5386382125226
 30
0.0
 10
331.8541480082052
 20
973.7972952955179
 30
0.0
 10
331.86599359629
 20
973.8491775388543
 30
0.0
  0
SPLINE
  5
201
330
1F
100
AcDbEntity
  8
0
  6
Continuous
 62
     7
370
    25
100
AcDbSpline
210
0.0
220
0.0
230
1.0
 70
     8
 71
     3
 72
     9
 73
     5
 74
     0
 42
0.000000001
 43
0.00000001
 40
0.0
 40
0.0
 40
0.0
 40
0.0
 40
0.5922839352442363
 40
0.9999999999999999
 40
0.9999999999999999
 40
0.9999999999999999
 40
0.9999999999999999
 10
343.8538734686121
 20
973.2427598829096
 30
0.0
 10
343.8842198392277
 20
972.8856609348007
 30
0.0
 10
343.9354560264848
 20
972.2827424241689
 30
0.0
 10
343.6844413544543
 20
971.7374878912084
 30
0.0
 10
343.5820986401781
 20
971.5151788587397
 30
0.0
  0
SPLINE
  5
202
330
1F
100
AcDbEntity
  8
0
  6
Continuous
 62
     7
370
    25
100
AcDbSpline
210
0.0
220
0.0
230
1.0
 70
     8
 71
     3
 72
     9
 73
     5
 74
     0
 42
0.000000001
 43
0.00000001
 40
0.0
 40
0.0
 40
0.0
 40
0.0
 40
0.7539558827165698
 40
0.9999999999999999
 40
0.9999999999999999
 40
0.9999999999999999
 40
0.9999999999999999
 10
343.2693158161387
 20
970.6910850400751
 30
0.0
 10
343.2024400463367
 20
970.46759701012
 30
0.0
 10
343.1137402015113
 20
970.171176443508
 30
0.0
 10
342.9452949098065
 20
969.9142358886301
 30
0.0
 10
342.9038499366984
 20
969.8510171766106
 30
0.0
  0
ARC
  5
203
330
1F
100
AcDbEntity
  8
0
  6
Continuous
 62
     7
370
    25
100
AcDbCircle
 10
172.8659950268
 20
973.1099185795
 30
0.0
 40
6.0
100
AcDbArc
 50
180.0
 51
0.0
  0
SPLINE
  5
204
330
1F
100
AcDbEntity
  8
0
  6
Continuous
 62
     7
370
    25
100
AcDbSpline
210
0.0
220
0.0
230
1.0
 70
     8
 71
     3
 72
     9
 73
     5
 74
     0
 42
0.000000001
 43
0.00000001
 40
0.0
 40
0.0
 40
0.0
 40
0.0
 40
0.190252214955747
 40
1.0
 40
1.0
 40
1.0
 40
1.0
 10
167.8281401169047
 20
969.8510171766106
 30
0.0
 10
167.8048825838392
 20
969.8864580778304
 30
0.0
 10
167.6826367899028
 20
970.0727418550151
 30
0.0
 10
167.611999254433
 20
970.2857042558882
 30
0.0
 10
167.5548006665453
 20
970.4581500882928
 30
0.0
  0
SPLINE
  5
205
330
1F
100
AcDbEntity
  8
0
  6
Continuous
 62
     7
370
    25
100
AcDbSpline
210
0.0
220
0.0
230
1.0
 70
     8
 71
     3
 72
     9
 73
     5
 74
     0
 42
0.000000001
 43
0.00000001
 40
0.0
 40
0.0
 40
0.0
 40
0.0
 40
0.7994168853385696
 40
1.0
 40
1.0
 40
1.0
 40
1.0
 10
166.8759857189402
 20
973.0607272977654
 30
0.0
 10
166.8400480263267
 20
973.273046109519
 30
0.0
 10
166.7950931432455
 20
973.5386382125226
 30
0.0
 10
166.8541489022749
 20
973.7972952955179
 30
0.0
 10
166.8659944903597
 20
973.8491775388543
 30
0.0
  0
LINE
  5
206
330
1F
100
AcDbEntity
  8
0
  6
Continuous
 62
     7
370
    25
100
AcDbLine
 10
166.5591721308
 20
970.6099035139
 30
0.0
 11
166.384150542
 21
970.6099035139
 31
0.0
  0
SPLINE
  5
207
330
1F
100
AcDbEntity
  8
0
  6
Continuous
 62
     7
370
    25
100
AcDbSpline
210
0.0
220
0.0
230
1.0
 70
     8
 71
     3
 72
     9
 73
     5
 74
     0
 42
0.000000001
 43
0.00000001
 40
0.0
 40
0.0
 40
0.0
 40
0.0
 40
0.5922839108415362
 40
1.0
 40
1.0
 40
1.0
 40
1.0
 10
178.8538669121012
 20
973.2427598829095
 30
0.0
 10
178.8842164965429
 20
972.885660925275
 30
0.0
 10
178.935458112069
 20
972.2827423737194
 30
0.0
 10
178.6844425979731
 20
971.7374878860488
 30
0.0
 10
178.5820995342478
 20
971.5151788587395
 30
0.0
  0
SPLINE
  5
208
330
1F
100
AcDbEntity
  8
0
  6
Continuous
 62
     7
370
    25
100
AcDbSpline
210
0.0
220
0.0
230
1.0
 70
     8
 71
     3
 72
     9
 73
     5
 74
     0
 42
0.000000001
 43
0.00000001
 40
0.0
 40
0.0
 40
0.0
 40
0.0
 40
0.7539558827165698
 40
0.9999999999999999
 40
0.9999999999999999
 40
0.9999999999999999
 40
0.9999999999999999
 10
178.2693167102084
 20
970.6910850400751
 30
0.0
 10
178.2024409404063
 20
970.46759701012
 30
0.0
 10
178.113741095581
 20
970.171176443508
 30
0.0
 10
177.9452958038761
 20
969.9142358886301
 30
0.0
 10
177.9038508307681
 20
969.8510171766106
 30
0.0
  0
ARC
  5
209
330
1F
100
AcDbEntity
  8
0
  6
Continuous
 62
     7
370
    25
100
AcDbCircle
 10
337.8659950268
 20
1144.1099185795
 30
0.0
 40
10.99999999999995
100
AcDbArc
 50
144.6199773287
 51
155.3800226713
  0
ARC
  5
20A
330
1F
100
AcDbEntity
  8
0
  6
Continuous
 62
     7
370
    25
100
AcDbCircle
 10
337.8659950268
 20
1144.1099185795
 30
0.0
 40
10.00000000000003
100
AcDbArc
 50
120.0
 51
180.0
  0
SPLINE
  5
20B
330
1F
100
AcDbEntity
  8
0
  6
Continuous
 62
     7
370
    25
100
AcDbSpline
210
0.0
220
0.0
230
1.0
 70
    24
 71
     3
 72
    10
 73
     6
 74
     0
 42
0.000000001
 43
0.00000001
 40
0.0
 40
0.0
 40
0.0
 40
0.0
 40
0.399395760705641
 40
0.8113023761114351
 40
1.0
 40
1.0
 40
1.0
 40
1.0
 10
327.8659929406389
 20
1144.109904944402
 30
0.0
 10
327.8659929406389
 20
1144.738457289998
 30
0.0
 10
327.8659929406389
 20
1146.015251041117
 30
0.0
 10
327.8659929406389
 20
1147.539269947267
 30
0.0
 10
327.8659929406389
 20
1148.416789934643
 30
0.0
 10
327.8659929406389
 20
1148.692488848669
 30
0.0
  0
SPLINE
  5
20C
330
1F
100
AcDbEntity
  8
0
  6
Continuous
 62
     7
370
    25
100
AcDbSpline
210
0.0
220
0.0
230
1.0
 70
     8
 71
     3
 72
    10
 73
     6
 74
     0
 42
0.000000001
 43
0.00000001
 40
0.0
 40
0.0
 40
0.0
 40
0.0
 40
0.4567403711828011
 40
0.9273758688449971
 40
1.0
 40
1.0
 40
1.0
 40
1.0
 10
328.8973693620905
 20
1150.478899657232
 30
0.0
 10
329.4806492829598
 20
1150.815636635834
 30
0.0
 10
330.664953884708
 20
1151.499354931406
 30
0.0
 10
332.0277369335307
 20
1152.28629093014
 30
0.0
 10
332.7671493584205
 20
1152.713104446043
 30
0.0
 10
332.8659956228479
 20
1152.770161807043
 30
0.0
  0
ARC
  5
20D
330
1F
100
AcDbEntity
  8
0
  6
Continuous
 62
     7
370
    25
100
AcDbCircle
 10
337.8659950268
 20
1144.1099185795
 30
0.0
 40
10.00000000000006
100
AcDbArc
 50
60.0
 51
120.0
  0
ARC
  5
20E
330
1F
100
AcDbEntity
  8
0
  6
Continuous
 62
     7
370
    25
100
AcDbCircle
 10
337.8659950268
 20
1144.1099185795
 30
0.0
 40
10.00000000000006
100
AcDbArc
 50
0.0
 51
60.0
  0
ARC
  5
20F
330
1F
100
AcDbEntity
  8
0
  6
Continuous
 62
     7
370
    25
100
AcDbCircle
 10
337.8659950268
 20
1144.1099185795
 30
0.0
 40
10.00000000000011
100
AcDbArc
 50
318.5903778907
 51
0.0
  0
ARC
  5
210
330
1F
100
AcDbEntity
  8
0
  6
Continuous
 62
     7
370
    25
100
AcDbCircle
 10
337.8659950268
 20
1144.1099185795
 30
0.0
 40
10.0
100
AcDbArc
 50
180.0
 51
221.4096221093
  0
SPLINE
  5
211
330
1F
100
AcDbEntity
  8
0
  6
Continuous
 62
     7
370
    25
100
AcDbSpline
210
0.0
220
0.0
230
1.0
 70
     8
 71
     3
 72
    10
 73
     6
 74
     0
 42
0.000000001
 43
0.00000001
 40
0.0
 40
0.0
 40
0.0
 40
0.0
 40
0.4567435994446407
 40
0.9273699897236846
 40
1.0
 40
1.0
 40
1.0
 40
1.0
 10
338.8973672759279
 20
1155.061483561498
 30
0.0
 10
339.4806351690153
 20
1154.724705543034
 30
0.0
 10
340.6648994710793
 20
1154.04091308726
 30
0.0
 10
342.0278058084097
 20
1153.254175810958
 30
0.0
 10
342.7671480641316
 20
1152.827240420014
 30
0.0
 10
342.8659935366854
 20
1152.770161807043
 30
0.0
  0
ARC
  5
212
330
1F
100
AcDbEntity
  8
0
  6
Continuous
 62
     7
370
    25
100
AcDbCircle
 10
337.8659950268
 20
1144.1099185795
 30
0.0
 40
10.99999999999998
100
AcDbArc
 50
84.6199773287
 51
95.3800226713
  0
SPLINE
  5
213
330
1F
100
AcDbEntity
  8
0
  6
Continuous
 62
     7
370
    25
100
AcDbSpline
210
0.0
220
0.0
230
1.0
 70
     8
 71
     3
 72
    10
 73
     6
 74
     0
 42
0.000000001
 43
0.00000001
 40
0.0
 40
0.0
 40
0.0
 40
0.0
 40
0.395343995344096
 40
0.8028514354848628
 40
1.0
 40
1.0
 40
1.0
 40
1.0
 10
332.8659956228479
 20
1152.770161807043
 30
0.0
 10
333.4048149698942
 20
1153.081250665274
 30
0.0
 10
334.4990313772195
 20
1153.712999570873
 30
0.0
 10
335.819794724151
 20
1154.475505196298
 30
0.0
 10
336.585095096892
 20
1154.917402574712
 30
0.0
 10
336.8346218836054
 20
1155.061483561498
 30
0.0
  0
ARC
  5
214
330
1F
100
AcDbEntity
  8
0
  6
Continuous
 62
     7
370
    25
100
AcDbCircle
 10
337.8659950268
 20
1144.1099185795
 30
0.0
 40
11.00000000000002
100
AcDbArc
 50
204.6199773287
 51
215.3800226713
  0
SPLINE
  5
215
330
1F
100
AcDbEntity
  8
0
  6
Continuous
 62
     7
370
    25
100
AcDbSpline
210
0.0
220
0.0
230
1.0
 70
    24
 71
     3
 72
    11
 73
     7
 74
     0
 42
0.000000001
 43
0.00000001
 40
0.0
 40
0.0
 40
0.0
 40
0.0
 40
0.0888974548233848
 40
0.5221028198514385
 40
0.9681885352239118
 40
1.0
 40
1.0
 40
1.0
 40
1.0
 10
327.8659929406389
 20
1139.527321040136
 30
0.0
 10
327.8659929406389
 20
1139.656741989417
 30
0.0
 10
327.865992940639
 20
1140.416842969832
 30
0.0
 10
327.8659929406389
 20
1141.87605480574
 30
0.0
 10
327.865992940639
 20
1143.308636069314
 30
0.0
 10
327.8659929406389
 20
1144.059896892057
 30
0.0
 10
327.8659929406389
 20
1144.109904944402
 30
0.0
  0
SPLINE
  5
216
330
1F
100
AcDbEntity
  8
0
  6
Continuous
 62
     7
370
    25
100
AcDbSpline
210
0.0
220
0.0
230
1.0
 70
     8
 71
     3
 72
     9
 73
     5
 74
     0
 42
0.000000001
 43
0.00000001
 40
0.0
 40
0.0
 40
0.0
 40
0.0
 40
0.4794050503032217
 40
1.0
 40
1.0
 40
1.0
 40
1.0
 10
330.3659980070337
 20
1136.893034159643
 30
0.0
 10
330.1252529910331
 20
1137.032017196134
 30
0.0
 10
329.6230784397882
 20
1137.321924522734
 30
0.0
 10
329.1458250608773
 20
1137.59750436309
 30
0.0
 10
328.8973693620905
 20
1137.740969836218
 30
0.0
  0
SPLINE
  5
217
330
1F
100
AcDbEntity
  8
0
  6
Continuous
 62
     7
370
    25
100
AcDbSpline
210
0.0
220
0.0
230
1.0
 70
    24
 71
     3
 72
    10
 73
     6
 74
     0
 42
0.000000001
 43
0.00000001
 40
0.0
 40
0.0
 40
0.0
 40
0.0
 40
0.1886994387777362
 40
0.5888487923360224
 40
1.0
 40
1.0
 40
1.0
 40
1.0
 10
347.8659962188944
 20
1148.692488848669
 30
0.0
 10
347.8659962188944
 20
1148.416785194639
 30
0.0
 10
347.8659962188944
 20
1147.556434126456
 30
0.0
 10
347.8659962188944
 20
1146.033872738221
 30
0.0
 10
347.8659962188944
 20
1144.756999334601
 30
0.0
 10
347.8659962188944
 20
1144.109904944402
 30
0.0
  0
SPLINE
  5
218
330
1F
100
AcDbEntity
  8
0
  6
Continuous
 62
     7
370
    25
100
AcDbSpline
210
0.0
220
0.0
230
1.0
 70
     8
 71
     3
 72
    10
 73
     6
 74
     0
 42
0.000000001
 43
0.00000001
 40
0.0
 40
0.0
 40
0.0
 40
0.0
 40
0.395346327994036
 40
0.8028561725527704
 40
1.0
 40
1.0
 40
1.0
 40
1.0
 10
342.8659935366854
 20
1152.770161807043
 30
0.0
 10
343.4048142360174
 20
1152.45907578282
 30
0.0
 10
344.4990333895197
 20
1151.827332632429
 30
0.0
 10
345.8197715253311
 20
1151.064795002254
 30
0.0
 10
346.5850916151041
 20
1150.622958039654
 30
0.0
 10
346.8346197974428
 20
1150.478899657232
 30
0.0
  0
ARC
  5
219
330
1F
100
AcDbEntity
  8
0
  6
Continuous
 62
     7
370
    25
100
AcDbCircle
 10
337.8659950268
 20
1144.1099185795
 30
0.0
 40
11.0
100
AcDbArc
 50
24.6199773287
 51
35.3800226713
  0
ARC
  5
21A
330
1F
100
AcDbEntity
  8
0
  6
Continuous
 62
     7
370
    25
100
AcDbCircle
 10
337.8659950268
 20
1144.1099185795
 30
0.0
 40
11.00000000000002
100
AcDbArc
 50
324.6199773287
 51
335.3800226713
  0
SPLINE
  5
21B
330
1F
100
AcDbEntity
  8
0
  6
Continuous
 62
     7
370
    25
100
AcDbSpline
210
0.0
220
0.0
230
1.0
 70
    24
 71
     3
 72
    11
 73
     7
 74
     0
 42
0.000000001
 43
0.00000001
 40
0.0
 40
0.0
 40
0.0
 40
0.0
 40
0.0318109155354453
 40
0.4639139721320171
 40
0.9111040800350562
 40
1.0
 40
1.0
 40
1.0
 40
1.0
 10
347.8659962188944
 20
1144.109904944402
 30
0.0
 10
347.8659962188944
 20
1144.059896797059
 30
0.0
 10
347.8659962188946
 20
1143.330603789216
 30
0.0
 10
347.8659962188943
 20
1141.898120930196
 30
0.0
 10
347.8659962188944
 20
1140.43720057476
 30
0.0
 10
347.8659962188944
 20
1139.656740103468
 30
0.0
 10
347.8659962188944
 20
1139.527321040136
 30
0.0
  0
LINE
  5
21C
330
1F
100
AcDbEntity
  8
0
  6
Continuous
 62
     7
370
    25
100
AcDbLine
 10
346.8346197974
 20
1137.7409698362
 30
0.0
 11
345.3659986031
 21
1136.8930341596
 31
0.0
  0
SPLINE
  5
21D
330
1F
100
AcDbEntity
  8
0
  6
Continuous
 62
     7
370
    25
100
AcDbSpline
210
0.0
220
0.0
230
1.0
 70
    24
 71
     3
 72
    10
 73
     6
 74
     0
 42
0.000000001
 43
0.00000001
 40
0.0
 40
0.0
 40
0.0
 40
0.0
 40
0.399395760705641
 40
0.8113023761114351
 40
1.0
 40
1.0
 40
1.0
 40
1.0
 10
162.8659938347086
 20
1144.109904944402
 30
0.0
 10
162.8659938347086
 20
1144.738457289998
 30
0.0
 10
162.8659938347086
 20
1146.015251041117
 30
0.0
 10
162.8659938347086
 20
1147.539269947267
 30
0.0
 10
162.8659938347086
 20
1148.416789934643
 30
0.0
 10
162.8659938347086
 20
1148.692488848669
 30
0.0
  0
ARC
  5
21E
330
1F
100
AcDbEntity
  8
0
  6
Continuous
 62
     7
370
    25
100
AcDbCircle
 10
172.8659950268
 20
1144.1099185795
 30
0.0
 40
11.00000000000003
100
AcDbArc
 50
144.6199773287
 51
155.3800226713
  0
SPLINE
  5
21F
330
1F
100
AcDbEntity
  8
0
  6
Continuous
 62
     7
370
    25
100
AcDbSpline
210
0.0
220
0.0
230
1.0
 70
     8
 71
     3
 72
    10
 73
     6
 74
     0
 42
0.000000001
 43
0.00000001
 40
0.0
 40
0.0
 40
0.0
 40
0.0
 40
0.4567403711828011
 40
0.9273758688449971
 40
1.0
 40
1.0
 40
1.0
 40
1.0
 10
163.8973702561602
 20
1150.478899657232
 30
0.0
 10
164.4806501770295
 20
1150.815636635834
 30
0.0
 10
165.6649547787777
 20
1151.499354931406
 30
0.0
 10
167.0277378276003
 20
1152.28629093014
 30
0.0
 10
167.7671502524902
 20
1152.713104446043
 30
0.0
 10
167.8659965169176
 20
1152.770161807043
 30
0.0
  0
ARC
  5
220
330
1F
100
AcDbEntity
  8
0
  6
Continuous
 62
     7
370
    25
100
AcDbCircle
 10
172.8659950268
 20
1144.1099185795
 30
0.0
 40
9.999999999999972
100
AcDbArc
 50
120.0
 51
180.0
  0
ARC
  5
221
330
1F
100
AcDbEntity
  8
0
  6
Continuous
 62
     7
370
    25
100
AcDbCircle
 10
172.8659950268
 20
1144.1099185795
 30
0.0
 40
9.999999999999972
100
AcDbArc
 50
180.0
 51
221.4096221093
  0
SPLINE
  5
222
330
1F
100
AcDbEntity
  8
0
  6
Continuous
 62
     7
370
    25
100
AcDbSpline
210
0.0
220
0.0
230
1.0
 70
     8
 71
     3
 72
     9
 73
     5
 74
     0
 42
0.000000001
 43
0.00000001
 40
0.0
 40
0.0
 40
0.0
 40
0.0
 40
0.4794032336958395
 40
1.0
 40
1.0
 40
1.0
 40
1.0
 10
165.3659914505228
 20
1136.893034159643
 30
0.0
 10
165.1252491177818
 20
1137.032017424559
 30
0.0
 10
164.6230782607248
 20
1137.321926326182
 30
0.0
 10
164.1458261577044
 20
1137.597504651299
 30
0.0
 10
163.8973702561602
 20
1137.740969836218
 30
0.0
  0
ARC
  5
223
330
1F
100
AcDbEntity
  8
0
  6
Continuous
 62
     7
370
    25
100
AcDbCircle
 10
172.8659950268
 20
1144.1099185795
 30
0.0
 40
10.99999999999993
100
AcDbArc
 50
204.6199773287
 51
215.3800226713
  0
SPLINE
  5
224
330
1F
100
AcDbEntity
  8
0
  6
Continuous
 62
     7
370
    25
100
AcDbSpline
210
0.0
220
0.0
230
1.0
 70
    24
 71
     3
 72
    11
 73
     7
 74
     0
 42
0.000000001
 43
0.00000001
 40
0.0
 40
0.0
 40
0.0
 40
0.0
 40
0.0888974548233848
 40
0.5221028198514385
 40
0.9681885352239118
 40
1.0
 40
1.0
 40
1.0
 40
1.0
 10
162.8659938347086
 20
1139.527321040136
 30
0.0
 10
162.8659938347086
 20
1139.656741989417
 30
0.0
 10
162.8659938347086
 20
1140.416842969832
 30
0.0
 10
162.8659938347087
 20
1141.87605480574
 30
0.0
 10
162.8659938347087
 20
1143.308636069314
 30
0.0
 10
162.8659938347086
 20
1144.059896892057
 30
0.0
 10
162.8659938347086
 20
1144.109904944402
 30
0.0
  0
SPLINE
  5
225
330
1F
100
AcDbEntity
  8
0
  6
Continuous
 62
     7
370
    25
100
AcDbSpline
210
0.0
220
0.0
230
1.0
 70
     8
 71
     3
 72
    10
 73
     6
 74
     0
 42
0.000000001
 43
0.00000001
 40
0.0
 40
0.0
 40
0.0
 40
0.0
 40
0.4567435994446407
 40
0.9273699897236846
 40
1.0
 40
1.0
 40
1.0
 40
1.0
 10
173.8973681699976
 20
1155.061483561498
 30
0.0
 10
174.4806360630849
 20
1154.724705543034
 30
0.0
 10
175.6649003651489
 20
1154.04091308726
 30
0.0
 10
177.0278067024794
 20
1153.254175810958
 30
0.0
 10
177.7671489582012
 20
1152.827240420014
 30
0.0
 10
177.8659944307551
 20
1152.770161807043
 30
0.0
  0
ARC
  5
226
330
1F
100
AcDbEntity
  8
0
  6
Continuous
 62
     7
370
    25
100
AcDbCircle
 10
172.8659950268
 20
1144.1099185795
 30
0.0
 40
10.00000000000013
100
AcDbArc
 50
60.0
 51
120.0
  0
SPLINE
  5
227
330
1F
100
AcDbEntity
  8
0
  6
Continuous
 62
     7
370
    25
100
AcDbSpline
210
0.0
220
0.0
230
1.0
 70
     8
 71
     3
 72
    10
 73
     6
 74
     0
 42
0.000000001
 43
0.00000001
 40
0.0
 40
0.0
 40
0.0
 40
0.0
 40
0.395343995344096
 40
0.8028514354848628
 40
1.0
 40
1.0
 40
1.0
 40
1.0
 10
167.8659965169176
 20
1152.770161807043
 30
0.0
 10
168.4048158639638
 20
1153.081250665274
 30
0.0
 10
169.4990322712891
 20
1153.712999570873
 30
0.0
 10
170.8197956182208
 20
1154.475505196298
 30
0.0
 10
171.5850959909616
 20
1154.917402574712
 30
0.0
 10
171.8346227776751
 20
1155.061483561498
 30
0.0
  0
ARC
  5
228
330
1F
100
AcDbEntity
  8
0
  6
Continuous
 62
     7
370
    25
100
AcDbCircle
 10
172.8659950268
 20
1144.1099185795
 30
0.0
 40
11.00000000000023
100
AcDbArc
 50
84.6199773287
 51
95.3800226713
  0
ARC
  5
229
330
1F
100
AcDbEntity
  8
0
  6
Continuous
 62
     7
370
    25
100
AcDbCircle
 10
172.8659950268
 20
1144.1099185795
 30
0.0
 40
10.00000000000013
100
AcDbArc
 50
0.0
 51
60.0
  0
ARC
  5
22A
330
1F
100
AcDbEntity
  8
0
  6
Continuous
 62
     7
370
    25
100
AcDbCircle
 10
172.8659950268
 20
1144.1099185795
 30
0.0
 40
10.0
100
AcDbArc
 50
318.5903778907
 51
0.0
  0
LINE
  5
22B
330
1F
100
AcDbEntity
  8
0
  6
Continuous
 62
     7
370
    25
100
AcDbLine
 10
181.8346206915
 20
1137.7409698362
 30
0.0
 11
180.3659920466
 21
1136.8930341596
 31
0.0
  0
SPLINE
  5
22C
330
1F
100
AcDbEntity
  8
0
  6
Continuous
 62
     7
370
    25
100
AcDbSpline
210
0.0
220
0.0
230
1.0
 70
    24
 71
     3
 72
    11
 73
     7
 74
     0
 42
0.000000001
 43
0.00000001
 40
0.0
 40
0.0
 40
0.0
 40
0.0
 40
0.0318109155354453
 40
0.4639139721320171
 40
0.9111040800350562
 40
1.0
 40
1.0
 40
1.0
 40
1.0
 10
182.8659971129641
 20
1144.109904944402
 30
0.0
 10
182.8659971129641
 20
1144.059896797059
 30
0.0
 10
182.865997112964
 20
1143.330603789216
 30
0.0
 10
182.8659971129641
 20
1141.898120930196
 30
0.0
 10
182.8659971129641
 20
1140.43720057476
 30
0.0
 10
182.8659971129641
 20
1139.656740103468
 30
0.0
 10
182.8659971129641
 20
1139.527321040136
 30
0.0
  0
ARC
  5
22D
330
1F
100
AcDbEntity
  8
0
  6
Continuous
 62
     7
370
    25
100
AcDbCircle
 10
172.8659950268
 20
1144.1099185795
 30
0.0
 40
10.99999999999996
100
AcDbArc
 50
324.6199773287
 51
335.3800226713
  0
SPLINE
  5
22E
330
1F
100
AcDbEntity
  8
0
  6
Continuous
 62
     7
370
    25
100
AcDbSpline
210
0.0
220
0.0
230
1.0
 70
    24
 71
     3
 72
    10
 73
     6
 74
     0
 42
0.000000001
 43
0.00000001
 40
0.0
 40
0.0
 40
0.0
 40
0.0
 40
0.1886994387777362
 40
0.5888487923360224
 40
1.0
 40
1.0
 40
1.0
 40
1.0
 10
182.8659971129641
 20
1148.692488848669
 30
0.0
 10
182.8659971129641
 20
1148.416785194639
 30
0.0
 10
182.8659971129641
 20
1147.556434126456
 30
0.0
 10
182.8659971129641
 20
1146.033872738221
 30
0.0
 10
182.8659971129641
 20
1144.756999334601
 30
0.0
 10
182.8659971129641
 20
1144.109904944402
 30
0.0
  0
SPLINE
  5
22F
330
1F
100
AcDbEntity
  8
0
  6
Continuous
 62
     7
370
    25
100
AcDbSpline
210
0.0
220
0.0
230
1.0
 70
     8
 71
     3
 72
    10
 73
     6
 74
     0
 42
0.000000001
 43
0.00000001
 40
0.0
 40
0.0
 40
0.0
 40
0.0
 40
0.395346327994036
 40
0.8028561725527704
 40
1.0
 40
1.0
 40
1.0
 40
1.0
 10
177.8659944307551
 20
1152.770161807043
 30
0.0
 10
178.4048151300871
 20
1152.45907578282
 30
0.0
 10
179.4990342835894
 20
1151.827332632429
 30
0.0
 10
180.8197724194007
 20
1151.064795002254
 30
0.0
 10
181.5850925091738
 20
1150.622958039654
 30
0.0
 10
181.8346206915125
 20
1150.478899657232
 30
0.0
  0
ARC
  5
230
330
1F
100
AcDbEntity
  8
0
  6
Continuous
 62
     7
370
    25
100
AcDbCircle
 10
172.8659950268
 20
1144.1099185795
 30
0.0
 40
11.00000000000006
100
AcDbArc
 50
24.6199773287
 51
35.3800226713
  0
LINE
  5
231
330
1F
100
AcDbEntity
  8
0
  6
Continuous
 62
     7
370
    25
100
AcDbLine
 10
163.1159980666
 20
1133.1099273557
 30
0.0
 11
182.615992881
 21
1133.1099273557
 31
0.0
  0
LINE
  5
232
330
1F
100
AcDbEntity
  8
0
  6
Continuous
 62
     7
370
    25
100
AcDbLine
 10
164.7659961951
 20
1115.609944045
 30
0.0
 11
180.9659947526
 21
1115.609944045
 31
0.0
  0
LINE
  5
233
330
1F
100
AcDbEntity
  8
0
  6
Continuous
 62
     7
370
    25
100
AcDbLine
 10
164.8659978878
 20
1113.3599283094
 30
0.0
 11
180.8659930598
 21
1113.3599283094
 31
0.0
  0
LINE
  5
234
330
1F
100
AcDbEntity
  8
0
  6
Continuous
 62
     7
370
    25
100
AcDbLine
 10
165.1159946692
 20
1113.1099464292
 30
0.0
 11
180.6159962785
 21
1113.1099464292
 31
0.0
  0
ARC
  5
235
330
1F
100
AcDbEntity
  8
0
  6
Continuous
 62
     7
370
    25
100
AcDbCircle
 10
172.8659950268
 20
1144.1156431994
 30
0.0
 40
7.500000000000019
100
AcDbArc
 50
62.0
 51
118.0
  0
LINE
  5
236
330
1F
100
AcDbEntity
  8
0
  6
Continuous
 62
     7
370
    25
100
AcDbLine
 10
165.8965249431
 20
1148.9042045469
 30
0.0
 11
169.3449591171
 21
1150.7377626295
 31
0.0
  0
LINE
  5
237
330
1F
100
AcDbEntity
  8
0
  6
Continuous
 62
     7
370
    25
100
AcDbLine
 10
179.8354660046
 20
1148.9042045469
 30
0.0
 11
176.3870318305
 21
1150.7377626295
 31
0.0
  0
LINE
  5
238
330
1F
100
AcDbEntity
  8
0
  6
Continuous
 62
     7
370
    25
100
AcDbLine
 10
180.3659920466
 20
1143.609941184
 30
0.0
 11
180.3659920466
 21
1134.4823243017
 31
0.0
  0
LINE
  5
239
330
1F
100
AcDbEntity
  8
0
  6
Continuous
 62
     7
370
    25
100
AcDbLine
 10
165.3659914505
 20
1134.4823243017
 30
0.0
 11
165.3659914505
 21
1143.609941184
 31
0.0
  0
LINE
  5
23A
330
1F
100
AcDbEntity
  8
0
  6
Continuous
 62
     7
370
    25
100
AcDbLine
 10
165.3659914505
 20
1143.609941184
 30
0.0
 11
165.3659914505
 21
1148.0212213392
 31
0.0
  0
ARC
  5
23B
330
1F
100
AcDbEntity
  8
0
  6
Continuous
 62
     7
370
    25
100
AcDbCircle
 10
166.3659950268
 20
1148.0212372231
 30
0.0
 40
1.0
100
AcDbArc
 50
118.0
 51
180.0
  0
LINE
  5
23C
330
1F
100
AcDbEntity
  8
0
  6
Continuous
 62
     7
370
    25
100
AcDbLine
 10
180.3659920466
 20
1148.0212213392
 30
0.0
 11
180.3659920466
 21
1143.609941184
 31
0.0
  0
ARC
  5
23D
330
1F
100
AcDbEntity
  8
0
  6
Continuous
 62
     7
370
    25
100
AcDbCircle
 10
179.3659950268
 20
1148.0212372231
 30
0.0
 40
1.000000000000021
100
AcDbArc
 50
0.0
 51
62.0
  0
LINE
  5
23E
330
1F
100
AcDbEntity
  8
0
  6
Continuous
 62
     7
370
    25
100
AcDbLine
 10
328.1159971726
 20
1133.1099273557
 30
0.0
 11
347.615991987
 21
1133.1099273557
 31
0.0
  0
LINE
  5
23F
330
1F
100
AcDbEntity
  8
0
  6
Continuous
 62
     7
370
    25
100
AcDbLine
 10
329.765995301
 20
1115.609944045
 30
0.0
 11
345.9659938586
 21
1115.609944045
 31
0.0
  0
LINE
  5
240
330
1F
100
AcDbEntity
  8
0
  6
Continuous
 62
     7
370
    25
100
AcDbLine
 10
330.1159937751
 20
1113.1099464292
 30
0.0
 11
345.6159953844
 21
1113.1099464292
 31
0.0
  0
LINE
  5
241
330
1F
100
AcDbEntity
  8
0
  6
Continuous
 62
     7
370
    25
100
AcDbLine
 10
329.8659969938
 20
1113.3599283094
 30
0.0
 11
345.8659921658
 21
1113.3599283094
 31
0.0
  0
ARC
  5
242
330
1F
100
AcDbEntity
  8
0
  6
Continuous
 62
     7
370
    25
100
AcDbCircle
 10
337.8659950268
 20
1144.1156431994
 30
0.0
 40
7.500000000000085
100
AcDbArc
 50
62.0
 51
118.0
  0
LINE
  5
243
330
1F
100
AcDbEntity
  8
0
  6
Continuous
 62
     7
370
    25
100
AcDbLine
 10
330.896524049
 20
1148.9042045469
 30
0.0
 11
334.3449582231
 21
1150.7377626295
 31
0.0
  0
LINE
  5
244
330
1F
100
AcDbEntity
  8
0
  6
Continuous
 62
     7
370
    25
100
AcDbLine
 10
344.8354651105
 20
1148.9042045469
 30
0.0
 11
341.3870309365
 21
1150.7377626295
 31
0.0
  0
LINE
  5
245
330
1F
100
AcDbEntity
  8
0
  6
Continuous
 62
     7
370
    25
100
AcDbLine
 10
345.3659986031
 20
1143.609941184
 30
0.0
 11
345.3659986031
 21
1134.4823243017
 31
0.0
  0
LINE
  5
246
330
1F
100
AcDbEntity
  8
0
  6
Continuous
 62
     7
370
    25
100
AcDbLine
 10
330.365998007
 20
1134.4823243017
 30
0.0
 11
330.365998007
 21
1143.609941184
 31
0.0
  0
LINE
  5
247
330
1F
100
AcDbEntity
  8
0
  6
Continuous
 62
     7
370
    25
100
AcDbLine
 10
330.365998007
 20
1143.609941184
 30
0.0
 11
330.365998007
 21
1148.0212213392
 31
0.0
  0
ARC
  5
248
330
1F
100
AcDbEntity
  8
0
  6
Continuous
 62
     7
370
    25
100
AcDbCircle
 10
331.3659950268
 20
1148.0212372231
 30
0.0
 40
1.000000000000222
100
AcDbArc
 50
118.0
 51
180.0
  0
LINE
  5
249
330
1F
100
AcDbEntity
  8
0
  6
Continuous
 62
     7
370
    25
100
AcDbLine
 10
345.3659986031
 20
1148.0212213392
 30
0.0
 11
345.3659986031
 21
1143.609941184
 31
0.0
  0
ARC
  5
24A
330
1F
100
AcDbEntity
  8
0
  6
Continuous
 62
     7
370
    25
100
AcDbCircle
 10
344.3659950268
 20
1148.0212372231
 30
0.0
 40
1.000000000000222
100
AcDbArc
 50
0.0
 51
62.0
  0
LINE
  5
24B
330
1F
100
AcDbEntity
  8
0
  6
Continuous
 62
     7
370
    25
100
AcDbLine
 10
162.8659938347
 20
1055.6099416609
 30
0.0
 11
167.8659965169
 21
1055.6099416609
 31
0.0
  0
ARC
  5
24C
330
1F
100
AcDbEntity
  8
0
  6
Continuous
 62
     7
370
    25
100
AcDbCircle
 10
162.8659950268
 20
1054.1099185795
 30
0.0
 40
1.500000000000227
100
AcDbArc
 50
90.0
 51
180.0
  0
LINE
  5
24D
330
1F
100
AcDbEntity
  8
0
  6
Continuous
 62
     7
370
    25
100
AcDbLine
 10
167.8659965169
 20
1049.6098996992
 30
0.0
 11
162.8659938347
 21
1049.6098996992
 31
0.0
  0
ARC
  5
24E
330
1F
100
AcDbEntity
  8
0
  6
Continuous
 62
     7
370
    25
100
AcDbCircle
 10
162.8659950268
 20
1051.1099185795
 30
0.0
 40
1.499999999999972
100
AcDbArc
 50
180.0
 51
270.0
  0
LINE
  5
24F
330
1F
100
AcDbEntity
  8
0
  6
Continuous
 62
     7
370
    25
100
AcDbLine
 10
161.3659982455
 20
1051.1099101896
 30
0.0
 11
161.3659982455
 21
1054.1099311704
 31
0.0
  0
LINE
  5
250
330
1F
100
AcDbEntity
  8
0
  6
Continuous
 62
     7
370
    25
100
AcDbLine
 10
167.8659965169
 20
1055.6099416609
 30
0.0
 11
177.8659944308
 21
1055.6099416609
 31
0.0
  0
LINE
  5
251
330
1F
100
AcDbEntity
  8
0
  6
Continuous
 62
     7
370
    25
100
AcDbLine
 10
177.8659944308
 20
1049.6098996992
 30
0.0
 11
167.8659965169
 21
1049.6098996992
 31
0.0
  0
LINE
  5
252
330
1F
100
AcDbEntity
  8
0
  6
Continuous
 62
     7
370
    25
100
AcDbLine
 10
182.865997113
 20
1049.6098996992
 30
0.0
 11
177.8659944308
 21
1049.6098996992
 31
0.0
  0
ARC
  5
253
330
1F
100
AcDbEntity
  8
0
  6
Continuous
 62
     7
370
    25
100
AcDbCircle
 10
182.8659950268
 20
1051.1099185795
 30
0.0
 40
1.5
100
AcDbArc
 50
270.0
 51
0.0
  0
LINE
  5
254
330
1F
100
AcDbEntity
  8
0
  6
Continuous
 62
     7
370
    25
100
AcDbLine
 10
184.3659927022
 20
1051.1099101896
 30
0.0
 11
184.3659927022
 21
1054.1099311704
 31
0.0
  0
LINE
  5
255
330
1F
100
AcDbEntity
  8
0
  6
Continuous
 62
     7
370
    25
100
AcDbLine
 10
177.8659944308
 20
1055.6099416609
 30
0.0
 11
182.865997113
 21
1055.6099416609
 31
0.0
  0
ARC
  5
256
330
1F
100
AcDbEntity
  8
0
  6
Continuous
 62
     7
370
    25
100
AcDbCircle
 10
182.8659950268
 20
1054.1099185795
 30
0.0
 40
1.500000000000227
100
AcDbArc
 50
0.0
 51
90.0
  0
LINE
  5
257
330
1F
100
AcDbEntity
  8
0
  6
Continuous
 62
     7
370
    25
100
AcDbLine
 10
326.3659973514
 20
1051.1099101896
 30
0.0
 11
326.3659973514
 21
1054.1099311704
 31
0.0
  0
LINE
  5
258
330
1F
100
AcDbEntity
  8
0
  6
Continuous
 62
     7
370
    25
100
AcDbLine
 10
327.8659929406
 20
1055.6099416609
 30
0.0
 11
332.8659956228
 21
1055.6099416609
 31
0.0
  0
ARC
  5
259
330
1F
100
AcDbEntity
  8
0
  6
Continuous
 62
     7
370
    25
100
AcDbCircle
 10
327.8659950268
 20
1054.1099185795
 30
0.0
 40
1.5
100
AcDbArc
 50
90.0
 51
180.0
  0
LINE
  5
25A
330
1F
100
AcDbEntity
  8
0
  6
Continuous
 62
     7
370
    25
100
AcDbLine
 10
332.8659956228
 20
1049.6098996992
 30
0.0
 11
327.8659929406
 21
1049.6098996992
 31
0.0
  0
ARC
  5
25B
330
1F
100
AcDbEntity
  8
0
  6
Continuous
 62
     7
370
    25
100
AcDbCircle
 10
327.8659950268
 20
1051.1099185795
 30
0.0
 40
1.5
100
AcDbArc
 50
180.0
 51
270.0
  0
LINE
  5
25C
330
1F
100
AcDbEntity
  8
0
  6
Continuous
 62
     7
370
    25
100
AcDbLine
 10
342.8659935367
 20
1049.6098996992
 30
0.0
 11
332.8659956228
 21
1049.6098996992
 31
0.0
  0
LINE
  5
25D
330
1F
100
AcDbEntity
  8
0
  6
Continuous
 62
     7
370
    25
100
AcDbLine
 10
349.3659918082
 20
1051.1099101896
 30
0.0
 11
349.3659918082
 21
1054.1099311704
 31
0.0
  0
LINE
  5
25E
330
1F
100
AcDbEntity
  8
0
  6
Continuous
 62
     7
370
    25
100
AcDbLine
 10
342.8659935367
 20
1055.6099416609
 30
0.0
 11
347.8659962189
 21
1055.6099416609
 31
0.0
  0
ARC
  5
25F
330
1F
100
AcDbEntity
  8
0
  6
Continuous
 62
     7
370
    25
100
AcDbCircle
 10
347.8659950268
 20
1054.1099185795
 30
0.0
 40
1.5
100
AcDbArc
 50
0.0
 51
90.0
  0
LINE
  5
260
330
1F
100
AcDbEntity
  8
0
  6
Continuous
 62
     7
370
    25
100
AcDbLine
 10
332.8659956228
 20
1055.6099416609
 30
0.0
 11
342.8659935367
 21
1055.6099416609
 31
0.0
  0
LINE
  5
261
330
1F
100
AcDbEntity
  8
0
  6
Continuous
 62
     7
370
    25
100
AcDbLine
 10
347.8659962189
 20
1049.6098996992
 30
0.0
 11
342.8659935367
 21
1049.6098996992
 31
0.0
  0
ARC
  5
262
330
1F
100
AcDbEntity
  8
0
  6
Continuous
 62
     7
370
    25
100
AcDbCircle
 10
347.8659950268
 20
1051.1099185795
 30
0.0
 40
1.5
100
AcDbArc
 50
270.0
 51
0.0
  0
LINE
  5
263
330
1F
100
AcDbEntity
  8
0
  6
Continuous
 62
     7
370
    25
100
AcDbLine
 10
348.8659982455
 20
1055.2279354925
 30
0.0
 11
348.8659982455
 21
1058.1099392767
 31
0.0
  0
LINE
  5
264
330
1F
100
AcDbEntity
  8
0
  6
Continuous
 62
     7
370
    25
100
AcDbLine
 10
326.8659983647
 20
1058.1099392767
 30
0.0
 11
326.8659983647
 21
1055.2279354925
 31
0.0
  0
ARC
  5
265
330
1F
100
AcDbEntity
  8
0
  6
Continuous
 62
     7
370
    25
100
AcDbCircle
 10
343.8659950268
 20
1149.1099185795
 30
0.0
 40
5.0
100
AcDbArc
 50
0.0
 51
90.0
  0
LINE
  5
266
330
1F
100
AcDbEntity
  8
0
  6
Continuous
 62
     7
370
    25
100
AcDbLine
 10
348.8659982455
 20
1058.1099392767
 30
0.0
 11
348.8659982455
 21
1149.109900176
 31
0.0
  0
LINE
  5
267
330
1F
100
AcDbEntity
  8
0
  6
Continuous
 62
     7
370
    25
100
AcDbLine
 10
326.8659983647
 20
1149.109900176
 30
0.0
 11
326.8659983647
 21
1058.1099392767
 31
0.0
  0
ARC
  5
268
330
1F
100
AcDbEntity
  8
0
  6
Continuous
 62
     7
370
    25
100
AcDbCircle
 10
331.8659950268
 20
1149.1099185795
 30
0.0
 40
5.0
100
AcDbArc
 50
90.0
 51
180.0
  0
LINE
  5
269
330
1F
100
AcDbEntity
  8
0
  6
Continuous
 62
     7
370
    25
100
AcDbLine
 10
343.8659955632
 20
1154.1098954077
 30
0.0
 11
340.545487858
 21
1154.1098954077
 31
0.0
  0
LINE
  5
26A
330
1F
100
AcDbEntity
  8
0
  6
Continuous
 62
     7
370
    25
100
AcDbLine
 10
335.1865013015
 20
1154.1098954077
 30
0.0
 11
331.8659935963
 21
1154.1098954077
 31
0.0
  0
LINE
  5
26B
330
1F
100
AcDbEntity
  8
0
  6
Continuous
 62
     7
370
    25
100
AcDbLine
 10
330.6659956348
 20
1113.1099464292
 30
0.0
 11
330.6659956348
 21
1105.0099136228
 31
0.0
  0
ARC
  5
26C
330
1F
100
AcDbEntity
  8
0
  6
Continuous
 62
     7
370
    25
100
AcDbCircle
 10
331.6659950268
 20
1105.0099185795
 30
0.0
 40
1.0
100
AcDbArc
 50
180.0
 51
270.0
  0
LINE
  5
26D
330
1F
100
AcDbEntity
  8
0
  6
Continuous
 62
     7
370
    25
100
AcDbLine
 10
331.6659976613
 20
1104.0099264974
 30
0.0
 11
331.8659935963
 21
1104.0099264974
 31
0.0
  0
LINE
  5
26E
330
1F
100
AcDbEntity
  8
0
  6
Continuous
 62
     7
370
    25
100
AcDbLine
 10
183.8659916889
 20
1055.2279354925
 30
0.0
 11
183.8659916889
 21
1058.1099392767
 31
0.0
  0
LINE
  5
26F
330
1F
100
AcDbEntity
  8
0
  6
Continuous
 62
     7
370
    25
100
AcDbLine
 10
161.8659918082
 20
1058.1099392767
 30
0.0
 11
161.8659918082
 21
1055.2279354925
 31
0.0
  0
ARC
  5
270
330
1F
100
AcDbEntity
  8
0
  6
Continuous
 62
     7
370
    25
100
AcDbCircle
 10
178.8659950268
 20
1149.1099185795
 30
0.0
 40
5.0
100
AcDbArc
 50
0.0
 51
90.0
  0
LINE
  5
271
330
1F
100
AcDbEntity
  8
0
  6
Continuous
 62
     7
370
    25
100
AcDbLine
 10
183.8659916889
 20
1058.1099392767
 30
0.0
 11
183.8659916889
 21
1149.109900176
 31
0.0
  0
ARC
  5
272
330
1F
100
AcDbEntity
  8
0
  6
Continuous
 62
     7
370
    25
100
AcDbCircle
 10
166.8659950268
 20
1149.1099185795
 30
0.0
 40
4.999999999999972
100
AcDbArc
 50
90.0
 51
180.0
  0
LINE
  5
273
330
1F
100
AcDbEntity
  8
0
  6
Continuous
 62
     7
370
    25
100
AcDbLine
 10
178.8659964573
 20
1154.1098954077
 30
0.0
 11
175.5454887521
 21
1154.1098954077
 31
0.0
  0
LINE
  5
274
330
1F
100
AcDbEntity
  8
0
  6
Continuous
 62
     7
370
    25
100
AcDbLine
 10
170.1865021956
 20
1154.1098954077
 30
0.0
 11
166.8659944904
 21
1154.1098954077
 31
0.0
  0
LINE
  5
275
330
1F
100
AcDbEntity
  8
0
  6
Continuous
 62
     7
370
    25
100
AcDbLine
 10
165.6659965288
 20
1113.1099464292
 30
0.0
 11
165.6659965288
 21
1105.0099136228
 31
0.0
  0
ARC
  5
276
330
1F
100
AcDbEntity
  8
0
  6
Continuous
 62
     7
370
    25
100
AcDbCircle
 10
166.6659950268
 20
1105.0099185795
 30
0.0
 40
1.0
100
AcDbArc
 50
180.0
 51
270.0
  0
LINE
  5
277
330
1F
100
AcDbEntity
  8
0
  6
Continuous
 62
     7
370
    25
100
AcDbLine
 10
166.6659985554
 20
1104.0099264974
 30
0.0
 11
166.8659944904
 21
1104.0099264974
 31
0.0
  0
LINE
  5
278
330
1F
100
AcDbEntity
  8
0
  6
Continuous
 62
     7
370
    25
100
AcDbLine
 10
161.8659918082
 20
1149.109900176
 30
0.0
 11
161.8659918082
 21
1058.1099392767
 31
0.0
  0
SPLINE
  5
279
330
1F
100
AcDbEntity
  8
0
  6
Continuous
 62
     7
370
    25
100
AcDbSpline
210
0.0
220
0.0
230
1.0
 70
     8
 71
     3
 72
    17
 73
    13
 74
     0
 42
0.000000001
 43
0.00000001
 40
0.0
 40
0.0
 40
0.0
 40
0.0
 40
0.0054845390588977
 40
0.1255752366442217
 40
0.2467761520193837
 40
0.3662444912767299
 40
0.4838928349289913
 40
0.6023515569824462
 40
0.7230319540384977
 40
0.8439835627420286
 40
0.9626998488966256
 40
1.0
 40
1.0
 40
1.0
 40
1.0
 10
343.0489723455652
 20
541.1093832845513
 30
0.0
 10
343.0332412544718
 20
541.1379309677136
 30
0.0
 10
342.6730586638257
 20
541.7915651255253
 30
0.0
 10
341.4062502323562
 20
542.7320748311912
 30
0.0
 10
339.4065614409157
 20
543.6410961534756
 30
0.0
 10
337.1720657864103
 20
543.7735173624411
 30
0.0
 10
335.0541115899909
 20
543.1784379309184
 30
0.0
 10
333.2426938053884
 20
541.9314411815667
 30
0.0
 10
331.9151772138675
 20
540.1670876590595
 30
0.0
 10
331.3013148809709
 20
538.1287897456183
 30
0.0
 10
331.2619512574319
 20
536.4753652961377
 30
0.0
 10
331.6383663296518
 20
535.6799976515142
 30
0.0
 10
331.7283590209231
 20
535.4898424739663
 30
0.0
  0
SPLINE
  5
27A
330
1F
100
AcDbEntity
  8
0
  6
Continuous
 62
     7
370
    25
100
AcDbSpline
210
0.0
220
0.0
230
1.0
 70
     8
 71
     3
 72
     9
 73
     5
 74
     0
 42
0.000000001
 43
0.00000001
 40
0.0
 40
0.0
 40
0.0
 40
0.0
 40
0.3154432375663519
 40
1.0
 40
1.0
 40
1.0
 40
1.0
 10
343.8596104156717
 20
535.1447017783944
 30
0.0
 10
343.9769998702167
 20
535.3528078787459
 30
0.0
 10
344.349141164006
 20
536.012533862911
 30
0.0
 10
344.3739857470751
 20
536.7899225628079
 30
0.0
 10
344.3909932744249
 20
537.3220892543618
 30
0.0
  0
SPLINE
  5
27B
330
1F
100
AcDbEntity
  8
0
  6
Continuous
 62
     7
370
    25
100
AcDbSpline
210
0.0
220
0.0
230
1.0
 70
     8
 71
     3
 72
    17
 73
    13
 74
     0
 42
0.000000001
 43
0.00000001
 40
0.0
 40
0.0
 40
0.0
 40
0.0
 40
0.0054840222856943
 40
0.1255742515253833
 40
0.2467755066865081
 40
0.36624391984709
 40
0.4838922516904198
 40
0.6023513018487726
 40
0.7230316389075954
 40
0.843982974118234
 40
0.9626982175656702
 40
1.0
 40
1.0
 40
1.0
 40
1.0
 10
343.0489723455652
 20
432.1050459439579
 30
0.0
 10
343.0332411881251
 20
432.133589856239
 30
0.0
 10
342.6730259631954
 20
432.7871941330964
 30
0.0
 10
341.4062552806702
 20
433.7277315307209
 30
0.0
 10
339.4065614849817
 20
434.6367588484078
 30
0.0
 10
337.1720675614481
 20
434.7691631092242
 30
0.0
 10
335.0541076932432
 20
434.1741009819544
 30
0.0
 10
333.2426970791485
 20
432.9270920846579
 30
0.0
 10
331.9151791709826
 20
431.1627409230727
 30
0.0
 10
331.3013105680616
 20
429.1244711273659
 30
0.0
 10
331.261965617518
 20
427.470994726987
 30
0.0
 10
331.6383661981131
 20
426.6756540191179
 30
0.0
 10
331.7283590209231
 20
426.4854976827923
 30
0.0
  0
SPLINE
  5
27C
330
1F
100
AcDbEntity
  8
0
  6
Continuous
 62
     7
370
    25
100
AcDbSpline
210
0.0
220
0.0
230
1.0
 70
     8
 71
     3
 72
     9
 73
     5
 74
     0
 42
0.000000001
 43
0.00000001
 40
0.0
 40
0.0
 40
0.0
 40
0.0
 40
0.3154419555269432
 40
1.0
 40
1.0
 40
1.0
 40
1.0
 10
343.8596104156717
 20
426.1403607125107
 30
0.0
 10
343.9769998541468
 20
426.3484642654347
 30
0.0
 10
344.3491426094722
 20
427.008184855159
 30
0.0
 10
344.3739863155648
 20
427.7855710436284
 30
0.0
 10
344.3909932744249
 20
428.3177370126072
 30
0.0
  0
SPLINE
  5
27D
330
1F
100
AcDbEntity
  8
0
  6
Continuous
 62
     7
370
    25
100
AcDbSpline
210
0.0
220
0.0
230
1.0
 70
     8
 71
     3
 72
    17
 73
    13
 74
     0
 42
0.000000001
 43
0.00000001
 40
0.0
 40
0.0
 40
0.0
 40
0.0
 40
0.0054838460095556
 40
0.1255745888991655
 40
0.2467758684223484
 40
0.3662442015085332
 40
0.483892589543701
 40
0.602351356285778
 40
0.7230311567447886
 40
0.8439828110773845
 40
0.96269914201777
 40
1.0
 40
1.0
 40
1.0
 40
1.0
 10
343.0489723455652
 20
650.1137318010155
 30
0.0
 10
343.0332411600277
 20
650.142274457699
 30
0.0
 10
342.6730127449073
 20
650.7958727485471
 30
0.0
 10
341.406265614731
 20
651.7364160434348
 30
0.0
 10
339.4065608360344
 20
652.6454510487523
 30
0.0
 10
337.172066125514
 20
652.7778451892821
 30
0.0
 10
335.0541109191865
 20
652.1827735391921
 30
0.0
 10
333.242699139467
 20
650.935774733133
 30
0.0
 10
331.9151737186176
 20
649.1714353731982
 30
0.0
 10
331.3013136739634
 20
647.1331359750966
 30
0.0
 10
331.2619563131576
 20
645.4797139781246
 30
0.0
 10
331.6383662786859
 20
644.6843363428869
 30
0.0
 10
331.7283590209231
 20
644.4941760892693
 30
0.0
  0
SPLINE
  5
27E
330
1F
100
AcDbEntity
  8
0
  6
Continuous
 62
     7
370
    25
100
AcDbSpline
210
0.0
220
0.0
230
1.0
 70
     8
 71
     3
 72
     9
 73
     5
 74
     0
 42
0.000000001
 43
0.00000001
 40
0.0
 40
0.0
 40
0.0
 40
0.0
 40
0.3154512719776445
 40
1.0
 40
1.0
 40
1.0
 40
1.0
 10
343.8596104156717
 20
644.1490353936974
 30
0.0
 10
343.9769999709173
 20
644.3571461167563
 30
0.0
 10
344.3491321056513
 20
645.0168699522453
 30
0.0
 10
344.3739821845343
 20
645.7942608912161
 30
0.0
 10
344.3909932744249
 20
646.3264228696648
 30
0.0
  0
LINE
  5
27F
330
1F
100
AcDbEntity
  8
0
  6
Continuous
 62
     7
370
    25
100
AcDbLine
 10
354.8659955036
 20
422.7021412844
 30
0.0
 11
354.8659955036
 21
421.0703188474
 31
0.0
  0
LINE
  5
280
330
1F
100
AcDbEntity
  8
0
  6
Continuous
 62
     7
370
    25
100
AcDbLine
 10
354.6038766277
 20
419.4365778858
 30
0.0
 11
354.8659955036
 21
421.0703188474
 31
0.0
  0
SPLINE
  5
281
330
1F
100
AcDbEntity
  8
0
  6
Continuous
 62
     7
370
    25
100
AcDbSpline
210
0.0
220
0.0
230
1.0
 70
     8
 71
     3
 72
    10
 73
     6
 74
     0
 42
0.000000001
 43
0.00000001
 40
0.0
 40
0.0
 40
0.0
 40
0.0
 40
0.5009008712450381
 40
0.9966745259577966
 40
1.0
 40
1.0
 40
1.0
 40
1.0
 10
320.8659936558947
 20
421.0703188474003
 30
0.0
 10
320.9076586671727
 20
420.4459738613484
 30
0.0
 10
320.9905622070713
 20
419.2036746785566
 30
0.0
 10
321.2840090110033
 20
417.9257693291934
 30
0.0
 10
321.5638577641433
 20
417.3363938511673
 30
0.0
 10
321.5657223832354
 20
417.332466870052
 30
0.0
  0
LINE
  5
282
330
1F
100
AcDbEntity
  8
0
  6
Continuous
 62
     7
370
    25
100
AcDbLine
 10
320.8659936559
 20
421.0703188474
 30
0.0
 11
320.8659936559
 21
422.7021412844
 31
0.0
  0
LWPOLYLINE
  5
283
330
1F
100
AcDbEntity
  8
0
  6
Continuous
 62
     7
370
    25
100
AcDbPolyline
 90
       27
 70
   128
 43
0.0
 10
344.165993191
 20
428.5521732564
 10
343.9829249751
 20
429.9689346845
 10
343.4443672073
 20
431.3033634717
 10
342.5816123259
 20
432.4778990741
 10
341.4448027384
 20
433.4242867226
 10
340.100002743
 20
434.0875262315
 10
338.6253763807
 20
434.4290720219
 10
337.1066127789
 20
434.4290720219
 10
335.6319864166
 20
434.0875262315
 10
334.2871864211
 20
433.4242867226
 10
333.1503768337
 20
432.4778990741
 10
332.2876219523
 20
431.3033634717
 10
331.7490641844
 20
429.9689346845
 10
331.5659959686
 20
428.5521732564
 10
331.7490641844
 20
427.135408103
 10
332.2876219523
 20
425.8009793157
 10
333.1503768337
 20
424.6264437134
 10
334.2871864211
 20
423.6800560648
 10
335.6319864166
 20
423.016816556
 10
337.1066127789
 20
422.6752707655
 10
338.6253763807
 20
422.6752707655
 10
340.100002743
 20
423.016816556
 10
341.4448027384
 20
423.6800560648
 10
342.5816123259
 20
424.6264437134
 10
343.4443672073
 20
425.8009793157
 10
343.9829249751
 20
427.135408103
 10
344.165993191
 20
428.5521732564
  0
LWPOLYLINE
  5
284
330
1F
100
AcDbEntity
  8
0
  6
Continuous
 62
     7
370
    25
100
AcDbPolyline
 90
       28
 70
   128
 43
0.0
 10
344.3659965765
 20
428.4837694759
 10
344.1907887232
 20
427.0751664336
 10
343.6746050489
 20
425.7424997086
 10
342.8452809226
 20
424.5576189751
 10
341.7475272786
 20
423.5843980605
 10
340.440516628
 20
422.8753002281
 10
338.9947091114
 20
422.4685581322
 10
337.4880527031
 20
422.3860988314
 10
336.0017736327
 20
422.6323665972
 10
334.615995444
 20
423.1940844948
 10
333.4054251086
 20
424.0409696395
 10
332.435322262
 20
425.1273648734
 10
331.75798998
 20
426.3947086329
 10
331.409943558
 20
427.7746716435
 10
331.409943558
 20
429.1928635831
 10
331.75798998
 20
430.5728265936
 10
332.435322262
 20
431.8401703532
 10
333.4054251086
 20
432.926565587
 10
334.615995444
 20
433.773454457
 10
336.0017736327
 20
434.3351686294
 10
337.4880527031
 20
434.5814363952
 10
338.9947091114
 20
434.4989770944
 10
340.440516628
 20
434.0922349984
 10
341.7475272786
 20
433.383137166
 10
342.8452809226
 20
432.4099162514
 10
343.6746050489
 20
431.2250355179
 10
344.1907887232
 20
429.892368793
 10
344.3659965765
 20
428.4837694759
  0
LINE
  5
285
330
1F
100
AcDbEntity
  8
0
  6
Continuous
 62
     7
370
    25
100
AcDbLine
 10
354.8659955036
 20
648.2283772821
 30
0.0
 11
354.8659955036
 21
422.7021412844
 31
0.0
  0
LINE
  5
286
330
1F
100
AcDbEntity
  8
0
  6
Continuous
 62
     7
370
    25
100
AcDbLine
 10
320.8659936559
 20
422.7021412844
 30
0.0
 11
320.8659936559
 21
648.2283772821
 31
0.0
  0
LWPOLYLINE
  5
287
330
1F
100
AcDbEntity
  8
0
  6
Continuous
 62
     7
370
    25
100
AcDbPolyline
 90
       27
 70
   128
 43
0.0
 10
344.165993191
 20
537.5565143223
 10
343.9829249751
 20
538.9732869263
 10
343.4443672073
 20
540.3077008123
 10
342.5816123259
 20
541.4822401399
 10
341.4448027384
 20
542.4286277885
 10
340.100002743
 20
543.0918784733
 10
338.6253763807
 20
543.4334130878
 10
337.1066127789
 20
543.4334130878
 10
335.6319864166
 20
543.0918784733
 10
334.2871864211
 20
542.4286277885
 10
333.1503768337
 20
541.4822401399
 10
332.2876219523
 20
540.3077008123
 10
331.7490641844
 20
538.9732869263
 10
331.5659959686
 20
537.5565143223
 10
331.7490641844
 20
536.1397566194
 10
332.2876219523
 20
534.8053278322
 10
333.1503768337
 20
533.6307885046
 10
334.2871864211
 20
532.684400856
 10
335.6319864166
 20
532.0211650724
 10
337.1066127789
 20
531.6796155567
 10
338.6253763807
 20
531.6796155567
 10
340.100002743
 20
532.0211650724
 10
341.4448027384
 20
532.684400856
 10
342.5816123259
 20
533.6307885046
 10
343.4443672073
 20
534.8053278322
 10
343.9829249751
 20
536.1397566194
 10
344.165993191
 20
537.5565143223
  0
LWPOLYLINE
  5
288
330
1F
100
AcDbEntity
  8
0
  6
Continuous
 62
     7
370
    25
100
AcDbPolyline
 90
       28
 70
   128
 43
0.0
 10
344.3659965765
 20
537.4881179924
 10
344.1907887232
 20
536.0795112247
 10
343.6746050489
 20
534.7468407745
 10
342.8452809226
 20
533.561960041
 10
341.7475272786
 20
532.5887354011
 10
340.440516628
 20
531.8796487446
 10
338.9947091114
 20
531.4729066486
 10
337.4880527031
 20
531.3904436226
 10
336.0017736327
 20
531.6367151136
 10
334.615995444
 20
532.198429286
 10
333.4054251086
 20
533.0453069801
 10
332.435322262
 20
534.1317059393
 10
331.75798998
 20
535.3990496988
 10
331.409943558
 20
536.7790164347
 10
331.409943558
 20
538.197204649
 10
331.75798998
 20
539.5771713848
 10
332.435322262
 20
540.8445151443
 10
333.4054251086
 20
541.9309141035
 10
334.615995444
 20
542.7777917976
 10
336.0017736327
 20
543.3395208711
 10
337.4880527031
 20
543.585777461
 10
338.9947091114
 20
543.503314435
 10
340.440516628
 20
543.096572339
 10
341.7475272786
 20
542.3874856825
 10
342.8452809226
 20
541.4142610426
 10
343.6746050489
 20
540.2293803091
 10
344.1907887232
 20
538.8967098589
 10
344.3659965765
 20
537.4881179924
  0
LWPOLYLINE
  5
289
330
1F
100
AcDbEntity
  8
0
  6
Continuous
 62
     7
370
    25
100
AcDbPolyline
 90
       27
 70
   128
 43
0.0
 10
344.165993191
 20
646.5608479376
 10
343.9829249751
 20
647.9776205416
 10
343.4443672073
 20
649.3120493288
 10
342.5816123259
 20
650.4865886564
 10
341.4448027384
 20
651.4329912062
 10
340.100002743
 20
652.0962120886
 10
338.6253763807
 20
652.4377467031
 10
337.1066127789
 20
652.4377467031
 10
335.6319864166
 20
652.0962120886
 10
334.2871864211
 20
651.4329912062
 10
333.1503768337
 20
650.4865886564
 10
332.2876219523
 20
649.3120493288
 10
331.7490641844
 20
647.9776205416
 10
331.5659959686
 20
646.5608479376
 10
331.7490641844
 20
645.1441051359
 10
332.2876219523
 20
643.8096763487
 10
333.1503768337
 20
642.635137021
 10
334.2871864211
 20
641.6887344713
 10
335.6319864166
 20
641.0255135889
 10
337.1066127789
 20
640.683949172
 10
338.6253763807
 20
640.683949172
 10
340.100002743
 20
641.0255135889
 10
341.4448027384
 20
641.6887344713
 10
342.5816123259
 20
642.635137021
 10
343.4443672073
 20
643.8096763487
 10
343.9829249751
 20
645.1441051359
 10
344.165993191
 20
646.5608479376
  0
LWPOLYLINE
  5
28A
330
1F
100
AcDbEntity
  8
0
  6
Continuous
 62
     7
370
    25
100
AcDbPolyline
 90
       28
 70
   128
 43
0.0
 10
344.3659965765
 20
646.4924516077
 10
344.1907887232
 20
645.08384484
 10
343.6746050489
 20
643.7512041921
 10
342.8452809226
 20
642.5662936563
 10
341.7475272786
 20
641.5930988188
 10
340.440516628
 20
640.8839823599
 10
338.9947091114
 20
640.4772402639
 10
337.4880527031
 20
640.3947772379
 10
336.0017736327
 20
640.6410636301
 10
334.615995444
 20
641.2027778024
 10
333.4054251086
 20
642.0496703977
 10
332.435322262
 20
643.1360544557
 10
331.75798998
 20
644.4033982153
 10
331.409943558
 20
645.7833649511
 10
331.409943558
 20
647.2015382643
 10
331.75798998
 20
648.5815050001
 10
332.435322262
 20
649.8488487596
 10
333.4054251086
 20
650.93526262
 10
334.615995444
 20
651.7821552152
 10
336.0017736327
 20
652.3438693876
 10
337.4880527031
 20
652.5901259775
 10
338.9947091114
 20
652.5076629515
 10
340.440516628
 20
652.1009208555
 10
341.7475272786
 20
651.3918341989
 10
342.8452809226
 20
650.418609559
 10
343.6746050489
 20
649.2337288256
 10
344.1907887232
 20
647.9010583753
 10
344.3659965765
 20
646.4924516077
  0
LINE
  5
28B
330
1F
100
AcDbEntity
  8
0
  6
Continuous
 62
     7
370
    25
100
AcDbLine
 10
354.4951056015
 20
650.5400540228
 30
0.0
 11
354.8659955036
 21
648.2283772821
 31
0.0
  0
SPLINE
  5
28C
330
1F
100
AcDbEntity
  8
0
  6
Continuous
 62
     7
370
    25
100
AcDbSpline
210
0.0
220
0.0
230
1.0
 70
     8
 71
     3
 72
    17
 73
    13
 74
     0
 42
0.000000001
 43
0.00000001
 40
0.0
 40
0.0
 40
0.0
 40
0.0
 40
0.0054845390588977
 40
0.1255752366442217
 40
0.2467761520193837
 40
0.3662444912767299
 40
0.4838928349289913
 40
0.6023515569824462
 40
0.7230319540384977
 40
0.8439835627420286
 40
0.9626998488966256
 40
1.0
 40
1.0
 40
1.0
 40
1.0
 10
178.0489732396349
 20
541.1093832845513
 30
0.0
 10
178.0332421485414
 20
541.1379309677136
 30
0.0
 10
177.6730595578954
 20
541.7915651255253
 30
0.0
 10
176.4062511264258
 20
542.7320748311912
 30
0.0
 10
174.4065623349853
 20
543.6410961534756
 30
0.0
 10
172.17206668048
 20
543.7735173624411
 30
0.0
 10
170.0541124840605
 20
543.1784379309184
 30
0.0
 10
168.2426946994581
 20
541.9314411815667
 30
0.0
 10
166.9151781079372
 20
540.1670876590595
 30
0.0
 10
166.3013157750406
 20
538.1287897456183
 30
0.0
 10
166.2619521515015
 20
536.4753652961377
 30
0.0
 10
166.6383672237215
 20
535.6799976515142
 30
0.0
 10
166.7283599149928
 20
535.4898424739663
 30
0.0
  0
SPLINE
  5
28D
330
1F
100
AcDbEntity
  8
0
  6
Continuous
 62
     7
370
    25
100
AcDbSpline
210
0.0
220
0.0
230
1.0
 70
     8
 71
     3
 72
     9
 73
     5
 74
     0
 42
0.000000001
 43
0.00000001
 40
0.0
 40
0.0
 40
0.0
 40
0.0
 40
0.3154440995625423
 40
1.0
 40
1.0
 40
1.0
 40
1.0
 10
178.8596038591608
 20
535.1447017783944
 30
0.0
 10
178.9769961997443
 20
535.3528077190209
 30
0.0
 10
179.3491456257322
 20
536.0125313940404
 30
0.0
 10
179.3739881036527
 20
536.7899219573226
 30
0.0
 10
179.3909941684946
 20
537.3220892543618
 30
0.0
  0
SPLINE
  5
28E
330
1F
100
AcDbEntity
  8
0
  6
Continuous
 62
     7
370
    25
100
AcDbSpline
210
0.0
220
0.0
230
1.0
 70
     8
 71
     3
 72
    17
 73
    13
 74
     0
 42
0.000000001
 43
0.00000001
 40
0.0
 40
0.0
 40
0.0
 40
0.0
 40
0.0054840222856943
 40
0.1255742515253833
 40
0.2467755066865081
 40
0.36624391984709
 40
0.4838922516904198
 40
0.6023513018487726
 40
0.7230316389075954
 40
0.843982974118234
 40
0.9626982175656702
 40
1.0
 40
1.0
 40
1.0
 40
1.0
 10
178.0489732396349
 20
432.1050459439579
 30
0.0
 10
178.0332420821949
 20
432.133589856239
 30
0.0
 10
177.6730268572651
 20
432.7871941330964
 30
0.0
 10
176.4062561747398
 20
433.7277315307209
 30
0.0
 10
174.4065623790513
 20
434.6367588484078
 30
0.0
 10
172.1720684555178
 20
434.7691631092242
 30
0.0
 10
170.0541085873129
 20
434.1741009819544
 30
0.0
 10
168.2426979732181
 20
432.9270920846579
 30
0.0
 10
166.9151800650522
 20
431.1627409230727
 30
0.0
 10
166.3013114621313
 20
429.1244711273659
 30
0.0
 10
166.2619665115877
 20
427.470994726987
 30
0.0
 10
166.6383670921828
 20
426.6756540191179
 30
0.0
 10
166.7283599149928
 20
426.4854976827923
 30
0.0
  0
SPLINE
  5
28F
330
1F
100
AcDbEntity
  8
0
  6
Continuous
 62
     7
370
    25
100
AcDbSpline
210
0.0
220
0.0
230
1.0
 70
     8
 71
     3
 72
     9
 73
     5
 74
     0
 42
0.000000001
 43
0.00000001
 40
0.0
 40
0.0
 40
0.0
 40
0.0
 40
0.315442817535026
 40
1.0
 40
1.0
 40
1.0
 40
1.0
 10
178.8596038591608
 20
426.1403607125107
 30
0.0
 10
178.9769961836731
 20
426.3484641057088
 30
0.0
 10
179.3491470712084
 20
427.008182386265
 30
0.0
 10
179.3739886721477
 20
427.7855704381363
 30
0.0
 10
179.3909941684946
 20
428.3177370126072
 30
0.0
  0
SPLINE
  5
290
330
1F
100
AcDbEntity
  8
0
  6
Continuous
 62
     7
370
    25
100
AcDbSpline
210
0.0
220
0.0
230
1.0
 70
     8
 71
     3
 72
    17
 73
    13
 74
     0
 42
0.000000001
 43
0.00000001
 40
0.0
 40
0.0
 40
0.0
 40
0.0
 40
0.0054838460095556
 40
0.1255745888991655
 40
0.2467758684223484
 40
0.3662442015085332
 40
0.483892589543701
 40
0.602351356285778
 40
0.7230311567447886
 40
0.8439828110773845
 40
0.96269914201777
 40
1.0
 40
1.0
 40
1.0
 40
1.0
 10
178.0489732396349
 20
650.1137318010155
 30
0.0
 10
178.0332420540973
 20
650.142274457699
 30
0.0
 10
177.673013638977
 20
650.7958727485471
 30
0.0
 10
176.4062665088007
 20
651.7364160434348
 30
0.0
 10
174.4065617301041
 20
652.6454510487523
 30
0.0
 10
172.1720670195837
 20
652.7778451892821
 30
0.0
 10
170.0541118132562
 20
652.1827735391921
 30
0.0
 10
168.2427000335367
 20
650.935774733133
 30
0.0
 10
166.9151746126873
 20
649.1714353731982
 30
0.0
 10
166.3013145680331
 20
647.1331359750966
 30
0.0
 10
166.2619572072272
 20
645.4797139781246
 30
0.0
 10
166.6383671727556
 20
644.6843363428869
 30
0.0
 10
166.7283599149928
 20
644.4941760892693
 30
0.0
  0
SPLINE
  5
291
330
1F
100
AcDbEntity
  8
0
  6
Continuous
 62
     7
370
    25
100
AcDbSpline
210
0.0
220
0.0
230
1.0
 70
     8
 71
     3
 72
     9
 73
     5
 74
     0
 42
0.000000001
 43
0.00000001
 40
0.0
 40
0.0
 40
0.0
 40
0.0
 40
0.3154521339581109
 40
1.0
 40
1.0
 40
1.0
 40
1.0
 10
178.8596038591608
 20
644.1490353936974
 30
0.0
 10
178.9769963004531
 20
644.3571459570277
 30
0.0
 10
179.3491365672483
 20
645.0168674834571
 30
0.0
 10
179.3739845410519
 20
645.7942602857671
 30
0.0
 10
179.3909941684946
 20
646.3264228696648
 30
0.0
  0
LINE
  5
292
330
1F
100
AcDbEntity
  8
0
  6
Continuous
 62
     7
370
    25
100
AcDbLine
 10
189.8659963977
 20
422.7021412844
 30
0.0
 11
189.8659963977
 21
421.0703188474
 31
0.0
  0
LINE
  5
293
330
1F
100
AcDbEntity
  8
0
  6
Continuous
 62
     7
370
    25
100
AcDbLine
 10
189.6038775217
 20
419.4365778858
 30
0.0
 11
189.8659963977
 21
421.0703188474
 31
0.0
  0
SPLINE
  5
294
330
1F
100
AcDbEntity
  8
0
  6
Continuous
 62
     7
370
    25
100
AcDbSpline
210
0.0
220
0.0
230
1.0
 70
     8
 71
     3
 72
    10
 73
     6
 74
     0
 42
0.000000001
 43
0.00000001
 40
0.0
 40
0.0
 40
0.0
 40
0.0
 40
0.5009005381249142
 40
0.9966745270452706
 40
1.0
 40
1.0
 40
1.0
 40
1.0
 10
155.8659945499644
 20
421.0703188474003
 30
0.0
 10
155.9076553855487
 20
420.4459735312746
 30
0.0
 10
155.9905506720217
 20
419.2036728641762
 30
0.0
 10
156.2840096405699
 20
417.9257699185655
 30
0.0
 10
156.5638586583043
 20
417.3363938511889
 30
0.0
 10
156.5657232773051
 20
417.332466870052
 30
0.0
  0
LINE
  5
295
330
1F
100
AcDbEntity
  8
0
  6
Continuous
 62
     7
370
    25
100
AcDbLine
 10
155.86599455
 20
421.0703188474
 30
0.0
 11
155.86599455
 21
422.7021412844
 31
0.0
  0
LWPOLYLINE
  5
296
330
1F
100
AcDbEntity
  8
0
  6
Continuous
 62
     7
370
    25
100
AcDbPolyline
 90
       27
 70
   128
 43
0.0
 10
179.165994085
 20
428.5521732564
 10
178.9829258692
 20
429.9689346845
 10
178.4443681013
 20
431.3033634717
 10
177.58161322
 20
432.4778990741
 10
176.4448036325
 20
433.4242867226
 10
175.1000036371
 20
434.0875262315
 10
173.6253772747
 20
434.4290720219
 10
172.1066136729
 20
434.4290720219
 10
170.6319873106
 20
434.0875262315
 10
169.2871873152
 20
433.4242867226
 10
168.1503777277
 20
432.4778990741
 10
167.2876228463
 20
431.3033634717
 10
166.7490650785
 20
429.9689346845
 10
166.5659968626
 20
428.5521732564
 10
166.7490650785
 20
427.135408103
 10
167.2876228463
 20
425.8009793157
 10
168.1503777277
 20
424.6264437134
 10
169.2871873152
 20
423.6800560648
 10
170.6319873106
 20
423.016816556
 10
172.1066136729
 20
422.6752707655
 10
173.6253772747
 20
422.6752707655
 10
175.1000036371
 20
423.016816556
 10
176.4448036325
 20
423.6800560648
 10
177.58161322
 20
424.6264437134
 10
178.4443681013
 20
425.8009793157
 10
178.9829258692
 20
427.135408103
 10
179.165994085
 20
428.5521732564
  0
LWPOLYLINE
  5
297
330
1F
100
AcDbEntity
  8
0
  6
Continuous
 62
     7
370
    25
100
AcDbPolyline
 90
       28
 70
   128
 43
0.0
 10
179.3659974706
 20
428.4837694759
 10
179.1907896173
 20
427.0751664336
 10
178.6746059429
 20
425.7424997086
 10
177.8452818167
 20
424.5576189751
 10
176.7475281727
 20
423.5843980605
 10
175.4405100715
 20
422.8753002281
 10
173.9947100055
 20
422.4685581322
 10
172.4880535972
 20
422.3860988314
 10
171.0017745268
 20
422.6323665972
 10
169.6159963381
 20
423.1940844948
 10
168.4054260027
 20
424.0409696395
 10
167.4353231561
 20
425.1273648734
 10
166.757990874
 20
426.3947086329
 10
166.409944452
 20
427.7746716435
 10
166.409944452
 20
429.1928635831
 10
166.757990874
 20
430.5728265936
 10
167.4353231561
 20
431.8401703532
 10
168.4054260027
 20
432.926565587
 10
169.6159963381
 20
433.773454457
 10
171.0017745268
 20
434.3351686294
 10
172.4880535972
 20
434.5814363952
 10
173.9947100055
 20
434.4989770944
 10
175.4405100715
 20
434.0922349984
 10
176.7475281727
 20
433.383137166
 10
177.8452818167
 20
432.4099162514
 10
178.6746059429
 20
431.2250355179
 10
179.1907896173
 20
429.892368793
 10
179.3659974706
 20
428.4837694759
  0
LINE
  5
298
330
1F
100
AcDbEntity
  8
0
  6
Continuous
 62
     7
370
    25
100
AcDbLine
 10
189.8659963977
 20
648.2283772821
 30
0.0
 11
189.8659963977
 21
422.7021412844
 31
0.0
  0
LINE
  5
299
330
1F
100
AcDbEntity
  8
0
  6
Continuous
 62
     7
370
    25
100
AcDbLine
 10
155.86599455
 20
422.7021412844
 30
0.0
 11
155.86599455
 21
648.2283772821
 31
0.0
  0
LWPOLYLINE
  5
29A
330
1F
100
AcDbEntity
  8
0
  6
Continuous
 62
     7
370
    25
100
AcDbPolyline
 90
       27
 70
   128
 43
0.0
 10
179.165994085
 20
537.5565143223
 10
178.9829258692
 20
538.9732869263
 10
178.4443681013
 20
540.3077008123
 10
177.58161322
 20
541.4822401399
 10
176.4448036325
 20
542.4286277885
 10
175.1000036371
 20
543.0918784733
 10
173.6253772747
 20
543.4334130878
 10
172.1066136729
 20
543.4334130878
 10
170.6319873106
 20
543.0918784733
 10
169.2871873152
 20
542.4286277885
 10
168.1503777277
 20
541.4822401399
 10
167.2876228463
 20
540.3077008123
 10
166.7490650785
 20
538.9732869263
 10
166.5659968626
 20
537.5565143223
 10
166.7490650785
 20
536.1397566194
 10
167.2876228463
 20
534.8053278322
 10
168.1503777277
 20
533.6307885046
 10
169.2871873152
 20
532.684400856
 10
170.6319873106
 20
532.0211650724
 10
172.1066136729
 20
531.6796155567
 10
173.6253772747
 20
531.6796155567
 10
175.1000036371
 20
532.0211650724
 10
176.4448036325
 20
532.684400856
 10
177.58161322
 20
533.6307885046
 10
178.4443681013
 20
534.8053278322
 10
178.9829258692
 20
536.1397566194
 10
179.165994085
 20
537.5565143223
  0
LWPOLYLINE
  5
29B
330
1F
100
AcDbEntity
  8
0
  6
Continuous
 62
     7
370
    25
100
AcDbPolyline
 90
       28
 70
   128
 43
0.0
 10
179.3659974706
 20
537.4881179924
 10
179.1907896173
 20
536.0795112247
 10
178.6746059429
 20
534.7468407745
 10
177.8452818167
 20
533.561960041
 10
176.7475281727
 20
532.5887354011
 10
175.4405100715
 20
531.8796487446
 10
173.9947100055
 20
531.4729066486
 10
172.4880535972
 20
531.3904436226
 10
171.0017745268
 20
531.6367151136
 10
169.6159963381
 20
532.198429286
 10
168.4054260027
 20
533.0453069801
 10
167.4353231561
 20
534.1317059393
 10
166.757990874
 20
535.3990496988
 10
166.409944452
 20
536.7790164347
 10
166.409944452
 20
538.197204649
 10
166.757990874
 20
539.5771713848
 10
167.4353231561
 20
540.8445151443
 10
168.4054260027
 20
541.9309141035
 10
169.6159963381
 20
542.7777917976
 10
171.0017745268
 20
543.3395208711
 10
172.4880535972
 20
543.585777461
 10
173.9947100055
 20
543.503314435
 10
175.4405100715
 20
543.096572339
 10
176.7475281727
 20
542.3874856825
 10
177.8452818167
 20
541.4142610426
 10
178.6746059429
 20
540.2293803091
 10
179.1907896173
 20
538.8967098589
 10
179.3659974706
 20
537.4881179924
  0
LWPOLYLINE
  5
29C
330
1F
100
AcDbEntity
  8
0
  6
Continuous
 62
     7
370
    25
100
AcDbPolyline
 90
       27
 70
   128
 43
0.0
 10
179.165994085
 20
646.5608479376
 10
178.9829258692
 20
647.9776205416
 10
178.4443681013
 20
649.3120493288
 10
177.58161322
 20
650.4865886564
 10
176.4448036325
 20
651.4329912062
 10
175.1000036371
 20
652.0962120886
 10
173.6253772747
 20
652.4377467031
 10
172.1066136729
 20
652.4377467031
 10
170.6319873106
 20
652.0962120886
 10
169.2871873152
 20
651.4329912062
 10
168.1503777277
 20
650.4865886564
 10
167.2876228463
 20
649.3120493288
 10
166.7490650785
 20
647.9776205416
 10
166.5659968626
 20
646.5608479376
 10
166.7490650785
 20
645.1441051359
 10
167.2876228463
 20
643.8096763487
 10
168.1503777277
 20
642.635137021
 10
169.2871873152
 20
641.6887344713
 10
170.6319873106
 20
641.0255135889
 10
172.1066136729
 20
640.683949172
 10
173.6253772747
 20
640.683949172
 10
175.1000036371
 20
641.0255135889
 10
176.4448036325
 20
641.6887344713
 10
177.58161322
 20
642.635137021
 10
178.4443681013
 20
643.8096763487
 10
178.9829258692
 20
645.1441051359
 10
179.165994085
 20
646.5608479376
  0
LWPOLYLINE
  5
29D
330
1F
100
AcDbEntity
  8
0
  6
Continuous
 62
     7
370
    25
100
AcDbPolyline
 90
       28
 70
   128
 43
0.0
 10
179.3659974706
 20
646.4924516077
 10
179.1907896173
 20
645.08384484
 10
178.6746059429
 20
643.7512041921
 10
177.8452818167
 20
642.5662936563
 10
176.7475281727
 20
641.5930988188
 10
175.4405100715
 20
640.8839823599
 10
173.9947100055
 20
640.4772402639
 10
172.4880535972
 20
640.3947772379
 10
171.0017745268
 20
640.6410636301
 10
169.6159963381
 20
641.2027778024
 10
168.4054260027
 20
642.0496703977
 10
167.4353231561
 20
643.1360544557
 10
166.757990874
 20
644.4033982153
 10
166.409944452
 20
645.7833649511
 10
166.409944452
 20
647.2015382643
 10
166.757990874
 20
648.5815050001
 10
167.4353231561
 20
649.8488487596
 10
168.4054260027
 20
650.93526262
 10
169.6159963381
 20
651.7821552152
 10
171.0017745268
 20
652.3438693876
 10
172.4880535972
 20
652.5901259775
 10
173.9947100055
 20
652.5076629515
 10
175.4405100715
 20
652.1009208555
 10
176.7475281727
 20
651.3918341989
 10
177.8452818167
 20
650.418609559
 10
178.6746059429
 20
649.2337288256
 10
179.1907896173
 20
647.9010583753
 10
179.3659974706
 20
646.4924516077
  0
LINE
  5
29E
330
1F
100
AcDbEntity
  8
0
  6
Continuous
 62
     7
370
    25
100
AcDbLine
 10
189.4951064956
 20
650.5400540228
 30
0.0
 11
189.8659963977
 21
648.2283772821
 31
0.0
  0
ARC
  5
29F
330
1F
100
AcDbEntity
  8
0
  6
Continuous
 62
     7
370
    25
100
AcDbCircle
 10
326.8659950227
 20
674.6635450414
 30
0.0
 40
3.0
100
AcDbArc
 50
90.0
 51
180.0
  0
ARC
  5
2A0
330
1F
100
AcDbEntity
  8
0
  6
Continuous
 62
     7
370
    25
100
AcDbCircle
 10
326.8659950227
 20
674.6635450414
 30
0.0
 40
3.0
100
AcDbArc
 50
0.0
 51
90.0
  0
ARC
  5
2A1
330
1F
100
AcDbEntity
  8
0
  6
Continuous
 62
     7
370
    25
100
AcDbCircle
 10
348.8659950227
 20
674.6635450414
 30
0.0
 40
3.0
100
AcDbArc
 50
90.0
 51
180.0
  0
ARC
  5
2A2
330
1F
100
AcDbEntity
  8
0
  6
Continuous
 62
     7
370
    25
100
AcDbCircle
 10
348.8659950227
 20
674.6635450414
 30
0.0
 40
3.0
100
AcDbArc
 50
0.0
 51
90.0
  0
ARC
  5
2A3
330
1F
100
AcDbEntity
  8
0
  6
Continuous
 62
     7
370
    25
100
AcDbCircle
 10
161.8659950241
 20
674.6635450414
 30
0.0
 40
3.0
100
AcDbArc
 50
90.0
 51
180.0
  0
ARC
  5
2A4
330
1F
100
AcDbEntity
  8
0
  6
Continuous
 62
     7
370
    25
100
AcDbCircle
 10
161.8659950241
 20
674.6635450414
 30
0.0
 40
3.000000000000028
100
AcDbArc
 50
0.0
 51
90.0
  0
ARC
  5
2A5
330
1F
100
AcDbEntity
  8
0
  6
Continuous
 62
     7
370
    25
100
AcDbCircle
 10
183.8659950241
 20
674.6635450414
 30
0.0
 40
3.0
100
AcDbArc
 50
90.0
 51
180.0
  0
ARC
  5
2A6
330
1F
100
AcDbEntity
  8
0
  6
Continuous
 62
     7
370
    25
100
AcDbCircle
 10
183.8659950241
 20
674.6635450414
 30
0.0
 40
3.0
100
AcDbArc
 50
0.0
 51
90.0
  0
LINE
  5
2A7
330
1F
100
AcDbEntity
  8
0
  6
Continuous
 62
     7
370
    25
100
AcDbLine
 10
337.9659925472
 20
680.3894342775
 30
0.0
 11
337.9659925472
 21
677.663535058
 31
0.0
  0
LINE
  5
2A8
330
1F
100
AcDbEntity
  8
0
  6
Continuous
 62
     7
370
    25
100
AcDbLine
 10
337.8659983051
 20
680.3894342775
 30
0.0
 11
337.8659983051
 21
677.663535058
 31
0.0
  0
LINE
  5
2A9
330
1F
100
AcDbEntity
  8
0
  6
Continuous
 62
     7
370
    25
100
AcDbLine
 10
172.8659917485
 20
680.3894342775
 30
0.0
 11
172.8659917485
 21
677.663535058
 31
0.0
  0
LINE
  5
2AA
330
1F
100
AcDbEntity
  8
0
  6
Continuous
 62
     7
370
    25
100
AcDbLine
 10
172.9659934413
 20
680.3894342775
 30
0.0
 11
172.9659934413
 21
677.663535058
 31
0.0
  0
ARC
  5
2AB
330
1F
100
AcDbEntity
  8
0
  6
Continuous
 62
     7
370
    25
100
AcDbCircle
 10
172.8659950268
 20
1144.1099185795
 30
0.0
 40
13.25000000000017
100
AcDbArc
 50
0.0
 51
213.8818751974
  0
ARC
  5
2AC
330
1F
100
AcDbEntity
  8
0
  6
Continuous
 62
     7
370
    25
100
AcDbCircle
 10
172.8659950268
 20
1144.1099185795
 30
0.0
 40
13.25000000000004
100
AcDbArc
 50
326.1181248024
 51
0.0
  0
ARC
  5
2AD
330
1F
100
AcDbEntity
  8
0
  6
Continuous
 62
     7
370
    25
100
AcDbCircle
 10
337.8659950268
 20
1144.1099185795
 30
0.0
 40
13.25000000000014
100
AcDbArc
 50
0.0
 51
213.8818751975
  0
ARC
  5
2AE
330
1F
100
AcDbEntity
  8
0
  6
Continuous
 62
     7
370
    25
100
AcDbCircle
 10
337.8659950268
 20
1144.1099185795
 30
0.0
 40
13.25000000000002
100
AcDbArc
 50
326.1181248026
 51
0.0
  0
CIRCLE
  5
2AF
330
1F
100
AcDbEntity
  8
0
  6
Continuous
 62
     7
370
    25
100
AcDbCircle
 10
255.3659950268
 20
1144.1099185795
 30
0.0
 40
13.24999999999994
  0
LINE
  5
2B0
330
1F
100
AcDbEntity
  8
0
  6
Continuous
 62
     7
370
    25
100
AcDbLine
 10
338.0985830796
 20
661.7503167982
 30
0.0
 11
338.0985830796
 21
660.0794793958
 31
0.0
  0
LINE
  5
2B1
330
1F
100
AcDbEntity
  8
0
  6
Continuous
 62
     7
370
    25
100
AcDbLine
 10
338.0985830796
 20
662.7272369261
 30
0.0
 11
341.8841560256
 21
662.7272369261
 31
0.0
  0
LINE
  5
2B2
330
1F
100
AcDbEntity
  8
0
  6
Continuous
 62
     7
370
    25
100
AcDbLine
 10
338.0985830796
 20
665.6579973097
 30
0.0
 11
338.0985830796
 21
662.7272369261
 31
0.0
  0
LINE
  5
2B3
330
1F
100
AcDbEntity
  8
0
  6
Continuous
 62
     7
370
    25
100
AcDbLine
 10
321.0905541551
 20
657.1099163885
 30
0.0
 11
323.865992285
 21
659.8853470678
 31
0.0
  0
LINE
  5
2B4
330
1F
100
AcDbEntity
  8
0
  6
Continuous
 62
     7
370
    25
100
AcDbLine
 10
323.865992285
 20
660.6698932047
 30
0.0
 11
322.7262099159
 21
660.6698932047
 31
0.0
  0
LINE
  5
2B5
330
1F
100
AcDbEntity
  8
0
  6
Continuous
 62
     7
370
    25
100
AcDbLine
 10
322.7262099159
 20
667.597383439
 30
0.0
 11
320.3731973541
 21
667.597383439
 31
0.0
  0
LINE
  5
2B6
330
1F
100
AcDbEntity
  8
0
  6
Continuous
 62
     7
370
    25
100
AcDbLine
 10
351.8659968745
 20
659.8853470678
 30
0.0
 11
354.6414350044
 21
657.1099163885
 31
0.0
  0
LINE
  5
2B7
330
1F
100
AcDbEntity
  8
0
  6
Continuous
 62
     7
370
    25
100
AcDbLine
 10
354.6414350044
 20
657.1099163885
 30
0.0
 11
355.3732012284
 21
657.8416826124
 31
0.0
  0
LINE
  5
2B8
330
1F
100
AcDbEntity
  8
0
  6
Continuous
 62
     7
370
    25
100
AcDbLine
 10
355.3732012284
 20
667.597383439
 30
0.0
 11
353.0057792437
 21
667.597383439
 31
0.0
  0
LINE
  5
2B9
330
1F
100
AcDbEntity
  8
0
  6
Continuous
 62
     7
370
    25
100
AcDbLine
 10
353.0057792437
 20
660.6698932047
 30
0.0
 11
351.8659968745
 21
660.6698932047
 31
0.0
  0
ARC
  5
2BA
330
1F
100
AcDbEntity
  8
0
  6
Continuous
 62
     7
370
    25
100
AcDbCircle
 10
359.6659950268
 20
679.1099185795
 30
0.0
 40
5.999999999999976
100
AcDbArc
 50
193.949244064
 51
224.3186060805
  0
ARC
  5
2BB
330
1F
100
AcDbEntity
  8
0
  6
Continuous
 62
     7
370
    25
100
AcDbCircle
 10
337.8659950268
 20
953.1099185795
 30
0.0
 40
6.000000000000067
100
AcDbArc
 50
64.8410691921
 51
115.1135176242
  0
LINE
  5
2BC
330
1F
100
AcDbEntity
  8
0
  6
Continuous
 62
     7
370
    25
100
AcDbLine
 10
341.8841560256
 20
661.7503167982
 30
0.0
 11
338.0985830796
 21
661.7503167982
 31
0.0
  0
LINE
  5
2BD
330
1F
100
AcDbEntity
  8
0
  6
Continuous
 62
     7
370
    25
100
AcDbLine
 10
337.2437705171
 20
660.078197896
 30
0.0
 11
337.2437705171
 21
666.6349174375
 31
0.0
  0
LINE
  5
2BE
330
1F
100
AcDbEntity
  8
0
  6
Continuous
 62
     7
370
    25
100
AcDbLine
 10
322.7262099159
 20
660.6698932047
 30
0.0
 11
322.7262099159
 21
667.597383439
 31
0.0
  0
LINE
  5
2BF
330
1F
100
AcDbEntity
  8
0
  6
Continuous
 62
     7
370
    25
100
AcDbLine
 10
341.8841560256
 20
662.7272369261
 30
0.0
 11
341.8841560256
 21
661.7503167982
 31
0.0
  0
ARC
  5
2C0
330
1F
100
AcDbEntity
  8
0
  6
Continuous
 62
     7
370
    25
100
AcDbCircle
 10
337.8659950268
 20
679.1099185795
 30
0.0
 40
6.000000000000031
100
AcDbArc
 50
193.949244064
 51
346.050755936
  0
LINE
  5
2C1
330
1F
100
AcDbEntity
  8
0
  6
Continuous
 62
     7
370
    25
100
AcDbLine
 10
337.2437705171
 20
666.6349174375
 30
0.0
 11
341.8841560256
 21
666.6349174375
 31
0.0
  0
LINE
  5
2C2
330
1F
100
AcDbEntity
  8
0
  6
Continuous
 62
     7
370
    25
100
AcDbLine
 10
320.3731973541
 20
657.8272582884
 30
0.0
 11
321.0905541551
 21
657.1099163885
 31
0.0
  0
LINE
  5
2C3
330
1F
100
AcDbEntity
  8
0
  6
Continuous
 62
     7
370
    25
100
AcDbLine
 10
341.8841560256
 20
665.6579973097
 30
0.0
 11
338.0985830796
 21
665.6579973097
 31
0.0
  0
LINE
  5
2C4
330
1F
100
AcDbEntity
  8
0
  6
Continuous
 62
     7
370
    25
100
AcDbLine
 10
341.8841560256
 20
666.6349174375
 30
0.0
 11
341.8841560256
 21
665.6579973097
 31
0.0
  0
ARC
  5
2C5
330
1F
100
AcDbEntity
  8
0
  6
Continuous
 62
     7
370
    25
100
AcDbCircle
 10
316.0659950268
 20
679.1099185795
 30
0.0
 40
6.000000000000031
100
AcDbArc
 50
315.8786917625
 51
346.050755936
  0
LINE
  5
2C6
330
1F
100
AcDbEntity
  8
0
  6
Continuous
 62
     7
370
    25
100
AcDbLine
 10
353.0057792437
 20
667.597383439
 30
0.0
 11
353.0057792437
 21
660.6698932047
 31
0.0
  0
LINE
  5
2C7
330
1F
100
AcDbEntity
  8
0
  6
Continuous
 62
     7
370
    25
100
AcDbLine
 10
350.8731995594
 20
982.1599127645
 30
0.0
 11
343.8659955632
 21
982.1599127645
 31
0.0
  0
LINE
  5
2C8
330
1F
100
AcDbEntity
  8
0
  6
Continuous
 62
     7
370
    25
100
AcDbLine
 10
331.8659935963
 20
982.1599127645
 30
0.0
 11
324.873199023
 21
982.1599127645
 31
0.0
  0
LINE
  5
2C9
330
1F
100
AcDbEntity
  8
0
  6
Continuous
 62
     7
370
    25
100
AcDbLine
 10
214.2150600326
 20
972.791373908
 30
0.0
 11
227.902454592
 21
959.1039420957
 31
0.0
  0
LWPOLYLINE
  5
2CA
330
1F
100
AcDbEntity
  8
0
  6
Continuous
 62
     7
370
    25
100
AcDbPolyline
 90
        9
 70
   128
 43
0.0
 10
212.7654899728
 20
971.3417889471
 10
213.0482879352
 20
971.6246129865
 10
213.3202155006
 20
971.896529376
 10
213.5708269548
 20
972.1471073026
 10
213.7904886973
 20
972.3668100233
 10
213.9707629454
 20
972.5470544691
 10
214.1047169339
 20
972.6810457105
 10
214.187206037
 20
972.7635385389
 10
214.2150600326
 20
972.791373908
  0
LINE
  5
2CB
330
1F
100
AcDbEntity
  8
0
  6
Continuous
 62
     7
370
    25
100
AcDbLine
 10
185.8732004535
 20
982.1599127645
 30
0.0
 11
178.8659964573
 21
982.1599127645
 31
0.0
  0
LINE
  5
2CC
330
1F
100
AcDbEntity
  8
0
  6
Continuous
 62
     7
370
    25
100
AcDbLine
 10
166.8659944904
 20
982.1599127645
 30
0.0
 11
159.8731999171
 21
982.1599127645
 31
0.0
  0
LINE
  5
2CD
330
1F
100
AcDbEntity
  8
0
  6
Continuous
 62
     7
370
    25
100
AcDbLine
 10
176.8841569197
 20
661.7503167982
 30
0.0
 11
173.098576523
 21
661.7503167982
 31
0.0
  0
LINE
  5
2CE
330
1F
100
AcDbEntity
  8
0
  6
Continuous
 62
     7
370
    25
100
AcDbLine
 10
176.8841569197
 20
662.7272369261
 30
0.0
 11
176.8841569197
 21
661.7503167982
 31
0.0
  0
LINE
  5
2CF
330
1F
100
AcDbEntity
  8
0
  6
Continuous
 62
     7
370
    25
100
AcDbLine
 10
173.098576523
 20
662.7272369261
 30
0.0
 11
176.8841569197
 21
662.7272369261
 31
0.0
  0
LINE
  5
2D0
330
1F
100
AcDbEntity
  8
0
  6
Continuous
 62
     7
370
    25
100
AcDbLine
 10
173.098576523
 20
665.6579973097
 30
0.0
 11
173.098576523
 21
662.7272369261
 31
0.0
  0
LINE
  5
2D1
330
1F
100
AcDbEntity
  8
0
  6
Continuous
 62
     7
370
    25
100
AcDbLine
 10
176.8841569197
 20
665.6579973097
 30
0.0
 11
173.098576523
 21
665.6579973097
 31
0.0
  0
LINE
  5
2D2
330
1F
100
AcDbEntity
  8
0
  6
Continuous
 62
     7
370
    25
100
AcDbLine
 10
212.199804641
 20
970.7760812635
 30
0.0
 11
210.3731979501
 21
972.6027252073
 31
0.0
  0
LINE
  5
2D3
330
1F
100
AcDbEntity
  8
0
  6
Continuous
 62
     7
370
    25
100
AcDbLine
 10
212.7654899728
 20
971.3417889471
 30
0.0
 11
212.199804641
 21
970.7760812635
 31
0.0
  0
LINE
  5
2D4
330
1F
100
AcDbEntity
  8
0
  6
Continuous
 62
     7
370
    25
100
AcDbLine
 10
155.3731982481
 20
657.8272582884
 30
0.0
 11
156.0905550492
 21
657.1099163885
 31
0.0
  0
LINE
  5
2D5
330
1F
100
AcDbEntity
  8
0
  6
Continuous
 62
     7
370
    25
100
AcDbLine
 10
156.0905550492
 20
657.1099163885
 30
0.0
 11
158.8659931791
 21
659.8853470678
 31
0.0
  0
LINE
  5
2D6
330
1F
100
AcDbEntity
  8
0
  6
Continuous
 62
     7
370
    25
100
AcDbLine
 10
158.8659931791
 20
660.6698932047
 30
0.0
 11
157.7262108099
 21
660.6698932047
 31
0.0
  0
LINE
  5
2D7
330
1F
100
AcDbEntity
  8
0
  6
Continuous
 62
     7
370
    25
100
AcDbLine
 10
157.7262108099
 20
667.597383439
 30
0.0
 11
155.3731982481
 21
667.597383439
 31
0.0
  0
LINE
  5
2D8
330
1F
100
AcDbEntity
  8
0
  6
Continuous
 62
     7
370
    25
100
AcDbLine
 10
188.0057801378
 20
660.6698932047
 30
0.0
 11
186.8659977686
 21
660.6698932047
 31
0.0
  0
ARC
  5
2D9
330
1F
100
AcDbEntity
  8
0
  6
Continuous
 62
     7
370
    25
100
AcDbCircle
 10
151.0659950268
 20
679.1099185795
 30
0.0
 40
5.999999999999979
100
AcDbArc
 50
315.8786917625
 51
346.050755936
  0
ARC
  5
2DA
330
1F
100
AcDbEntity
  8
0
  6
Continuous
 62
     7
370
    25
100
AcDbCircle
 10
172.8659950268
 20
679.1099185795
 30
0.0
 40
6.000000000000006
100
AcDbArc
 50
193.949244064
 51
346.050755936
  0
ARC
  5
2DB
330
1F
100
AcDbEntity
  8
0
  6
Continuous
 62
     7
370
    25
100
AcDbCircle
 10
194.6659950268
 20
679.1099185795
 30
0.0
 40
5.999999999999979
100
AcDbArc
 50
193.949244064
 51
224.3186060806
  0
ARC
  5
2DC
330
1F
100
AcDbEntity
  8
0
  6
Continuous
 62
     7
370
    25
100
AcDbCircle
 10
172.8659950268
 20
953.1099185795
 30
0.0
 40
5.999999999999925
100
AcDbArc
 50
64.8410691931
 51
115.1135176235
  0
LINE
  5
2DD
330
1F
100
AcDbEntity
  8
0
  6
Continuous
 62
     7
370
    25
100
AcDbLine
 10
188.0057801378
 20
667.597383439
 30
0.0
 11
188.0057801378
 21
660.6698932047
 31
0.0
  0
LINE
  5
2DE
330
1F
100
AcDbEntity
  8
0
  6
Continuous
 62
     7
370
    25
100
AcDbLine
 10
173.098576523
 20
661.7503167982
 30
0.0
 11
173.098576523
 21
660.0794793958
 31
0.0
  0
LINE
  5
2DF
330
1F
100
AcDbEntity
  8
0
  6
Continuous
 62
     7
370
    25
100
AcDbLine
 10
172.2437714112
 20
660.078197896
 30
0.0
 11
172.2437714112
 21
666.6349174375
 31
0.0
  0
LINE
  5
2E0
330
1F
100
AcDbEntity
  8
0
  6
Continuous
 62
     7
370
    25
100
AcDbLine
 10
186.8659977686
 20
659.8853470678
 30
0.0
 11
189.6414358985
 21
657.1099163885
 31
0.0
  0
LINE
  5
2E1
330
1F
100
AcDbEntity
  8
0
  6
Continuous
 62
     7
370
    25
100
AcDbLine
 10
190.3732021224
 20
667.597383439
 30
0.0
 11
188.0057801378
 21
667.597383439
 31
0.0
  0
LINE
  5
2E2
330
1F
100
AcDbEntity
  8
0
  6
Continuous
 62
     7
370
    25
100
AcDbLine
 10
189.6414358985
 20
657.1099163885
 30
0.0
 11
190.3732021224
 21
657.8416826124
 31
0.0
  0
LINE
  5
2E3
330
1F
100
AcDbEntity
  8
0
  6
Continuous
 62
     7
370
    25
100
AcDbLine
 10
157.7262108099
 20
660.6698932047
 30
0.0
 11
157.7262108099
 21
667.597383439
 31
0.0
  0
LINE
  5
2E4
330
1F
100
AcDbEntity
  8
0
  6
Continuous
 62
     7
370
    25
100
AcDbLine
 10
172.2437714112
 20
666.6349174375
 30
0.0
 11
176.8841569197
 21
666.6349174375
 31
0.0
  0
LINE
  5
2E5
330
1F
100
AcDbEntity
  8
0
  6
Continuous
 62
     7
370
    25
100
AcDbLine
 10
176.8841569197
 20
666.6349174375
 30
0.0
 11
176.8841569197
 21
665.6579973097
 31
0.0
  0
SPLINE
  5
2E6
330
1F
100
AcDbEntity
  8
0
  6
Continuous
 62
     7
370
    25
100
AcDbSpline
210
0.0
220
0.0
230
1.0
 70
     8
 71
     3
 72
     9
 73
     5
 74
     0
 42
0.000000001
 43
0.00000001
 40
0.0
 40
0.0
 40
0.0
 40
0.0
 40
0.6039606543461858
 40
1.0
 40
1.0
 40
1.0
 40
1.0
 10
189.0622203123316
 20
280.6214617485825
 30
0.0
 10
188.886113463341
 20
280.8272410329626
 30
0.0
 10
188.594526838081
 20
281.1679574072814
 30
0.0
 10
188.1792634366368
 20
281.4845372868598
 30
0.0
 10
188.0148027908549
 20
281.6099153752152
 30
0.0
  0
SPLINE
  5
2E7
330
1F
100
AcDbEntity
  8
0
  6
Continuous
 62
     7
370
    25
100
AcDbSpline
210
0.0
220
0.0
230
1.0
 70
     8
 71
     3
 72
     9
 73
     5
 74
     0
 42
0.000000001
 43
0.00000001
 40
0.0
 40
0.0
 40
0.0
 40
0.0
 40
0.5609509507360847
 40
1.0
 40
1.0
 40
1.0
 40
1.0
 10
157.7324990999445
 20
281.6099153752152
 30
0.0
 10
157.4880409438722
 20
281.4250420817991
 30
0.0
 10
157.0522485528415
 20
281.0954708542729
 30
0.0
 10
156.7642728885298
 20
280.7383344749589
 30
0.0
 10
156.6378374469027
 20
280.5815340871636
 30
0.0
  0
LWPOLYLINE
  5
2E8
330
1F
100
AcDbEntity
  8
0
  6
Continuous
 62
     7
370
    25
100
AcDbPolyline
 90
       10
 70
   128
 43
0.0
 10
162.1649463546
 20
272.1057983036
 10
162.2229491245
 20
272.2290383572
 10
162.3881284964
 20
272.3335103984
 10
162.6353387606
 20
272.4033223386
 10
162.926939584
 20
272.4278347487
 10
163.218547858
 20
272.4033223386
 10
163.4657581222
 20
272.3335103984
 10
163.630937494
 20
272.2290383572
 10
163.688940264
 20
272.1057983036
 10
163.688940264
 20
272.1057983036
  0
LWPOLYLINE
  5
2E9
330
1F
100
AcDbEntity
  8
0
  6
Continuous
 62
     7
370
    25
100
AcDbPolyline
 90
       10
 70
   128
 43
0.0
 10
164.3747438562
 20
272.1057983036
 10
164.4327466261
 20
272.2290383572
 10
164.5979259979
 20
272.3335103984
 10
164.8451362622
 20
272.4033223386
 10
165.1367445361
 20
272.4278347487
 10
165.4283453595
 20
272.4033223386
 10
165.6755556237
 20
272.3335103984
 10
165.8407424462
 20
272.2290383572
 10
165.8987452161
 20
272.1057983036
 10
165.8987452161
 20
272.1057983036
  0
LWPOLYLINE
  5
2EA
330
1F
100
AcDbEntity
  8
0
  6
Continuous
 62
     7
370
    25
100
AcDbPolyline
 90
       10
 70
   128
 43
0.0
 10
163.2647936117
 20
271.300710916
 10
163.3227963817
 20
271.4239509697
 10
163.4879832041
 20
271.5284230108
 10
163.7351934683
 20
271.598234951
 10
164.0267942917
 20
271.6227473612
 10
164.3184025657
 20
271.598234951
 10
164.5656128299
 20
271.5284230108
 10
164.7307922017
 20
271.4239509697
 10
164.7887949717
 20
271.300710916
 10
164.7887949717
 20
271.300710916
  0
LWPOLYLINE
  5
2EB
330
1F
100
AcDbEntity
  8
0
  6
Continuous
 62
     7
370
    25
100
AcDbPolyline
 90
       10
 70
   128
 43
0.0
 10
164.2574270141
 20
270.4097481365
 10
164.315429784
 20
270.5329807396
 10
164.4806091559
 20
270.6374602313
 10
164.7278194201
 20
270.7072647209
 10
165.0194276941
 20
270.7317845816
 10
165.3110285175
 20
270.7072647209
 10
165.5582387817
 20
270.6374602313
 10
165.7234181535
 20
270.5329807396
 10
165.781428374
 20
270.4097481365
 10
165.781428374
 20
270.4097481365
  0
LWPOLYLINE
  5
2EC
330
1F
100
AcDbEntity
  8
0
  6
Continuous
 62
     7
370
    25
100
AcDbPolyline
 90
       10
 70
   128
 43
0.0
 10
165.4745985639
 20
271.300710916
 10
165.5326013338
 20
271.4239509697
 10
165.6977807057
 20
271.5284230108
 10
165.9449909699
 20
271.598234951
 10
166.2365917933
 20
271.6227473612
 10
166.5282000673
 20
271.598234951
 10
166.7754103315
 20
271.5284230108
 10
166.9405897033
 20
271.4239509697
 10
166.9985924732
 20
271.300710916
 10
166.9985924732
 20
271.300710916
  0
LWPOLYLINE
  5
2ED
330
1F
100
AcDbEntity
  8
0
  6
Continuous
 62
     7
370
    25
100
AcDbPolyline
 90
       10
 70
   128
 43
0.0
 10
166.4672245157
 20
270.4097481365
 10
166.5252272856
 20
270.5329807396
 10
166.6904066574
 20
270.6374602313
 10
166.9376169216
 20
270.7072647209
 10
167.2292251956
 20
270.7317845816
 10
167.5208334696
 20
270.7072647209
 10
167.7680437338
 20
270.6374602313
 10
167.9332231056
 20
270.5329807396
 10
167.9912258756
 20
270.4097481365
 10
167.9912258756
 20
270.4097481365
  0
LWPOLYLINE
  5
2EE
330
1F
100
AcDbEntity
  8
0
  6
Continuous
 62
     7
370
    25
100
AcDbPolyline
 90
       10
 70
   128
 43
0.0
 10
168.6770220172
 20
270.4097481365
 10
168.7350322377
 20
270.5329807396
 10
168.9002116096
 20
270.6374602313
 10
169.1474218738
 20
270.7072647209
 10
169.4390226972
 20
270.7317845816
 10
169.7306309712
 20
270.7072647209
 10
169.9778412354
 20
270.6374602313
 10
170.1430206072
 20
270.5329807396
 10
170.2010233772
 20
270.4097481365
 10
170.2010233772
 20
270.4097481365
  0
LWPOLYLINE
  5
2EF
330
1F
100
AcDbEntity
  8
0
  6
Continuous
 62
     7
370
    25
100
AcDbPolyline
 90
       10
 70
   128
 43
0.0
 10
170.8868269694
 20
270.4097481365
 10
170.9448297393
 20
270.5329807396
 10
171.1100091111
 20
270.6374602313
 10
171.3572193753
 20
270.7072647209
 10
171.6488276493
 20
270.7317845816
 10
171.9404284727
 20
270.7072647209
 10
172.1876387369
 20
270.6374602313
 10
172.3528181088
 20
270.5329807396
 10
172.4108283293
 20
270.4097481365
 10
172.4108283293
 20
270.4097481365
  0
LWPOLYLINE
  5
2F0
330
1F
100
AcDbEntity
  8
0
  6
Continuous
 62
     7
370
    25
100
AcDbPolyline
 90
       10
 70
   128
 43
0.0
 10
173.3211626184
 20
270.4097481365
 10
173.3791653883
 20
270.5329807396
 10
173.5443522107
 20
270.6374602313
 10
173.7915624749
 20
270.7072647209
 10
174.0831632983
 20
270.7317845816
 10
174.3747715723
 20
270.7072647209
 10
174.6219818365
 20
270.6374602313
 10
174.7871612084
 20
270.5329807396
 10
174.8451639783
 20
270.4097481365
 10
174.8451639783
 20
270.4097481365
  0
LWPOLYLINE
  5
2F1
330
1F
100
AcDbEntity
  8
0
  6
Continuous
 62
     7
370
    25
100
AcDbPolyline
 90
       10
 70
   128
 43
0.0
 10
175.5309675705
 20
270.4097481365
 10
175.5889703405
 20
270.5329807396
 10
175.7541497123
 20
270.6374602313
 10
176.0013599765
 20
270.7072647209
 10
176.2929682505
 20
270.7317845816
 10
176.5845690739
 20
270.7072647209
 10
176.8317793381
 20
270.6374602313
 10
176.9969587099
 20
270.5329807396
 10
177.0549614799
 20
270.4097481365
 10
177.0549614799
 20
270.4097481365
  0
LWPOLYLINE
  5
2F2
330
1F
100
AcDbEntity
  8
0
  6
Continuous
 62
     7
370
    25
100
AcDbPolyline
 90
       10
 70
   128
 43
0.0
 10
177.7407650721
 20
270.4097481365
 10
177.798767842
 20
270.5329807396
 10
177.9639472139
 20
270.6374602313
 10
178.2111574781
 20
270.7072647209
 10
178.5027657521
 20
270.7317845816
 10
178.7943665755
 20
270.7072647209
 10
179.0415768397
 20
270.6374602313
 10
179.2067636621
 20
270.5329807396
 10
179.264766432
 20
270.4097481365
 10
179.264766432
 20
270.4097481365
  0
LWPOLYLINE
  5
2F3
330
1F
100
AcDbEntity
  8
0
  6
Continuous
 62
     7
370
    25
100
AcDbPolyline
 90
       10
 70
   128
 43
0.0
 10
179.9505625736
 20
270.4097481365
 10
180.0085653436
 20
270.5329807396
 10
180.173752166
 20
270.6374602313
 10
180.4209624302
 20
270.7072647209
 10
180.7125632536
 20
270.7317845816
 10
181.0041715276
 20
270.7072647209
 10
181.2513817918
 20
270.6374602313
 10
181.4165611636
 20
270.5329807396
 10
181.4745639336
 20
270.4097481365
 10
181.4745639336
 20
270.4097481365
  0
LWPOLYLINE
  5
2F4
330
1F
100
AcDbEntity
  8
0
  6
Continuous
 62
     7
370
    25
100
AcDbPolyline
 90
       10
 70
   128
 43
0.0
 10
178.7333984744
 20
271.300710916
 10
178.7914012444
 20
271.4239509697
 10
178.9565806162
 20
271.5284230108
 10
179.2037908804
 20
271.598234951
 10
179.4953917038
 20
271.6227473612
 10
179.7869999778
 20
271.598234951
 10
180.034210242
 20
271.5284230108
 10
180.1993896138
 20
271.4239509697
 10
180.2573923838
 20
271.300710916
 10
180.2573923838
 20
271.300710916
  0
LWPOLYLINE
  5
2F5
330
1F
100
AcDbEntity
  8
0
  6
Continuous
 62
     7
370
    25
100
AcDbPolyline
 90
       10
 70
   128
 43
0.0
 10
180.943195976
 20
271.300710916
 10
181.0011987459
 20
271.4239509697
 10
181.1663781178
 20
271.5284230108
 10
181.413588382
 20
271.598234951
 10
181.705196656
 20
271.6227473612
 10
181.9967974794
 20
271.598234951
 10
182.2440077436
 20
271.5284230108
 10
182.409194566
 20
271.4239509697
 10
182.4671973359
 20
271.300710916
 10
182.4671973359
 20
271.300710916
  0
LWPOLYLINE
  5
2F6
330
1F
100
AcDbEntity
  8
0
  6
Continuous
 62
     7
370
    25
100
AcDbPolyline
 90
       10
 70
   128
 43
0.0
 10
182.0430506837
 20
272.1057983036
 10
182.1010534537
 20
272.2290383572
 10
182.2662328255
 20
272.3335103984
 10
182.5134430897
 20
272.4033223386
 10
182.8050439131
 20
272.4278347487
 10
183.0966521871
 20
272.4033223386
 10
183.3438624513
 20
272.3335103984
 10
183.5090418231
 20
272.2290383572
 10
183.5670445931
 20
272.1057983036
 10
183.5670445931
 20
272.1057983036
  0
LWPOLYLINE
  5
2F7
330
1F
100
AcDbEntity
  8
0
  6
Continuous
 62
     7
370
    25
100
AcDbPolyline
 90
       10
 70
   128
 43
0.0
 10
179.8332457316
 20
272.1057983036
 10
179.8912485015
 20
272.2290383572
 10
180.0564353239
 20
272.3335103984
 10
180.3036455881
 20
272.4033223386
 10
180.5952464115
 20
272.4278347487
 10
180.8868546855
 20
272.4033223386
 10
181.1340649497
 20
272.3335103984
 10
181.2992443216
 20
272.2290383572
 10
181.3572470915
 20
272.1057983036
 10
181.3572470915
 20
272.1057983036
  0
LWPOLYLINE
  5
2F8
330
1F
100
AcDbEntity
  8
0
  6
Continuous
 62
     7
370
    25
100
AcDbPolyline
 90
       10
 70
   128
 43
0.0
 10
177.62344823
 20
272.1057983036
 10
177.6814509999
 20
272.2290383572
 10
177.8466303718
 20
272.3335103984
 10
178.093840636
 20
272.4033223386
 10
178.38544891
 20
272.4278347487
 10
178.6770497334
 20
272.4033223386
 10
178.9242599976
 20
272.3335103984
 10
179.08944682
 20
272.2290383572
 10
179.1474495899
 20
272.1057983036
 10
179.1474495899
 20
272.1057983036
  0
LWPOLYLINE
  5
2F9
330
1F
100
AcDbEntity
  8
0
  6
Continuous
 62
     7
370
    25
100
AcDbPolyline
 90
       10
 70
   128
 43
0.0
 10
175.4136507284
 20
272.1057983036
 10
175.4716534984
 20
272.2290383572
 10
175.6368328702
 20
272.3335103984
 10
175.8840431344
 20
272.4033223386
 10
176.1756439578
 20
272.4278347487
 10
176.4672522318
 20
272.4033223386
 10
176.714462496
 20
272.3335103984
 10
176.8796418679
 20
272.2290383572
 10
176.9376446378
 20
272.1057983036
 10
176.9376446378
 20
272.1057983036
  0
LWPOLYLINE
  5
2FA
330
1F
100
AcDbEntity
  8
0
  6
Continuous
 62
     7
370
    25
100
AcDbPolyline
 90
       10
 70
   128
 43
0.0
 10
173.2038457763
 20
272.1057983036
 10
173.2618485462
 20
272.2290383572
 10
173.4270353687
 20
272.3335103984
 10
173.6742456329
 20
272.4033223386
 10
173.9658464563
 20
272.4278347487
 10
174.2574547302
 20
272.4033223386
 10
174.5046649945
 20
272.3335103984
 10
174.6698443663
 20
272.2290383572
 10
174.7278471362
 20
272.1057983036
 10
174.7278471362
 20
272.1057983036
  0
LWPOLYLINE
  5
2FB
330
1F
100
AcDbEntity
  8
0
  6
Continuous
 62
     7
370
    25
100
AcDbPolyline
 90
       10
 70
   128
 43
0.0
 10
171.0041438114
 20
272.1057983036
 10
171.0621465814
 20
272.2290383572
 10
171.2273259532
 20
272.3335103984
 10
171.4745362174
 20
272.4033223386
 10
171.7661444914
 20
272.4278347487
 10
172.0577453148
 20
272.4033223386
 10
172.304955579
 20
272.3335103984
 10
172.4701424014
 20
272.2290383572
 10
172.5281451714
 20
272.1057983036
 10
172.5281451714
 20
272.1057983036
  0
LWPOLYLINE
  5
2FC
330
1F
100
AcDbEntity
  8
0
  6
Continuous
 62
     7
370
    25
100
AcDbPolyline
 90
       10
 70
   128
 43
0.0
 10
168.7943463099
 20
272.1057983036
 10
168.8523490798
 20
272.2290383572
 10
169.0175284517
 20
272.3335103984
 10
169.2647387159
 20
272.4033223386
 10
169.5563395393
 20
272.4278347487
 10
169.8479478132
 20
272.4033223386
 10
170.0951580775
 20
272.3335103984
 10
170.2603374493
 20
272.2290383572
 10
170.3183402192
 20
272.1057983036
 10
170.3183402192
 20
272.1057983036
  0
LWPOLYLINE
  5
2FD
330
1F
100
AcDbEntity
  8
0
  6
Continuous
 62
     7
370
    25
100
AcDbPolyline
 90
       10
 70
   128
 43
0.0
 10
166.5845413577
 20
272.1057983036
 10
166.6425441277
 20
272.2290383572
 10
166.8077309501
 20
272.3335103984
 10
167.0549412143
 20
272.4033223386
 10
167.3465420377
 20
272.4278347487
 10
167.6381503117
 20
272.4033223386
 10
167.8853605759
 20
272.3335103984
 10
168.0505399477
 20
272.2290383572
 10
168.1085427177
 20
272.1057983036
 10
168.1085427177
 20
272.1057983036
  0
LWPOLYLINE
  5
2FE
330
1F
100
AcDbEntity
  8
0
  6
Continuous
 62
     7
370
    25
100
AcDbPolyline
 90
       10
 70
   128
 43
0.0
 10
167.6843960654
 20
271.300710916
 10
167.7423988354
 20
271.4239509697
 10
167.9075782072
 20
271.5284230108
 10
168.1547884714
 20
271.598234951
 10
168.4463967454
 20
271.6227473612
 10
168.7379975688
 20
271.598234951
 10
168.985207833
 20
271.5284230108
 10
169.1503946554
 20
271.4239509697
 10
169.2083974254
 20
271.300710916
 10
169.2083974254
 20
271.300710916
  0
LWPOLYLINE
  5
2FF
330
1F
100
AcDbEntity
  8
0
  6
Continuous
 62
     7
370
    25
100
AcDbPolyline
 90
       10
 70
   128
 43
0.0
 10
169.894193567
 20
271.300710916
 10
169.952196337
 20
271.4239509697
 10
170.1173831594
 20
271.5284230108
 10
170.3645934236
 20
271.598234951
 10
170.656194247
 20
271.6227473612
 10
170.947802521
 20
271.598234951
 10
171.1950127852
 20
271.5284230108
 10
171.360192157
 20
271.4239509697
 10
171.418194927
 20
271.300710916
 10
171.418194927
 20
271.300710916
  0
LWPOLYLINE
  5
300
330
1F
100
AcDbEntity
  8
0
  6
Continuous
 62
     7
370
    25
100
AcDbPolyline
 90
       10
 70
   128
 43
0.0
 10
172.1039985192
 20
271.300710916
 10
172.1620012891
 20
271.4239509697
 10
172.3271806609
 20
271.5284230108
 10
172.5743909251
 20
271.598234951
 10
172.8659917485
 20
271.6227473612
 10
173.1576000225
 20
271.598234951
 10
173.4048102867
 20
271.5284230108
 10
173.5699896586
 20
271.4239509697
 10
173.6279924285
 20
271.300710916
 10
173.6279924285
 20
271.300710916
  0
LWPOLYLINE
  5
301
330
1F
100
AcDbEntity
  8
0
  6
Continuous
 62
     7
370
    25
100
AcDbPolyline
 90
       10
 70
   128
 43
0.0
 10
174.3137960207
 20
271.300710916
 10
174.3717987907
 20
271.4239509697
 10
174.5369781625
 20
271.5284230108
 10
174.7841884267
 20
271.598234951
 10
175.0757967007
 20
271.6227473612
 10
175.3673975241
 20
271.598234951
 10
175.6146077883
 20
271.5284230108
 10
175.7797946107
 20
271.4239509697
 10
175.8377973807
 20
271.300710916
 10
175.8377973807
 20
271.300710916
  0
LWPOLYLINE
  5
302
330
1F
100
AcDbEntity
  8
0
  6
Continuous
 62
     7
370
    25
100
AcDbPolyline
 90
       10
 70
   128
 43
0.0
 10
176.5235935223
 20
271.300710916
 10
176.5815962922
 20
271.4239509697
 10
176.7467831146
 20
271.5284230108
 10
176.9939933789
 20
271.598234951
 10
177.2855942023
 20
271.6227473612
 10
177.5772024762
 20
271.598234951
 10
177.8244127404
 20
271.5284230108
 10
177.9895921123
 20
271.4239509697
 10
178.0475948822
 20
271.300710916
 10
178.0475948822
 20
271.300710916
  0
LWPOLYLINE
  5
303
330
1F
100
AcDbEntity
  8
0
  6
Continuous
 62
     7
370
    25
100
AcDbPolyline
 90
        8
 70
   128
 43
0.0
 10
188.1539423835
 20
274.7321801181
 10
189.290431596
 20
275.7279055114
 10
190.0662754547
 20
276.7836751337
 10
190.4644344818
 20
277.8763027782
 10
190.4761616957
 20
278.981805026
 10
190.1012112272
 20
280.075900435
 10
189.3478085172
 20
281.1345683331
 10
188.8710458648
 20
281.6099153752
  0
ARC
  5
304
330
1F
100
AcDbEntity
  8
0
  6
Continuous
 62
     7
370
    25
100
AcDbCircle
 10
159.1873109959
 20
278.4866488362
 30
0.0
 40
3.894454035499717
100
AcDbArc
 50
126.6805932691
 51
225.9299695707
  0
ARC
  5
305
330
1F
100
AcDbEntity
  8
0
  6
Continuous
 62
     7
370
    25
100
AcDbCircle
 10
186.9439204224
 20
279.7822538835
 30
0.0
 40
3.575601571918698
100
AcDbArc
 50
0.9836417564
 51
30.7403258655
  0
ARC
  5
306
330
1F
100
AcDbEntity
  8
0
  6
Continuous
 62
     7
370
    25
100
AcDbCircle
 10
158.7880705252
 20
279.7822538835
 30
0.0
 40
3.575601571918669
100
AcDbArc
 50
149.2596741345
 51
179.0163582436
  0
LWPOLYLINE
  5
307
330
1F
100
AcDbEntity
  8
0
  6
Continuous
 62
     7
370
    25
100
AcDbPolyline
 90
       17
 70
   128
 43
0.0
 10
162.1649463546
 20
271.8755977149
 10
162.2229491245
 20
271.998830318
 10
162.3881284964
 20
272.1033098097
 10
162.6353387606
 20
272.1731142993
 10
162.926939584
 20
272.19763416
 10
163.218547858
 20
272.1731142993
 10
163.4657581222
 20
272.1033098097
 10
163.630937494
 20
271.998830318
 10
163.688940264
 20
271.8755977149
 10
163.630937494
 20
271.7523576612
 10
163.4657581222
 20
271.6478856201
 10
163.218547858
 20
271.5780736799
 10
162.926939584
 20
271.5535612697
 10
162.6353387606
 20
271.5780736799
 10
162.3881284964
 20
271.6478856201
 10
162.2229491245
 20
271.7523576612
 10
162.1649463546
 20
271.8755977149
  0
LWPOLYLINE
  5
308
330
1F
100
AcDbEntity
  8
0
  6
Continuous
 62
     7
370
    25
100
AcDbPolyline
 90
       17
 70
   128
 43
0.0
 10
177.62344823
 20
271.8755977149
 10
177.6814509999
 20
271.998830318
 10
177.8466303718
 20
272.1033098097
 10
178.093840636
 20
272.1731142993
 10
178.38544891
 20
272.19763416
 10
178.6770497334
 20
272.1731142993
 10
178.9242599976
 20
272.1033098097
 10
179.08944682
 20
271.998830318
 10
179.1474495899
 20
271.8755977149
 10
179.08944682
 20
271.7523576612
 10
178.9242599976
 20
271.6478856201
 10
178.6770497334
 20
271.5780736799
 10
178.38544891
 20
271.5535612697
 10
178.093840636
 20
271.5780736799
 10
177.8466303718
 20
271.6478856201
 10
177.6814509999
 20
271.7523576612
 10
177.62344823
 20
271.8755977149
  0
LWPOLYLINE
  5
309
330
1F
100
AcDbEntity
  8
0
  6
Continuous
 62
     7
370
    25
100
AcDbPolyline
 90
       17
 70
   128
 43
0.0
 10
179.8332457316
 20
271.8755977149
 10
179.8912485015
 20
271.998830318
 10
180.0564353239
 20
272.1033098097
 10
180.3036455881
 20
272.1731142993
 10
180.5952464115
 20
272.19763416
 10
180.8868546855
 20
272.1731142993
 10
181.1340649497
 20
272.1033098097
 10
181.2992443216
 20
271.998830318
 10
181.3572470915
 20
271.8755977149
 10
181.2992443216
 20
271.7523576612
 10
181.1340649497
 20
271.6478856201
 10
180.8868546855
 20
271.5780736799
 10
180.5952464115
 20
271.5535612697
 10
180.3036455881
 20
271.5780736799
 10
180.0564353239
 20
271.6478856201
 10
179.8912485015
 20
271.7523576612
 10
179.8332457316
 20
271.8755977149
  0
LWPOLYLINE
  5
30A
330
1F
100
AcDbEntity
  8
0
  6
Continuous
 62
     7
370
    25
100
AcDbPolyline
 90
       17
 70
   128
 43
0.0
 10
164.3747438562
 20
271.8755977149
 10
164.4327466261
 20
271.998830318
 10
164.5979259979
 20
272.1033098097
 10
164.8451362622
 20
272.1731142993
 10
165.1367445361
 20
272.19763416
 10
165.4283453595
 20
272.1731142993
 10
165.6755556237
 20
272.1033098097
 10
165.8407424462
 20
271.998830318
 10
165.8987452161
 20
271.8755977149
 10
165.8407424462
 20
271.7523576612
 10
165.6755556237
 20
271.6478856201
 10
165.4283453595
 20
271.5780736799
 10
165.1367445361
 20
271.5535612697
 10
164.8451362622
 20
271.5780736799
 10
164.5979259979
 20
271.6478856201
 10
164.4327466261
 20
271.7523576612
 10
164.3747438562
 20
271.8755977149
  0
LWPOLYLINE
  5
30B
330
1F
100
AcDbEntity
  8
0
  6
Continuous
 62
     7
370
    25
100
AcDbPolyline
 90
       17
 70
   128
 43
0.0
 10
166.5845413577
 20
271.8755977149
 10
166.6425441277
 20
271.998830318
 10
166.8077309501
 20
272.1033098097
 10
167.0549412143
 20
272.1731142993
 10
167.3465420377
 20
272.19763416
 10
167.6381503117
 20
272.1731142993
 10
167.8853605759
 20
272.1033098097
 10
168.0505399477
 20
271.998830318
 10
168.1085427177
 20
271.8755977149
 10
168.0505399477
 20
271.7523576612
 10
167.8853605759
 20
271.6478856201
 10
167.6381503117
 20
271.5780736799
 10
167.3465420377
 20
271.5535612697
 10
167.0549412143
 20
271.5780736799
 10
166.8077309501
 20
271.6478856201
 10
166.6425441277
 20
271.7523576612
 10
166.5845413577
 20
271.8755977149
  0
LWPOLYLINE
  5
30C
330
1F
100
AcDbEntity
  8
0
  6
Continuous
 62
     7
370
    25
100
AcDbPolyline
 90
       17
 70
   128
 43
0.0
 10
182.0430506837
 20
271.8755977149
 10
182.1010534537
 20
271.998830318
 10
182.2662328255
 20
272.1033098097
 10
182.5134430897
 20
272.1731142993
 10
182.8050439131
 20
272.19763416
 10
183.0966521871
 20
272.1731142993
 10
183.3438624513
 20
272.1033098097
 10
183.5090418231
 20
271.998830318
 10
183.5670445931
 20
271.8755977149
 10
183.5090418231
 20
271.7523576612
 10
183.3438624513
 20
271.6478856201
 10
183.0966521871
 20
271.5780736799
 10
182.8050439131
 20
271.5535612697
 10
182.5134430897
 20
271.5780736799
 10
182.2662328255
 20
271.6478856201
 10
182.1010534537
 20
271.7523576612
 10
182.0430506837
 20
271.8755977149
  0
LWPOLYLINE
  5
30D
330
1F
100
AcDbEntity
  8
0
  6
Continuous
 62
     7
370
    25
100
AcDbPolyline
 90
       17
 70
   128
 43
0.0
 10
175.4136507284
 20
271.8755977149
 10
175.4716534984
 20
271.998830318
 10
175.6368328702
 20
272.1033098097
 10
175.8840431344
 20
272.1731142993
 10
176.1756439578
 20
272.19763416
 10
176.4672522318
 20
272.1731142993
 10
176.714462496
 20
272.1033098097
 10
176.8796418679
 20
271.998830318
 10
176.9376446378
 20
271.8755977149
 10
176.8796418679
 20
271.7523576612
 10
176.714462496
 20
271.6478856201
 10
176.4672522318
 20
271.5780736799
 10
176.1756439578
 20
271.5535612697
 10
175.8840431344
 20
271.5780736799
 10
175.6368328702
 20
271.6478856201
 10
175.4716534984
 20
271.7523576612
 10
175.4136507284
 20
271.8755977149
  0
LWPOLYLINE
  5
30E
330
1F
100
AcDbEntity
  8
0
  6
Continuous
 62
     7
370
    25
100
AcDbPolyline
 90
       17
 70
   128
 43
0.0
 10
171.0041438114
 20
271.8755977149
 10
171.0621465814
 20
271.998830318
 10
171.2273259532
 20
272.1033098097
 10
171.4745362174
 20
272.1731142993
 10
171.7661444914
 20
272.19763416
 10
172.0577453148
 20
272.1731142993
 10
172.304955579
 20
272.1033098097
 10
172.4701424014
 20
271.998830318
 10
172.5281451714
 20
271.8755977149
 10
172.4701424014
 20
271.7523576612
 10
172.304955579
 20
271.6478856201
 10
172.0577453148
 20
271.5780736799
 10
171.7661444914
 20
271.5535612697
 10
171.4745362174
 20
271.5780736799
 10
171.2273259532
 20
271.6478856201
 10
171.0621465814
 20
271.7523576612
 10
171.0041438114
 20
271.8755977149
  0
LWPOLYLINE
  5
30F
330
1F
100
AcDbEntity
  8
0
  6
Continuous
 62
     7
370
    25
100
AcDbPolyline
 90
       17
 70
   128
 43
0.0
 10
173.2038457763
 20
271.8755977149
 10
173.2618485462
 20
271.998830318
 10
173.4270353687
 20
272.1033098097
 10
173.6742456329
 20
272.1731142993
 10
173.9658464563
 20
272.19763416
 10
174.2574547302
 20
272.1731142993
 10
174.5046649945
 20
272.1033098097
 10
174.6698443663
 20
271.998830318
 10
174.7278471362
 20
271.8755977149
 10
174.6698443663
 20
271.7523576612
 10
174.5046649945
 20
271.6478856201
 10
174.2574547302
 20
271.5780736799
 10
173.9658464563
 20
271.5535612697
 10
173.6742456329
 20
271.5780736799
 10
173.4270353687
 20
271.6478856201
 10
173.2618485462
 20
271.7523576612
 10
173.2038457763
 20
271.8755977149
  0
LWPOLYLINE
  5
310
330
1F
100
AcDbEntity
  8
0
  6
Continuous
 62
     7
370
    25
100
AcDbPolyline
 90
       17
 70
   128
 43
0.0
 10
168.7943463099
 20
271.8755977149
 10
168.8523490798
 20
271.998830318
 10
169.0175284517
 20
272.1033098097
 10
169.2647387159
 20
272.1731142993
 10
169.5563395393
 20
272.19763416
 10
169.8479478132
 20
272.1731142993
 10
170.0951580775
 20
272.1033098097
 10
170.2603374493
 20
271.998830318
 10
170.3183402192
 20
271.8755977149
 10
170.2603374493
 20
271.7523576612
 10
170.0951580775
 20
271.6478856201
 10
169.8479478132
 20
271.5780736799
 10
169.5563395393
 20
271.5535612697
 10
169.2647387159
 20
271.5780736799
 10
169.0175284517
 20
271.6478856201
 10
168.8523490798
 20
271.7523576612
 10
168.7943463099
 20
271.8755977149
  0
LWPOLYLINE
  5
311
330
1F
100
AcDbEntity
  8
0
  6
Continuous
 62
     7
370
    25
100
AcDbPolyline
 90
       17
 70
   128
 43
0.0
 10
176.5235935223
 20
271.0705103273
 10
176.5815962922
 20
271.1937429304
 10
176.7467831146
 20
271.2982224221
 10
176.9939933789
 20
271.3680269117
 10
177.2855942023
 20
271.3925467725
 10
177.5772024762
 20
271.3680269117
 10
177.8244127404
 20
271.2982224221
 10
177.9895921123
 20
271.1937429304
 10
178.0475948822
 20
271.0705103273
 10
177.9895921123
 20
270.9472702737
 10
177.8244127404
 20
270.8427982325
 10
177.5772024762
 20
270.7729862923
 10
177.2855942023
 20
270.7484738822
 10
176.9939933789
 20
270.7729862923
 10
176.7467831146
 20
270.8427982325
 10
176.5815962922
 20
270.9472702737
 10
176.5235935223
 20
271.0705103273
  0
LWPOLYLINE
  5
312
330
1F
100
AcDbEntity
  8
0
  6
Continuous
 62
     7
370
    25
100
AcDbPolyline
 90
       17
 70
   128
 43
0.0
 10
180.943195976
 20
271.0705103273
 10
181.0011987459
 20
271.1937429304
 10
181.1663781178
 20
271.2982224221
 10
181.413588382
 20
271.3680269117
 10
181.705196656
 20
271.3925467725
 10
181.9967974794
 20
271.3680269117
 10
182.2440077436
 20
271.2982224221
 10
182.409194566
 20
271.1937429304
 10
182.4671973359
 20
271.0705103273
 10
182.409194566
 20
270.9472702737
 10
182.2440077436
 20
270.8427982325
 10
181.9967974794
 20
270.7729862923
 10
181.705196656
 20
270.7484738822
 10
181.413588382
 20
270.7729862923
 10
181.1663781178
 20
270.8427982325
 10
181.0011987459
 20
270.9472702737
 10
180.943195976
 20
271.0705103273
  0
LWPOLYLINE
  5
313
330
1F
100
AcDbEntity
  8
0
  6
Continuous
 62
     7
370
    25
100
AcDbPolyline
 90
       17
 70
   128
 43
0.0
 10
178.7333984744
 20
271.0705103273
 10
178.7914012444
 20
271.1937429304
 10
178.9565806162
 20
271.2982224221
 10
179.2037908804
 20
271.3680269117
 10
179.4953917038
 20
271.3925467725
 10
179.7869999778
 20
271.3680269117
 10
180.034210242
 20
271.2982224221
 10
180.1993896138
 20
271.1937429304
 10
180.2573923838
 20
271.0705103273
 10
180.1993896138
 20
270.9472702737
 10
180.034210242
 20
270.8427982325
 10
179.7869999778
 20
270.7729862923
 10
179.4953917038
 20
270.7484738822
 10
179.2037908804
 20
270.7729862923
 10
178.9565806162
 20
270.8427982325
 10
178.7914012444
 20
270.9472702737
 10
178.7333984744
 20
271.0705103273
  0
LWPOLYLINE
  5
314
330
1F
100
AcDbEntity
  8
0
  6
Continuous
 62
     7
370
    25
100
AcDbPolyline
 90
       17
 70
   128
 43
0.0
 10
174.3137960207
 20
271.0705103273
 10
174.3717987907
 20
271.1937429304
 10
174.5369781625
 20
271.2982224221
 10
174.7841884267
 20
271.3680269117
 10
175.0757967007
 20
271.3925467725
 10
175.3673975241
 20
271.3680269117
 10
175.6146077883
 20
271.2982224221
 10
175.7797946107
 20
271.1937429304
 10
175.8377973807
 20
271.0705103273
 10
175.7797946107
 20
270.9472702737
 10
175.6146077883
 20
270.8427982325
 10
175.3673975241
 20
270.7729862923
 10
175.0757967007
 20
270.7484738822
 10
174.7841884267
 20
270.7729862923
 10
174.5369781625
 20
270.8427982325
 10
174.3717987907
 20
270.9472702737
 10
174.3137960207
 20
271.0705103273
  0
LWPOLYLINE
  5
315
330
1F
100
AcDbEntity
  8
0
  6
Continuous
 62
     7
370
    25
100
AcDbPolyline
 90
       17
 70
   128
 43
0.0
 10
172.1039985192
 20
271.0705103273
 10
172.1620012891
 20
271.1937429304
 10
172.3271806609
 20
271.2982224221
 10
172.5743909251
 20
271.3680269117
 10
172.8659917485
 20
271.3925467725
 10
173.1576000225
 20
271.3680269117
 10
173.4048102867
 20
271.2982224221
 10
173.5699896586
 20
271.1937429304
 10
173.6279924285
 20
271.0705103273
 10
173.5699896586
 20
270.9472702737
 10
173.4048102867
 20
270.8427982325
 10
173.1576000225
 20
270.7729862923
 10
172.8659917485
 20
270.7484738822
 10
172.5743909251
 20
270.7729862923
 10
172.3271806609
 20
270.8427982325
 10
172.1620012891
 20
270.9472702737
 10
172.1039985192
 20
271.0705103273
  0
LWPOLYLINE
  5
316
330
1F
100
AcDbEntity
  8
0
  6
Continuous
 62
     7
370
    25
100
AcDbPolyline
 90
       17
 70
   128
 43
0.0
 10
169.894193567
 20
271.0705103273
 10
169.952196337
 20
271.1937429304
 10
170.1173831594
 20
271.2982224221
 10
170.3645934236
 20
271.3680269117
 10
170.656194247
 20
271.3925467725
 10
170.947802521
 20
271.3680269117
 10
171.1950127852
 20
271.2982224221
 10
171.360192157
 20
271.1937429304
 10
171.418194927
 20
271.0705103273
 10
171.360192157
 20
270.9472702737
 10
171.1950127852
 20
270.8427982325
 10
170.947802521
 20
270.7729862923
 10
170.656194247
 20
270.7484738822
 10
170.3645934236
 20
270.7729862923
 10
170.1173831594
 20
270.8427982325
 10
169.952196337
 20
270.9472702737
 10
169.894193567
 20
271.0705103273
  0
LWPOLYLINE
  5
317
330
1F
100
AcDbEntity
  8
0
  6
Continuous
 62
     7
370
    25
100
AcDbPolyline
 90
       17
 70
   128
 43
0.0
 10
167.6843960654
 20
271.0705103273
 10
167.7423988354
 20
271.1937429304
 10
167.9075782072
 20
271.2982224221
 10
168.1547884714
 20
271.3680269117
 10
168.4463967454
 20
271.3925467725
 10
168.7379975688
 20
271.3680269117
 10
168.985207833
 20
271.2982224221
 10
169.1503946554
 20
271.1937429304
 10
169.2083974254
 20
271.0705103273
 10
169.1503946554
 20
270.9472702737
 10
168.985207833
 20
270.8427982325
 10
168.7379975688
 20
270.7729862923
 10
168.4463967454
 20
270.7484738822
 10
168.1547884714
 20
270.7729862923
 10
167.9075782072
 20
270.8427982325
 10
167.7423988354
 20
270.9472702737
 10
167.6843960654
 20
271.0705103273
  0
LWPOLYLINE
  5
318
330
1F
100
AcDbEntity
  8
0
  6
Continuous
 62
     7
370
    25
100
AcDbPolyline
 90
       17
 70
   128
 43
0.0
 10
165.4745985639
 20
271.0705103273
 10
165.5326013338
 20
271.1937429304
 10
165.6977807057
 20
271.2982224221
 10
165.9449909699
 20
271.3680269117
 10
166.2365917933
 20
271.3925467725
 10
166.5282000673
 20
271.3680269117
 10
166.7754103315
 20
271.2982224221
 10
166.9405897033
 20
271.1937429304
 10
166.9985924732
 20
271.0705103273
 10
166.9405897033
 20
270.9472702737
 10
166.7754103315
 20
270.8427982325
 10
166.5282000673
 20
270.7729862923
 10
166.2365917933
 20
270.7484738822
 10
165.9449909699
 20
270.7729862923
 10
165.6977807057
 20
270.8427982325
 10
165.5326013338
 20
270.9472702737
 10
165.4745985639
 20
271.0705103273
  0
LWPOLYLINE
  5
319
330
1F
100
AcDbEntity
  8
0
  6
Continuous
 62
     7
370
    25
100
AcDbPolyline
 90
       17
 70
   128
 43
0.0
 10
163.2647936117
 20
271.0705103273
 10
163.3227963817
 20
271.1937429304
 10
163.4879832041
 20
271.2982224221
 10
163.7351934683
 20
271.3680269117
 10
164.0267942917
 20
271.3925467725
 10
164.3184025657
 20
271.3680269117
 10
164.5656128299
 20
271.2982224221
 10
164.7307922017
 20
271.1937429304
 10
164.7887949717
 20
271.0705103273
 10
164.7307922017
 20
270.9472702737
 10
164.5656128299
 20
270.8427982325
 10
164.3184025657
 20
270.7729862923
 10
164.0267942917
 20
270.7484738822
 10
163.7351934683
 20
270.7729862923
 10
163.4879832041
 20
270.8427982325
 10
163.3227963817
 20
270.9472702737
 10
163.2647936117
 20
271.0705103273
  0
LWPOLYLINE
  5
31A
330
1F
100
AcDbEntity
  8
0
  6
Continuous
 62
     7
370
    25
100
AcDbPolyline
 90
       17
 70
   128
 43
0.0
 10
179.9505625736
 20
270.1795475478
 10
180.0085653436
 20
270.3027801509
 10
180.173752166
 20
270.4072596426
 10
180.4209624302
 20
270.4770641322
 10
180.7125632536
 20
270.5015765424
 10
181.0041715276
 20
270.4770641322
 10
181.2513817918
 20
270.4072596426
 10
181.4165611636
 20
270.3027801509
 10
181.4745639336
 20
270.1795475478
 10
181.4165611636
 20
270.0563074941
 10
181.2513817918
 20
269.9518280024
 10
181.0041715276
 20
269.8820235128
 10
180.7125632536
 20
269.8575111027
 10
180.4209624302
 20
269.8820235128
 10
180.173752166
 20
269.9518280024
 10
180.0085653436
 20
270.0563074941
 10
179.9505625736
 20
270.1795475478
  0
LWPOLYLINE
  5
31B
330
1F
100
AcDbEntity
  8
0
  6
Continuous
 62
     7
370
    25
100
AcDbPolyline
 90
       17
 70
   128
 43
0.0
 10
166.4672245157
 20
270.1795475478
 10
166.5252272856
 20
270.3027801509
 10
166.6904066574
 20
270.4072596426
 10
166.9376169216
 20
270.4770641322
 10
167.2292251956
 20
270.5015765424
 10
167.5208334696
 20
270.4770641322
 10
167.7680437338
 20
270.4072596426
 10
167.9332231056
 20
270.3027801509
 10
167.9912258756
 20
270.1795475478
 10
167.9332231056
 20
270.0563074941
 10
167.7680437338
 20
269.9518280024
 10
167.5208334696
 20
269.8820235128
 10
167.2292251956
 20
269.8575111027
 10
166.9376169216
 20
269.8820235128
 10
166.6904066574
 20
269.9518280024
 10
166.5252272856
 20
270.0563074941
 10
166.4672245157
 20
270.1795475478
  0
LWPOLYLINE
  5
31C
330
1F
100
AcDbEntity
  8
0
  6
Continuous
 62
     7
370
    25
100
AcDbPolyline
 90
       17
 70
   128
 43
0.0
 10
173.3211626184
 20
270.1795475478
 10
173.3791653883
 20
270.3027801509
 10
173.5443522107
 20
270.4072596426
 10
173.7915624749
 20
270.4770641322
 10
174.0831632983
 20
270.5015765424
 10
174.3747715723
 20
270.4770641322
 10
174.6219818365
 20
270.4072596426
 10
174.7871612084
 20
270.3027801509
 10
174.8451639783
 20
270.1795475478
 10
174.7871612084
 20
270.0563074941
 10
174.6219818365
 20
269.9518280024
 10
174.3747715723
 20
269.8820235128
 10
174.0831632983
 20
269.8575111027
 10
173.7915624749
 20
269.8820235128
 10
173.5443522107
 20
269.9518280024
 10
173.3791653883
 20
270.0563074941
 10
173.3211626184
 20
270.1795475478
  0
LWPOLYLINE
  5
31D
330
1F
100
AcDbEntity
  8
0
  6
Continuous
 62
     7
370
    25
100
AcDbPolyline
 90
       17
 70
   128
 43
0.0
 10
177.7407650721
 20
270.1795475478
 10
177.798767842
 20
270.3027801509
 10
177.9639472139
 20
270.4072596426
 10
178.2111574781
 20
270.4770641322
 10
178.5027657521
 20
270.5015765424
 10
178.7943665755
 20
270.4770641322
 10
179.0415768397
 20
270.4072596426
 10
179.2067636621
 20
270.3027801509
 10
179.264766432
 20
270.1795475478
 10
179.2067636621
 20
270.0563074941
 10
179.0415768397
 20
269.9518280024
 10
178.7943665755
 20
269.8820235128
 10
178.5027657521
 20
269.8575111027
 10
178.2111574781
 20
269.8820235128
 10
177.9639472139
 20
269.9518280024
 10
177.798767842
 20
270.0563074941
 10
177.7407650721
 20
270.1795475478
  0
LWPOLYLINE
  5
31E
330
1F
100
AcDbEntity
  8
0
  6
Continuous
 62
     7
370
    25
100
AcDbPolyline
 90
       17
 70
   128
 43
0.0
 10
170.8868269694
 20
270.1795475478
 10
170.9448297393
 20
270.3027801509
 10
171.1100091111
 20
270.4072596426
 10
171.3572193753
 20
270.4770641322
 10
171.6488276493
 20
270.5015765424
 10
171.9404284727
 20
270.4770641322
 10
172.1876387369
 20
270.4072596426
 10
172.3528181088
 20
270.3027801509
 10
172.4108283293
 20
270.1795475478
 10
172.3528181088
 20
270.0563074941
 10
172.1876387369
 20
269.9518280024
 10
171.9404284727
 20
269.8820235128
 10
171.6488276493
 20
269.8575111027
 10
171.3572193753
 20
269.8820235128
 10
171.1100091111
 20
269.9518280024
 10
170.9448297393
 20
270.0563074941
 10
170.8868269694
 20
270.1795475478
  0
LWPOLYLINE
  5
31F
330
1F
100
AcDbEntity
  8
0
  6
Continuous
 62
     7
370
    25
100
AcDbPolyline
 90
       17
 70
   128
 43
0.0
 10
175.5309675705
 20
270.1795475478
 10
175.5889703405
 20
270.3027801509
 10
175.7541497123
 20
270.4072596426
 10
176.0013599765
 20
270.4770641322
 10
176.2929682505
 20
270.5015765424
 10
176.5845690739
 20
270.4770641322
 10
176.8317793381
 20
270.4072596426
 10
176.9969587099
 20
270.3027801509
 10
177.0549614799
 20
270.1795475478
 10
176.9969587099
 20
270.0563074941
 10
176.8317793381
 20
269.9518280024
 10
176.5845690739
 20
269.8820235128
 10
176.2929682505
 20
269.8575111027
 10
176.0013599765
 20
269.8820235128
 10
175.7541497123
 20
269.9518280024
 10
175.5889703405
 20
270.0563074941
 10
175.5309675705
 20
270.1795475478
  0
LWPOLYLINE
  5
320
330
1F
100
AcDbEntity
  8
0
  6
Continuous
 62
     7
370
    25
100
AcDbPolyline
 90
       17
 70
   128
 43
0.0
 10
168.6770220172
 20
270.1795475478
 10
168.7350322377
 20
270.3027801509
 10
168.9002116096
 20
270.4072596426
 10
169.1474218738
 20
270.4770641322
 10
169.4390226972
 20
270.5015765424
 10
169.7306309712
 20
270.4770641322
 10
169.9778412354
 20
270.4072596426
 10
170.1430206072
 20
270.3027801509
 10
170.2010233772
 20
270.1795475478
 10
170.1430206072
 20
270.0563074941
 10
169.9778412354
 20
269.9518280024
 10
169.7306309712
 20
269.8820235128
 10
169.4390226972
 20
269.8575111027
 10
169.1474218738
 20
269.8820235128
 10
168.9002116096
 20
269.9518280024
 10
168.7350322377
 20
270.0563074941
 10
168.6770220172
 20
270.1795475478
  0
LWPOLYLINE
  5
321
330
1F
100
AcDbEntity
  8
0
  6
Continuous
 62
     7
370
    25
100
AcDbPolyline
 90
       17
 70
   128
 43
0.0
 10
164.2574270141
 20
270.1795475478
 10
164.315429784
 20
270.3027801509
 10
164.4806091559
 20
270.4072596426
 10
164.7278194201
 20
270.4770641322
 10
165.0194276941
 20
270.5015765424
 10
165.3110285175
 20
270.4770641322
 10
165.5582387817
 20
270.4072596426
 10
165.7234181535
 20
270.3027801509
 10
165.781428374
 20
270.1795475478
 10
165.7234181535
 20
270.0563074941
 10
165.5582387817
 20
269.9518280024
 10
165.3110285175
 20
269.8820235128
 10
165.0194276941
 20
269.8575111027
 10
164.7278194201
 20
269.8820235128
 10
164.4806091559
 20
269.9518280024
 10
164.315429784
 20
270.0563074941
 10
164.2574270141
 20
270.1795475478
  0
LINE
  5
322
330
1F
100
AcDbEntity
  8
0
  6
Continuous
 62
     7
370
    25
100
AcDbLine
 10
179.4651050937
 20
268.8317747707
 30
0.0
 11
179.4651050937
 21
268.7960790391
 31
0.0
  0
LINE
  5
323
330
1F
100
AcDbEntity
  8
0
  6
Continuous
 62
     7
370
    25
100
AcDbLine
 10
166.2668784034
 20
268.8317747707
 30
0.0
 11
166.2668784034
 21
268.7960790391
 31
0.0
  0
SPLINE
  5
324
330
1F
100
AcDbEntity
  8
0
  6
Continuous
 62
     7
370
    25
100
AcDbSpline
210
0.0
220
0.0
230
1.0
 70
     8
 71
     3
 72
     9
 73
     5
 74
     0
 42
0.000000001
 43
0.00000001
 40
0.0
 40
0.0
 40
0.0
 40
0.0
 40
0.6039606543461858
 40
1.0
 40
1.0
 40
1.0
 40
1.0
 10
354.0622194182619
 20
280.6214617485825
 30
0.0
 10
353.8861125692713
 20
280.8272410329626
 30
0.0
 10
353.5945259440113
 20
281.1679574072814
 30
0.0
 10
353.1792625425671
 20
281.4845372868598
 30
0.0
 10
353.0148018967852
 20
281.6099153752152
 30
0.0
  0
SPLINE
  5
325
330
1F
100
AcDbEntity
  8
0
  6
Continuous
 62
     7
370
    25
100
AcDbSpline
210
0.0
220
0.0
230
1.0
 70
     8
 71
     3
 72
     9
 73
     5
 74
     0
 42
0.000000001
 43
0.00000001
 40
0.0
 40
0.0
 40
0.0
 40
0.0
 40
0.5609509507360847
 40
1.0
 40
1.0
 40
1.0
 40
1.0
 10
322.7324982058748
 20
281.6099153752152
 30
0.0
 10
322.4880400498026
 20
281.4250420817991
 30
0.0
 10
322.0522476587718
 20
281.0954708542729
 30
0.0
 10
321.7642719944602
 20
280.7383344749589
 30
0.0
 10
321.637836552833
 20
280.5815340871636
 30
0.0
  0
LWPOLYLINE
  5
326
330
1F
100
AcDbEntity
  8
0
  6
Continuous
 62
     7
370
    25
100
AcDbPolyline
 90
        9
 70
   128
 43
0.0
 10
327.1649454605
 20
272.1057983036
 10
327.2229482305
 20
272.2290383572
 10
327.3881276023
 20
272.3335103984
 10
327.6353378665
 20
272.4033223386
 10
327.9269461405
 20
272.4278347487
 10
328.2185469639
 20
272.4033223386
 10
328.4657572281
 20
272.3335103984
 10
328.6309365999
 20
272.2290383572
 10
328.6889393699
 20
272.1057983036
  0
LWPOLYLINE
  5
327
330
1F
100
AcDbEntity
  8
0
  6
Continuous
 62
     7
370
    25
100
AcDbPolyline
 90
        9
 70
   128
 43
0.0
 10
329.3747429621
 20
272.1057983036
 10
329.432745732
 20
272.2290383572
 10
329.5979251039
 20
272.3335103984
 10
329.8451353681
 20
272.4033223386
 10
330.1367436421
 20
272.4278347487
 10
330.4283444655
 20
272.4033223386
 10
330.6755547297
 20
272.3335103984
 10
330.8407415521
 20
272.2290383572
 10
330.898744322
 20
272.1057983036
  0
LWPOLYLINE
  5
328
330
1F
100
AcDbEntity
  8
0
  6
Continuous
 62
     7
370
    25
100
AcDbPolyline
 90
        9
 70
   128
 43
0.0
 10
328.2647927177
 20
271.300710916
 10
328.3227954876
 20
271.4239509697
 10
328.48798231
 20
271.5284230108
 10
328.7351925742
 20
271.598234951
 10
329.0267933976
 20
271.6227473612
 10
329.3184016716
 20
271.598234951
 10
329.5656119358
 20
271.5284230108
 10
329.7307913077
 20
271.4239509697
 10
329.7887940776
 20
271.300710916
  0
LWPOLYLINE
  5
329
330
1F
100
AcDbEntity
  8
0
  6
Continuous
 62
     7
370
    25
100
AcDbPolyline
 90
       10
 70
   128
 43
0.0
 10
329.25742612
 20
270.4097481365
 10
329.31542889
 20
270.5329807396
 10
329.4806082618
 20
270.6374602313
 10
329.727818526
 20
270.7072647209
 10
330.0194268
 20
270.7317845816
 10
330.3110276234
 20
270.7072647209
 10
330.5582378876
 20
270.6374602313
 10
330.72342471
 20
270.5329807396
 10
330.78142748
 20
270.4097481365
 10
330.78142748
 20
270.4097481365
  0
LWPOLYLINE
  5
32A
330
1F
100
AcDbEntity
  8
0
  6
Continuous
 62
     7
370
    25
100
AcDbPolyline
 90
        9
 70
   128
 43
0.0
 10
330.4745976698
 20
271.300710916
 10
330.5326004398
 20
271.4239509697
 10
330.6977798116
 20
271.5284230108
 10
330.9449900758
 20
271.598234951
 10
331.2365983498
 20
271.6227473612
 10
331.5281991732
 20
271.598234951
 10
331.7754094374
 20
271.5284230108
 10
331.9405888092
 20
271.4239509697
 10
331.9985915792
 20
271.300710916
  0
LWPOLYLINE
  5
32B
330
1F
100
AcDbEntity
  8
0
  6
Continuous
 62
     7
370
    25
100
AcDbPolyline
 90
        9
 70
   128
 43
0.0
 10
331.4672236216
 20
270.4097481365
 10
331.5252263915
 20
270.5329807396
 10
331.6904132139
 20
270.6374602313
 10
331.9376234781
 20
270.7072647209
 10
332.2292243016
 20
270.7317845816
 10
332.5208325755
 20
270.7072647209
 10
332.7680428397
 20
270.6374602313
 10
332.9332222116
 20
270.5329807396
 10
332.9912249815
 20
270.4097481365
  0
LWPOLYLINE
  5
32C
330
1F
100
AcDbEntity
  8
0
  6
Continuous
 62
     7
370
    25
100
AcDbPolyline
 90
        9
 70
   128
 43
0.0
 10
333.6770285737
 20
270.4097481365
 10
333.7350313437
 20
270.5329807396
 10
333.9002107155
 20
270.6374602313
 10
334.1474209797
 20
270.7072647209
 10
334.4390218031
 20
270.7317845816
 10
334.7306300771
 20
270.7072647209
 10
334.9778403413
 20
270.6374602313
 10
335.1430197131
 20
270.5329807396
 10
335.2010224831
 20
270.4097481365
  0
LWPOLYLINE
  5
32D
330
1F
100
AcDbEntity
  8
0
  6
Continuous
 62
     7
370
    25
100
AcDbPolyline
 90
       10
 70
   128
 43
0.0
 10
335.8868260753
 20
270.4097481365
 10
335.9448288452
 20
270.5329807396
 10
336.1100082171
 20
270.6374602313
 10
336.3572184813
 20
270.7072647209
 10
336.6488267553
 20
270.7317845816
 10
336.9404275787
 20
270.7072647209
 10
337.1876378429
 20
270.6374602313
 10
337.3528246653
 20
270.5329807396
 10
337.4108274352
 20
270.4097481365
 10
337.4108274352
 20
270.4097481365
  0
LWPOLYLINE
  5
32E
330
1F
100
AcDbEntity
  8
0
  6
Continuous
 62
     7
370
    25
100
AcDbPolyline
 90
        9
 70
   128
 43
0.0
 10
338.3211617243
 20
270.4097481365
 10
338.3791719448
 20
270.5329807396
 10
338.5443513167
 20
270.6374602313
 10
338.7915615809
 20
270.7072647209
 10
339.0831624043
 20
270.7317845816
 10
339.3747706783
 20
270.7072647209
 10
339.6219809425
 20
270.6374602313
 10
339.7871603143
 20
270.5329807396
 10
339.8451630842
 20
270.4097481365
  0
LWPOLYLINE
  5
32F
330
1F
100
AcDbEntity
  8
0
  6
Continuous
 62
     7
370
    25
100
AcDbPolyline
 90
        9
 70
   128
 43
0.0
 10
340.5309666764
 20
270.4097481365
 10
340.5889694464
 20
270.5329807396
 10
340.7541488182
 20
270.6374602313
 10
341.0013590824
 20
270.7072647209
 10
341.2929673564
 20
270.7317845816
 10
341.5845681798
 20
270.7072647209
 10
341.831778444
 20
270.6374602313
 10
341.9969578159
 20
270.5329807396
 10
342.0549680364
 20
270.4097481365
  0
LWPOLYLINE
  5
330
330
1F
100
AcDbEntity
  8
0
  6
Continuous
 62
     7
370
    25
100
AcDbPolyline
 90
        9
 70
   128
 43
0.0
 10
342.740764178
 20
270.4097481365
 10
342.798766948
 20
270.5329807396
 10
342.9639463198
 20
270.6374602313
 10
343.211156584
 20
270.7072647209
 10
343.502764858
 20
270.7317845816
 10
343.794373132
 20
270.7072647209
 10
344.0415833962
 20
270.6374602313
 10
344.206762768
 20
270.5329807396
 10
344.264765538
 20
270.4097481365
  0
LWPOLYLINE
  5
331
330
1F
100
AcDbEntity
  8
0
  6
Continuous
 62
     7
370
    25
100
AcDbPolyline
 90
        9
 70
   128
 43
0.0
 10
344.9505616796
 20
270.4097481365
 10
345.0085719001
 20
270.5329807396
 10
345.1737512719
 20
270.6374602313
 10
345.4209615361
 20
270.7072647209
 10
345.7125623595
 20
270.7317845816
 10
346.0041706335
 20
270.7072647209
 10
346.2513808977
 20
270.6374602313
 10
346.4165602696
 20
270.5329807396
 10
346.4745630395
 20
270.4097481365
  0
LWPOLYLINE
  5
332
330
1F
100
AcDbEntity
  8
0
  6
Continuous
 62
     7
370
    25
100
AcDbPolyline
 90
        9
 70
   128
 43
0.0
 10
343.7333975804
 20
271.300710916
 10
343.7914003503
 20
271.4239509697
 10
343.9565797221
 20
271.5284230108
 10
344.2037899863
 20
271.598234951
 10
344.4953982603
 20
271.6227473612
 10
344.7869990837
 20
271.598234951
 10
345.0342093479
 20
271.5284230108
 10
345.1993887198
 20
271.4239509697
 10
345.2573914897
 20
271.300710916
  0
LWPOLYLINE
  5
333
330
1F
100
AcDbEntity
  8
0
  6
Continuous
 62
     7
370
    25
100
AcDbPolyline
 90
        9
 70
   128
 43
0.0
 10
345.9431950819
 20
271.300710916
 10
346.0011978519
 20
271.4239509697
 10
346.1663772237
 20
271.5284230108
 10
346.4135874879
 20
271.598234951
 10
346.7051957619
 20
271.6227473612
 10
346.9967965853
 20
271.598234951
 10
347.2440068495
 20
271.5284230108
 10
347.4091936719
 20
271.4239509697
 10
347.4671964419
 20
271.300710916
  0
LWPOLYLINE
  5
334
330
1F
100
AcDbEntity
  8
0
  6
Continuous
 62
     7
370
    25
100
AcDbPolyline
 90
        9
 70
   128
 43
0.0
 10
347.0430497896
 20
272.1057983036
 10
347.1010525596
 20
272.2290383572
 10
347.2662319314
 20
272.3335103984
 10
347.5134421956
 20
272.4033223386
 10
347.8050504696
 20
272.4278347487
 10
348.096651293
 20
272.4033223386
 10
348.3438615572
 20
272.3335103984
 10
348.5090409291
 20
272.2290383572
 10
348.567043699
 20
272.1057983036
  0
LWPOLYLINE
  5
335
330
1F
100
AcDbEntity
  8
0
  6
Continuous
 62
     7
370
    25
100
AcDbPolyline
 90
        9
 70
   128
 43
0.0
 10
344.8332448375
 20
272.1057983036
 10
344.8912476074
 20
272.2290383572
 10
345.0564344299
 20
272.3335103984
 10
345.3036446941
 20
272.4033223386
 10
345.5952455175
 20
272.4278347487
 10
345.8868537914
 20
272.4033223386
 10
346.1340640557
 20
272.3335103984
 10
346.2992434275
 20
272.2290383572
 10
346.3572461974
 20
272.1057983036
  0
LWPOLYLINE
  5
336
330
1F
100
AcDbEntity
  8
0
  6
Continuous
 62
     7
370
    25
100
AcDbPolyline
 90
        9
 70
   128
 43
0.0
 10
342.6234473359
 20
272.1057983036
 10
342.6814501059
 20
272.2290383572
 10
342.8466294777
 20
272.3335103984
 10
343.0938397419
 20
272.4033223386
 10
343.3854480159
 20
272.4278347487
 10
343.6770488393
 20
272.4033223386
 10
343.9242591035
 20
272.3335103984
 10
344.0894459259
 20
272.2290383572
 10
344.1474486959
 20
272.1057983036
  0
LWPOLYLINE
  5
337
330
1F
100
AcDbEntity
  8
0
  6
Continuous
 62
     7
370
    25
100
AcDbPolyline
 90
        9
 70
   128
 43
0.0
 10
340.4136498344
 20
272.1057983036
 10
340.4716526043
 20
272.2290383572
 10
340.6368319761
 20
272.3335103984
 10
340.8840422404
 20
272.4033223386
 10
341.1756505143
 20
272.4278347487
 10
341.4672513377
 20
272.4033223386
 10
341.7144616019
 20
272.3335103984
 10
341.8796409738
 20
272.2290383572
 10
341.9376437437
 20
272.1057983036
  0
LWPOLYLINE
  5
338
330
1F
100
AcDbEntity
  8
0
  6
Continuous
 62
     7
370
    25
100
AcDbPolyline
 90
        9
 70
   128
 43
0.0
 10
338.2038448822
 20
272.1057983036
 10
338.2618476522
 20
272.2290383572
 10
338.4270344746
 20
272.3335103984
 10
338.6742447388
 20
272.4033223386
 10
338.9658455622
 20
272.4278347487
 10
339.2574538362
 20
272.4033223386
 10
339.5046641004
 20
272.3335103984
 10
339.6698434722
 20
272.2290383572
 10
339.7278462422
 20
272.1057983036
  0
LWPOLYLINE
  5
339
330
1F
100
AcDbEntity
  8
0
  6
Continuous
 62
     7
370
    25
100
AcDbPolyline
 90
        9
 70
   128
 43
0.0
 10
336.0041429174
 20
272.1057983036
 10
336.0621456873
 20
272.2290383572
 10
336.2273250592
 20
272.3335103984
 10
336.4745353234
 20
272.4033223386
 10
336.7661435973
 20
272.4278347487
 10
337.0577444207
 20
272.4033223386
 10
337.3049546849
 20
272.3335103984
 10
337.4701415074
 20
272.2290383572
 10
337.5281442773
 20
272.1057983036
  0
LWPOLYLINE
  5
33A
330
1F
100
AcDbEntity
  8
0
  6
Continuous
 62
     7
370
    25
100
AcDbPolyline
 90
        9
 70
   128
 43
0.0
 10
333.7943454158
 20
272.1057983036
 10
333.8523481858
 20
272.2290383572
 10
334.0175275576
 20
272.3335103984
 10
334.2647378218
 20
272.4033223386
 10
334.5563460958
 20
272.4278347487
 10
334.8479469192
 20
272.4033223386
 10
335.0951571834
 20
272.3335103984
 10
335.2603365552
 20
272.2290383572
 10
335.3183393252
 20
272.1057983036
  0
LWPOLYLINE
  5
33B
330
1F
100
AcDbEntity
  8
0
  6
Continuous
 62
     7
370
    25
100
AcDbPolyline
 90
        9
 70
   128
 43
0.0
 10
331.5845404637
 20
272.1057983036
 10
331.6425432336
 20
272.2290383572
 10
331.807730056
 20
272.3335103984
 10
332.0549403202
 20
272.4033223386
 10
332.3465411436
 20
272.4278347487
 10
332.6381494176
 20
272.4033223386
 10
332.8853596818
 20
272.3335103984
 10
333.0505390537
 20
272.2290383572
 10
333.1085418236
 20
272.1057983036
  0
LWPOLYLINE
  5
33C
330
1F
100
AcDbEntity
  8
0
  6
Continuous
 62
     7
370
    25
100
AcDbPolyline
 90
        9
 70
   128
 43
0.0
 10
332.6843951714
 20
271.300710916
 10
332.7423979413
 20
271.4239509697
 10
332.9075773132
 20
271.5284230108
 10
333.1547875774
 20
271.598234951
 10
333.4463958513
 20
271.6227473612
 10
333.7379966748
 20
271.598234951
 10
333.985206939
 20
271.5284230108
 10
334.1503937614
 20
271.4239509697
 10
334.2083965313
 20
271.300710916
  0
LWPOLYLINE
  5
33D
330
1F
100
AcDbEntity
  8
0
  6
Continuous
 62
     7
370
    25
100
AcDbPolyline
 90
        9
 70
   128
 43
0.0
 10
334.8941926729
 20
271.300710916
 10
334.9521954429
 20
271.4239509697
 10
335.1173822653
 20
271.5284230108
 10
335.3645925295
 20
271.598234951
 10
335.6561933529
 20
271.6227473612
 10
335.9478016269
 20
271.598234951
 10
336.1950118911
 20
271.5284230108
 10
336.3601912629
 20
271.4239509697
 10
336.4181940329
 20
271.300710916
  0
LWPOLYLINE
  5
33E
330
1F
100
AcDbEntity
  8
0
  6
Continuous
 62
     7
370
    25
100
AcDbPolyline
 90
        9
 70
   128
 43
0.0
 10
337.1039976251
 20
271.300710916
 10
337.162000395
 20
271.4239509697
 10
337.3271797669
 20
271.5284230108
 10
337.5743900311
 20
271.598234951
 10
337.8659983051
 20
271.6227473612
 10
338.1575991285
 20
271.598234951
 10
338.4048093927
 20
271.5284230108
 10
338.5699887645
 20
271.4239509697
 10
338.6279915344
 20
271.300710916
  0
LWPOLYLINE
  5
33F
330
1F
100
AcDbEntity
  8
0
  6
Continuous
 62
     7
370
    25
100
AcDbPolyline
 90
        9
 70
   128
 43
0.0
 10
339.3137951267
 20
271.300710916
 10
339.3717978966
 20
271.4239509697
 10
339.5369772684
 20
271.5284230108
 10
339.7841875326
 20
271.598234951
 10
340.0757958066
 20
271.6227473612
 10
340.36739663
 20
271.598234951
 10
340.6146068942
 20
271.5284230108
 10
340.7797937166
 20
271.4239509697
 10
340.8377964866
 20
271.300710916
  0
LWPOLYLINE
  5
340
330
1F
100
AcDbEntity
  8
0
  6
Continuous
 62
     7
370
    25
100
AcDbPolyline
 90
        9
 70
   128
 43
0.0
 10
341.5235926282
 20
271.300710916
 10
341.5815953982
 20
271.4239509697
 10
341.7467822206
 20
271.5284230108
 10
341.9939924848
 20
271.598234951
 10
342.2855933082
 20
271.6227473612
 10
342.5772015822
 20
271.598234951
 10
342.8244118464
 20
271.5284230108
 10
342.9895912182
 20
271.4239509697
 10
343.0475939882
 20
271.300710916
  0
LWPOLYLINE
  5
341
330
1F
100
AcDbEntity
  8
0
  6
Continuous
 62
     7
370
    25
100
AcDbPolyline
 90
        8
 70
   128
 43
0.0
 10
353.1539414894
 20
274.7321801181
 10
354.2904307019
 20
275.7279055114
 10
355.0662745607
 20
276.7836751337
 10
355.4644335878
 20
277.8763027782
 10
355.4761608016
 20
278.981805026
 10
355.1012103331
 20
280.075900435
 10
354.3478076231
 20
281.1345683331
 10
353.8710449707
 20
281.6099153752
  0
ARC
  5
342
330
1F
100
AcDbEntity
  8
0
  6
Continuous
 62
     7
370
    25
100
AcDbCircle
 10
324.1873101018
 20
278.4866488362
 30
0.0
 40
3.894454035499684
100
AcDbArc
 50
126.6805932691
 51
225.9299695707
  0
ARC
  5
343
330
1F
100
AcDbEntity
  8
0
  6
Continuous
 62
     7
370
    25
100
AcDbCircle
 10
351.9439195284
 20
279.7822538835
 30
0.0
 40
3.575601571918641
100
AcDbArc
 50
0.9836417564
 51
30.7403258655
  0
ARC
  5
344
330
1F
100
AcDbEntity
  8
0
  6
Continuous
 62
     7
370
    25
100
AcDbCircle
 10
323.7880696312
 20
279.7822538835
 30
0.0
 40
3.575601571918641
100
AcDbArc
 50
149.2596741345
 51
179.0163582436
  0
LWPOLYLINE
  5
345
330
1F
100
AcDbEntity
  8
0
  6
Continuous
 62
     7
370
    25
100
AcDbPolyline
 90
       17
 70
   128
 43
0.0
 10
327.1649454605
 20
271.8755977149
 10
327.2229482305
 20
271.998830318
 10
327.3881276023
 20
272.1033098097
 10
327.6353378665
 20
272.1731142993
 10
327.9269461405
 20
272.19763416
 10
328.2185469639
 20
272.1731142993
 10
328.4657572281
 20
272.1033098097
 10
328.6309365999
 20
271.998830318
 10
328.6889393699
 20
271.8755977149
 10
328.6309365999
 20
271.7523576612
 10
328.4657572281
 20
271.6478856201
 10
328.2185469639
 20
271.5780736799
 10
327.9269461405
 20
271.5535612697
 10
327.6353378665
 20
271.5780736799
 10
327.3881276023
 20
271.6478856201
 10
327.2229482305
 20
271.7523576612
 10
327.1649454605
 20
271.8755977149
  0
LWPOLYLINE
  5
346
330
1F
100
AcDbEntity
  8
0
  6
Continuous
 62
     7
370
    25
100
AcDbPolyline
 90
       17
 70
   128
 43
0.0
 10
329.3747429621
 20
271.8755977149
 10
329.432745732
 20
271.998830318
 10
329.5979251039
 20
272.1033098097
 10
329.8451353681
 20
272.1731142993
 10
330.1367436421
 20
272.19763416
 10
330.4283444655
 20
272.1731142993
 10
330.6755547297
 20
272.1033098097
 10
330.8407415521
 20
271.998830318
 10
330.898744322
 20
271.8755977149
 10
330.8407415521
 20
271.7523576612
 10
330.6755547297
 20
271.6478856201
 10
330.4283444655
 20
271.5780736799
 10
330.1367436421
 20
271.5535612697
 10
329.8451353681
 20
271.5780736799
 10
329.5979251039
 20
271.6478856201
 10
329.432745732
 20
271.7523576612
 10
329.3747429621
 20
271.8755977149
  0
LWPOLYLINE
  5
347
330
1F
100
AcDbEntity
  8
0
  6
Continuous
 62
     7
370
    25
100
AcDbPolyline
 90
       17
 70
   128
 43
0.0
 10
331.5845404637
 20
271.8755977149
 10
331.6425432336
 20
271.998830318
 10
331.807730056
 20
272.1033098097
 10
332.0549403202
 20
272.1731142993
 10
332.3465411436
 20
272.19763416
 10
332.6381494176
 20
272.1731142993
 10
332.8853596818
 20
272.1033098097
 10
333.0505390537
 20
271.998830318
 10
333.1085418236
 20
271.8755977149
 10
333.0505390537
 20
271.7523576612
 10
332.8853596818
 20
271.6478856201
 10
332.6381494176
 20
271.5780736799
 10
332.3465411436
 20
271.5535612697
 10
332.0549403202
 20
271.5780736799
 10
331.807730056
 20
271.6478856201
 10
331.6425432336
 20
271.7523576612
 10
331.5845404637
 20
271.8755977149
  0
LWPOLYLINE
  5
348
330
1F
100
AcDbEntity
  8
0
  6
Continuous
 62
     7
370
    25
100
AcDbPolyline
 90
       17
 70
   128
 43
0.0
 10
333.7943454158
 20
271.8755977149
 10
333.8523481858
 20
271.998830318
 10
334.0175275576
 20
272.1033098097
 10
334.2647378218
 20
272.1731142993
 10
334.5563460958
 20
272.19763416
 10
334.8479469192
 20
272.1731142993
 10
335.0951571834
 20
272.1033098097
 10
335.2603365552
 20
271.998830318
 10
335.3183393252
 20
271.8755977149
 10
335.2603365552
 20
271.7523576612
 10
335.0951571834
 20
271.6478856201
 10
334.8479469192
 20
271.5780736799
 10
334.5563460958
 20
271.5535612697
 10
334.2647378218
 20
271.5780736799
 10
334.0175275576
 20
271.6478856201
 10
333.8523481858
 20
271.7523576612
 10
333.7943454158
 20
271.8755977149
  0
LWPOLYLINE
  5
349
330
1F
100
AcDbEntity
  8
0
  6
Continuous
 62
     7
370
    25
100
AcDbPolyline
 90
       17
 70
   128
 43
0.0
 10
336.0041429174
 20
271.8755977149
 10
336.0621456873
 20
271.998830318
 10
336.2273250592
 20
272.1033098097
 10
336.4745353234
 20
272.1731142993
 10
336.7661435973
 20
272.19763416
 10
337.0577444207
 20
272.1731142993
 10
337.3049546849
 20
272.1033098097
 10
337.4701415074
 20
271.998830318
 10
337.5281442773
 20
271.8755977149
 10
337.4701415074
 20
271.7523576612
 10
337.3049546849
 20
271.6478856201
 10
337.0577444207
 20
271.5780736799
 10
336.7661435973
 20
271.5535612697
 10
336.4745353234
 20
271.5780736799
 10
336.2273250592
 20
271.6478856201
 10
336.0621456873
 20
271.7523576612
 10
336.0041429174
 20
271.8755977149
  0
LWPOLYLINE
  5
34A
330
1F
100
AcDbEntity
  8
0
  6
Continuous
 62
     7
370
    25
100
AcDbPolyline
 90
       17
 70
   128
 43
0.0
 10
338.2038448822
 20
271.8755977149
 10
338.2618476522
 20
271.998830318
 10
338.4270344746
 20
272.1033098097
 10
338.6742447388
 20
272.1731142993
 10
338.9658455622
 20
272.19763416
 10
339.2574538362
 20
272.1731142993
 10
339.5046641004
 20
272.1033098097
 10
339.6698434722
 20
271.998830318
 10
339.7278462422
 20
271.8755977149
 10
339.6698434722
 20
271.7523576612
 10
339.5046641004
 20
271.6478856201
 10
339.2574538362
 20
271.5780736799
 10
338.9658455622
 20
271.5535612697
 10
338.6742447388
 20
271.5780736799
 10
338.4270344746
 20
271.6478856201
 10
338.2618476522
 20
271.7523576612
 10
338.2038448822
 20
271.8755977149
  0
LWPOLYLINE
  5
34B
330
1F
100
AcDbEntity
  8
0
  6
Continuous
 62
     7
370
    25
100
AcDbPolyline
 90
       17
 70
   128
 43
0.0
 10
340.4136498344
 20
271.8755977149
 10
340.4716526043
 20
271.998830318
 10
340.6368319761
 20
272.1033098097
 10
340.8840422404
 20
272.1731142993
 10
341.1756505143
 20
272.19763416
 10
341.4672513377
 20
272.1731142993
 10
341.7144616019
 20
272.1033098097
 10
341.8796409738
 20
271.998830318
 10
341.9376437437
 20
271.8755977149
 10
341.8796409738
 20
271.7523576612
 10
341.7144616019
 20
271.6478856201
 10
341.4672513377
 20
271.5780736799
 10
341.1756505143
 20
271.5535612697
 10
340.8840422404
 20
271.5780736799
 10
340.6368319761
 20
271.6478856201
 10
340.4716526043
 20
271.7523576612
 10
340.4136498344
 20
271.8755977149
  0
LWPOLYLINE
  5
34C
330
1F
100
AcDbEntity
  8
0
  6
Continuous
 62
     7
370
    25
100
AcDbPolyline
 90
       17
 70
   128
 43
0.0
 10
342.6234473359
 20
271.8755977149
 10
342.6814501059
 20
271.998830318
 10
342.8466294777
 20
272.1033098097
 10
343.0938397419
 20
272.1731142993
 10
343.3854480159
 20
272.19763416
 10
343.6770488393
 20
272.1731142993
 10
343.9242591035
 20
272.1033098097
 10
344.0894459259
 20
271.998830318
 10
344.1474486959
 20
271.8755977149
 10
344.0894459259
 20
271.7523576612
 10
343.9242591035
 20
271.6478856201
 10
343.6770488393
 20
271.5780736799
 10
343.3854480159
 20
271.5535612697
 10
343.0938397419
 20
271.5780736799
 10
342.8466294777
 20
271.6478856201
 10
342.6814501059
 20
271.7523576612
 10
342.6234473359
 20
271.8755977149
  0
LWPOLYLINE
  5
34D
330
1F
100
AcDbEntity
  8
0
  6
Continuous
 62
     7
370
    25
100
AcDbPolyline
 90
       17
 70
   128
 43
0.0
 10
344.8332448375
 20
271.8755977149
 10
344.8912476074
 20
271.998830318
 10
345.0564344299
 20
272.1033098097
 10
345.3036446941
 20
272.1731142993
 10
345.5952455175
 20
272.19763416
 10
345.8868537914
 20
272.1731142993
 10
346.1340640557
 20
272.1033098097
 10
346.2992434275
 20
271.998830318
 10
346.3572461974
 20
271.8755977149
 10
346.2992434275
 20
271.7523576612
 10
346.1340640557
 20
271.6478856201
 10
345.8868537914
 20
271.5780736799
 10
345.5952455175
 20
271.5535612697
 10
345.3036446941
 20
271.5780736799
 10
345.0564344299
 20
271.6478856201
 10
344.8912476074
 20
271.7523576612
 10
344.8332448375
 20
271.8755977149
  0
LWPOLYLINE
  5
34E
330
1F
100
AcDbEntity
  8
0
  6
Continuous
 62
     7
370
    25
100
AcDbPolyline
 90
       17
 70
   128
 43
0.0
 10
347.0430497896
 20
271.8755977149
 10
347.1010525596
 20
271.998830318
 10
347.2662319314
 20
272.1033098097
 10
347.5134421956
 20
272.1731142993
 10
347.8050504696
 20
272.19763416
 10
348.096651293
 20
272.1731142993
 10
348.3438615572
 20
272.1033098097
 10
348.5090409291
 20
271.998830318
 10
348.567043699
 20
271.8755977149
 10
348.5090409291
 20
271.7523576612
 10
348.3438615572
 20
271.6478856201
 10
348.096651293
 20
271.5780736799
 10
347.8050504696
 20
271.5535612697
 10
347.5134421956
 20
271.5780736799
 10
347.2662319314
 20
271.6478856201
 10
347.1010525596
 20
271.7523576612
 10
347.0430497896
 20
271.8755977149
  0
LWPOLYLINE
  5
34F
330
1F
100
AcDbEntity
  8
0
  6
Continuous
 62
     7
370
    25
100
AcDbPolyline
 90
       17
 70
   128
 43
0.0
 10
328.2647927177
 20
271.0705103273
 10
328.3227954876
 20
271.1937429304
 10
328.48798231
 20
271.2982224221
 10
328.7351925742
 20
271.3680269117
 10
329.0267933976
 20
271.3925467725
 10
329.3184016716
 20
271.3680269117
 10
329.5656119358
 20
271.2982224221
 10
329.7307913077
 20
271.1937429304
 10
329.7887940776
 20
271.0705103273
 10
329.7307913077
 20
270.9472702737
 10
329.5656119358
 20
270.8427982325
 10
329.3184016716
 20
270.7729862923
 10
329.0267933976
 20
270.7484738822
 10
328.7351925742
 20
270.7729862923
 10
328.48798231
 20
270.8427982325
 10
328.3227954876
 20
270.9472702737
 10
328.2647927177
 20
271.0705103273
  0
LWPOLYLINE
  5
350
330
1F
100
AcDbEntity
  8
0
  6
Continuous
 62
     7
370
    25
100
AcDbPolyline
 90
       17
 70
   128
 43
0.0
 10
330.4745976698
 20
271.0705103273
 10
330.5326004398
 20
271.1937429304
 10
330.6977798116
 20
271.2982224221
 10
330.9449900758
 20
271.3680269117
 10
331.2365983498
 20
271.3925467725
 10
331.5281991732
 20
271.3680269117
 10
331.7754094374
 20
271.2982224221
 10
331.9405888092
 20
271.1937429304
 10
331.9985915792
 20
271.0705103273
 10
331.9405888092
 20
270.9472702737
 10
331.7754094374
 20
270.8427982325
 10
331.5281991732
 20
270.7729862923
 10
331.2365983498
 20
270.7484738822
 10
330.9449900758
 20
270.7729862923
 10
330.6977798116
 20
270.8427982325
 10
330.5326004398
 20
270.9472702737
 10
330.4745976698
 20
271.0705103273
  0
LWPOLYLINE
  5
351
330
1F
100
AcDbEntity
  8
0
  6
Continuous
 62
     7
370
    25
100
AcDbPolyline
 90
       17
 70
   128
 43
0.0
 10
332.6843951714
 20
271.0705103273
 10
332.7423979413
 20
271.1937429304
 10
332.9075773132
 20
271.2982224221
 10
333.1547875774
 20
271.3680269117
 10
333.4463958513
 20
271.3925467725
 10
333.7379966748
 20
271.3680269117
 10
333.985206939
 20
271.2982224221
 10
334.1503937614
 20
271.1937429304
 10
334.2083965313
 20
271.0705103273
 10
334.1503937614
 20
270.9472702737
 10
333.985206939
 20
270.8427982325
 10
333.7379966748
 20
270.7729862923
 10
333.4463958513
 20
270.7484738822
 10
333.1547875774
 20
270.7729862923
 10
332.9075773132
 20
270.8427982325
 10
332.7423979413
 20
270.9472702737
 10
332.6843951714
 20
271.0705103273
  0
LWPOLYLINE
  5
352
330
1F
100
AcDbEntity
  8
0
  6
Continuous
 62
     7
370
    25
100
AcDbPolyline
 90
       17
 70
   128
 43
0.0
 10
334.8941926729
 20
271.0705103273
 10
334.9521954429
 20
271.1937429304
 10
335.1173822653
 20
271.2982224221
 10
335.3645925295
 20
271.3680269117
 10
335.6561933529
 20
271.3925467725
 10
335.9478016269
 20
271.3680269117
 10
336.1950118911
 20
271.2982224221
 10
336.3601912629
 20
271.1937429304
 10
336.4181940329
 20
271.0705103273
 10
336.3601912629
 20
270.9472702737
 10
336.1950118911
 20
270.8427982325
 10
335.9478016269
 20
270.7729862923
 10
335.6561933529
 20
270.7484738822
 10
335.3645925295
 20
270.7729862923
 10
335.1173822653
 20
270.8427982325
 10
334.9521954429
 20
270.9472702737
 10
334.8941926729
 20
271.0705103273
  0
LWPOLYLINE
  5
353
330
1F
100
AcDbEntity
  8
0
  6
Continuous
 62
     7
370
    25
100
AcDbPolyline
 90
       17
 70
   128
 43
0.0
 10
337.1039976251
 20
271.0705103273
 10
337.162000395
 20
271.1937429304
 10
337.3271797669
 20
271.2982224221
 10
337.5743900311
 20
271.3680269117
 10
337.8659983051
 20
271.3925467725
 10
338.1575991285
 20
271.3680269117
 10
338.4048093927
 20
271.2982224221
 10
338.5699887645
 20
271.1937429304
 10
338.6279915344
 20
271.0705103273
 10
338.5699887645
 20
270.9472702737
 10
338.4048093927
 20
270.8427982325
 10
338.1575991285
 20
270.7729862923
 10
337.8659983051
 20
270.7484738822
 10
337.5743900311
 20
270.7729862923
 10
337.3271797669
 20
270.8427982325
 10
337.162000395
 20
270.9472702737
 10
337.1039976251
 20
271.0705103273
  0
LWPOLYLINE
  5
354
330
1F
100
AcDbEntity
  8
0
  6
Continuous
 62
     7
370
    25
100
AcDbPolyline
 90
       17
 70
   128
 43
0.0
 10
339.3137951267
 20
271.0705103273
 10
339.3717978966
 20
271.1937429304
 10
339.5369772684
 20
271.2982224221
 10
339.7841875326
 20
271.3680269117
 10
340.0757958066
 20
271.3925467725
 10
340.36739663
 20
271.3680269117
 10
340.6146068942
 20
271.2982224221
 10
340.7797937166
 20
271.1937429304
 10
340.8377964866
 20
271.0705103273
 10
340.7797937166
 20
270.9472702737
 10
340.6146068942
 20
270.8427982325
 10
340.36739663
 20
270.7729862923
 10
340.0757958066
 20
270.7484738822
 10
339.7841875326
 20
270.7729862923
 10
339.5369772684
 20
270.8427982325
 10
339.3717978966
 20
270.9472702737
 10
339.3137951267
 20
271.0705103273
  0
LWPOLYLINE
  5
355
330
1F
100
AcDbEntity
  8
0
  6
Continuous
 62
     7
370
    25
100
AcDbPolyline
 90
       17
 70
   128
 43
0.0
 10
341.5235926282
 20
271.0705103273
 10
341.5815953982
 20
271.1937429304
 10
341.7467822206
 20
271.2982224221
 10
341.9939924848
 20
271.3680269117
 10
342.2855933082
 20
271.3925467725
 10
342.5772015822
 20
271.3680269117
 10
342.8244118464
 20
271.2982224221
 10
342.9895912182
 20
271.1937429304
 10
343.0475939882
 20
271.0705103273
 10
342.9895912182
 20
270.9472702737
 10
342.8244118464
 20
270.8427982325
 10
342.5772015822
 20
270.7729862923
 10
342.2855933082
 20
270.7484738822
 10
341.9939924848
 20
270.7729862923
 10
341.7467822206
 20
270.8427982325
 10
341.5815953982
 20
270.9472702737
 10
341.5235926282
 20
271.0705103273
  0
LWPOLYLINE
  5
356
330
1F
100
AcDbEntity
  8
0
  6
Continuous
 62
     7
370
    25
100
AcDbPolyline
 90
       17
 70
   128
 43
0.0
 10
343.7333975804
 20
271.0705103273
 10
343.7914003503
 20
271.1937429304
 10
343.9565797221
 20
271.2982224221
 10
344.2037899863
 20
271.3680269117
 10
344.4953982603
 20
271.3925467725
 10
344.7869990837
 20
271.3680269117
 10
345.0342093479
 20
271.2982224221
 10
345.1993887198
 20
271.1937429304
 10
345.2573914897
 20
271.0705103273
 10
345.1993887198
 20
270.9472702737
 10
345.0342093479
 20
270.8427982325
 10
344.7869990837
 20
270.7729862923
 10
344.4953982603
 20
270.7484738822
 10
344.2037899863
 20
270.7729862923
 10
343.9565797221
 20
270.8427982325
 10
343.7914003503
 20
270.9472702737
 10
343.7333975804
 20
271.0705103273
  0
LWPOLYLINE
  5
357
330
1F
100
AcDbEntity
  8
0
  6
Continuous
 62
     7
370
    25
100
AcDbPolyline
 90
       17
 70
   128
 43
0.0
 10
345.9431950819
 20
271.0705103273
 10
346.0011978519
 20
271.1937429304
 10
346.1663772237
 20
271.2982224221
 10
346.4135874879
 20
271.3680269117
 10
346.7051957619
 20
271.3925467725
 10
346.9967965853
 20
271.3680269117
 10
347.2440068495
 20
271.2982224221
 10
347.4091936719
 20
271.1937429304
 10
347.4671964419
 20
271.0705103273
 10
347.4091936719
 20
270.9472702737
 10
347.2440068495
 20
270.8427982325
 10
346.9967965853
 20
270.7729862923
 10
346.7051957619
 20
270.7484738822
 10
346.4135874879
 20
270.7729862923
 10
346.1663772237
 20
270.8427982325
 10
346.0011978519
 20
270.9472702737
 10
345.9431950819
 20
271.0705103273
  0
LWPOLYLINE
  5
358
330
1F
100
AcDbEntity
  8
0
  6
Continuous
 62
     7
370
    25
100
AcDbPolyline
 90
       17
 70
   128
 43
0.0
 10
329.25742612
 20
270.1795475478
 10
329.31542889
 20
270.3027801509
 10
329.4806082618
 20
270.4072596426
 10
329.727818526
 20
270.4770641322
 10
330.0194268
 20
270.5015765424
 10
330.3110276234
 20
270.4770641322
 10
330.5582378876
 20
270.4072596426
 10
330.72342471
 20
270.3027801509
 10
330.78142748
 20
270.1795475478
 10
330.72342471
 20
270.0563074941
 10
330.5582378876
 20
269.9518280024
 10
330.3110276234
 20
269.8820235128
 10
330.0194268
 20
269.8575111027
 10
329.727818526
 20
269.8820235128
 10
329.4806082618
 20
269.9518280024
 10
329.31542889
 20
270.0563074941
 10
329.25742612
 20
270.1795475478
  0
LWPOLYLINE
  5
359
330
1F
100
AcDbEntity
  8
0
  6
Continuous
 62
     7
370
    25
100
AcDbPolyline
 90
       17
 70
   128
 43
0.0
 10
331.4672236216
 20
270.1795475478
 10
331.5252263915
 20
270.3027801509
 10
331.6904132139
 20
270.4072596426
 10
331.9376234781
 20
270.4770641322
 10
332.2292243016
 20
270.5015765424
 10
332.5208325755
 20
270.4770641322
 10
332.7680428397
 20
270.4072596426
 10
332.9332222116
 20
270.3027801509
 10
332.9912249815
 20
270.1795475478
 10
332.9332222116
 20
270.0563074941
 10
332.7680428397
 20
269.9518280024
 10
332.5208325755
 20
269.8820235128
 10
332.2292243016
 20
269.8575111027
 10
331.9376234781
 20
269.8820235128
 10
331.6904132139
 20
269.9518280024
 10
331.5252263915
 20
270.0563074941
 10
331.4672236216
 20
270.1795475478
  0
LWPOLYLINE
  5
35A
330
1F
100
AcDbEntity
  8
0
  6
Continuous
 62
     7
370
    25
100
AcDbPolyline
 90
       17
 70
   128
 43
0.0
 10
333.6770285737
 20
270.1795475478
 10
333.7350313437
 20
270.3027801509
 10
333.9002107155
 20
270.4072596426
 10
334.1474209797
 20
270.4770641322
 10
334.4390218031
 20
270.5015765424
 10
334.7306300771
 20
270.4770641322
 10
334.9778403413
 20
270.4072596426
 10
335.1430197131
 20
270.3027801509
 10
335.2010224831
 20
270.1795475478
 10
335.1430197131
 20
270.0563074941
 10
334.9778403413
 20
269.9518280024
 10
334.7306300771
 20
269.8820235128
 10
334.4390218031
 20
269.8575111027
 10
334.1474209797
 20
269.8820235128
 10
333.9002107155
 20
269.9518280024
 10
333.7350313437
 20
270.0563074941
 10
333.6770285737
 20
270.1795475478
  0
LWPOLYLINE
  5
35B
330
1F
100
AcDbEntity
  8
0
  6
Continuous
 62
     7
370
    25
100
AcDbPolyline
 90
       17
 70
   128
 43
0.0
 10
335.8868260753
 20
270.1795475478
 10
335.9448288452
 20
270.3027801509
 10
336.1100082171
 20
270.4072596426
 10
336.3572184813
 20
270.4770641322
 10
336.6488267553
 20
270.5015765424
 10
336.9404275787
 20
270.4770641322
 10
337.1876378429
 20
270.4072596426
 10
337.3528246653
 20
270.3027801509
 10
337.4108274352
 20
270.1795475478
 10
337.3528246653
 20
270.0563074941
 10
337.1876378429
 20
269.9518280024
 10
336.9404275787
 20
269.8820235128
 10
336.6488267553
 20
269.8575111027
 10
336.3572184813
 20
269.8820235128
 10
336.1100082171
 20
269.9518280024
 10
335.9448288452
 20
270.0563074941
 10
335.8868260753
 20
270.1795475478
  0
LWPOLYLINE
  5
35C
330
1F
100
AcDbEntity
  8
0
  6
Continuous
 62
     7
370
    25
100
AcDbPolyline
 90
       17
 70
   128
 43
0.0
 10
338.3211617243
 20
270.1795475478
 10
338.3791719448
 20
270.3027801509
 10
338.5443513167
 20
270.4072596426
 10
338.7915615809
 20
270.4770641322
 10
339.0831624043
 20
270.5015765424
 10
339.3747706783
 20
270.4770641322
 10
339.6219809425
 20
270.4072596426
 10
339.7871603143
 20
270.3027801509
 10
339.8451630842
 20
270.1795475478
 10
339.7871603143
 20
270.0563074941
 10
339.6219809425
 20
269.9518280024
 10
339.3747706783
 20
269.8820235128
 10
339.0831624043
 20
269.8575111027
 10
338.7915615809
 20
269.8820235128
 10
338.5443513167
 20
269.9518280024
 10
338.3791719448
 20
270.0563074941
 10
338.3211617243
 20
270.1795475478
  0
LWPOLYLINE
  5
35D
330
1F
100
AcDbEntity
  8
0
  6
Continuous
 62
     7
370
    25
100
AcDbPolyline
 90
       17
 70
   128
 43
0.0
 10
340.5309666764
 20
270.1795475478
 10
340.5889694464
 20
270.3027801509
 10
340.7541488182
 20
270.4072596426
 10
341.0013590824
 20
270.4770641322
 10
341.2929673564
 20
270.5015765424
 10
341.5845681798
 20
270.4770641322
 10
341.831778444
 20
270.4072596426
 10
341.9969578159
 20
270.3027801509
 10
342.0549680364
 20
270.1795475478
 10
341.9969578159
 20
270.0563074941
 10
341.831778444
 20
269.9518280024
 10
341.5845681798
 20
269.8820235128
 10
341.2929673564
 20
269.8575111027
 10
341.0013590824
 20
269.8820235128
 10
340.7541488182
 20
269.9518280024
 10
340.5889694464
 20
270.0563074941
 10
340.5309666764
 20
270.1795475478
  0
LWPOLYLINE
  5
35E
330
1F
100
AcDbEntity
  8
0
  6
Continuous
 62
     7
370
    25
100
AcDbPolyline
 90
       17
 70
   128
 43
0.0
 10
342.740764178
 20
270.1795475478
 10
342.798766948
 20
270.3027801509
 10
342.9639463198
 20
270.4072596426
 10
343.211156584
 20
270.4770641322
 10
343.502764858
 20
270.5015765424
 10
343.794373132
 20
270.4770641322
 10
344.0415833962
 20
270.4072596426
 10
344.206762768
 20
270.3027801509
 10
344.264765538
 20
270.1795475478
 10
344.206762768
 20
270.0563074941
 10
344.0415833962
 20
269.9518280024
 10
343.794373132
 20
269.8820235128
 10
343.502764858
 20
269.8575111027
 10
343.211156584
 20
269.8820235128
 10
342.9639463198
 20
269.9518280024
 10
342.798766948
 20
270.0563074941
 10
342.740764178
 20
270.1795475478
  0
LWPOLYLINE
  5
35F
330
1F
100
AcDbEntity
  8
0
  6
Continuous
 62
     7
370
    25
100
AcDbPolyline
 90
       17
 70
   128
 43
0.0
 10
344.9505616796
 20
270.1795475478
 10
345.0085719001
 20
270.3027801509
 10
345.1737512719
 20
270.4072596426
 10
345.4209615361
 20
270.4770641322
 10
345.7125623595
 20
270.5015765424
 10
346.0041706335
 20
270.4770641322
 10
346.2513808977
 20
270.4072596426
 10
346.4165602696
 20
270.3027801509
 10
346.4745630395
 20
270.1795475478
 10
346.4165602696
 20
270.0563074941
 10
346.2513808977
 20
269.9518280024
 10
346.0041706335
 20
269.8820235128
 10
345.7125623595
 20
269.8575111027
 10
345.4209615361
 20
269.8820235128
 10
345.1737512719
 20
269.9518280024
 10
345.0085719001
 20
270.0563074941
 10
344.9505616796
 20
270.1795475478
  0
LINE
  5
360
330
1F
100
AcDbEntity
  8
0
  6
Continuous
 62
     7
370
    25
100
AcDbLine
 10
331.2668849599
 20
268.8317747707
 30
0.0
 11
331.2668849599
 21
268.7960790391
 31
0.0
  0
LINE
  5
361
330
1F
100
AcDbEntity
  8
0
  6
Continuous
 62
     7
370
    25
100
AcDbLine
 10
344.4651116502
 20
268.8317747707
 30
0.0
 11
344.4651116502
 21
268.7960790391
 31
0.0
  0
ARC
  5
362
330
1F
100
AcDbEntity
  8
0
  6
Continuous
 62
     7
370
    25
100
AcDbCircle
 10
284.2588653127
 20
276.5165067256
 30
0.0
 40
11.43257608055089
100
AcDbArc
 50
341.0815377188
 51
22.7582765295
  0
ARC
  5
363
330
1F
100
AcDbEntity
  8
0
  6
Continuous
 62
     7
370
    25
100
AcDbCircle
 10
326.4119126665
 20
276.5130808117
 30
0.0
 40
11.37287575882438
100
AcDbArc
 50
159.9582605207
 51
197.7083826766
  0
LWPOLYLINE
  5
364
330
1F
100
AcDbEntity
  8
0
  6
Continuous
 62
     7
370
    25
100
AcDbPolyline
 90
        9
 70
   128
 43
0.0
 10
303.8659964573
 20
268.435634851
 10
303.980176605
 20
268.1930439467
 10
304.3053348434
 20
267.9873855705
 10
304.7919695151
 20
267.849967062
 10
305.3659957719
 20
267.8017096515
 10
305.9400220287
 20
267.849967062
 10
306.4266567003
 20
267.9873855705
 10
306.7518149388
 20
268.1930439467
 10
306.8659950864
 20
268.435634851
  0
LINE
  5
365
330
1F
100
AcDbEntity
  8
0
  6
Continuous
 62
     7
370
    25
100
AcDbLine
 10
303.8659964573
 20
281.6099153752
 30
0.0
 11
303.8659964573
 21
268.435634851
 31
0.0
  0
LINE
  5
366
330
1F
100
AcDbEntity
  8
0
  6
Continuous
 62
     7
370
    25
100
AcDbLine
 10
306.8659950864
 20
268.435634851
 30
0.0
 11
306.8659950864
 21
281.6099153752
 31
0.0
  0
LINE
  5
367
330
1F
100
AcDbEntity
  8
0
  6
Continuous
 62
     7
370
    25
100
AcDbLine
 10
293.7484358322
 20
269.762374639
 30
0.0
 11
293.7452954125
 21
269.7807179684
 31
0.0
  0
ARC
  5
368
330
1F
100
AcDbEntity
  8
0
  6
Continuous
 62
     7
370
    25
100
AcDbCircle
 10
184.2587667015
 20
276.516498514
 30
0.0
 40
11.43266881697824
100
AcDbArc
 50
341.0817405112
 51
22.7581261902
  0
ARC
  5
369
330
1F
100
AcDbEntity
  8
0
  6
Continuous
 62
     7
370
    25
100
AcDbCircle
 10
226.4119111764
 20
276.5130808117
 30
0.0
 40
11.37287575882438
100
AcDbArc
 50
159.9582605207
 51
197.7083826766
  0
LWPOLYLINE
  5
36A
330
1F
100
AcDbEntity
  8
0
  6
Continuous
 62
     7
370
    25
100
AcDbPolyline
 90
        9
 70
   128
 43
0.0
 10
203.8659949672
 20
268.435634851
 10
203.9801751148
 20
268.1930439467
 10
204.3053333533
 20
267.9873855705
 10
204.7919680249
 20
267.849967062
 10
205.3659942817
 20
267.8017096515
 10
205.9400205385
 20
267.849967062
 10
206.4266552102
 20
267.9873855705
 10
206.7518134486
 20
268.1930439467
 10
206.8659935963
 20
268.435634851
  0
LINE
  5
36B
330
1F
100
AcDbEntity
  8
0
  6
Continuous
 62
     7
370
    25
100
AcDbLine
 10
203.8659949672
 20
281.6099153752
 30
0.0
 11
203.8659949672
 21
268.435634851
 31
0.0
  0
LINE
  5
36C
330
1F
100
AcDbEntity
  8
0
  6
Continuous
 62
     7
370
    25
100
AcDbLine
 10
206.8659935963
 20
268.435634851
 30
0.0
 11
206.8659935963
 21
281.6099153752
 31
0.0
  0
LINE
  5
36D
330
1F
100
AcDbEntity
  8
0
  6
Continuous
 62
     7
370
    25
100
AcDbLine
 10
193.7484343421
 20
269.762374639
 30
0.0
 11
193.7452939224
 21
269.7807179684
 31
0.0
  0
LINE
  5
36E
330
1F
100
AcDbEntity
  8
0
  6
Continuous
 62
     7
370
    25
100
AcDbLine
 10
455.365998007
 20
281.5476881261
 30
0.0
 11
455.365998007
 21
281.6099153752
 31
0.0
  0
LINE
  5
36F
330
1F
100
AcDbEntity
  8
0
  6
Continuous
 62
     7
370
    25
100
AcDbLine
 10
55.3659920466
 20
281.6099153752
 30
0.0
 11
55.3659920466
 21
281.5476881261
 31
0.0
  0
CIRCLE
  5
370
330
1F
100
AcDbEntity
  8
0
  6
Continuous
 62
     7
370
    25
100
AcDbCircle
 10
65.3659950268
 20
1144.1099185795
 30
0.0
 40
9.5
  0
CIRCLE
  5
371
330
1F
100
AcDbEntity
  8
0
  6
Continuous
 62
     7
370
    25
100
AcDbCircle
 10
445.3659950268
 20
1144.1099185795
 30
0.0
 40
9.499999999999773
  0
ARC
  5
372
330
1F
100
AcDbEntity
  8
0
  6
Continuous
 62
     7
370
    25
100
AcDbCircle
 10
405.3659950268
 20
1026.1099185795
 30
0.0
 40
9.999999994761367
100
AcDbArc
 50
180.0
 51
246.409317949
  0
ARC
  5
373
330
1F
100
AcDbEntity
  8
0
  6
Continuous
 62
     7
370
    25
100
AcDbCircle
 10
405.3659950268
 20
1026.1099185795
 30
0.0
 40
9.999999994761367
100
AcDbArc
 50
293.590682051
 51
180.0
  0
ARC
  5
374
330
1F
100
AcDbEntity
  8
0
  6
Continuous
 62
     7
370
    25
100
AcDbCircle
 10
405.3659950268
 20
1026.1099185795
 30
0.0
 40
4.999999999970325
100
AcDbArc
 50
323.1683165354
 51
0.0
  0
ARC
  5
375
330
1F
100
AcDbEntity
  8
0
  6
Continuous
 62
     7
370
    25
100
AcDbCircle
 10
405.3659950268
 20
1026.1099185795
 30
0.0
 40
4.999999999970234
100
AcDbArc
 50
0.0
 51
216.8316834646
  0
ARC
  5
376
330
1F
100
AcDbEntity
  8
0
  6
Continuous
 62
     7
370
    25
100
AcDbCircle
 10
105.3659950268
 20
1026.1099185795
 30
0.0
 40
4.999999999970302
100
AcDbArc
 50
323.1683165354
 51
0.0
  0
ARC
  5
377
330
1F
100
AcDbEntity
  8
0
  6
Continuous
 62
     7
370
    25
100
AcDbCircle
 10
105.3659950268
 20
1026.1099185795
 30
0.0
 40
4.999999999970359
100
AcDbArc
 50
0.0
 51
216.8316834646
  0
ARC
  5
378
330
1F
100
AcDbEntity
  8
0
  6
Continuous
 62
     7
370
    25
100
AcDbCircle
 10
105.3659950268
 20
1026.1099185795
 30
0.0
 40
9.99999999476157
100
AcDbArc
 50
180.0
 51
246.409317949
  0
ARC
  5
379
330
1F
100
AcDbEntity
  8
0
  6
Continuous
 62
     7
370
    25
100
AcDbCircle
 10
105.3659950268
 20
1026.1099185795
 30
0.0
 40
9.999999994761565
100
AcDbArc
 50
293.590682051
 51
180.0
  0
ARC
  5
37A
330
1F
100
AcDbEntity
  8
0
  6
Continuous
 62
     7
370
    25
100
AcDbCircle
 10
405.3659950268
 20
1026.1099185795
 30
0.0
 40
4.00200000000001
100
AcDbArc
 50
90.0
 51
180.0
  0
ARC
  5
37B
330
1F
100
AcDbEntity
  8
0
  6
Continuous
 62
     7
370
    25
100
AcDbCircle
 10
405.3659950268
 20
1026.1099185795
 30
0.0
 40
4.00200000000001
100
AcDbArc
 50
0.0
 51
90.0
  0
ARC
  5
37C
330
1F
100
AcDbEntity
  8
0
  6
Continuous
 62
     7
370
    25
100
AcDbCircle
 10
105.3659950268
 20
1026.1099185795
 30
0.0
 40
4.00200000000001
100
AcDbArc
 50
90.0
 51
180.0
  0
ARC
  5
37D
330
1F
100
AcDbEntity
  8
0
  6
Continuous
 62
     7
370
    25
100
AcDbCircle
 10
105.3659950268
 20
1026.1099185795
 30
0.0
 40
4.001999999999995
100
AcDbArc
 50
0.0
 51
90.0
  0
LINE
  5
37E
330
1F
100
AcDbEntity
  8
0
  6
Continuous
 62
     7
370
    25
100
AcDbLine
 10
320.3731973541
 20
650.1099171037
 30
0.0
 11
321.0629348528
 21
650.1099171037
 31
0.0
  0
SPLINE
  5
37F
330
1F
100
AcDbEntity
  8
0
  6
Continuous
 62
     7
370
    25
100
AcDbSpline
210
0.0
220
0.0
230
1.0
 70
    24
 71
     3
 72
     9
 73
     5
 74
     0
 42
0.000000001
 43
0.00000001
 40
0.0
 40
0.0
 40
0.0
 40
0.0
 40
0.1082894690011005
 40
1.0
 40
1.0
 40
1.0
 40
1.0
 10
354.5641203295931
 20
650.1099171037499
 30
0.0
 10
354.5948019072206
 20
650.1099171037499
 30
0.0
 10
354.8781311903957
 20
650.10991710375
 30
0.0
 10
355.1398361552128
 20
650.10991710375
 30
0.0
 10
355.3732012283548
 20
650.1099171037499
 30
0.0
  0
LINE
  5
380
330
1F
100
AcDbEntity
  8
0
  6
Continuous
 62
     7
370
    25
100
AcDbLine
 10
155.3731982481
 20
650.1099171037
 30
0.0
 11
156.0629282963
 21
650.1099171037
 31
0.0
  0
SPLINE
  5
381
330
1F
100
AcDbEntity
  8
0
  6
Continuous
 62
     7
370
    25
100
AcDbSpline
210
0.0
220
0.0
230
1.0
 70
    24
 71
     3
 72
     9
 73
     5
 74
     0
 42
0.000000001
 43
0.00000001
 40
0.0
 40
0.0
 40
0.0
 40
0.0
 40
0.1082822317441448
 40
1.0
 40
1.0
 40
1.0
 40
1.0
 10
189.5641212236628
 20
650.1099171037499
 30
0.0
 10
189.5948002791468
 20
650.1099171037499
 30
0.0
 10
189.8781252068827
 20
650.1099171037499
 30
0.0
 10
190.1398328061078
 20
650.1099171037499
 30
0.0
 10
190.3732021224245
 20
650.1099171037499
 30
0.0
  0
LINE
  5
382
330
1F
100
AcDbEntity
  8
0
  6
Continuous
 62
     7
370
    25
100
AcDbLine
 10
155.3731982481
 20
645.1099218721
 30
0.0
 11
155.86599455
 21
645.1099218721
 31
0.0
  0
LINE
  5
383
330
1F
100
AcDbEntity
  8
0
  6
Continuous
 62
     7
370
    25
100
AcDbLine
 10
189.8659963977
 20
645.1099218721
 30
0.0
 11
190.3732021224
 21
645.1099218721
 31
0.0
  0
ARC
  5
384
330
1F
100
AcDbEntity
  8
0
  6
Continuous
 62
     7
370
    25
100
AcDbCircle
 10
207.8659950268
 20
952.1099185795
 30
0.0
 40
34.99999999999998
100
AcDbArc
 50
35.4628804295
 51
70.5272252916
  0
LINE
  5
385
330
1F
100
AcDbEntity
  8
0
  6
Continuous
 62
     7
370
    25
100
AcDbLine
 10
320.3731973541
 20
645.1099218721
 30
0.0
 11
320.8659936559
 21
645.1099218721
 31
0.0
  0
LINE
  5
386
330
1F
100
AcDbEntity
  8
0
  6
Continuous
 62
     7
370
    25
100
AcDbLine
 10
354.8659955036
 20
645.1099218721
 30
0.0
 11
355.3732012284
 21
645.1099218721
 31
0.0
  0
LINE
  5
387
330
1F
100
AcDbEntity
  8
0
  6
Continuous
 62
     7
370
    25
100
AcDbLine
 10
455.365998007
 20
1177.3599387998
 30
0.0
 11
455.365998007
 21
1110.8599306936
 31
0.0
  0
LINE
  5
388
330
1F
100
AcDbEntity
  8
0
  6
Continuous
 62
     7
370
    25
100
AcDbLine
 10
55.3659920466
 20
1177.3599387998
 30
0.0
 11
55.3659920466
 21
1110.8599306936
 31
0.0
  0
LINE
  5
389
330
1F
100
AcDbEntity
  8
0
  6
Continuous
 62
     7
370
    25
100
AcDbLine
 10
55.3659920466
 20
1110.8599306936
 30
0.0
 11
55.3659920466
 21
1106.6099407072
 31
0.0
  0
LINE
  5
38A
330
1F
100
AcDbEntity
  8
0
  6
Continuous
 62
     7
370
    25
100
AcDbLine
 10
455.365998007
 20
1110.8599306936
 30
0.0
 11
455.365998007
 21
1106.6099407072
 31
0.0
  0
LINE
  5
38B
330
1F
100
AcDbEntity
  8
0
  6
Continuous
 62
     7
370
    25
100
AcDbLine
 10
55.3659920466
 20
1106.6099407072
 30
0.0
 11
161.8659918082
 21
1106.6099407072
 31
0.0
  0
LINE
  5
38C
330
1F
100
AcDbEntity
  8
0
  6
Continuous
 62
     7
370
    25
100
AcDbLine
 10
165.6659965288
 20
1106.6099407072
 30
0.0
 11
166.8659944904
 21
1106.6099407072
 31
0.0
  0
LINE
  5
38D
330
1F
100
AcDbEntity
  8
0
  6
Continuous
 62
     7
370
    25
100
AcDbLine
 10
183.8659916889
 20
1106.6099407072
 30
0.0
 11
326.8659983647
 21
1106.6099407072
 31
0.0
  0
LINE
  5
38E
330
1F
100
AcDbEntity
  8
0
  6
Continuous
 62
     7
370
    25
100
AcDbLine
 10
330.6659956348
 20
1106.6099407072
 30
0.0
 11
331.8659935963
 21
1106.6099407072
 31
0.0
  0
LINE
  5
38F
330
1F
100
AcDbEntity
  8
0
  6
Continuous
 62
     7
370
    25
100
AcDbLine
 10
348.8659982455
 20
1106.6099407072
 30
0.0
 11
455.365998007
 21
1106.6099407072
 31
0.0
  0
LINE
  5
390
330
1F
100
AcDbEntity
  8
0
  6
Continuous
 62
     7
370
    25
100
AcDbLine
 10
55.3659920466
 20
1181.6099287863
 30
0.0
 11
55.3659920466
 21
1177.3599387998
 31
0.0
  0
LINE
  5
391
330
1F
100
AcDbEntity
  8
0
  6
Continuous
 62
     7
370
    25
100
AcDbLine
 10
55.3659920466
 20
1181.6099287863
 30
0.0
 11
455.365998007
 21
1181.6099287863
 31
0.0
  0
LINE
  5
392
330
1F
100
AcDbEntity
  8
0
  6
Continuous
 62
     7
370
    25
100
AcDbLine
 10
455.365998007
 20
1181.6099287863
 30
0.0
 11
455.365998007
 21
1177.3599387998
 31
0.0
  0
LINE
  5
393
330
1F
100
AcDbEntity
  8
0
  6
Continuous
 62
     7
370
    25
100
AcDbLine
 10
455.365998007
 20
1106.6099407072
 30
0.0
 11
455.365998007
 21
1104.3599249716
 31
0.0
  0
LINE
  5
394
330
1F
100
AcDbEntity
  8
0
  6
Continuous
 62
     7
370
    25
100
AcDbLine
 10
55.3659920466
 20
1106.6099407072
 30
0.0
 11
55.3659920466
 21
1104.3599249716
 31
0.0
  0
ARC
  5
395
330
1F
100
AcDbEntity
  8
0
  6
Continuous
 62
     7
370
    25
100
AcDbCircle
 10
385.3659950268
 20
395.1099185795
 30
0.0
 40
39.99999999999999
100
AcDbArc
 50
270.0
 51
320.66669498
  0
ARC
  5
396
330
1F
100
AcDbEntity
  8
0
  6
Continuous
 62
     7
370
    25
100
AcDbCircle
 10
385.3659950268
 20
395.1099185795
 30
0.0
 40
39.99999999999999
100
AcDbArc
 50
320.66669498
 51
0.0
  0
LINE
  5
397
330
1F
100
AcDbEntity
  8
0
  6
Continuous
 62
     7
370
    25
100
AcDbLine
 10
55.3659920466
 20
293.6099173422
 30
0.0
 11
55.3659920466
 21
281.6099153752
 31
0.0
  0
LINE
  5
398
330
1F
100
AcDbEntity
  8
0
  6
Continuous
 62
     7
370
    25
100
AcDbLine
 10
455.365998007
 20
293.6099173422
 30
0.0
 11
455.365998007
 21
281.6099153752
 31
0.0
  0
LINE
  5
399
330
1F
100
AcDbEntity
  8
0
  6
Continuous
 62
     7
370
    25
100
AcDbLine
 10
85.3659932387
 20
1029.1098954077
 30
0.0
 11
85.3659932387
 21
395.1099181468
 31
0.0
  0
ARC
  5
39A
330
1F
100
AcDbEntity
  8
0
  6
Continuous
 62
     7
370
    25
100
AcDbCircle
 10
125.3659950268
 20
1029.1099185795
 30
0.0
 40
40.0
100
AcDbArc
 50
90.0
 51
180.0
  0
LINE
  5
39B
330
1F
100
AcDbEntity
  8
0
  6
Continuous
 62
     7
370
    25
100
AcDbLine
 10
125.3659997952
 20
355.1099190409
 30
0.0
 11
385.3659902584
 21
355.1099190409
 31
0.0
  0
LINE
  5
39C
330
1F
100
AcDbEntity
  8
0
  6
Continuous
 62
     7
370
    25
100
AcDbLine
 10
455.365998007
 20
1104.3599249716
 30
0.0
 11
455.365998007
 21
293.6099173422
 31
0.0
  0
LINE
  5
39D
330
1F
100
AcDbEntity
  8
0
  6
Continuous
 62
     7
370
    25
100
AcDbLine
 10
55.3659920466
 20
1104.3599249716
 30
0.0
 11
55.3659920466
 21
293.6099173422
 31
0.0
  0
LINE
  5
39E
330
1F
100
AcDbEntity
  8
0
  6
Continuous
 62
     7
370
    25
100
AcDbLine
 10
125.3659997952
 20
1069.1099168653
 30
0.0
 11
161.8659918082
 21
1069.1099168653
 31
0.0
  0
LINE
  5
39F
330
1F
100
AcDbEntity
  8
0
  6
Continuous
 62
     7
370
    25
100
AcDbLine
 10
183.8659916889
 20
1069.1099168653
 30
0.0
 11
326.8659983647
 21
1069.1099168653
 31
0.0
  0
LINE
  5
3A0
330
1F
100
AcDbEntity
  8
0
  6
Continuous
 62
     7
370
    25
100
AcDbLine
 10
348.8659982455
 20
1069.1099168653
 30
0.0
 11
385.3659902584
 21
1069.1099168653
 31
0.0
  0
ARC
  5
3A1
330
1F
100
AcDbEntity
  8
0
  6
Continuous
 62
     7
370
    25
100
AcDbCircle
 10
385.3659950268
 20
1029.1099185795
 30
0.0
 40
40.0
100
AcDbArc
 50
0.0
 51
90.0
  0
LINE
  5
3A2
330
1F
100
AcDbEntity
  8
0
  6
Continuous
 62
     7
370
    25
100
AcDbLine
 10
425.3659968149
 20
1029.1098954077
 30
0.0
 11
425.3659968149
 21
395.1099181468
 31
0.0
  0
ARC
  5
3A3
330
1F
100
AcDbEntity
  8
0
  6
Continuous
 62
     7
370
    25
100
AcDbCircle
 10
125.3659950268
 20
395.1099185795
 30
0.0
 40
40.00000000000002
100
AcDbArc
 50
180.0
 51
219.33330502
  0
ARC
  5
3A4
330
1F
100
AcDbEntity
  8
0
  6
Continuous
 62
     7
370
    25
100
AcDbCircle
 10
125.3659950268
 20
395.1099185795
 30
0.0
 40
40.00000000000002
100
AcDbArc
 50
219.33330502
 51
270.0
  0
ELLIPSE
  5
3A5
330
1F
100
AcDbEntity
  8
0
  6
Continuous
 62
     7
370
    25
100
AcDbEllipse
 10
413.7585777899
 20
591.3088228279
 30
0.0
 11
-1.591058419013109
 21
125.1988520140708
 31
0.0
210
0.0
220
0.0
230
1.0
 40
0.0718798391
 41
3.14067918681654
 42
3.14113534706552
  0
ELLIPSE
  5
3A6
330
1F
100
AcDbEntity
  8
0
  6
Continuous
 62
     7
370
    25
100
AcDbEllipse
 10
415.3455206163
 20
466.4338228279
 30
0.0
 11
8.99999976472958
 21
0.05718481864482782
 31
0.0
210
0.0
220
0.0
230
1.0
 40
0.0359864627
 41
4.712160327122546
 42
6.108423728718242
  0
ELLIPSE
  5
3A7
330
1F
100
AcDbEntity
  8
0
  6
Continuous
 62
     7
370
    25
100
AcDbEllipse
 10
95.3864694373
 20
466.4338228279
 30
0.0
 11
8.999999764729594
 21
-0.05718481864477099
 31
0.0
210
0.0
220
0.0
230
1.0
 40
0.0359864627
 41
3.316354232053587
 42
4.712617633646828
  0
ELLIPSE
  5
3A8
330
1F
100
AcDbEntity
  8
0
  6
Continuous
 62
     7
370
    25
100
AcDbEllipse
 10
96.9734122637
 20
591.3088228279
 30
0.0
 11
1.591058419013137
 21
125.1988520140708
 31
0.0
210
0.0
220
0.0
230
1.0
 40
0.0718798391
 41
3.142049960114267
 42
3.142506120363253
  0
LINE
  5
3A9
330
1F
100
AcDbEntity
  8
0
  6
Continuous
 62
     7
370
    25
100
AcDbLine
 10
95.3905706179
 20
466.1099167461
 30
0.0
 11
155.86599455
 21
466.1099167461
 31
0.0
  0
LINE
  5
3AA
330
1F
100
AcDbEntity
  8
0
  6
Continuous
 62
     7
370
    25
100
AcDbLine
 10
189.8659963977
 20
466.1099167461
 30
0.0
 11
320.8659936559
 21
466.1099167461
 31
0.0
  0
LINE
  5
3AB
330
1F
100
AcDbEntity
  8
0
  6
Continuous
 62
     7
370
    25
100
AcDbLine
 10
354.8659955036
 20
466.1099167461
 30
0.0
 11
415.3414194357
 21
466.1099167461
 31
0.0
  0
LINE
  5
3AC
330
1F
100
AcDbEntity
  8
0
  6
Continuous
 62
     7
370
    25
100
AcDbLine
 10
320.3731973541
 20
642.1099306936
 30
0.0
 11
320.8659936559
 21
642.1099306936
 31
0.0
  0
LINE
  5
3AD
330
1F
100
AcDbEntity
  8
0
  6
Continuous
 62
     7
370
    25
100
AcDbLine
 10
354.8659955036
 20
642.1099306936
 30
0.0
 11
355.3732012284
 21
642.1099306936
 31
0.0
  0
LINE
  5
3AE
330
1F
100
AcDbEntity
  8
0
  6
Continuous
 62
     7
370
    25
100
AcDbLine
 10
155.3731982481
 20
642.1099306936
 30
0.0
 11
155.86599455
 21
642.1099306936
 31
0.0
  0
LINE
  5
3AF
330
1F
100
AcDbEntity
  8
0
  6
Continuous
 62
     7
370
    25
100
AcDbLine
 10
189.8659963977
 20
642.1099306936
 30
0.0
 11
190.3732021224
 21
642.1099306936
 31
0.0
  0
ARC
  5
3B0
330
1F
100
AcDbEntity
  8
0
  6
Continuous
 62
     7
370
    25
100
AcDbCircle
 10
207.8659950268
 20
952.1099185795
 30
0.0
 40
38.00000000000001
100
AcDbArc
 50
41.3931960837
 51
60.2695895297
  0
ENDSEC
  0
SECTION
  2
OBJECTS
  0
DICTIONARY
  5
C
330
0
100
AcDbDictionary
281
     1
  3
ACAD_GROUP
350
D
  3
ACAD_LAYOUT
350
1A
  3
ACAD_MLINESTYLE
350
17
  3
ACAD_PLOTSETTINGS
350
19
  3
ACAD_PLOTSTYLENAME
350
E
  3
ACAD_SCALELIST
350
47
  0
DICTIONARY
  5
D
102
{ACAD_REACTORS
330
C
102
}
330
C
100
AcDbDictionary
281
     1
  0
DICTIONARY
  5
1A
102
{ACAD_REACTORS
330
C
102
}
330
C
100
AcDbDictionary
281
     1
  3
Layout1
350
1E
  3
Layout2
350
26
  3
Model
350
22
  0
DICTIONARY
  5
17
102
{ACAD_REACTORS
330
C
102
}
330
C
100
AcDbDictionary
281
     1
  3
Standard
350
18
  0
DICTIONARY
  5
19
102
{ACAD_REACTORS
330
C
102
}
330
C
100
AcDbDictionary
281
     1
  0
ACDBDICTIONARYWDFLT
  5
E
102
{ACAD_REACTORS
330
C
102
}
330
C
100
AcDbDictionary
281
     1
  3
Normal
350
F
100
AcDbDictionaryWithDefault
340
F
  0
DICTIONARY
  5
47
102
{ACAD_REACTORS
330
C
102
}
330
C
100
AcDbDictionary
281
     1
  3
A0
350
48
  3
A1
350
49
  3
A2
350
4A
  3
A3
350
4B
  3
A4
350
4C
  3
A5
350
4D
  3
A6
350
4E
  3
A7
350
4F
  3
A8
350
50
  3
A9
350
51
  3
B0
350
52
  3
B1
350
53
  3
B2
350
54
  3
B3
350
55
  3
B4
350
56
  3
B5
350
57
  3
B6
350
58
  3
B7
350
59
  3
B8
350
5A
  3
B9
350
5B
  3
C0
350
5C
  3
C1
350
5D
  3
C2
350
5E
  3
C3
350
5F
  3
C4
350
60
  3
C5
350
61
  3
C6
350
62
  3
C7
350
63
  3
C8
350
64
  3
C9
350
65
  3
D0
350
66
  3
D1
350
67
  3
D2
350
68
  0
LAYOUT
  5
1E
102
{ACAD_REACTORS
330
1A
102
}
330
1A
100
AcDbPlotSettings
  1

  2
none_device
  4

  6

 40
0.0
 41
0.0
 42
0.0
 43
0.0
 44
0.0
 45
0.0
 46
0.0
 47
0.0
 48
0.0
 49
0.0
140
0.0
141
0.0
142
1.0
143
1.0
 70
   688
 72
     1
 73
     0
 74
     5
  7

 75
    16
147
1.0
148
0.0
149
0.0
100
AcDbLayout
  1
Layout1
 70
     1
 71
     1
 10
0.0
 20
0.0
 11
420.0
 21
297.0
 12
0.0
 22
0.0
 32
0.0
 14
1.0000000000E+20
 24
1.0000000000E+20
 34
1.0000000000E+20
 15
-1.0000000000E+20
 25
-1.0000000000E+20
 35
-1.0000000000E+20
146
0.0
 13
0.0
 23
0.0
 33
0.0
 16
1.0
 26
0.0
 36
0.0
 17
0.0
 27
1.0
 37
0.0
 76
     0
330
1B
  0
LAYOUT
  5
26
102
{ACAD_REACTORS
330
1A
102
}
330
1A
100
AcDbPlotSettings
  1

  2
none_device
  4

  6

 40
0.0
 41
0.0
 42
0.0
 43
0.0
 44
0.0
 45
0.0
 46
0.0
 47
0.0
 48
0.0
 49
0.0
140
0.0
141
0.0
142
1.0
143
1.0
 70
   688
 72
     1
 73
     0
 74
     5
  7

 75
    16
147
1.0
148
0.0
149
0.0
100
AcDbLayout
  1
Layout2
 70
     1
 71
     2
 10
0.0
 20
0.0
 11
0.0
 21
0.0
 12
0.0
 22
0.0
 32
0.0
 14
0.0
 24
0.0
 34
0.0
 15
0.0
 25
0.0
 35
0.0
146
0.0
 13
0.0
 23
0.0
 33
0.0
 16
1.0
 26
0.0
 36
0.0
 17
0.0
 27
1.0
 37
0.0
 76
     0
330
23
  0
LAYOUT
  5
22
102
{ACAD_REACTORS
330
1A
102
}
330
1A
100
AcDbPlotSettings
  1

  2
none_device
  4
Letter_(8.50_x_11.00_Inches)
  6

 40
6.35
 41
6.35
 42
6.35000508
 43
6.35000508
 44
215.9
 45
279.4
 46
0.0
 47
0.0
 48
0.0
 49
0.0
140
0.0
141
0.0
142
1.0
143
1.0
 70
  1712
 72
     1
 73
     0
 74
     0
  7

 75
     0
147
1.0
148
0.0
149
0.0
100
AcDbLayout
  1
Model
 70
     1
 71
     0
 10
0.0
 20
0.0
 11
500.0
 21
1400.0
 12
0.0
 22
0.0
 32
0.0
 14
0.0
 24
0.0
 34
0.0
 15
500.0
 25
1400.0
 35
0.0
146
0.0
 13
0.0
 23
0.0
 33
0.0
 16
1.0
 26
0.0
 36
0.0
 17
0.0
 27
1.0
 37
0.0
 76
     0
330
1F
331
29
  0
MLINESTYLE
  5
18
102
{ACAD_REACTORS
330
17
102
}
330
17
100
AcDbMlineStyle
  2
Standard
 70
     0
  3

 62
   256
 51
90.0
 52
90.0
 71
     2
 49
0.5
 62
   256
  6
BYLAYER
 49
-0.5
 62
   256
  6
BYLAYER
  0
ACDBPLACEHOLDER
  5
F
102
{ACAD_REACTORS
330
E
102
}
330
E
  0
SCALE
  5
48
102
{ACAD_REACTORS
330
47
102
}
330
47
100
AcDbScale
 70
     0
300
1:1
140
1.0
141
1.0
290
     1
  0
SCALE
  5
49
102
{ACAD_REACTORS
330
47
102
}
330
47
100
AcDbScale
 70
     0
300
1:2
140
1.0
141
2.0
290
     0
  0
SCALE
  5
4A
102
{ACAD_REACTORS
330
47
102
}
330
47
100
AcDbScale
 70
     0
300
1:4
140
1.0
141
4.0
290
     0
  0
SCALE
  5
4B
102
{ACAD_REACTORS
330
47
102
}
330
47
100
AcDbScale
 70
     0
300
1:5
140
1.0
141
5.0
290
     0
  0
SCALE
  5
4C
102
{ACAD_REACTORS
330
47
102
}
330
47
100
AcDbScale
 70
     0
300
1:8
140
1.0
141
8.0
290
     0
  0
SCALE
  5
4D
102
{ACAD_REACTORS
330
47
102
}
330
47
100
AcDbScale
 70
     0
300
1:10
140
1.0
141
10.0
290
     0
  0
SCALE
  5
4E
102
{ACAD_REACTORS
330
47
102
}
330
47
100
AcDbScale
 70
     0
300
1:16
140
1.0
141
16.0
290
     0
  0
SCALE
  5
4F
102
{ACAD_REACTORS
330
47
102
}
330
47
100
AcDbScale
 70
     0
300
1:20
140
1.0
141
20.0
290
     0
  0
SCALE
  5
50
102
{ACAD_REACTORS
330
47
102
}
330
47
100
AcDbScale
 70
     0
300
1:30
140
1.0
141
30.0
290
     0
  0
SCALE
  5
51
102
{ACAD_REACTORS
330
47
102
}
330
47
100
AcDbScale
 70
     0
300
1:40
140
1.0
141
40.0
290
     0
  0
SCALE
  5
52
102
{ACAD_REACTORS
330
47
102
}
330
47
100
AcDbScale
 70
     0
300
1:50
140
1.0
141
50.0
290
     0
  0
SCALE
  5
53
102
{ACAD_REACTORS
330
47
102
}
330
47
100
AcDbScale
 70
     0
300
1:100
140
1.0
141
100.0
290
     0
  0
SCALE
  5
54
102
{ACAD_REACTORS
330
47
102
}
330
47
100
AcDbScale
 70
     0
300
2:1
140
2.0
141
1.0
290
     0
  0
SCALE
  5
55
102
{ACAD_REACTORS
330
47
102
}
330
47
100
AcDbScale
 70
     0
300
4:1
140
4.0
141
1.0
290
     0
  0
SCALE
  5
56
102
{ACAD_REACTORS
330
47
102
}
330
47
100
AcDbScale
 70
     0
300
8:1
140
8.0
141
1.0
290
     0
  0
SCALE
  5
57
102
{ACAD_REACTORS
330
47
102
}
330
47
100
AcDbScale
 70
     0
300
10:1
140
10.0
141
1.0
290
     0
  0
SCALE
  5
58
102
{ACAD_REACTORS
330
47
102
}
330
47
100
AcDbScale
 70
     0
300
100:1
140
100.0
141
1.0
290
     0
  0
SCALE
  5
59
102
{ACAD_REACTORS
330
47
102
}
330
47
100
AcDbScale
 70
     0
300
1/128" = 1'-0"
140
0.0078125
141
12.0
290
     0
  0
SCALE
  5
5A
102
{ACAD_REACTORS
330
47
102
}
330
47
100
AcDbScale
 70
     0
300
1/64" = 1'-0"
140
0.015625
141
12.0
290
     0
  0
SCALE
  5
5B
102
{ACAD_REACTORS
330
47
102
}
330
47
100
AcDbScale
 70
     0
300
1/32" = 1'-0"
140
0.03125
141
12.0
290
     0
  0
SCALE
  5
5C
102
{ACAD_REACTORS
330
47
102
}
330
47
100
AcDbScale
 70
     0
300
1/16" = 1'-0"
140
0.0625
141
12.0
290
     0
  0
SCALE
  5
5D
102
{ACAD_REACTORS
330
47
102
}
330
47
100
AcDbScale
 70
     0
300
3/32" = 1'-0"
140
0.09375
141
12.0
290
     0
  0
SCALE
  5
5E
102
{ACAD_REACTORS
330
47
102
}
330
47
100
AcDbScale
 70
     0
300
1/8" = 1'-0"
140
0.125
141
12.0
290
     0
  0
SCALE
  5
5F
102
{ACAD_REACTORS
330
47
102
}
330
47
100
AcDbScale
 70
     0
300
3/16" = 1'-0"
140
0.1875
141
12.0
290
     0
  0
SCALE
  5
60
102
{ACAD_REACTORS
330
47
102
}
330
47
100
AcDbScale
 70
     0
300
1/4" = 1'-0"
140
0.25
141
12.0
290
     0
  0
SCALE
  5
61
102
{ACAD_REACTORS
330
47
102
}
330
47
100
AcDbScale
 70
     0
300
3/8" = 1'-0"
140
0.375
141
12.0
290
     0
  0
SCALE
  5
62
102
{ACAD_REACTORS
330
47
102
}
330
47
100
AcDbScale
 70
     0
300
1/2" = 1'-0"
140
0.5
141
12.0
290
     0
  0
SCALE
  5
63
102
{ACAD_REACTORS
330
47
102
}
330
47
100
AcDbScale
 70
     0
300
3/4" = 1'-0"
140
0.75
141
12.0
290
     0
  0
SCALE
  5
64
102
{ACAD_REACTORS
330
47
102
}
330
47
100
AcDbScale
 70
     0
300
1" = 1'-0"
140
1.0
141
12.0
290
     0
  0
SCALE
  5
65
102
{ACAD_REACTORS
330
47
102
}
330
47
100
AcDbScale
 70
     0
300
1-1/2" = 1'-0"
140
1.5
141
12.0
290
     0
  0
SCALE
  5
66
102
{ACAD_REACTORS
330
47
102
}
330
47
100
AcDbScale
 70
     0
300
3" = 1'-0"
140
3.0
141
12.0
290
     0
  0
SCALE
  5
67
102
{ACAD_REACTORS
330
47
102
}
330
47
100
AcDbScale
 70
     0
300
6" = 1'-0"
140
6.0
141
12.0
290
     0
  0
SCALE
  5
68
102
{ACAD_REACTORS
330
47
102
}
330
47
100
AcDbScale
 70
     0
300
1'-0" = 1'-0"
140
12.0
141
12.0
290
     0
  0
ENDSEC
  0
EOF
