  0
SECTION
  2
HEADER
  9
$ACADVER
  1
AC1015
  9
$ACADMAINTVER
 70
     6
  9
$DWGCODEPAGE
  3
ANSI_1252
  9
$INSBASE
 10
0.0
 20
0.0
 30
0.0
  9
$EXTMIN
 10
0.0
 20
0.0
 30
0.0
  9
$EXTMAX
 10
1100.0
 20
1000.0
 30
0.0
  9
$LIMMIN
 10
0.0
 20
0.0
  9
$LIMMAX
 10
1100.0
 20
1000.0
  9
$ORTHOMODE
 70
     0
  9
$REGENMODE
 70
     1
  9
$FILLMODE
 70
     1
  9
$QTEXTMODE
 70
     0
  9
$MIRRTEXT
 70
     1
  9
$LTSCALE
 40
1.0
  9
$ATTMODE
 70
     1
  9
$TEXTSIZE
 40
3.5
  9
$TRACEWID
 40
1.0
  9
$TEXTSTYLE
  7
Standard
  9
$CLAYER
  8
0
  9
$CELTYPE
  6
ByLayer
  9
$CECOLOR
 62
   256
  9
$CELTSCALE
 40
1.0
  9
$DISPSILH
 70
     0
  9
$DIMSCALE
 40
1.0
  9
$DIMASZ
 40
3.302
  9
$DIMEXO
 40
1.0
  9
$DIMDLI
 40
3.75
  9
$DIMRND
 40
0.0
  9
$DIMDLE
 40
0.0
  9
$DIMEXE
 40
1.0
  9
$DIMTP
 40
0.0
  9
$DIMTM
 40
0.0
  9
$DIMTXT
 40
3.5
  9
$DIMCEN
 40
2.5
  9
$DIMTSZ
 40
0.0
  9
$DIMTOL
 70
     0
  9
$DIMLIM
 70
     0
  9
$DIMTIH
 70
     1
  9
$DIMTOH
 70
     1
  9
$DIMSE1
 70
     0
  9
$DIMSE2
 70
     0
  9
$DIMTAD
 70
     1
  9
$DIMZIN
 70
     0
  9
$DIMBLK
  1

  9
$DIMASO
 70
     1
  9
$DIMSHO
 70
     1
  9
$DIMPOST
  1

  9
$DIMAPOST
  1

  9
$DIMALT
 70
     0
  9
$DIMALTD
 70
     3
  9
$DIMALTF
 40
0.0393700787
  9
$DIMLFAC
 40
1.0
  9
$DIMTOFL
 70
     1
  9
$DIMTVP
 40
0.0
  9
$DIMTIX
 70
     0
  9
$DIMSOXD
 70
     0
  9
$DIMSAH
 70
     0
  9
$DIMBLK1
  1

  9
$DIMBLK2
  1

  9
$DIMSTYLE
  2
ISO-25
  9
$DIMCLRD
 70
     0
  9
$DIMCLRE
 70
     0
  9
$DIMCLRT
 70
     0
  9
$DIMTFAC
 40
1.0
  9
$DIMGAP
 40
1.524
  9
$DIMJUST
 70
     0
  9
$DIMSD1
 70
     0
  9
$DIMSD2
 70
     0
  9
$DIMTOLJ
 70
     0
  9
$DIMTZIN
 70
     0
  9
$DIMALTZ
 70
     0
  9
$DIMALTTZ
 70
     0
  9
$DIMUPT
 70
     0
  9
$DIMDEC
 70
     3
  9
$DIMTDEC
 70
     3
  9
$DIMALTU
 70
     2
  9
$DIMALTTD
 70
     3
  9
$DIMTXSTY
  7
Standard
  9
$DIMAUNIT
 70
     0
  9
$DIMADEC
 70
     2
  9
$DIMALTRND
 40
0.0
  9
$DIMAZIN
 70
     0
  9
$DIMDSEP
 70
    44
  9
$DIMATFIT
 70
     3
  9
$DIMFRAC
 70
     0
  9
$DIMLDRBLK
  1

  9
$DIMLUNIT
 70
     2
  9
$DIMLWD
 70
    -2
  9
$DIMLWE
 70
    -2
  9
$DIMTMOVE
 70
     0
  9
$LUNITS
 70
     2
  9
$LUPREC
 70
     1
  9
$SKETCHINC
 40
1.0
  9
$FILLETRAD
 40
10.0
  9
$AUNITS
 70
     0
  9
$AUPREC
 70
     1
  9
$MENU
  1
.
  9
$ELEVATION
 40
0.0
  9
$PELEVATION
 40
0.0
  9
$THICKNESS
 40
0.0
  9
$LIMCHECK
 70
     0
  9
$CHAMFERA
 40
10.0
  9
$CHAMFERB
 40
10.0
  9
$CHAMFERC
 40
20.0
  9
$CHAMFERD
 40
0.0
  9
$SKPOLY
 70
     0
  9
$TDCREATE
 40
2457423.539746262
  9
$TDUCREATE
 40
2457423.539746262
  9
$TDUPDATE
 40
2457423.53974662
  9
$TDUUPDATE
 40
2457423.53974662
  9
$TDINDWG
 40
0.0000000116
  9
$TDUSRTIMER
 40
0.0000000116
  9
$USRTIMER
 70
     1
  9
$ANGBASE
 50
0.0
  9
$ANGDIR
 70
     0
  9
$PDMODE
 70
     0
  9
$PDSIZE
 40
-1.0
  9
$PLINEWID
 40
0.0
  9
$SPLFRAME
 70
     0
  9
$SPLINETYPE
 70
     6
  9
$SPLINESEGS
 70
     8
  9
$HANDSEED
  5
177
  9
$SURFTAB1
 70
     6
  9
$SURFTAB2
 70
     6
  9
$SURFTYPE
 70
     6
  9
$SURFU
 70
     6
  9
$SURFV
 70
     6
  9
$UCSBASE
  2

  9
$UCSNAME
  2

  9
$UCSORG
 10
0.0
 20
0.0
 30
0.0
  9
$UCSXDIR
 10
1.0
 20
0.0
 30
0.0
  9
$UCSYDIR
 10
0.0
 20
1.0
 30
0.0
  9
$UCSORTHOREF
  2

  9
$UCSORTHOVIEW
 70
     0
  9
$UCSORGTOP
 10
0.0
 20
0.0
 30
0.0
  9
$UCSORGBOTTOM
 10
0.0
 20
0.0
 30
0.0
  9
$UCSORGLEFT
 10
0.0
 20
0.0
 30
0.0
  9
$UCSORGRIGHT
 10
0.0
 20
0.0
 30
0.0
  9
$UCSORGFRONT
 10
0.0
 20
0.0
 30
0.0
  9
$UCSORGBACK
 10
0.0
 20
0.0
 30
0.0
  9
$PUCSBASE
  2

  9
$PUCSNAME
  2

  9
$PUCSORG
 10
0.0
 20
0.0
 30
0.0
  9
$PUCSXDIR
 10
1.0
 20
0.0
 30
0.0
  9
$PUCSYDIR
 10
0.0
 20
1.0
 30
0.0
  9
$PUCSORTHOREF
  2

  9
$PUCSORTHOVIEW
 70
     0
  9
$PUCSORGTOP
 10
0.0
 20
0.0
 30
0.0
  9
$PUCSORGBOTTOM
 10
0.0
 20
0.0
 30
0.0
  9
$PUCSORGLEFT
 10
0.0
 20
0.0
 30
0.0
  9
$PUCSORGRIGHT
 10
0.0
 20
0.0
 30
0.0
  9
$PUCSORGFRONT
 10
0.0
 20
0.0
 30
0.0
  9
$PUCSORGBACK
 10
0.0
 20
0.0
 30
0.0
  9
$USERI1
 70
     0
  9
$USERI2
 70
     0
  9
$USERI3
 70
     0
  9
$USERI4
 70
     0
  9
$USERI5
 70
     0
  9
$USERR1
 40
0.0
  9
$USERR2
 40
0.0
  9
$USERR3
 40
0.0
  9
$USERR4
 40
0.0
  9
$USERR5
 40
0.0
  9
$WORLDVIEW
 70
     1
  9
$SHADEDGE
 70
     3
  9
$SHADEDIF
 70
    70
  9
$TILEMODE
 70
     1
  9
$MAXACTVP
 70
    64
  9
$PINSBASE
 10
0.0
 20
0.0
 30
0.0
  9
$PLIMCHECK
 70
     0
  9
$PEXTMIN
 10
1.0000000000E+20
 20
1.0000000000E+20
 30
1.0000000000E+20
  9
$PEXTMAX
 10
-1.0000000000E+20
 20
-1.0000000000E+20
 30
-1.0000000000E+20
  9
$PLIMMIN
 10
0.0
 20
0.0
  9
$PLIMMAX
 10
420.0
 20
297.0
  9
$UNITMODE
 70
     0
  9
$VISRETAIN
 70
     1
  9
$PLINEGEN
 70
     0
  9
$PSLTSCALE
 70
     1
  9
$TREEDEPTH
 70
  3020
  9
$CMLSTYLE
  2
Standard
  9
$CMLJUST
 70
     0
  9
$CMLSCALE
 40
20.0
  9
$PROXYGRAPHICS
 70
     1
  9
$MEASUREMENT
 70
     1
  9
$CELWEIGHT
370
    -1
  9
$ENDCAPS
280
     0
  9
$JOINSTYLE
280
     0
  9
$LWDISPLAY
290
     1
  9
$INSUNITS
 70
     4
  9
$HYPERLINKBASE
  1

  9
$STYLESHEET
  1

  9
$XEDIT
290
     1
  9
$CEPSNTYPE
380
     0
  9
$PSTYLEMODE
290
     1
  9
$FINGERPRINTGUID
  2
{8C1687F5-B7C3-49EA-8628-DA87732E2F3C}
  9
$VERSIONGUID
  2
{FAEB1C32-E019-11D5-929B-00C0DF256EC4}
  9
$EXTNAMES
290
     1
  9
$PSVPSCALE
 40
0.0
  9
$OLESTARTUP
290
     0
  0
ENDSEC
  0
SECTION
  2
CLASSES
  0
CLASS
  1
ACDBDICTIONARYWDFLT
  2
AcDbDictionaryWithDefault
  3
ObjectDBX Classes
 90
        0
280
     0
281
     0
  0
CLASS
  1
VISUALSTYLE
  2
AcDbVisualStyle
  3
ObjectDBX Classes
 90
     4095
280
     0
281
     0
  0
CLASS
  1
MATERIAL
  2
AcDbMaterial
  3
ObjectDBX Classes
 90
     1153
280
     0
281
     0
  0
CLASS
  1
ACDBPLACEHOLDER
  2
AcDbPlaceHolder
  3
ObjectDBX Classes
 90
        0
280
     0
281
     0
  0
CLASS
  1
LAYOUT
  2
AcDbLayout
  3
ObjectDBX Classes
 90
        0
280
     0
281
     0
  0
ENDSEC
  0
SECTION
  2
TABLES
  0
TABLE
  2
VPORT
  5
8
330
0
100
AcDbSymbolTable
 70
     1
  0
VPORT
  5
29
330
8
100
AcDbSymbolTableRecord
100
AcDbViewportTableRecord
  2
*Active
 70
     0
 10
0.0
 20
0.0
 11
1.0
 21
1.0
 12
550.0
 22
500.0
 13
0.0
 23
0.0
 14
10.0
 24
10.0
 15
10.0
 25
10.0
 16
0.0
 26
0.0
 36
1.0
 17
0.0
 27
0.0
 37
0.0
 40
1000.0
 41
1.1
 42
50.0
 43
0.0
 44
0.0
 50
0.0
 51
0.0
 71
     0
 72
  2000
 73
     1
 74
     3
 75
     0
 76
     0
 77
     0
 78
     0
281
     0
 65
     1
110
0.0
120
0.0
130
0.0
111
1.0
121
0.0
131
0.0
112
0.0
122
1.0
132
0.0
 79
     0
146
0.0
  0
ENDTAB
  0
TABLE
  2
LTYPE
  5
5
330
0
100
AcDbSymbolTable
 70
     6
  0
LTYPE
  5
14
330
5
100
AcDbSymbolTableRecord
100
AcDbLinetypeTableRecord
  2
ByBlock
 70
     0
  3

 72
    65
 73
     0
 40
0.0
  0
LTYPE
  5
15
330
5
100
AcDbSymbolTableRecord
100
AcDbLinetypeTableRecord
  2
ByLayer
 70
     0
  3

 72
    65
 73
     0
 40
0.0
  0
LTYPE
  5
16
330
5
100
AcDbSymbolTableRecord
100
AcDbLinetypeTableRecord
  2
Continuous
 70
     0
  3
Solid line
 72
    65
 73
     0
 40
0.0
  0
LTYPE
  5
3F
330
5
100
AcDbSymbolTableRecord
100
AcDbLinetypeTableRecord
  2
HIDDEN
 70
     0
  3
Hidden __ __ __ __ __ __ __ __ __ __ __ __ __ __
 72
    65
 73
     2
 40
1.905
 49
1.27
 74
     0
 49
-0.635
 74
     0
  0
LTYPE
  5
40
330
5
100
AcDbSymbolTableRecord
100
AcDbLinetypeTableRecord
  2
PHANTOM
 70
     0
  3
Phantom ______  __  __  ______  __  __  ______
 72
    65
 73
     6
 40
12.7
 49
6.35
 74
     0
 49
-1.27
 74
     0
 49
1.27
 74
     0
 49
-1.27
 74
     0
 49
1.27
 74
     0
 49
-1.27
 74
     0
  0
LTYPE
  5
41
330
5
100
AcDbSymbolTableRecord
100
AcDbLinetypeTableRecord
  2
CENTER
 70
     0
  3
Center ____ _ ____ _ ____ _ ____ _ ____ _ ____
 72
    65
 73
     4
 40
10.16
 49
6.35
 74
     0
 49
-1.27
 74
     0
 49
1.27
 74
     0
 49
-1.27
 74
     0
  0
LTYPE
  5
42
330
5
100
AcDbSymbolTableRecord
100
AcDbLinetypeTableRecord
  2
CENTERX2
 70
     0
  3
Center (2x) ________  __  ________  __  _____
 72
    65
 73
     4
 40
20.32
 49
12.7
 74
     0
 49
-2.54
 74
     0
 49
2.54
 74
     0
 49
-2.54
 74
     0
  0
LTYPE
  5
43
330
5
100
AcDbSymbolTableRecord
100
AcDbLinetypeTableRecord
  2
DOT2
 70
     0
  3
Dot (.5x) ........................................
 72
    65
 73
     2
 40
0.635
 49
0.0
 74
     0
 49
-0.635
 74
     0
  0
ENDTAB
  0
TABLE
  2
LAYER
  5
2
330
0
100
AcDbSymbolTable
 70
     1
  0
LAYER
  5
10
330
2
100
AcDbSymbolTableRecord
100
AcDbLayerTableRecord
  2
0
 70
     0
 62
     7
  6
Continuous
370
    -3
390
F
  0
ENDTAB
  0
TABLE
  2
STYLE
  5
3
330
0
100
AcDbSymbolTable
 70
     1
  0
STYLE
  5
11
330
3
100
AcDbSymbolTableRecord
100
AcDbTextStyleTableRecord
  2
Standard
 70
     0
 40
0.0
 41
1.0
 50
0.0
 71
     0
 42
3.5
  3
txt
  4

  0
ENDTAB
  0
TABLE
  2
VIEW
  5
6
330
0
100
AcDbSymbolTable
 70
     0
  0
ENDTAB
  0
TABLE
  2
UCS
  5
7
330
0
100
AcDbSymbolTable
 70
     0
  0
ENDTAB
  0
TABLE
  2
APPID
  5
9
330
0
100
AcDbSymbolTable
 70
     1
  0
APPID
  5
12
330
9
100
AcDbSymbolTableRecord
100
AcDbRegAppTableRecord
  2
ACAD
 70
     0
  0
ENDTAB
  0
TABLE
  2
DIMSTYLE
  5
A
330
0
100
AcDbSymbolTable
 70
     1
100
AcDbDimStyleTable
  0
DIMSTYLE
105
27
330
A
100
AcDbSymbolTableRecord
100
AcDbDimStyleTableRecord
  2
ISO-25
 70
     0
 41
2.5
 42
0.625
 43
3.75
 44
1.25
 73
     0
 74
     0
 77
     1
 78
     8
140
2.5
141
2.5
143
0.0393700787
147
0.625
171
     3
172
     1
178
     0
271
     2
272
     2
274
     3
278
    44
283
     0
284
     8
340
11
  0
ENDTAB
  0
TABLE
  2
BLOCK_RECORD
  5
1
330
0
100
AcDbSymbolTable
 70
     1
  0
BLOCK_RECORD
  5
1F
330
1
100
AcDbSymbolTableRecord
100
AcDbBlockTableRecord
  2
*Model_Space
340
22
  0
BLOCK_RECORD
  5
1B
330
1
100
AcDbSymbolTableRecord
100
AcDbBlockTableRecord
  2
*Paper_Space
340
1E
  0
BLOCK_RECORD
  5
23
330
1
100
AcDbSymbolTableRecord
100
AcDbBlockTableRecord
  2
*Paper_Space0
340
26
  0
ENDTAB
  0
ENDSEC
  0
SECTION
  2
BLOCKS
  0
BLOCK
  5
20
330
1F
100
AcDbEntity
  8
0
100
AcDbBlockBegin
  2
*Model_Space
 70
     0
 10
0.0
 20
0.0
 30
0.0
  3
*Model_Space
  1

  0
ENDBLK
  5
21
330
1F
100
AcDbEntity
  8
0
100
AcDbBlockEnd
  0
BLOCK
  5
1C
330
1B
100
AcDbEntity
 67
     1
  8
0
100
AcDbBlockBegin
  2
*Paper_Space
 70
     0
 10
0.0
 20
0.0
 30
0.0
  3
*Paper_Space
  1

  0
ENDBLK
  5
1D
330
1B
100
AcDbEntity
 67
     1
  8
0
100
AcDbBlockEnd
  0
BLOCK
  5
24
330
23
100
AcDbEntity
  8
0
100
AcDbBlockBegin
  2
*Paper_Space0
 70
     0
 10
0.0
 20
0.0
 30
0.0
  3
*Paper_Space0
  1

  0
ENDBLK
  5
25
330
23
100
AcDbEntity
  8
0
100
AcDbBlockEnd
  0
ENDSEC
  0
SECTION
  2
ENTITIES
  0
SPLINE
  5
44
330
1F
100
AcDbEntity
  8
0
  6
Continuous
 62
     7
370
    15
100
AcDbSpline
210
0.0
220
0.0
230
1.0
 70
     8
 71
     3
 72
     9
 73
     5
 74
     0
 42
0.00000001
 43
0.00000001
 12
1.0
 22
0.0
 32
0.0
 13
1.0
 23
0.0
 33
0.0
 40
0.0
 40
0.0
 40
0.0
 40
0.0
 40
0.1836497386914742
 40
1.0
 40
1.0
 40
1.0
 40
1.0
 10
622.9496830678771
 20
341.0587881267785
 30
0.0
 10
622.9519540031981
 20
341.0675755083559
 30
0.0
 10
622.9643195820288
 20
341.1154241012264
 30
0.0
 10
622.9895200041628
 20
341.1632136741151
 30
0.0
 10
623.010092375357
 20
341.2022267044305
 30
0.0
  0
ARC
  5
45
330
1F
100
AcDbEntity
  8
0
  6
Continuous
 62
     7
370
    15
100
AcDbCircle
 10
623.1074296834
 20
335.9559861937
 30
0.0
 40
0.5000000000000365
100
AcDbArc
 50
286.1036910378
 51
349.3444562998
  0
ARC
  5
46
330
1F
100
AcDbEntity
  8
0
  6
Continuous
 62
     7
370
    15
100
AcDbCircle
 10
612.472626423
 20
335.9559861937
 30
0.0
 40
0.5000000000000365
100
AcDbArc
 50
190.6555437002
 51
253.8963089622
  0
SPLINE
  5
47
330
1F
100
AcDbEntity
  8
0
  6
Continuous
 62
     7
370
    15
100
AcDbSpline
210
0.0
220
0.0
230
1.0
 70
     8
 71
     3
 72
    17
 73
    13
 74
     0
 42
0.00000001
 43
0.00000001
 12
1.0
 22
0.0
 32
0.0
 13
1.0
 23
0.0
 33
0.0
 40
0.0
 40
0.0
 40
0.0
 40
0.0
 40
0.0568464859950678
 40
0.1651289814291458
 40
0.2731862529242804
 40
0.381046680639665
 40
0.488796610522631
 40
0.596512261566911
 40
0.704256376393267
 40
0.8120887618302137
 40
0.920090845786631
 40
1.0
 40
1.0
 40
1.0
 40
1.0
 10
612.3339356458972
 20
335.4756061495065
 30
0.0
 10
612.5188238401047
 20
335.4245440285486
 30
0.0
 10
613.0558913237554
 20
335.2762176038666
 30
0.0
 10
614.0059967791013
 20
335.0766263827688
 30
0.0
 10
615.1897053084834
 20
334.9006548685356
 30
0.0
 10
616.4145518643907
 20
334.7919067483147
 30
0.0
 10
617.6599523238524
 20
334.7506683657036
 30
0.0
 10
618.9069793367713
 20
334.777736386302
 30
0.0
 10
620.136712236465
 20
334.8722997766798
 30
0.0
 10
621.3283441263679
 20
335.0343645690339
 30
0.0
 10
622.3706302818725
 20
335.237861234546
 30
0.0
 10
622.9849010150875
 20
335.4046705687467
 30
0.0
 10
623.2461193180869
 20
335.4756061495065
 30
0.0
  0
SPLINE
  5
48
330
1F
100
AcDbEntity
  8
0
  6
Continuous
 62
     7
370
    15
100
AcDbSpline
210
0.0
220
0.0
230
1.0
 70
     8
 71
     3
 72
     9
 73
     5
 74
     0
 42
0.00000001
 43
0.00000001
 12
1.0
 22
0.0
 32
0.0
 13
1.0
 23
0.0
 33
0.0
 40
0.0
 40
0.0
 40
0.0
 40
0.0
 40
0.5682837436525695
 40
1.0
 40
1.0
 40
1.0
 40
1.0
 10
623.5992470360587
 20
335.8637068928003
 30
0.0
 10
623.7933267660883
 20
336.8636346667211
 30
0.0
 10
624.1348458262361
 20
338.6231919039102
 30
0.0
 10
624.5707971418497
 20
340.4245507898531
 30
0.0
 10
624.7590044117759
 20
341.2022267044305
 30
0.0
  0
SPLINE
  5
49
330
1F
100
AcDbEntity
  8
0
  6
Continuous
 62
     7
370
    15
100
AcDbSpline
210
0.0
220
0.0
230
1.0
 70
     8
 71
     3
 72
    10
 73
     6
 74
     0
 42
0.00000001
 43
0.00000001
 12
1.0
 22
0.0
 32
0.0
 13
1.0
 23
0.0
 33
0.0
 40
0.0
 40
0.0
 40
0.0
 40
0.0
 40
0.0366177532936302
 40
0.6946497317641557
 40
1.0
 40
1.0
 40
1.0
 40
1.0
 10
610.8307363069842
 20
341.2022267044305
 30
0.0
 10
610.8472636654034
 20
341.1361122268334
 30
0.0
 10
611.1607925976817
 20
339.881900813034
 30
0.0
 10
611.5588997644973
 20
338.0887406620716
 30
0.0
 10
611.8676228449847
 20
336.4051311757684
 30
0.0
 10
611.9654746330569
 20
335.8715002001047
 30
0.0
  0
SPLINE
  5
4A
330
1F
100
AcDbEntity
  8
0
  6
Continuous
 62
     7
370
    15
100
AcDbSpline
210
0.0
220
0.0
230
1.0
 70
     8
 71
     3
 72
     9
 73
     5
 74
     0
 42
0.00000001
 43
0.00000001
 12
1.0
 22
0.0
 32
0.0
 13
1.0
 23
0.0
 33
0.0
 40
0.0
 40
0.0
 40
0.0
 40
0.0
 40
0.18365096217201
 40
0.9999999999999999
 40
0.9999999999999999
 40
0.9999999999999999
 40
0.9999999999999999
 10
572.9496823228191
 20
341.0587881267785
 30
0.0
 10
572.9519546356322
 20
341.0675755017812
 30
0.0
 10
572.9643276326818
 20
341.1154237400854
 30
0.0
 10
572.9895232292682
 20
341.1632135439928
 30
0.0
 10
573.0100916302989
 20
341.2022267044305
 30
0.0
  0
ARC
  5
4B
330
1F
100
AcDbEntity
  8
0
  6
Continuous
 62
     7
370
    15
100
AcDbCircle
 10
562.472626423
 20
335.9559861937
 30
0.0
 40
0.4999999999999796
100
AcDbArc
 50
190.6555437002
 51
253.8963089622
  0
ARC
  5
4C
330
1F
100
AcDbEntity
  8
0
  6
Continuous
 62
     7
370
    15
100
AcDbCircle
 10
573.1074296834
 20
335.9559861937
 30
0.0
 40
0.4999999999999796
100
AcDbArc
 50
286.1036910378
 51
349.3444562998
  0
SPLINE
  5
4D
330
1F
100
AcDbEntity
  8
0
  6
Continuous
 62
     7
370
    15
100
AcDbSpline
210
0.0
220
0.0
230
1.0
 70
     8
 71
     3
 72
    17
 73
    13
 74
     0
 42
0.00000001
 43
0.00000001
 12
1.0
 22
0.0
 32
0.0
 13
1.0
 23
0.0
 33
0.0
 40
0.0
 40
0.0
 40
0.0
 40
0.0
 40
0.0568459523902077
 40
0.1651290544766205
 40
0.273186049302898
 40
0.3810465051475946
 40
0.4887967844704651
 40
0.5965121417268477
 40
0.7042562846521823
 40
0.8120890057347137
 40
0.9200908249468329
 40
1.0
 40
1.0
 40
1.0
 40
1.0
 10
562.3339386261295
 20
335.4756061495065
 30
0.0
 10
562.5188241713996
 20
335.4245439007204
 30
0.0
 10
563.0558892392395
 20
335.2762156467822
 30
0.0
 10
564.0059977075958
 20
335.0766278901805
 30
0.0
 10
565.1897052949075
 20
334.9006543540604
 30
0.0
 10
566.414552448623
 20
334.7919067368308
 30
0.0
 10
567.6599527936675
 20
334.7506683835501
 30
0.0
 10
568.9069798768884
 20
334.7777364108809
 30
0.0
 10
570.136712455633
 20
334.8723001206383
 30
0.0
 10
571.3283453114144
 20
335.0343638145776
 30
0.0
 10
572.3706303349138
 20
335.2378616550284
 30
0.0
 10
572.9849002224672
 20
335.4046706166245
 30
0.0
 10
573.2461185730289
 20
335.4756061495065
 30
0.0
  0
SPLINE
  5
4E
330
1F
100
AcDbEntity
  8
0
  6
Continuous
 62
     7
370
    15
100
AcDbSpline
210
0.0
220
0.0
230
1.0
 70
     8
 71
     3
 72
    10
 73
     6
 74
     0
 42
0.00000001
 43
0.00000001
 12
1.0
 22
0.0
 32
0.0
 13
1.0
 23
0.0
 33
0.0
 40
0.0
 40
0.0
 40
0.0
 40
0.0
 40
0.036617899224357
 40
0.6946497780178488
 40
1.0
 40
1.0
 40
1.0
 40
1.0
 10
560.8307318366359
 20
341.2022267044305
 30
0.0
 10
560.8472617548015
 20
341.1361122353683
 30
0.0
 10
561.1608380174376
 20
339.8819058982849
 30
0.0
 10
561.5588952518526
 20
338.0887398134114
 30
0.0
 10
561.86762402188
 20
336.4051309715184
 30
0.0
 10
561.9654776132892
 20
335.8715002001046
 30
0.0
  0
SPLINE
  5
4F
330
1F
100
AcDbEntity
  8
0
  6
Continuous
 62
     7
370
    15
100
AcDbSpline
210
0.0
220
0.0
230
1.0
 70
     8
 71
     3
 72
     9
 73
     5
 74
     0
 42
0.00000001
 43
0.00000001
 12
1.0
 22
0.0
 32
0.0
 13
1.0
 23
0.0
 33
0.0
 40
0.0
 40
0.0
 40
0.0
 40
0.0
 40
0.5682837436525695
 40
1.0
 40
1.0
 40
1.0
 40
1.0
 10
573.5992462910007
 20
335.8637068928003
 30
0.0
 10
573.7933260210302
 20
336.8636346667211
 30
0.0
 10
574.134845081178
 20
338.6231919039102
 30
0.0
 10
574.5707963967916
 20
340.4245507898531
 30
0.0
 10
574.7590036667178
 20
341.2022267044305
 30
0.0
  0
SPLINE
  5
50
330
1F
100
AcDbEntity
  8
0
  6
Continuous
 62
     7
370
    15
100
AcDbSpline
210
0.0
220
0.0
230
1.0
 70
     8
 71
     3
 72
     9
 73
     5
 74
     0
 42
0.00000001
 43
0.00000001
 12
1.0
 22
0.0
 32
0.0
 13
1.0
 23
0.0
 33
0.0
 40
0.0
 40
0.0
 40
0.0
 40
0.0
 40
0.1836534104307778
 40
1.0
 40
1.0
 40
1.0
 40
1.0
 10
460.4496778524707
 20
341.0587881267786
 30
0.0
 10
460.4519529202706
 20
341.0675754886248
 30
0.0
 10
460.4643407533877
 20
341.1154230174323
 30
0.0
 10
460.4895266990798
 20
341.1632132836165
 30
0.0
 10
460.5100871599506
 20
341.2022267044305
 30
0.0
  0
ARC
  5
51
330
1F
100
AcDbEntity
  8
0
  6
Continuous
 62
     7
370
    15
100
AcDbCircle
 10
449.972626423
 20
335.9559861937
 30
0.0
 40
0.4999999999999945
100
AcDbArc
 50
190.6555437001
 51
253.8963089622
  0
ARC
  5
52
330
1F
100
AcDbEntity
  8
0
  6
Continuous
 62
     7
370
    15
100
AcDbCircle
 10
460.6074296834
 20
335.9559861937
 30
0.0
 40
0.4999999999999807
100
AcDbArc
 50
286.1036910378
 51
349.3444562998
  0
SPLINE
  5
53
330
1F
100
AcDbEntity
  8
0
  6
Continuous
 62
     7
370
    15
100
AcDbSpline
210
0.0
220
0.0
230
1.0
 70
     8
 71
     3
 72
    17
 73
    13
 74
     0
 42
0.00000001
 43
0.00000001
 12
1.0
 22
0.0
 32
0.0
 13
1.0
 23
0.0
 33
0.0
 40
0.0
 40
0.0
 40
0.0
 40
0.0
 40
0.0568454029021902
 40
0.165129081383177
 40
0.2731854644958636
 40
0.3810465495855005
 40
0.4887968268991936
 40
0.5965121821470502
 40
0.7042563230633218
 40
0.8120890421351384
 40
0.9200902735127968
 40
1.0
 40
1.0
 40
1.0
 40
1.0
 10
449.8339416063617
 20
335.4756061495065
 30
0.0
 10
450.0188244980404
 20
335.4245437663055
 30
0.0
 10
450.5558871364898
 20
335.276213663945
 30
0.0
 10
451.5059977303698
 20
335.0766298389304
 30
0.0
 10
452.6897047680674
 20
334.9006529990167
 30
0.0
 10
453.9145532839128
 20
334.7919072528665
 30
0.0
 10
455.1599556837716
 20
334.7506682787495
 30
0.0
 10
456.4069829313015
 20
334.7777363949246
 30
0.0
 10
457.636715229139
 20
334.8723002893903
 30
0.0
 10
458.8283468881139
 20
335.0343628610867
 30
0.0
 10
459.8706286652329
 20
335.2378633922352
 30
0.0
 10
460.4849005150389
 20
335.40467078186
 30
0.0
 10
460.7461215532611
 20
335.4756061495065
 30
0.0
  0
SPLINE
  5
54
330
1F
100
AcDbEntity
  8
0
  6
Continuous
 62
     7
370
    15
100
AcDbSpline
210
0.0
220
0.0
230
1.0
 70
     8
 71
     3
 72
    10
 73
     6
 74
     0
 42
0.00000001
 43
0.00000001
 12
1.0
 22
0.0
 32
0.0
 13
1.0
 23
0.0
 33
0.0
 40
0.0
 40
0.0
 40
0.0
 40
0.0
 40
0.0366178951771726
 40
0.6946497012418511
 40
1.0
 40
1.0
 40
1.0
 40
1.0
 10
448.3307273662875
 20
341.2022267044305
 30
0.0
 10
448.3472572876069
 20
341.1361122356162
 30
0.0
 10
448.6608336100709
 20
339.8819059032384
 30
0.0
 10
449.0588860730554
 20
338.08873924143
 30
0.0
 10
449.3676240573856
 20
336.4051309340372
 30
0.0
 10
449.4654805935214
 20
335.8715002001047
 30
0.0
  0
SPLINE
  5
55
330
1F
100
AcDbEntity
  8
0
  6
Continuous
 62
     7
370
    15
100
AcDbSpline
210
0.0
220
0.0
230
1.0
 70
     8
 71
     3
 72
     9
 73
     5
 74
     0
 42
0.00000001
 43
0.00000001
 12
1.0
 22
0.0
 32
0.0
 13
1.0
 23
0.0
 33
0.0
 40
0.0
 40
0.0
 40
0.0
 40
0.0
 40
0.5682837436525695
 40
1.0
 40
1.0
 40
1.0
 40
1.0
 10
461.0992492712329
 20
335.8637068928003
 30
0.0
 10
461.2933290012625
 20
336.8636346667211
 30
0.0
 10
461.6348480614104
 20
338.6231919039102
 30
0.0
 10
462.0707993770238
 20
340.4245507898531
 30
0.0
 10
462.2590066469501
 20
341.2022267044305
 30
0.0
  0
SPLINE
  5
56
330
1F
100
AcDbEntity
  8
0
  6
Continuous
 62
     7
370
    15
100
AcDbSpline
210
0.0
220
0.0
230
1.0
 70
     8
 71
     3
 72
     9
 73
     5
 74
     0
 42
0.00000001
 43
0.00000001
 12
1.0
 22
0.0
 32
0.0
 13
1.0
 23
0.0
 33
0.0
 40
0.0
 40
0.0
 40
0.0
 40
0.0
 40
0.1836497386914742
 40
1.0
 40
1.0
 40
1.0
 40
1.0
 10
735.4496838129352
 20
341.0587881267785
 30
0.0
 10
735.4519547482563
 20
341.0675755083559
 30
0.0
 10
735.4643203270869
 20
341.1154241012264
 30
0.0
 10
735.4895207492209
 20
341.1632136741151
 30
0.0
 10
735.510093120415
 20
341.2022267044305
 30
0.0
  0
ARC
  5
57
330
1F
100
AcDbEntity
  8
0
  6
Continuous
 62
     7
370
    15
100
AcDbCircle
 10
724.972626423
 20
335.9559861937
 30
0.0
 40
0.4999999999999945
100
AcDbArc
 50
190.6555437001
 51
253.8963089622
  0
ARC
  5
58
330
1F
100
AcDbEntity
  8
0
  6
Continuous
 62
     7
370
    15
100
AcDbCircle
 10
735.6074296834
 20
335.9559861937
 30
0.0
 40
0.5000000000000365
100
AcDbArc
 50
286.1036910378
 51
349.3444562998
  0
SPLINE
  5
59
330
1F
100
AcDbEntity
  8
0
  6
Continuous
 62
     7
370
    15
100
AcDbSpline
210
0.0
220
0.0
230
1.0
 70
     8
 71
     3
 72
    17
 73
    13
 74
     0
 42
0.00000001
 43
0.00000001
 12
1.0
 22
0.0
 32
0.0
 13
1.0
 23
0.0
 33
0.0
 40
0.0
 40
0.0
 40
0.0
 40
0.0
 40
0.0568462260307389
 40
0.1651290378167355
 40
0.2731860315514466
 40
0.381046801934631
 40
0.488796758829627
 40
0.5965124368773436
 40
0.7042565787142718
 40
0.8120889911839195
 40
0.9200911022155798
 40
1.0
 40
1.0
 40
1.0
 40
1.0
 10
724.8339363909553
 20
335.4756061495065
 30
0.0
 10
725.0188232583702
 20
335.4245439613337
 30
0.0
 10
725.5558895273722
 20
335.2762166124394
 30
0.0
 10
726.5059960452428
 20
335.0766273573008
 30
0.0
 10
727.6897043006929
 20
334.9006541904382
 30
0.0
 10
728.9145515344331
 20
334.7919070084778
 30
0.0
 10
730.1599530333256
 20
334.7506683053028
 30
0.0
 10
731.4069800835507
 20
334.7777364081752
 30
0.0
 10
732.6367130102456
 20
334.8722997495757
 30
0.0
 10
733.8283447546271
 20
335.0343646556944
 30
0.0
 10
734.8706304435535
 20
335.2378607595552
 30
0.0
 10
735.484899336746
 20
335.4046705259919
 30
0.0
 10
735.7461163378547
 20
335.4756061495065
 30
0.0
  0
SPLINE
  5
5A
330
1F
100
AcDbEntity
  8
0
  6
Continuous
 62
     7
370
    15
100
AcDbSpline
210
0.0
220
0.0
230
1.0
 70
     8
 71
     3
 72
    10
 73
     6
 74
     0
 42
0.00000001
 43
0.00000001
 12
1.0
 22
0.0
 32
0.0
 13
1.0
 23
0.0
 33
0.0
 40
0.0
 40
0.0
 40
0.0
 40
0.0
 40
0.0366178242327519
 40
0.6946497165023887
 40
1.0
 40
1.0
 40
1.0
 40
1.0
 10
723.330733326752
 20
341.2022267044305
 30
0.0
 10
723.3472619666212
 20
341.1361122312247
 30
0.0
 10
723.6608145940609
 20
339.8819033580484
 30
0.0
 10
724.0588944088802
 20
338.0887399517671
 30
0.0
 10
724.3676249412986
 20
336.4051310549065
 30
0.0
 10
724.4654791034053
 20
335.8715002001047
 30
0.0
  0
SPLINE
  5
5B
330
1F
100
AcDbEntity
  8
0
  6
Continuous
 62
     7
370
    15
100
AcDbSpline
210
0.0
220
0.0
230
1.0
 70
     8
 71
     3
 72
     9
 73
     5
 74
     0
 42
0.00000001
 43
0.00000001
 12
1.0
 22
0.0
 32
0.0
 13
1.0
 23
0.0
 33
0.0
 40
0.0
 40
0.0
 40
0.0
 40
0.0
 40
0.5682837697755391
 40
0.9999999999999999
 40
0.9999999999999999
 40
0.9999999999999999
 40
0.9999999999999999
 10
736.0992440558265
 20
335.8637068928003
 30
0.0
 10
736.2933253727274
 20
336.8636346356463
 30
0.0
 10
736.6348472095688
 20
338.6231917372702
 30
0.0
 10
737.0707980873257
 20
340.4245507724722
 30
0.0
 10
737.259005156834
 20
341.2022267044305
 30
0.0
  0
SPLINE
  5
5C
330
1F
100
AcDbEntity
  8
0
  6
Continuous
 62
     7
370
    15
100
AcDbSpline
210
0.0
220
0.0
230
1.0
 70
     8
 71
     3
 72
     9
 73
     5
 74
     0
 42
0.00000001
 43
0.00000001
 12
1.0
 22
0.0
 32
0.0
 13
1.0
 23
0.0
 33
0.0
 40
0.0
 40
0.0
 40
0.0
 40
0.0
 40
0.1836503917809905
 40
1.0
 40
1.0
 40
1.0
 40
1.0
 10
672.9496828816126
 20
341.0587881267786
 30
0.0
 10
672.9519545087525
 20
341.0675755048464
 30
0.0
 10
672.9643238106515
 20
341.1154239084501
 30
0.0
 10
672.9895215548372
 20
341.1632136046559
 30
0.0
 10
673.0100917234312
 20
341.2022267044305
 30
0.0
  0
ARC
  5
5D
330
1F
100
AcDbEntity
  8
0
  6
Continuous
 62
     7
370
    15
100
AcDbCircle
 10
662.472626423
 20
335.9559861937
 30
0.0
 40
0.5000000000001062
100
AcDbArc
 50
190.6555437001
 51
253.8963089622
  0
ARC
  5
5E
330
1F
100
AcDbEntity
  8
0
  6
Continuous
 62
     7
370
    15
100
AcDbCircle
 10
673.1074296834
 20
335.9559861937
 30
0.0
 40
0.5000000000000365
100
AcDbArc
 50
286.1036910378
 51
349.3444562998
  0
SPLINE
  5
5F
330
1F
100
AcDbEntity
  8
0
  6
Continuous
 62
     7
370
    15
100
AcDbSpline
210
0.0
220
0.0
230
1.0
 70
     8
 71
     3
 72
    17
 73
    13
 74
     0
 42
0.00000001
 43
0.00000001
 12
1.0
 22
0.0
 32
0.0
 13
1.0
 23
0.0
 33
0.0
 40
0.0
 40
0.0
 40
0.0
 40
0.0
 40
0.0568461599465711
 40
0.1651288318334898
 40
0.2731860588996584
 40
0.3810465972475836
 40
0.4887965588235718
 40
0.5965121610809254
 40
0.7042563869094047
 40
0.8120888040636267
 40
0.920091029628738
 40
1.0
 40
1.0
 40
1.0
 40
1.0
 10
662.3339382536004
 20
335.4756061495065
 30
0.0
 10
662.5188248142762
 20
335.4245439686736
 30
0.0
 10
663.0558901466537
 20
335.2762166536933
 30
0.0
 10
664.0059962297933
 20
335.0766268705479
 30
0.0
 10
665.1897046121784
 20
334.9006546426899
 30
0.0
 10
666.414551426761
 20
334.7919068342846
 30
0.0
 10
667.6599518208677
 20
334.7506683333957
 30
0.0
 10
668.9069788098315
 20
334.7777364653884
 30
0.0
 10
670.1367118144561
 20
334.8722996730177
 30
0.0
 10
671.3283441576323
 20
335.0343647862852
 30
0.0
 10
672.3706307490248
 20
335.2378607296469
 30
0.0
 10
672.9849004240799
 20
335.4046705214192
 30
0.0
 10
673.2461177348385
 20
335.4756061495065
 30
0.0
  0
SPLINE
  5
60
330
1F
100
AcDbEntity
  8
0
  6
Continuous
 62
     7
370
    15
100
AcDbSpline
210
0.0
220
0.0
230
1.0
 70
     8
 71
     3
 72
    10
 73
     6
 74
     0
 42
0.00000001
 43
0.00000001
 12
1.0
 22
0.0
 32
0.0
 13
1.0
 23
0.0
 33
0.0
 40
0.0
 40
0.0
 40
0.0
 40
0.0
 40
0.0366178246330934
 40
0.6946497407951131
 40
1.0
 40
1.0
 40
1.0
 40
1.0
 10
660.830733326752
 20
341.2022267044305
 30
0.0
 10
660.8472619651187
 20
341.136112231093
 30
0.0
 10
661.1608145715916
 20
339.8819033252684
 30
0.0
 10
661.5588966749922
 20
338.0887401400676
 30
0.0
 10
661.8676247853941
 20
336.4051310681574
 30
0.0
 10
661.9654781720827
 20
335.8715002001047
 30
0.0
  0
SPLINE
  5
61
330
1F
100
AcDbEntity
  8
0
  6
Continuous
 62
     7
370
    15
100
AcDbSpline
210
0.0
220
0.0
230
1.0
 70
     8
 71
     3
 72
     9
 73
     5
 74
     0
 42
0.00000001
 43
0.00000001
 12
1.0
 22
0.0
 32
0.0
 13
1.0
 23
0.0
 33
0.0
 40
0.0
 40
0.0
 40
0.0
 40
0.0
 40
0.5682837501832975
 40
1.0
 40
1.0
 40
1.0
 40
1.0
 10
673.5992452199797
 20
335.8637068928003
 30
0.0
 10
673.7933253467271
 20
336.8636346589524
 30
0.0
 10
674.1348451010484
 20
338.6231918622503
 30
0.0
 10
674.5707963071976
 20
340.4245507855078
 30
0.0
 10
674.7590035270194
 20
341.2022267044305
 30
0.0
  0
SPLINE
  5
62
330
1F
100
AcDbEntity
  8
0
  6
Continuous
 62
     7
370
    15
100
AcDbSpline
210
0.0
220
0.0
230
1.0
 70
     8
 71
     3
 72
     9
 73
     5
 74
     0
 42
0.00000001
 43
0.00000001
 12
1.0
 22
0.0
 32
0.0
 13
1.0
 23
0.0
 33
0.0
 40
0.0
 40
0.0
 40
0.0
 40
0.0
 40
0.1836534104307778
 40
1.0
 40
1.0
 40
1.0
 40
1.0
 10
522.9496778524707
 20
341.0587881267786
 30
0.0
 10
522.9519529202705
 20
341.0675754886248
 30
0.0
 10
522.9643407533878
 20
341.1154230174323
 30
0.0
 10
522.9895266990799
 20
341.1632132836165
 30
0.0
 10
523.0100871599506
 20
341.2022267044305
 30
0.0
  0
ARC
  5
63
330
1F
100
AcDbEntity
  8
0
  6
Continuous
 62
     7
370
    15
100
AcDbCircle
 10
512.472626423
 20
335.9559861937
 30
0.0
 40
0.4999999999999945
100
AcDbArc
 50
190.6555437001
 51
253.8963089622
  0
ARC
  5
64
330
1F
100
AcDbEntity
  8
0
  6
Continuous
 62
     7
370
    15
100
AcDbCircle
 10
523.1074296834
 20
335.9559861937
 30
0.0
 40
0.5000000000000365
100
AcDbArc
 50
286.1036910378
 51
349.3444562998
  0
SPLINE
  5
65
330
1F
100
AcDbEntity
  8
0
  6
Continuous
 62
     7
370
    15
100
AcDbSpline
210
0.0
220
0.0
230
1.0
 70
     8
 71
     3
 72
    17
 73
    13
 74
     0
 42
0.00000001
 43
0.00000001
 12
1.0
 22
0.0
 32
0.0
 13
1.0
 23
0.0
 33
0.0
 40
0.0
 40
0.0
 40
0.0
 40
0.0
 40
0.0568454029021902
 40
0.165129081383177
 40
0.2731854644958636
 40
0.3810465495855005
 40
0.4887968268991936
 40
0.5965121821470502
 40
0.7042563230633218
 40
0.8120890421351384
 40
0.9200902735127968
 40
1.0
 40
1.0
 40
1.0
 40
1.0
 10
512.3339416063617
 20
335.4756061495065
 30
0.0
 10
512.5188244980404
 20
335.4245437663055
 30
0.0
 10
513.0558871364899
 20
335.276213663945
 30
0.0
 10
514.0059977303698
 20
335.0766298389304
 30
0.0
 10
515.1897047680674
 20
334.9006529990167
 30
0.0
 10
516.4145532839128
 20
334.7919072528665
 30
0.0
 10
517.6599556837715
 20
334.7506682787495
 30
0.0
 10
518.9069829313014
 20
334.7777363949246
 30
0.0
 10
520.136715229139
 20
334.8723002893903
 30
0.0
 10
521.328346888114
 20
335.0343628610867
 30
0.0
 10
522.3706286652329
 20
335.2378633922352
 30
0.0
 10
522.9849005150389
 20
335.40467078186
 30
0.0
 10
523.2461215532611
 20
335.4756061495065
 30
0.0
  0
SPLINE
  5
66
330
1F
100
AcDbEntity
  8
0
  6
Continuous
 62
     7
370
    15
100
AcDbSpline
210
0.0
220
0.0
230
1.0
 70
     8
 71
     3
 72
    10
 73
     6
 74
     0
 42
0.00000001
 43
0.00000001
 12
1.0
 22
0.0
 32
0.0
 13
1.0
 23
0.0
 33
0.0
 40
0.0
 40
0.0
 40
0.0
 40
0.0
 40
0.0366178951771726
 40
0.6946497012418511
 40
1.0
 40
1.0
 40
1.0
 40
1.0
 10
510.8307273662875
 20
341.2022267044305
 30
0.0
 10
510.847257287607
 20
341.1361122356162
 30
0.0
 10
511.1608336100712
 20
339.8819059032384
 30
0.0
 10
511.5588860730553
 20
338.08873924143
 30
0.0
 10
511.8676240573856
 20
336.4051309340372
 30
0.0
 10
511.9654805935214
 20
335.8715002001047
 30
0.0
  0
SPLINE
  5
67
330
1F
100
AcDbEntity
  8
0
  6
Continuous
 62
     7
370
    15
100
AcDbSpline
210
0.0
220
0.0
230
1.0
 70
     8
 71
     3
 72
     9
 73
     5
 74
     0
 42
0.00000001
 43
0.00000001
 12
1.0
 22
0.0
 32
0.0
 13
1.0
 23
0.0
 33
0.0
 40
0.0
 40
0.0
 40
0.0
 40
0.0
 40
0.5682837436525695
 40
1.0
 40
1.0
 40
1.0
 40
1.0
 10
523.5992492712329
 20
335.8637068928003
 30
0.0
 10
523.7933290012625
 20
336.8636346667211
 30
0.0
 10
524.1348480614103
 20
338.6231919039102
 30
0.0
 10
524.5707993770238
 20
340.4245507898531
 30
0.0
 10
524.7590066469501
 20
341.2022267044305
 30
0.0
  0
LINE
  5
68
330
1F
100
AcDbEntity
  8
0
  6
Continuous
 62
     7
370
    15
100
AcDbLine
 10
792.7900300897
 20
369.9943844736
 30
0.0
 11
792.4400316156
 21
369.9943844736
 31
0.0
  0
LINE
  5
69
330
1F
100
AcDbEntity
  8
0
  6
Continuous
 62
     7
370
    15
100
AcDbLine
 10
392.7900315798
 20
341.076460904
 30
0.0
 11
448.3621092118
 21
341.076460904
 31
0.0
  0
LINE
  5
6A
330
1F
100
AcDbEntity
  8
0
  6
Continuous
 62
     7
370
    15
100
AcDbLine
 10
462.2294129408
 20
341.076460904
 30
0.0
 11
510.8621092118
 21
341.076460904
 31
0.0
  0
LINE
  5
6B
330
1F
100
AcDbEntity
  8
0
  6
Continuous
 62
     7
370
    15
100
AcDbLine
 10
524.7294129408
 20
341.076460904
 30
0.0
 11
560.8621136821
 21
341.076460904
 31
0.0
  0
LINE
  5
6C
330
1F
100
AcDbEntity
  8
0
  6
Continuous
 62
     7
370
    15
100
AcDbLine
 10
574.7294174112
 20
341.076460904
 30
0.0
 11
610.8621107019
 21
341.076460904
 31
0.0
  0
LINE
  5
6D
330
1F
100
AcDbEntity
  8
0
  6
Continuous
 62
     7
370
    15
100
AcDbLine
 10
624.7294144309
 20
341.076460904
 30
0.0
 11
660.8621133096
 21
341.076460904
 31
0.0
  0
LINE
  5
6E
330
1F
100
AcDbEntity
  8
0
  6
Continuous
 62
     7
370
    15
100
AcDbLine
 10
674.729415176
 20
341.076460904
 30
0.0
 11
723.3621114469
 21
341.076460904
 31
0.0
  0
LINE
  5
6F
330
1F
100
AcDbEntity
  8
0
  6
Continuous
 62
     7
370
    15
100
AcDbLine
 10
737.229415176
 20
341.076460904
 30
0.0
 11
792.7900300897
 21
341.076460904
 31
0.0
  0
ARC
  5
70
330
1F
100
AcDbEntity
  8
0
  6
Continuous
 62
     7
370
    15
100
AcDbCircle
 10
592.4400280532
 20
790.6038053098
 30
0.0
 40
451.9
100
AcDbArc
 50
274.0613204732
 51
275.8738655234
  0
ARC
  5
71
330
1F
100
AcDbEntity
  8
0
  6
Continuous
 62
     7
370
    15
100
AcDbCircle
 10
592.4400280532
 20
790.6038053098
 30
0.0
 40
451.9
100
AcDbArc
 50
267.6956686401
 51
272.3907259705
  0
ARC
  5
72
330
1F
100
AcDbEntity
  8
0
  6
Continuous
 62
     7
370
    15
100
AcDbCircle
 10
592.4400280532
 20
790.6038053098
 30
0.0
 40
451.9
100
AcDbArc
 50
264.1261344766
 51
266.0263742622
  0
ARC
  5
73
330
1F
100
AcDbEntity
  8
0
  6
Continuous
 62
     7
370
    15
100
AcDbCircle
 10
592.4400280532
 20
790.6038053098
 30
0.0
 40
461.9
100
AcDbArc
 50
256.7086425317
 51
259.9631395161
  0
ARC
  5
74
330
1F
100
AcDbEntity
  8
0
  6
Continuous
 62
     7
370
    15
100
AcDbCircle
 10
592.4400280532
 20
790.6038053098
 30
0.0
 40
461.9
100
AcDbArc
 50
260.7293521266
 51
279.2682185961
  0
ARC
  5
75
330
1F
100
AcDbEntity
  8
0
  6
Continuous
 62
     7
370
    15
100
AcDbCircle
 10
592.4400280532
 20
790.6038053098
 30
0.0
 40
461.9
100
AcDbArc
 50
280.124663175
 51
283.2913574683
  0
LINE
  5
76
330
1F
100
AcDbEntity
  8
0
  6
Continuous
 62
     7
370
    15
100
AcDbLine
 10
392.4400331057
 20
341.2022267044
 30
0.0
 11
792.4400316156
 21
341.2022267044
 31
0.0
  0
ARC
  5
77
330
1F
100
AcDbEntity
  8
0
  6
Continuous
 62
     7
370
    15
100
AcDbCircle
 10
707.2150280532
 20
782.5538053098
 30
0.0
 40
0.1500000000000909
100
AcDbArc
 50
180.0
 51
270.0
  0
ARC
  5
78
330
1F
100
AcDbEntity
  8
0
  6
Continuous
 62
     7
370
    15
100
AcDbCircle
 10
711.7650280532
 20
782.5538053098
 30
0.0
 40
0.1500000000000909
100
AcDbArc
 50
270.0
 51
0.0
  0
ARC
  5
79
330
1F
100
AcDbEntity
  8
0
  6
Continuous
 62
     7
370
    15
100
AcDbCircle
 10
707.2150280532
 20
782.7538053098
 30
0.0
 40
0.1500000000000909
100
AcDbArc
 50
90.0
 51
180.0
  0
ARC
  5
7A
330
1F
100
AcDbEntity
  8
0
  6
Continuous
 62
     7
370
    15
100
AcDbCircle
 10
711.7650280532
 20
782.7538053098
 30
0.0
 40
0.1499999999999773
100
AcDbArc
 50
0.0
 51
90.0
  0
LINE
  5
7B
330
1F
100
AcDbEntity
  8
0
  6
Continuous
 62
     7
370
    15
100
AcDbLine
 10
707.0650280989
 20
782.7537928284
 30
0.0
 11
707.0650280989
 21
782.5538192452
 31
0.0
  0
LINE
  5
7C
330
1F
100
AcDbEntity
  8
0
  6
Continuous
 62
     7
370
    15
100
AcDbLine
 10
711.915028242
 20
782.5538192452
 30
0.0
 11
711.915028242
 21
782.7537928284
 31
0.0
  0
ARC
  5
7D
330
1F
100
AcDbEntity
  8
0
  6
Continuous
 62
     7
370
    15
100
AcDbCircle
 10
707.5900280532
 20
782.2538053098
 30
0.0
 40
0.1500000000000909
100
AcDbArc
 50
0.0
 51
90.0
  0
ARC
  5
7E
330
1F
100
AcDbEntity
  8
0
  6
Continuous
 62
     7
370
    15
100
AcDbCircle
 10
711.3900280532
 20
782.2538053098
 30
0.0
 40
0.1500000000000909
100
AcDbArc
 50
90.0
 51
180.0
  0
LINE
  5
7F
330
1F
100
AcDbEntity
  8
0
  6
Continuous
 62
     7
370
    15
100
AcDbLine
 10
707.7400283492
 20
779.9538050354
 30
0.0
 11
707.8650286026
 21
779.6538148583
 31
0.0
  0
LINE
  5
80
330
1F
100
AcDbEntity
  8
0
  6
Continuous
 62
     7
370
    15
100
AcDbLine
 10
711.1150296009
 20
779.6538148583
 30
0.0
 11
711.2400279916
 21
779.9538050354
 31
0.0
  0
LINE
  5
81
330
1F
100
AcDbEntity
  8
0
  6
Continuous
 62
     7
370
    15
100
AcDbLine
 10
707.7400283492
 20
782.2537992657
 30
0.0
 11
707.7400283492
 21
779.9538050354
 31
0.0
  0
LINE
  5
82
330
1F
100
AcDbEntity
  8
0
  6
Continuous
 62
     7
370
    15
100
AcDbLine
 10
711.2400279916
 20
779.9538050354
 30
0.0
 11
711.2400279916
 21
782.2537992657
 31
0.0
  0
ARC
  5
83
330
1F
100
AcDbEntity
  8
0
  6
Continuous
 62
     7
370
    15
100
AcDbCircle
 10
607.2588034397
 20
339.2384036058
 30
0.0
 40
5.694440992978223
100
AcDbArc
 50
341.0296472181
 51
20.1736591223
  0
ARC
  5
84
330
1F
100
AcDbEntity
  8
0
  6
Continuous
 62
     7
370
    15
100
AcDbCircle
 10
628.312910264
 20
339.2388864694
 30
0.0
 40
5.686364505236113
100
AcDbArc
 50
159.958007755
 51
197.7086354424
  0
LWPOLYLINE
  5
85
330
1F
100
AcDbEntity
  8
0
  6
Continuous
 62
     7
370
    15
100
AcDbPolyline
 90
        9
 70
   128
 43
0.0
 10
617.0400278247
 20
335.200173086
 10
617.0971178985
 20
335.0788627327
 10
617.2596970177
 20
334.9760447205
 10
617.5030143536
 20
334.9073354662
 10
617.7900293446
 20
334.8832104862
 10
618.0770406104
 20
334.9073354662
 10
618.3203579462
 20
334.9760447205
 10
618.4829370654
 20
335.0788627327
 10
618.5400271393
 20
335.200173086
  0
LINE
  5
86
330
1F
100
AcDbEntity
  8
0
  6
Continuous
 62
     7
370
    15
100
AcDbLine
 10
617.0400278247
 20
341.2022267044
 30
0.0
 11
617.0400278247
 21
335.200173086
 31
0.0
  0
LINE
  5
87
330
1F
100
AcDbEntity
  8
0
  6
Continuous
 62
     7
370
    15
100
AcDbLine
 10
618.5400271393
 20
335.200173086
 30
0.0
 11
618.5400271393
 21
341.2022267044
 31
0.0
  0
LINE
  5
88
330
1F
100
AcDbEntity
  8
0
  6
Continuous
 62
     7
370
    15
100
AcDbLine
 10
611.9812475122
 20
335.8635280789
 30
0.0
 11
611.9796754397
 21
335.8727071942
 31
0.0
  0
ARC
  5
89
330
1F
100
AcDbEntity
  8
0
  6
Continuous
 62
     7
370
    15
100
AcDbCircle
 10
557.2584480837
 20
339.2383998429
 30
0.0
 40
5.694778644815585
100
AcDbArc
 50
341.0308550148
 51
20.1724513256
  0
ARC
  5
8A
330
1F
100
AcDbEntity
  8
0
  6
Continuous
 62
     7
370
    15
100
AcDbCircle
 10
578.3133925948
 20
339.238871145
 30
0.0
 40
5.68682358065011
100
AcDbArc
 50
159.9595306991
 51
197.7069964949
  0
LWPOLYLINE
  5
8B
330
1F
100
AcDbEntity
  8
0
  6
Continuous
 62
     7
370
    15
100
AcDbPolyline
 90
        9
 70
   128
 43
0.0
 10
567.040030805
 20
335.200173086
 10
567.0971171535
 20
335.0788627327
 10
567.2596962727
 20
334.9760447205
 10
567.5030173338
 20
334.9073354662
 10
567.7900285996
 20
334.8832104862
 10
568.0770398653
 20
334.9073354662
 10
568.3203609265
 20
334.9760447205
 10
568.4829400457
 20
335.0788627327
 10
568.5400263942
 20
335.200173086
  0
LINE
  5
8C
330
1F
100
AcDbEntity
  8
0
  6
Continuous
 62
     7
370
    15
100
AcDbLine
 10
567.040030805
 20
341.2022267044
 30
0.0
 11
567.040030805
 21
335.200173086
 31
0.0
  0
LINE
  5
8D
330
1F
100
AcDbEntity
  8
0
  6
Continuous
 62
     7
370
    15
100
AcDbLine
 10
568.5400263942
 20
335.200173086
 30
0.0
 11
568.5400263942
 21
341.2022267044
 31
0.0
  0
LINE
  5
8E
330
1F
100
AcDbEntity
  8
0
  6
Continuous
 62
     7
370
    15
100
AcDbLine
 10
561.9812504924
 20
335.8635280789
 30
0.0
 11
561.9796784199
 21
335.8727071942
 31
0.0
  0
ARC
  5
8F
330
1F
100
AcDbEntity
  8
0
  6
Continuous
 62
     7
370
    15
100
AcDbCircle
 10
444.7582993603
 20
339.2384087679
 30
0.0
 40
5.694917965381695
100
AcDbArc
 50
341.0312418588
 51
20.1718407104
  0
ARC
  5
90
330
1F
100
AcDbEntity
  8
0
  6
Continuous
 62
     7
370
    15
100
AcDbCircle
 10
465.8129864191
 20
339.2388902982
 30
0.0
 40
5.68643963598241
100
AcDbArc
 50
159.9583249774
 51
197.7084342234
  0
LWPOLYLINE
  5
91
330
1F
100
AcDbEntity
  8
0
  6
Continuous
 62
     7
370
    15
100
AcDbPolyline
 90
        9
 70
   128
 43
0.0
 10
454.5400263346
 20
335.200173086
 10
454.5971126831
 20
335.0788627327
 10
454.7596992529
 20
334.9760447205
 10
455.0030203141
 20
334.9073354662
 10
455.2900315798
 20
334.8832104862
 10
455.5770428456
 20
334.9073354662
 10
455.8203639067
 20
334.9760447205
 10
455.9829355753
 20
335.0788627327
 10
456.0400219239
 20
335.200173086
  0
LINE
  5
92
330
1F
100
AcDbEntity
  8
0
  6
Continuous
 62
     7
370
    15
100
AcDbLine
 10
454.5400263346
 20
341.2022267044
 30
0.0
 11
454.5400263346
 21
335.200173086
 31
0.0
  0
LINE
  5
93
330
1F
100
AcDbEntity
  8
0
  6
Continuous
 62
     7
370
    15
100
AcDbLine
 10
456.0400219239
 20
335.200173086
 30
0.0
 11
456.0400219239
 21
341.2022267044
 31
0.0
  0
LINE
  5
94
330
1F
100
AcDbEntity
  8
0
  6
Continuous
 62
     7
370
    15
100
AcDbLine
 10
449.4812460221
 20
335.8635280789
 30
0.0
 11
449.4796814001
 21
335.8727071942
 31
0.0
  0
ARC
  5
95
330
1F
100
AcDbEntity
  8
0
  6
Continuous
 62
     7
370
    15
100
AcDbCircle
 10
719.7585529041
 20
339.2384061868
 30
0.0
 40
5.694679465359723
100
AcDbArc
 50
341.030444527
 51
20.1727499278
  0
ARC
  5
96
330
1F
100
AcDbEntity
  8
0
  6
Continuous
 62
     7
370
    15
100
AcDbCircle
 10
740.812911009
 20
339.2388864694
 30
0.0
 40
5.68636450523622
100
AcDbArc
 50
159.958007755
 51
197.7086354424
  0
LWPOLYLINE
  5
97
330
1F
100
AcDbEntity
  8
0
  6
Continuous
 62
     7
370
    15
100
AcDbPolyline
 90
        9
 70
   128
 43
0.0
 10
729.5400285698
 20
335.200173086
 10
729.5971186436
 20
335.0788627327
 10
729.7596977628
 20
334.9760447205
 10
730.0030150987
 20
334.9073354662
 10
730.2900263644
 20
334.8832104862
 10
730.5770413554
 20
334.9073354662
 10
730.8203586913
 20
334.9760447205
 10
730.9829378105
 20
335.0788627327
 10
731.0400278843
 20
335.200173086
  0
LINE
  5
98
330
1F
100
AcDbEntity
  8
0
  6
Continuous
 62
     7
370
    15
100
AcDbLine
 10
729.5400285698
 20
341.2022267044
 30
0.0
 11
729.5400285698
 21
335.200173086
 31
0.0
  0
LINE
  5
99
330
1F
100
AcDbEntity
  8
0
  6
Continuous
 62
     7
370
    15
100
AcDbLine
 10
731.0400278843
 20
335.200173086
 30
0.0
 11
731.0400278843
 21
341.2022267044
 31
0.0
  0
LINE
  5
9A
330
1F
100
AcDbEntity
  8
0
  6
Continuous
 62
     7
370
    15
100
AcDbLine
 10
724.4812482572
 20
335.8635280789
 30
0.0
 11
724.4796761847
 21
335.8727071942
 31
0.0
  0
ARC
  5
9B
330
1F
100
AcDbEntity
  8
0
  6
Continuous
 62
     7
370
    15
100
AcDbCircle
 10
657.2585736471
 20
339.23840248
 30
0.0
 40
5.694659524736486
100
AcDbArc
 50
341.0304150005
 51
20.1728633685
  0
ARC
  5
9C
330
1F
100
AcDbEntity
  8
0
  6
Continuous
 62
     7
370
    15
100
AcDbCircle
 10
678.3129870307
 20
339.238885569
 30
0.0
 40
5.686437981620736
100
AcDbArc
 50
159.9582681735
 51
197.7083895243
  0
LWPOLYLINE
  5
9D
330
1F
100
AcDbEntity
  8
0
  6
Continuous
 62
     7
370
    15
100
AcDbPolyline
 90
        9
 70
   128
 43
0.0
 10
667.0400276385
 20
335.200173086
 10
667.0971186436
 20
335.0788627327
 10
667.2596977628
 20
334.9760447205
 10
667.5030150987
 20
334.9073354662
 10
667.7900282271
 20
334.8832104862
 10
668.0770404241
 20
334.9073354662
 10
668.32035776
 20
334.9760447205
 10
668.4829378105
 20
335.0788627327
 10
668.5400278843
 20
335.200173086
  0
LINE
  5
9E
330
1F
100
AcDbEntity
  8
0
  6
Continuous
 62
     7
370
    15
100
AcDbLine
 10
667.0400276385
 20
341.2022267044
 30
0.0
 11
667.0400276385
 21
335.200173086
 31
0.0
  0
LINE
  5
9F
330
1F
100
AcDbEntity
  8
0
  6
Continuous
 62
     7
370
    15
100
AcDbLine
 10
668.5400278843
 20
335.200173086
 30
0.0
 11
668.5400278843
 21
341.2022267044
 31
0.0
  0
LINE
  5
A0
330
1F
100
AcDbEntity
  8
0
  6
Continuous
 62
     7
370
    15
100
AcDbLine
 10
661.9812482572
 20
335.8635280789
 30
0.0
 11
661.9796771161
 21
335.8727071942
 31
0.0
  0
ARC
  5
A1
330
1F
100
AcDbEntity
  8
0
  6
Continuous
 62
     7
370
    15
100
AcDbCircle
 10
507.2582993603
 20
339.2384087679
 30
0.0
 40
5.694917965381695
100
AcDbArc
 50
341.0312418588
 51
20.1718407104
  0
ARC
  5
A2
330
1F
100
AcDbEntity
  8
0
  6
Continuous
 62
     7
370
    15
100
AcDbCircle
 10
528.3129864191
 20
339.2388902982
 30
0.0
 40
5.686439635982356
100
AcDbArc
 50
159.9583249774
 51
197.7084342234
  0
LWPOLYLINE
  5
A3
330
1F
100
AcDbEntity
  8
0
  6
Continuous
 62
     7
370
    15
100
AcDbPolyline
 90
        9
 70
   128
 43
0.0
 10
517.0400263346
 20
335.200173086
 10
517.0971126831
 20
335.0788627327
 10
517.2596992529
 20
334.9760447205
 10
517.5030203141
 20
334.9073354662
 10
517.7900315798
 20
334.8832104862
 10
518.0770428456
 20
334.9073354662
 10
518.3203639067
 20
334.9760447205
 10
518.4829355753
 20
335.0788627327
 10
518.5400219239
 20
335.200173086
  0
LINE
  5
A4
330
1F
100
AcDbEntity
  8
0
  6
Continuous
 62
     7
370
    15
100
AcDbLine
 10
517.0400263346
 20
341.2022267044
 30
0.0
 11
517.0400263346
 21
335.200173086
 31
0.0
  0
LINE
  5
A5
330
1F
100
AcDbEntity
  8
0
  6
Continuous
 62
     7
370
    15
100
AcDbLine
 10
518.5400219239
 20
335.200173086
 30
0.0
 11
518.5400219239
 21
341.2022267044
 31
0.0
  0
LINE
  5
A6
330
1F
100
AcDbEntity
  8
0
  6
Continuous
 62
     7
370
    15
100
AcDbLine
 10
511.9812460221
 20
335.8635280789
 30
0.0
 11
511.9796814001
 21
335.8727071942
 31
0.0
  0
LINE
  5
A7
330
1F
100
AcDbEntity
  8
0
  6
Continuous
 62
     7
370
    15
100
AcDbLine
 10
792.7900300897
 20
369.4025699557
 30
0.0
 11
792.7900300897
 21
363.0810801447
 31
0.0
  0
ARC
  5
A8
330
1F
100
AcDbEntity
  8
0
  6
Continuous
 62
     7
370
    15
100
AcDbCircle
 10
791.91327893
 20
363.093329393
 30
0.0
 40
0.8768367237378689
100
AcDbArc
 50
306.9230611299
 51
359.1995624269
  0
LINE
  5
A9
330
1F
100
AcDbEntity
  8
0
  6
Continuous
 62
     7
370
    15
100
AcDbLine
 10
792.7900300897
 20
363.0810801447
 30
0.0
 11
792.7900300897
 21
362.912026471
 31
0.0
  0
ARC
  5
AA
330
1F
100
AcDbEntity
  8
0
  6
Continuous
 62
     7
370
    15
100
AcDbCircle
 10
791.9090338945
 20
362.9264329541
 30
0.0
 40
0.8811139782395945
100
AcDbArc
 50
307.0594688256
 51
359.0631547312
  0
LINE
  5
AB
330
1F
100
AcDbEntity
  8
0
  6
Continuous
 62
     7
370
    15
100
AcDbLine
 10
792.7900300897
 20
369.9943844736
 30
0.0
 11
792.7900300897
 21
369.4025699557
 31
0.0
  0
LINE
  5
AC
330
1F
100
AcDbEntity
  8
0
  6
Continuous
 62
     7
370
    15
100
AcDbLine
 10
792.7900300897
 20
341.58240003
 30
0.0
 11
792.7900300897
 21
362.912026471
 31
0.0
  0
LINE
  5
AD
330
1F
100
AcDbEntity
  8
0
  6
Continuous
 62
     7
370
    15
100
AcDbLine
 10
392.7900315798
 20
341.076460904
 30
0.0
 11
392.7900315798
 21
341.2022267044
 31
0.0
  0
LINE
  5
AE
330
1F
100
AcDbEntity
  8
0
  6
Continuous
 62
     7
370
    15
100
AcDbLine
 10
792.7900300897
 20
341.076460904
 30
0.0
 11
792.7900300897
 21
341.58240003
 31
0.0
  0
ARC
  5
AF
330
1F
100
AcDbEntity
  8
0
  6
Continuous
 62
     7
370
    15
100
AcDbCircle
 10
791.7900280532
 20
386.0965087073
 30
0.0
 40
1.0
100
AcDbArc
 50
0.0
 51
49.4583981263
  0
LINE
  5
B0
330
1F
100
AcDbEntity
  8
0
  6
Continuous
 62
     7
370
    15
100
AcDbLine
 10
792.7900300897
 20
386.0965047539
 30
0.0
 11
792.7900300897
 21
369.9943844736
 31
0.0
  0
CIRCLE
  5
B1
330
1F
100
AcDbEntity
  8
0
  6
Continuous
 62
     7
370
    15
100
AcDbCircle
 10
787.4400280532
 20
772.4538053098
 30
0.0
 40
4.749999999999983
  0
CIRCLE
  5
B2
330
1F
100
AcDbEntity
  8
0
  6
Continuous
 62
     7
370
    15
100
AcDbCircle
 10
397.4400280532
 20
772.4538053098
 30
0.0
 40
4.749999999999989
  0
ARC
  5
B3
330
1F
100
AcDbEntity
  8
0
  6
Continuous
 62
     7
370
    15
100
AcDbCircle
 10
431.8025201097
 20
583.3163016093
 30
0.0
 40
13.61250000000001
100
AcDbArc
 50
179.9999999534
 51
270.0000000462
  0
ARC
  5
B4
330
1F
100
AcDbEntity
  8
0
  6
Continuous
 62
     7
370
    15
100
AcDbCircle
 10
431.8025201097
 20
583.3163016093
 30
0.0
 40
14.36250000000007
100
AcDbArc
 50
180.0
 51
269.9999999974
  0
LINE
  5
B5
330
1F
100
AcDbEntity
  8
0
  6
Continuous
 62
     7
370
    15
100
AcDbLine
 10
418.190014509
 20
583.3163012326
 30
0.0
 11
418.190014509
 21
704.5913015068
 31
0.0
  0
LINE
  5
B6
330
1F
100
AcDbEntity
  8
0
  6
Continuous
 62
     7
370
    15
100
AcDbLine
 10
417.4400092638
 20
704.5913015068
 30
0.0
 11
417.4400092638
 21
583.3163012326
 31
0.0
  0
ARC
  5
B7
330
1F
100
AcDbEntity
  8
0
  6
Continuous
 62
     7
370
    15
100
AcDbCircle
 10
431.8025201097
 20
704.5913016093
 30
0.0
 40
14.36250000000007
100
AcDbArc
 50
90.0000000143
 51
179.9999999945
  0
ARC
  5
B8
330
1F
100
AcDbEntity
  8
0
  6
Continuous
 62
     7
370
    15
100
AcDbCircle
 10
431.8025201097
 20
704.5913016093
 30
0.0
 40
13.61250000000001
100
AcDbArc
 50
89.9999999531
 51
180.0000000521
  0
LINE
  5
B9
330
1F
100
AcDbEntity
  8
0
  6
Continuous
 62
     7
370
    15
100
AcDbLine
 10
553.077523557
 20
718.2037953795
 30
0.0
 11
431.8025232828
 21
718.2037953795
 31
0.0
  0
ARC
  5
BA
330
1F
100
AcDbEntity
  8
0
  6
Continuous
 62
     7
370
    15
100
AcDbCircle
 10
553.0775201097
 20
704.5913016093
 30
0.0
 40
13.61250000000007
100
AcDbArc
 50
359.9999999391
 51
90.0000000521
  0
LINE
  5
BB
330
1F
100
AcDbEntity
  8
0
  6
Continuous
 62
     7
370
    15
100
AcDbLine
 10
566.6900174297
 20
583.3163012326
 30
0.0
 11
566.6900174297
 21
704.5913015068
 31
0.0
  0
ARC
  5
BC
330
1F
100
AcDbEntity
  8
0
  6
Continuous
 62
     7
370
    15
100
AcDbCircle
 10
553.0775201097
 20
583.3163016093
 30
0.0
 40
13.61250000000007
100
AcDbArc
 50
269.9999999303
 51
0.0000000521
  0
LINE
  5
BD
330
1F
100
AcDbEntity
  8
0
  6
Continuous
 62
     7
370
    15
100
AcDbLine
 10
431.8025232828
 20
569.7037999094
 30
0.0
 11
553.077523557
 21
569.7037999094
 31
0.0
  0
LINE
  5
BE
330
1F
100
AcDbEntity
  8
0
  6
Continuous
 62
     7
370
    15
100
AcDbLine
 10
431.8025232828
 20
718.9538006247
 30
0.0
 11
553.077523557
 21
718.9538006247
 31
0.0
  0
LINE
  5
BF
330
1F
100
AcDbEntity
  8
0
  6
Continuous
 62
     7
370
    15
100
AcDbLine
 10
553.077523557
 20
568.9538021148
 30
0.0
 11
431.8025232828
 21
568.9538021148
 31
0.0
  0
ARC
  5
C0
330
1F
100
AcDbEntity
  8
0
  6
Continuous
 62
     7
370
    15
100
AcDbCircle
 10
553.0775201097
 20
704.5913016093
 30
0.0
 40
14.36250000000007
100
AcDbArc
 50
0.0000000029
 51
90.0
  0
LINE
  5
C1
330
1F
100
AcDbEntity
  8
0
  6
Continuous
 62
     7
370
    15
100
AcDbLine
 10
567.4400226749
 20
704.5913015068
 30
0.0
 11
567.4400226749
 21
583.3163012326
 31
0.0
  0
ARC
  5
C2
330
1F
100
AcDbEntity
  8
0
  6
Continuous
 62
     7
370
    15
100
AcDbCircle
 10
553.0775201097
 20
583.3163016093
 30
0.0
 40
14.36250000000007
100
AcDbArc
 50
269.9999999941
 51
0.0
  0
ARC
  5
C3
330
1F
100
AcDbEntity
  8
0
  6
Continuous
 62
     7
370
    15
100
AcDbCircle
 10
753.0775359967
 20
583.3163090103
 30
0.0
 40
14.36249999999995
100
AcDbArc
 50
270.0000000143
 51
359.9999999945
  0
ARC
  5
C4
330
1F
100
AcDbEntity
  8
0
  6
Continuous
 62
     7
370
    15
100
AcDbCircle
 10
753.0775359967
 20
583.3163090103
 30
0.0
 40
13.61250000000007
100
AcDbArc
 50
269.9999999531
 51
0.0000000521
  0
LINE
  5
C5
330
1F
100
AcDbEntity
  8
0
  6
Continuous
 62
     7
370
    15
100
AcDbLine
 10
753.0775339878
 20
568.9538095654
 30
0.0
 11
631.8025374389
 21
568.9538095654
 31
0.0
  0
LINE
  5
C6
330
1F
100
AcDbEntity
  8
0
  6
Continuous
 62
     7
370
    15
100
AcDbLine
 10
631.8025374389
 20
569.70380736
 30
0.0
 11
753.0775339878
 21
569.70380736
 31
0.0
  0
ARC
  5
C7
330
1F
100
AcDbEntity
  8
0
  6
Continuous
 62
     7
370
    15
100
AcDbCircle
 10
753.0775359967
 20
704.5913090103
 30
0.0
 40
13.61249999999995
100
AcDbArc
 50
359.9999999534
 51
90.0000000462
  0
LINE
  5
C8
330
1F
100
AcDbEntity
  8
0
  6
Continuous
 62
     7
370
    15
100
AcDbLine
 10
766.6900353111
 20
704.591316408
 30
0.0
 11
766.6900353111
 21
583.3163086832
 31
0.0
  0
ARC
  5
C9
330
1F
100
AcDbEntity
  8
0
  6
Continuous
 62
     7
370
    15
100
AcDbCircle
 10
631.8025359967
 20
583.3163090103
 30
0.0
 40
13.61250000000007
100
AcDbArc
 50
179.9999999391
 51
270.0000000521
  0
LINE
  5
CA
330
1F
100
AcDbEntity
  8
0
  6
Continuous
 62
     7
370
    15
100
AcDbLine
 10
618.1900361157
 20
704.591316408
 30
0.0
 11
618.1900361157
 21
583.3163086832
 31
0.0
  0
ARC
  5
CB
330
1F
100
AcDbEntity
  8
0
  6
Continuous
 62
     7
370
    15
100
AcDbCircle
 10
631.8025359967
 20
704.5913090103
 30
0.0
 40
13.61249999999995
100
AcDbArc
 50
89.9999999303
 51
180.0000000521
  0
LINE
  5
CC
330
1F
100
AcDbEntity
  8
0
  6
Continuous
 62
     7
370
    15
100
AcDbLine
 10
753.0775339878
 20
718.2038102806
 30
0.0
 11
631.8025374389
 21
718.2038102806
 31
0.0
  0
LINE
  5
CD
330
1F
100
AcDbEntity
  8
0
  6
Continuous
 62
     7
370
    15
100
AcDbLine
 10
767.4400331057
 20
583.3163086832
 30
0.0
 11
767.4400331057
 21
704.591316408
 31
0.0
  0
ARC
  5
CE
330
1F
100
AcDbEntity
  8
0
  6
Continuous
 62
     7
370
    15
100
AcDbCircle
 10
631.8025359967
 20
583.3163090103
 30
0.0
 40
14.36249999999995
100
AcDbArc
 50
180.0000000029
 51
270.0
  0
LINE
  5
CF
330
1F
100
AcDbEntity
  8
0
  6
Continuous
 62
     7
370
    15
100
AcDbLine
 10
617.4400345958
 20
583.3163086832
 30
0.0
 11
617.4400345958
 21
704.591316408
 31
0.0
  0
ARC
  5
D0
330
1F
100
AcDbEntity
  8
0
  6
Continuous
 62
     7
370
    15
100
AcDbCircle
 10
753.0775359967
 20
704.5913090103
 30
0.0
 40
14.36250000000007
100
AcDbArc
 50
0.0
 51
89.9999999974
  0
LINE
  5
D1
330
1F
100
AcDbEntity
  8
0
  6
Continuous
 62
     7
370
    15
100
AcDbLine
 10
631.8025374389
 20
718.9538155258
 30
0.0
 11
753.0775339878
 21
718.9538155258
 31
0.0
  0
ARC
  5
D2
330
1F
100
AcDbEntity
  8
0
  6
Continuous
 62
     7
370
    15
100
AcDbCircle
 10
631.8025359967
 20
704.5913090103
 30
0.0
 40
14.36250000000007
100
AcDbArc
 50
89.9999999941
 51
180.0
  0
ARC
  5
D3
330
1F
100
AcDbEntity
  8
0
  6
Continuous
 62
     7
370
    15
100
AcDbCircle
 10
431.8025201097
 20
408.3163016093
 30
0.0
 40
13.61250000000001
100
AcDbArc
 50
179.9999999534
 51
270.0000000462
  0
ARC
  5
D4
330
1F
100
AcDbEntity
  8
0
  6
Continuous
 62
     7
370
    15
100
AcDbCircle
 10
431.8025201097
 20
408.3163016093
 30
0.0
 40
14.36250000000007
100
AcDbArc
 50
180.0
 51
269.9999999974
  0
LINE
  5
D5
330
1F
100
AcDbEntity
  8
0
  6
Continuous
 62
     7
370
    15
100
AcDbLine
 10
418.190014509
 20
408.3163042129
 30
0.0
 11
418.190014509
 21
529.5913016931
 31
0.0
  0
LINE
  5
D6
330
1F
100
AcDbEntity
  8
0
  6
Continuous
 62
     7
370
    15
100
AcDbLine
 10
417.4400092638
 20
529.5913016931
 30
0.0
 11
417.4400092638
 21
408.3163042129
 31
0.0
  0
LINE
  5
D7
330
1F
100
AcDbEntity
  8
0
  6
Continuous
 62
     7
370
    15
100
AcDbLine
 10
431.8025232828
 20
543.9538017423
 30
0.0
 11
553.077523557
 21
543.9538017423
 31
0.0
  0
LINE
  5
D8
330
1F
100
AcDbEntity
  8
0
  6
Continuous
 62
     7
370
    15
100
AcDbLine
 10
553.077523557
 20
543.203802085
 30
0.0
 11
431.8025232828
 21
543.203802085
 31
0.0
  0
ARC
  5
D9
330
1F
100
AcDbEntity
  8
0
  6
Continuous
 62
     7
370
    15
100
AcDbCircle
 10
431.8025201097
 20
529.5913016093
 30
0.0
 40
13.61250000000001
100
AcDbArc
 50
89.9999999531
 51
180.0000000521
  0
ARC
  5
DA
330
1F
100
AcDbEntity
  8
0
  6
Continuous
 62
     7
370
    15
100
AcDbCircle
 10
553.0775201097
 20
529.5913016093
 30
0.0
 40
13.61249999999995
100
AcDbArc
 50
359.9999999391
 51
90.0000000521
  0
LINE
  5
DB
330
1F
100
AcDbEntity
  8
0
  6
Continuous
 62
     7
370
    15
100
AcDbLine
 10
566.6900174297
 20
408.3163042129
 30
0.0
 11
566.6900174297
 21
529.5913016931
 31
0.0
  0
ARC
  5
DC
330
1F
100
AcDbEntity
  8
0
  6
Continuous
 62
     7
370
    15
100
AcDbCircle
 10
553.0775201097
 20
408.3163016093
 30
0.0
 40
13.61249999999995
100
AcDbArc
 50
269.9999999303
 51
0.0000000521
  0
LINE
  5
DD
330
1F
100
AcDbEntity
  8
0
  6
Continuous
 62
     7
370
    15
100
AcDbLine
 10
431.8025232828
 20
394.7038028897
 30
0.0
 11
553.077523557
 21
394.7038028897
 31
0.0
  0
ARC
  5
DE
330
1F
100
AcDbEntity
  8
0
  6
Continuous
 62
     7
370
    15
100
AcDbCircle
 10
431.8025201097
 20
529.5913016093
 30
0.0
 40
14.36250000000007
100
AcDbArc
 50
90.0000000143
 51
179.9999999945
  0
LINE
  5
DF
330
1F
100
AcDbEntity
  8
0
  6
Continuous
 62
     7
370
    15
100
AcDbLine
 10
553.077523557
 20
393.9537976444
 30
0.0
 11
431.8025232828
 21
393.9537976444
 31
0.0
  0
ARC
  5
E0
330
1F
100
AcDbEntity
  8
0
  6
Continuous
 62
     7
370
    15
100
AcDbCircle
 10
553.0775201097
 20
529.5913016093
 30
0.0
 40
14.36249999999995
100
AcDbArc
 50
0.0000000029
 51
90.0
  0
ARC
  5
E1
330
1F
100
AcDbEntity
  8
0
  6
Continuous
 62
     7
370
    15
100
AcDbCircle
 10
553.0775201097
 20
408.3163016093
 30
0.0
 40
14.36250000000001
100
AcDbArc
 50
269.9999999941
 51
0.0
  0
LINE
  5
E2
330
1F
100
AcDbEntity
  8
0
  6
Continuous
 62
     7
370
    15
100
AcDbLine
 10
567.4400226749
 20
529.5913016931
 30
0.0
 11
567.4400226749
 21
408.3163042129
 31
0.0
  0
ARC
  5
E3
330
1F
100
AcDbEntity
  8
0
  6
Continuous
 62
     7
370
    15
100
AcDbCircle
 10
753.0775359967
 20
408.3163090103
 30
0.0
 40
14.36249999999995
100
AcDbArc
 50
270.0000000143
 51
359.9999999945
  0
ARC
  5
E4
330
1F
100
AcDbEntity
  8
0
  6
Continuous
 62
     7
370
    15
100
AcDbCircle
 10
753.0775359967
 20
408.3163090103
 30
0.0
 40
13.61250000000001
100
AcDbArc
 50
269.9999999531
 51
0.0000000521
  0
ARC
  5
E5
330
1F
100
AcDbEntity
  8
0
  6
Continuous
 62
     7
370
    15
100
AcDbCircle
 10
753.0775359967
 20
529.5913090103
 30
0.0
 40
13.61249999999984
100
AcDbArc
 50
359.9999999534
 51
90.0000000462
  0
LINE
  5
E6
330
1F
100
AcDbEntity
  8
0
  6
Continuous
 62
     7
370
    15
100
AcDbLine
 10
766.6900353111
 20
529.5913091437
 30
0.0
 11
766.6900353111
 21
408.3163116635
 31
0.0
  0
LINE
  5
E7
330
1F
100
AcDbEntity
  8
0
  6
Continuous
 62
     7
370
    15
100
AcDbLine
 10
631.8025374389
 20
394.7038028897
 30
0.0
 11
753.0775339878
 21
394.7038028897
 31
0.0
  0
ARC
  5
E8
330
1F
100
AcDbEntity
  8
0
  6
Continuous
 62
     7
370
    15
100
AcDbCircle
 10
631.8025359967
 20
408.3163090103
 30
0.0
 40
13.61250000000001
100
AcDbArc
 50
179.9999999391
 51
270.0000000521
  0
LINE
  5
E9
330
1F
100
AcDbEntity
  8
0
  6
Continuous
 62
     7
370
    15
100
AcDbLine
 10
618.1900361157
 20
529.5913091437
 30
0.0
 11
618.1900361157
 21
408.3163116635
 31
0.0
  0
ARC
  5
EA
330
1F
100
AcDbEntity
  8
0
  6
Continuous
 62
     7
370
    15
100
AcDbCircle
 10
631.8025359967
 20
529.5913090103
 30
0.0
 40
13.61249999999995
100
AcDbArc
 50
89.9999999303
 51
180.0000000521
  0
LINE
  5
EB
330
1F
100
AcDbEntity
  8
0
  6
Continuous
 62
     7
370
    15
100
AcDbLine
 10
753.0775339878
 20
543.2038095356
 30
0.0
 11
631.8025374389
 21
543.2038095356
 31
0.0
  0
LINE
  5
EC
330
1F
100
AcDbEntity
  8
0
  6
Continuous
 62
     7
370
    15
100
AcDbLine
 10
753.0775339878
 20
393.9538125456
 30
0.0
 11
631.8025374389
 21
393.9538125456
 31
0.0
  0
LINE
  5
ED
330
1F
100
AcDbEntity
  8
0
  6
Continuous
 62
     7
370
    15
100
AcDbLine
 10
767.4400331057
 20
408.3163116635
 30
0.0
 11
767.4400331057
 21
529.5913091437
 31
0.0
  0
ARC
  5
EE
330
1F
100
AcDbEntity
  8
0
  6
Continuous
 62
     7
370
    15
100
AcDbCircle
 10
631.8025359967
 20
408.3163090103
 30
0.0
 40
14.36249999999995
100
AcDbArc
 50
180.0000000029
 51
270.0
  0
LINE
  5
EF
330
1F
100
AcDbEntity
  8
0
  6
Continuous
 62
     7
370
    15
100
AcDbLine
 10
617.4400345958
 20
408.3163116635
 30
0.0
 11
617.4400345958
 21
529.5913091437
 31
0.0
  0
ARC
  5
F0
330
1F
100
AcDbEntity
  8
0
  6
Continuous
 62
     7
370
    15
100
AcDbCircle
 10
753.0775359967
 20
529.5913090103
 30
0.0
 40
14.36250000000007
100
AcDbArc
 50
0.0
 51
89.9999999974
  0
LINE
  5
F1
330
1F
100
AcDbEntity
  8
0
  6
Continuous
 62
     7
370
    15
100
AcDbLine
 10
631.8025374389
 20
543.9538091928
 30
0.0
 11
753.0775339878
 21
543.9538091928
 31
0.0
  0
ARC
  5
F2
330
1F
100
AcDbEntity
  8
0
  6
Continuous
 62
     7
370
    15
100
AcDbCircle
 10
631.8025359967
 20
529.5913090103
 30
0.0
 40
14.36250000000007
100
AcDbArc
 50
89.9999999941
 51
180.0
  0
ARC
  5
F3
330
1F
100
AcDbEntity
  8
0
  6
Continuous
 62
     7
370
    15
100
AcDbCircle
 10
752.5900359967
 20
583.8038090103
 30
0.0
 40
17.22500000000002
100
AcDbArc
 50
269.9999999971
 51
0.0000000029
  0
LINE
  5
F4
330
1F
100
AcDbEntity
  8
0
  6
Continuous
 62
     7
370
    15
100
AcDbLine
 10
769.8150323308
 20
704.1038100184
 30
0.0
 11
769.8150323308
 21
583.8038076223
 31
0.0
  0
ARC
  5
F5
330
1F
100
AcDbEntity
  8
0
  6
Continuous
 62
     7
370
    15
100
AcDbCircle
 10
632.2900359967
 20
583.8038090103
 30
0.0
 40
17.22500000000002
100
AcDbArc
 50
179.9999999945
 51
269.999999989
  0
LINE
  5
F6
330
1F
100
AcDbEntity
  8
0
  6
Continuous
 62
     7
370
    15
100
AcDbLine
 10
615.0650353707
 20
704.1038100184
 30
0.0
 11
615.0650353707
 21
583.8038076223
 31
0.0
  0
ARC
  5
F7
330
1F
100
AcDbEntity
  8
0
  6
Continuous
 62
     7
370
    15
100
AcDbCircle
 10
632.2900359967
 20
704.1038090103
 30
0.0
 40
17.22500000000002
100
AcDbArc
 50
90.0000000189
 51
179.999999978
  0
LINE
  5
F8
330
1F
100
AcDbEntity
  8
0
  6
Continuous
 62
     7
370
    15
100
AcDbLine
 10
752.5900350488
 20
721.3288073004
 30
0.0
 11
632.290036378
 21
721.3288073004
 31
0.0
  0
LINE
  5
F9
330
1F
100
AcDbEntity
  8
0
  6
Continuous
 62
     7
370
    15
100
AcDbLine
 10
632.290036378
 20
566.5788103402
 30
0.0
 11
752.5900350488
 21
566.5788103402
 31
0.0
  0
ARC
  5
FA
330
1F
100
AcDbEntity
  8
0
  6
Continuous
 62
     7
370
    15
100
AcDbCircle
 10
752.5900359967
 20
704.1038090103
 30
0.0
 40
17.22500000000002
100
AcDbArc
 50
0.0
 51
90.0000000029
  0
ARC
  5
FB
330
1F
100
AcDbEntity
  8
0
  6
Continuous
 62
     7
370
    15
100
AcDbCircle
 10
432.2900201097
 20
529.1038016093
 30
0.0
 40
17.22500000000002
100
AcDbArc
 50
89.9999999971
 51
180.0000000029
  0
LINE
  5
FC
330
1F
100
AcDbEntity
  8
0
  6
Continuous
 62
     7
370
    15
100
AcDbLine
 10
415.0650323904
 20
408.8038031519
 30
0.0
 11
415.0650323904
 21
529.1038018227
 31
0.0
  0
LINE
  5
FD
330
1F
100
AcDbEntity
  8
0
  6
Continuous
 62
     7
370
    15
100
AcDbLine
 10
569.8150219
 20
408.8038031519
 30
0.0
 11
569.8150219
 21
529.1038018227
 31
0.0
  0
LINE
  5
FE
330
1F
100
AcDbEntity
  8
0
  6
Continuous
 62
     7
370
    15
100
AcDbLine
 10
432.2900147713
 20
391.5788058699
 30
0.0
 11
552.5900171674
 21
391.5788058699
 31
0.0
  0
ARC
  5
FF
330
1F
100
AcDbEntity
  8
0
  6
Continuous
 62
     7
370
    15
100
AcDbCircle
 10
552.5900201097
 20
529.1038016093
 30
0.0
 40
17.22500000000002
100
AcDbArc
 50
359.9999999945
 51
89.999999989
  0
ARC
  5
100
330
1F
100
AcDbEntity
  8
0
  6
Continuous
 62
     7
370
    15
100
AcDbCircle
 10
552.5900201097
 20
408.8038016093
 30
0.0
 40
17.22500000000008
100
AcDbArc
 50
270.0000000189
 51
359.999999978
  0
LINE
  5
101
330
1F
100
AcDbEntity
  8
0
  6
Continuous
 62
     7
370
    15
100
AcDbLine
 10
552.5900171674
 20
546.3288009674
 30
0.0
 11
432.2900147713
 21
546.3288009674
 31
0.0
  0
ARC
  5
102
330
1F
100
AcDbEntity
  8
0
  6
Continuous
 62
     7
370
    15
100
AcDbCircle
 10
432.2900201097
 20
408.8038016093
 30
0.0
 40
17.22500000000008
100
AcDbArc
 50
180.0
 51
270.0000000029
  0
ARC
  5
103
330
1F
100
AcDbEntity
  8
0
  6
Continuous
 62
     7
370
    15
100
AcDbCircle
 10
432.2900201097
 20
704.1038016093
 30
0.0
 40
17.22499999999991
100
AcDbArc
 50
89.9999999971
 51
180.0000000029
  0
LINE
  5
104
330
1F
100
AcDbEntity
  8
0
  6
Continuous
 62
     7
370
    15
100
AcDbLine
 10
415.0650323904
 20
583.8038001717
 30
0.0
 11
415.0650323904
 21
704.1037951172
 31
0.0
  0
ARC
  5
105
330
1F
100
AcDbEntity
  8
0
  6
Continuous
 62
     7
370
    15
100
AcDbCircle
 10
552.5900201097
 20
704.1038016093
 30
0.0
 40
17.22500000000002
100
AcDbArc
 50
359.9999999945
 51
89.999999989
  0
LINE
  5
106
330
1F
100
AcDbEntity
  8
0
  6
Continuous
 62
     7
370
    15
100
AcDbLine
 10
432.2900147713
 20
566.5788028897
 30
0.0
 11
552.5900171674
 21
566.5788028897
 31
0.0
  0
LINE
  5
107
330
1F
100
AcDbEntity
  8
0
  6
Continuous
 62
     7
370
    15
100
AcDbLine
 10
569.8150219
 20
583.8038001717
 30
0.0
 11
569.8150219
 21
704.1037951172
 31
0.0
  0
ARC
  5
108
330
1F
100
AcDbEntity
  8
0
  6
Continuous
 62
     7
370
    15
100
AcDbCircle
 10
552.5900201097
 20
583.8038016093
 30
0.0
 40
17.22500000000002
100
AcDbArc
 50
270.0000000189
 51
359.999999978
  0
LINE
  5
109
330
1F
100
AcDbEntity
  8
0
  6
Continuous
 62
     7
370
    15
100
AcDbLine
 10
552.5900171674
 20
721.3288073004
 30
0.0
 11
432.2900147713
 21
721.3288073004
 31
0.0
  0
ARC
  5
10A
330
1F
100
AcDbEntity
  8
0
  6
Continuous
 62
     7
370
    15
100
AcDbCircle
 10
432.2900201097
 20
583.8038016093
 30
0.0
 40
17.22500000000002
100
AcDbArc
 50
180.0
 51
270.0000000029
  0
ARC
  5
10B
330
1F
100
AcDbEntity
  8
0
  6
Continuous
 62
     7
370
    15
100
AcDbCircle
 10
752.5900359967
 20
408.8038090103
 30
0.0
 40
17.22499999999991
100
AcDbArc
 50
269.9999999971
 51
0.0000000029
  0
LINE
  5
10C
330
1F
100
AcDbEntity
  8
0
  6
Continuous
 62
     7
370
    15
100
AcDbLine
 10
769.8150323308
 20
529.1038088077
 30
0.0
 11
769.8150323308
 21
408.8038106025
 31
0.0
  0
ARC
  5
10D
330
1F
100
AcDbEntity
  8
0
  6
Continuous
 62
     7
370
    15
100
AcDbCircle
 10
632.2900359967
 20
408.8038090103
 30
0.0
 40
17.22500000000002
100
AcDbArc
 50
179.9999999945
 51
269.999999989
  0
LINE
  5
10E
330
1F
100
AcDbEntity
  8
0
  6
Continuous
 62
     7
370
    15
100
AcDbLine
 10
615.0650353707
 20
529.1038088077
 30
0.0
 11
615.0650353707
 21
408.8038106025
 31
0.0
  0
ARC
  5
10F
330
1F
100
AcDbEntity
  8
0
  6
Continuous
 62
     7
370
    15
100
AcDbCircle
 10
632.2900359967
 20
529.1038090103
 30
0.0
 40
17.22500000000014
100
AcDbArc
 50
90.0000000189
 51
179.999999978
  0
LINE
  5
110
330
1F
100
AcDbEntity
  8
0
  6
Continuous
 62
     7
370
    15
100
AcDbLine
 10
752.5900350488
 20
546.328808418
 30
0.0
 11
632.290036378
 21
546.328808418
 31
0.0
  0
LINE
  5
111
330
1F
100
AcDbEntity
  8
0
  6
Continuous
 62
     7
370
    15
100
AcDbLine
 10
632.290036378
 20
391.5788058699
 30
0.0
 11
752.5900350488
 21
391.5788058699
 31
0.0
  0
ARC
  5
112
330
1F
100
AcDbEntity
  8
0
  6
Continuous
 62
     7
370
    15
100
AcDbCircle
 10
752.5900359967
 20
529.1038090103
 30
0.0
 40
17.22500000000014
100
AcDbArc
 50
0.0
 51
90.0000000029
  0
LINE
  5
113
330
1F
100
AcDbEntity
  8
0
  6
Continuous
 62
     7
370
    15
100
AcDbLine
 10
792.4400316156
 20
755.8288101614
 30
0.0
 11
792.4400316156
 21
789.0787993134
 31
0.0
  0
LINE
  5
114
330
1F
100
AcDbEntity
  8
0
  6
Continuous
 62
     7
370
    15
100
AcDbLine
 10
392.4400331057
 20
789.0787993134
 30
0.0
 11
392.4400331057
 21
755.8288101614
 31
0.0
  0
CIRCLE
  5
115
330
1F
100
AcDbEntity
  8
0
  6
Continuous
 62
     7
370
    15
100
AcDbCircle
 10
737.4400280532
 20
772.4538053098
 30
0.0
 40
1.625
  0
LINE
  5
116
330
1F
100
AcDbEntity
  8
0
  6
Continuous
 62
     7
370
    15
100
AcDbLine
 10
452.4400354899
 20
783.7038014591
 30
0.0
 11
452.4400354899
 21
761.2038080157
 31
0.0
  0
ARC
  5
117
330
1F
100
AcDbEntity
  8
0
  6
Continuous
 62
     7
370
    15
100
AcDbCircle
 10
452.9400280532
 20
761.2038053098
 30
0.0
 40
0.5000000000000568
100
AcDbArc
 50
180.0
 51
270.0
  0
LINE
  5
118
330
1F
100
AcDbEntity
  8
0
  6
Continuous
 62
     7
370
    15
100
AcDbLine
 10
452.9400290526
 20
760.7037995518
 30
0.0
 11
731.9400282181
 21
760.7037995518
 31
0.0
  0
ARC
  5
119
330
1F
100
AcDbEntity
  8
0
  6
Continuous
 62
     7
370
    15
100
AcDbCircle
 10
731.9400280532
 20
761.2038053098
 30
0.0
 40
0.5
100
AcDbArc
 50
270.0
 51
0.0
  0
ARC
  5
11A
330
1F
100
AcDbEntity
  8
0
  6
Continuous
 62
     7
370
    15
100
AcDbCircle
 10
731.9400280532
 20
783.7038053098
 30
0.0
 40
0.5
100
AcDbArc
 50
0.0
 51
90.0
  0
LINE
  5
11B
330
1F
100
AcDbEntity
  8
0
  6
Continuous
 62
     7
370
    15
100
AcDbLine
 10
731.9400282181
 20
784.2037950218
 30
0.0
 11
452.9400290526
 21
784.2037950218
 31
0.0
  0
ARC
  5
11C
330
1F
100
AcDbEntity
  8
0
  6
Continuous
 62
     7
370
    15
100
AcDbCircle
 10
452.9400280532
 20
783.7038053098
 30
0.0
 40
0.5000000000000568
100
AcDbArc
 50
90.0
 51
180.0
  0
CIRCLE
  5
11D
330
1F
100
AcDbEntity
  8
0
  6
Continuous
 62
     7
370
    15
100
AcDbCircle
 10
447.4400280532
 20
772.4538053098
 30
0.0
 40
1.625
  0
LINE
  5
11E
330
1F
100
AcDbEntity
  8
0
  6
Continuous
 62
     7
370
    15
100
AcDbLine
 10
732.4400292314
 20
761.2038080157
 30
0.0
 11
732.4400292314
 21
783.7038014591
 31
0.0
  0
LINE
  5
11F
330
1F
100
AcDbEntity
  8
0
  6
Continuous
 62
     7
370
    15
100
AcDbLine
 10
792.4400316156
 20
791.2037943066
 30
0.0
 11
392.4400331057
 21
791.2037943066
 31
0.0
  0
LINE
  5
120
330
1F
100
AcDbEntity
  8
0
  6
Continuous
 62
     7
370
    15
100
AcDbLine
 10
792.4400316156
 20
791.2037943066
 30
0.0
 11
792.4400316156
 21
789.0787993134
 31
0.0
  0
LINE
  5
121
330
1F
100
AcDbEntity
  8
0
  6
Continuous
 62
     7
370
    15
100
AcDbLine
 10
392.4400331057
 20
789.0787993134
 30
0.0
 11
392.4400331057
 21
791.2037943066
 31
0.0
  0
LINE
  5
122
330
1F
100
AcDbEntity
  8
0
  6
Continuous
 62
     7
370
    15
100
AcDbLine
 10
392.4400331057
 20
753.7038002671
 30
0.0
 11
392.4400331057
 21
755.8288101614
 31
0.0
  0
LINE
  5
123
330
1F
100
AcDbEntity
  8
0
  6
Continuous
 62
     7
370
    15
100
AcDbLine
 10
792.4400316156
 20
755.8288101614
 30
0.0
 11
792.4400316156
 21
753.7038002671
 31
0.0
  0
LINE
  5
124
330
1F
100
AcDbEntity
  8
0
  6
Continuous
 62
     7
370
    15
100
AcDbLine
 10
792.4400316156
 20
753.7038002671
 30
0.0
 11
392.4400331057
 21
753.7038002671
 31
0.0
  0
LINE
  5
125
330
1F
100
AcDbEntity
  8
0
  6
Continuous
 62
     7
370
    15
100
AcDbLine
 10
392.4400331057
 20
753.7038002671
 30
0.0
 11
392.4400331057
 21
752.5788073004
 31
0.0
  0
LINE
  5
126
330
1F
100
AcDbEntity
  8
0
  6
Continuous
 62
     7
370
    15
100
AcDbLine
 10
792.4400316156
 20
752.5788073004
 30
0.0
 11
792.4400316156
 21
753.7038002671
 31
0.0
  0
LINE
  5
127
330
1F
100
AcDbEntity
  8
0
  6
Continuous
 62
     7
370
    15
100
AcDbLine
 10
732.4400292314
 20
783.7038014591
 30
0.0
 11
452.4400354899
 21
783.7038014591
 31
0.0
  0
LINE
  5
128
330
1F
100
AcDbEntity
  8
0
  6
Continuous
 62
     7
370
    15
100
AcDbLine
 10
792.4400316156
 20
347.2022388638
 30
0.0
 11
792.4400316156
 21
752.5788073004
 31
0.0
  0
ARC
  5
129
330
1F
100
AcDbEntity
  8
0
  6
Continuous
 62
     7
370
    15
100
AcDbCircle
 10
555.4400280532
 20
403.2038053098
 30
0.0
 40
25.00000000000015
100
AcDbArc
 50
270.0
 51
0.0
  0
ARC
  5
12A
330
1F
100
AcDbEntity
  8
0
  6
Continuous
 62
     7
370
    15
100
AcDbCircle
 10
555.4400280532
 20
709.7038053098
 30
0.0
 40
25.00000000000011
100
AcDbArc
 50
0.0
 51
90.0
  0
ARC
  5
12B
330
1F
100
AcDbEntity
  8
0
  6
Continuous
 62
     7
370
    15
100
AcDbCircle
 10
429.4400280532
 20
709.7038053098
 30
0.0
 40
25.00000000000006
100
AcDbArc
 50
90.0
 51
180.0
  0
ARC
  5
12C
330
1F
100
AcDbEntity
  8
0
  6
Continuous
 62
     7
370
    15
100
AcDbCircle
 10
429.4400280532
 20
403.2038053098
 30
0.0
 40
25.00000000000006
100
AcDbArc
 50
180.0
 51
270.0
  0
ARC
  5
12D
330
1F
100
AcDbEntity
  8
0
  6
Continuous
 62
     7
370
    15
100
AcDbCircle
 10
629.4400280532
 20
709.7038053098
 30
0.0
 40
25.00000000000021
100
AcDbArc
 50
90.0
 51
180.0
  0
ARC
  5
12E
330
1F
100
AcDbEntity
  8
0
  6
Continuous
 62
     7
370
    15
100
AcDbCircle
 10
629.4400280532
 20
403.2038053098
 30
0.0
 40
25.00000000000006
100
AcDbArc
 50
180.0
 51
270.0
  0
ARC
  5
12F
330
1F
100
AcDbEntity
  8
0
  6
Continuous
 62
     7
370
    15
100
AcDbCircle
 10
755.4400280532
 20
403.2038053098
 30
0.0
 40
25.0
100
AcDbArc
 50
270.0
 51
0.0
  0
ARC
  5
130
330
1F
100
AcDbEntity
  8
0
  6
Continuous
 62
     7
370
    15
100
AcDbCircle
 10
755.4400280532
 20
709.7038053098
 30
0.0
 40
25.0
100
AcDbArc
 50
0.0
 51
90.0
  0
LINE
  5
131
330
1F
100
AcDbEntity
  8
0
  6
Continuous
 62
     7
370
    15
100
AcDbLine
 10
392.4400331057
 20
752.5788073004
 30
0.0
 11
392.4400331057
 21
347.2022388638
 31
0.0
  0
LINE
  5
132
330
1F
100
AcDbEntity
  8
0
  6
Continuous
 62
     7
370
    15
100
AcDbLine
 10
792.4400316156
 20
347.2022388638
 30
0.0
 11
792.4400316156
 21
341.2022267044
 31
0.0
  0
LINE
  5
133
330
1F
100
AcDbEntity
  8
0
  6
Continuous
 62
     7
370
    15
100
AcDbLine
 10
392.4400331057
 20
341.2022267044
 30
0.0
 11
392.4400331057
 21
347.2022388638
 31
0.0
  0
LINE
  5
134
330
1F
100
AcDbEntity
  8
0
  6
Continuous
 62
     7
370
    15
100
AcDbLine
 10
671.6900281213
 20
763.4953830899
 30
0.0
 11
659.190027935
 21
763.4953830899
 31
0.0
  0
ARC
  5
135
330
1F
100
AcDbEntity
  8
0
  6
Continuous
 62
     7
370
    15
100
AcDbCircle
 10
659.1900280532
 20
762.8703822248
 30
0.0
 40
0.625
100
AcDbArc
 50
90.0
 51
270.0
  0
LINE
  5
136
330
1F
100
AcDbEntity
  8
0
  6
Continuous
 62
     7
370
    15
100
AcDbLine
 10
659.190027935
 20
762.2453842819
 30
0.0
 11
671.6900281213
 21
762.2453842819
 31
0.0
  0
ARC
  5
137
330
1F
100
AcDbEntity
  8
0
  6
Continuous
 62
     7
370
    15
100
AcDbCircle
 10
671.6900280532
 20
762.8703822248
 30
0.0
 40
0.625
100
AcDbArc
 50
270.0
 51
90.0
  0
LINE
  5
138
330
1F
100
AcDbEntity
  8
0
  6
Continuous
 62
     7
370
    15
100
AcDbLine
 10
711.6900281585
 20
763.4953830899
 30
0.0
 11
699.1900289036
 21
763.4953830899
 31
0.0
  0
ARC
  5
139
330
1F
100
AcDbEntity
  8
0
  6
Continuous
 62
     7
370
    15
100
AcDbCircle
 10
699.1900280532
 20
762.8703822248
 30
0.0
 40
0.625
100
AcDbArc
 50
90.0
 51
270.0
  0
LINE
  5
13A
330
1F
100
AcDbEntity
  8
0
  6
Continuous
 62
     7
370
    15
100
AcDbLine
 10
699.1900289036
 20
762.2453842819
 30
0.0
 11
711.6900281585
 21
762.2453842819
 31
0.0
  0
ARC
  5
13B
330
1F
100
AcDbEntity
  8
0
  6
Continuous
 62
     7
370
    15
100
AcDbCircle
 10
711.6900280532
 20
762.8703822248
 30
0.0
 40
0.625
100
AcDbArc
 50
270.0
 51
90.0
  0
LINE
  5
13C
330
1F
100
AcDbEntity
  8
0
  6
Continuous
 62
     7
370
    15
100
AcDbLine
 10
525.6900311983
 20
762.2453842819
 30
0.0
 11
513.1900282181
 21
762.2453842819
 31
0.0
  0
ARC
  5
13D
330
1F
100
AcDbEntity
  8
0
  6
Continuous
 62
     7
370
    15
100
AcDbCircle
 10
525.6900280532
 20
762.8703822248
 30
0.0
 40
0.625
100
AcDbArc
 50
270.0
 51
90.0
  0
LINE
  5
13E
330
1F
100
AcDbEntity
  8
0
  6
Continuous
 62
     7
370
    15
100
AcDbLine
 10
513.1900282181
 20
763.4953830899
 30
0.0
 11
525.6900311983
 21
763.4953830899
 31
0.0
  0
ARC
  5
13F
330
1F
100
AcDbEntity
  8
0
  6
Continuous
 62
     7
370
    15
100
AcDbCircle
 10
513.1900280532
 20
762.8703822248
 30
0.0
 40
0.625
100
AcDbArc
 50
90.0
 51
270.0
  0
LINE
  5
140
330
1F
100
AcDbEntity
  8
0
  6
Continuous
 62
     7
370
    15
100
AcDbLine
 10
505.6900353707
 20
762.2453842819
 30
0.0
 11
493.1900323904
 21
762.2453842819
 31
0.0
  0
ARC
  5
141
330
1F
100
AcDbEntity
  8
0
  6
Continuous
 62
     7
370
    15
100
AcDbCircle
 10
505.6900280532
 20
762.8703822248
 30
0.0
 40
0.625
100
AcDbArc
 50
270.0
 51
90.0
  0
LINE
  5
142
330
1F
100
AcDbEntity
  8
0
  6
Continuous
 62
     7
370
    15
100
AcDbLine
 10
493.1900323904
 20
763.4953830899
 30
0.0
 11
505.6900353707
 21
763.4953830899
 31
0.0
  0
ARC
  5
143
330
1F
100
AcDbEntity
  8
0
  6
Continuous
 62
     7
370
    15
100
AcDbCircle
 10
493.1900280532
 20
762.8703822248
 30
0.0
 40
0.625
100
AcDbArc
 50
90.0
 51
270.0
  0
LINE
  5
144
330
1F
100
AcDbEntity
  8
0
  6
Continuous
 62
     7
370
    15
100
AcDbLine
 10
512.4400229729
 20
765.103799528
 30
0.0
 11
512.4400229729
 21
766.6038100184
 31
0.0
  0
ARC
  5
145
330
1F
100
AcDbEntity
  8
0
  6
Continuous
 62
     7
370
    15
100
AcDbCircle
 10
510.9400280532
 20
766.6038053098
 30
0.0
 40
1.500000000000057
100
AcDbArc
 50
0.0
 51
180.0
  0
LINE
  5
146
330
1F
100
AcDbEntity
  8
0
  6
Continuous
 62
     7
370
    15
100
AcDbLine
 10
509.4400317944
 20
766.6038100184
 30
0.0
 11
509.4400317944
 21
765.103799528
 31
0.0
  0
ARC
  5
147
330
1F
100
AcDbEntity
  8
0
  6
Continuous
 62
     7
370
    15
100
AcDbCircle
 10
510.9400280532
 20
765.1038053098
 30
0.0
 40
1.500000000000057
100
AcDbArc
 50
180.0
 51
0.0
  0
LINE
  5
148
330
1F
100
AcDbEntity
  8
0
  6
Continuous
 62
     7
370
    15
100
AcDbLine
 10
732.4400292314
 20
782.3538158596
 30
0.0
 11
711.278223393
 21
782.3538158596
 31
0.0
  0
LINE
  5
149
330
1F
100
AcDbEntity
  8
0
  6
Continuous
 62
     7
370
    15
100
AcDbLine
 10
707.7018310852
 20
782.3538158596
 30
0.0
 11
452.4400354899
 21
782.3538158596
 31
0.0
  0
ARC
  5
14A
330
1F
100
AcDbEntity
  8
0
  6
Continuous
 62
     7
370
    15
100
AcDbCircle
 10
673.9400280532
 20
766.6038053098
 30
0.0
 40
1.5
100
AcDbArc
 50
0.0
 51
180.0
  0
LINE
  5
14B
330
1F
100
AcDbEntity
  8
0
  6
Continuous
 62
     7
370
    15
100
AcDbLine
 10
672.4400282442
 20
765.103799528
 30
0.0
 11
672.4400282442
 21
766.6038100184
 31
0.0
  0
ARC
  5
14C
330
1F
100
AcDbEntity
  8
0
  6
Continuous
 62
     7
370
    15
100
AcDbCircle
 10
673.9400280532
 20
765.1038053098
 30
0.0
 40
1.5
100
AcDbArc
 50
180.0
 51
0.0
  0
LINE
  5
14D
330
1F
100
AcDbEntity
  8
0
  6
Continuous
 62
     7
370
    15
100
AcDbLine
 10
675.4400280374
 20
766.6038100184
 30
0.0
 11
675.4400280374
 21
765.103799528
 31
0.0
  0
ARC
  5
14E
330
1F
100
AcDbEntity
  8
0
  6
Continuous
 62
     7
370
    15
100
AcDbCircle
 10
465.6900280532
 20
762.8703822248
 30
0.0
 40
0.625
100
AcDbArc
 50
270.0
 51
90.0
  0
LINE
  5
14F
330
1F
100
AcDbEntity
  8
0
  6
Continuous
 62
     7
370
    15
100
AcDbLine
 10
453.1900258339
 20
763.4953830899
 30
0.0
 11
465.6900288142
 21
763.4953830899
 31
0.0
  0
ARC
  5
150
330
1F
100
AcDbEntity
  8
0
  6
Continuous
 62
     7
370
    15
100
AcDbCircle
 10
453.1900280532
 20
762.8703822248
 30
0.0
 40
0.625
100
AcDbArc
 50
90.0
 51
270.0
  0
LINE
  5
151
330
1F
100
AcDbEntity
  8
0
  6
Continuous
 62
     7
370
    15
100
AcDbLine
 10
465.6900288142
 20
762.2453842819
 30
0.0
 11
453.1900258339
 21
762.2453842819
 31
0.0
  0
ARC
  5
152
330
1F
100
AcDbEntity
  8
0
  6
Continuous
 62
     7
370
    15
100
AcDbCircle
 10
485.6900280532
 20
762.8703822248
 30
0.0
 40
0.625
100
AcDbArc
 50
270.0
 51
90.0
  0
LINE
  5
153
330
1F
100
AcDbEntity
  8
0
  6
Continuous
 62
     7
370
    15
100
AcDbLine
 10
473.1900216616
 20
763.4953830899
 30
0.0
 11
485.6900246418
 21
763.4953830899
 31
0.0
  0
ARC
  5
154
330
1F
100
AcDbEntity
  8
0
  6
Continuous
 62
     7
370
    15
100
AcDbCircle
 10
473.1900280532
 20
762.8703822248
 30
0.0
 40
0.625
100
AcDbArc
 50
90.0
 51
270.0
  0
LINE
  5
155
330
1F
100
AcDbEntity
  8
0
  6
Continuous
 62
     7
370
    15
100
AcDbLine
 10
485.6900246418
 20
762.2453842819
 30
0.0
 11
473.1900216616
 21
762.2453842819
 31
0.0
  0
LINE
  5
156
330
1F
100
AcDbEntity
  8
0
  6
Continuous
 62
     7
370
    15
100
AcDbLine
 10
731.6900277115
 20
763.4953830899
 30
0.0
 11
719.1900284565
 21
763.4953830899
 31
0.0
  0
ARC
  5
157
330
1F
100
AcDbEntity
  8
0
  6
Continuous
 62
     7
370
    15
100
AcDbCircle
 10
719.1900280532
 20
762.8703822248
 30
0.0
 40
0.625
100
AcDbArc
 50
90.0
 51
270.0
  0
LINE
  5
158
330
1F
100
AcDbEntity
  8
0
  6
Continuous
 62
     7
370
    15
100
AcDbLine
 10
719.1900284565
 20
762.2453842819
 30
0.0
 11
731.6900277115
 21
762.2453842819
 31
0.0
  0
ARC
  5
159
330
1F
100
AcDbEntity
  8
0
  6
Continuous
 62
     7
370
    15
100
AcDbCircle
 10
731.6900280532
 20
762.8703822248
 30
0.0
 40
0.625
100
AcDbArc
 50
270.0
 51
90.0
  0
LINE
  5
15A
330
1F
100
AcDbEntity
  8
0
  6
Continuous
 62
     7
370
    15
100
AcDbLine
 10
691.6900276742
 20
763.4953830899
 30
0.0
 11
679.1900279536
 21
763.4953830899
 31
0.0
  0
ARC
  5
15B
330
1F
100
AcDbEntity
  8
0
  6
Continuous
 62
     7
370
    15
100
AcDbCircle
 10
679.1900280532
 20
762.8703822248
 30
0.0
 40
0.625
100
AcDbArc
 50
90.0
 51
270.0
  0
LINE
  5
15C
330
1F
100
AcDbEntity
  8
0
  6
Continuous
 62
     7
370
    15
100
AcDbLine
 10
679.1900279536
 20
762.2453842819
 30
0.0
 11
691.6900276742
 21
762.2453842819
 31
0.0
  0
ARC
  5
15D
330
1F
100
AcDbEntity
  8
0
  6
Continuous
 62
     7
370
    15
100
AcDbCircle
 10
691.6900280532
 20
762.8703822248
 30
0.0
 40
0.625
100
AcDbArc
 50
270.0
 51
90.0
  0
LINE
  5
15E
330
1F
100
AcDbEntity
  8
0
  6
Continuous
 62
     7
370
    15
100
AcDbLine
 10
713.7400293327
 20
782.70402295
 30
0.0
 11
713.7400293327
 21
782.9038177193
 31
0.0
  0
LINE
  5
15F
330
1F
100
AcDbEntity
  8
0
  6
Continuous
 62
     7
370
    15
100
AcDbLine
 10
732.4400292314
 20
782.4037943543
 30
0.0
 11
713.7400293327
 21
782.4037943543
 31
0.0
  0
LINE
  5
160
330
1F
100
AcDbEntity
  8
0
  6
Continuous
 62
     7
370
    15
100
AcDbLine
 10
713.7400293327
 20
782.70402295
 30
0.0
 11
713.7400293327
 21
782.4037943543
 31
0.0
  0
LINE
  5
161
330
1F
100
AcDbEntity
  8
0
  6
Continuous
 62
     7
370
    15
100
AcDbLine
 10
709.4900281704
 20
782.4037943543
 30
0.0
 11
711.7650294281
 21
782.4037943543
 31
0.0
  0
LINE
  5
162
330
1F
100
AcDbEntity
  8
0
  6
Continuous
 62
     7
370
    15
100
AcDbLine
 10
707.2150287754
 20
782.4037943543
 30
0.0
 11
709.4900281704
 21
782.4037943543
 31
0.0
  0
LINE
  5
163
330
1F
100
AcDbEntity
  8
0
  6
Continuous
 62
     7
370
    15
100
AcDbLine
 10
709.4900281704
 20
779.6538148583
 30
0.0
 11
711.1150296009
 21
779.6538148583
 31
0.0
  0
LINE
  5
164
330
1F
100
AcDbEntity
  8
0
  6
Continuous
 62
     7
370
    15
100
AcDbLine
 10
707.8650286026
 20
779.6538148583
 30
0.0
 11
709.4900281704
 21
779.6538148583
 31
0.0
  0
LINE
  5
165
330
1F
100
AcDbEntity
  8
0
  6
Continuous
 62
     7
370
    15
100
AcDbLine
 10
709.4900281704
 20
779.9538050354
 30
0.0
 11
711.2400279916
 21
779.9538050354
 31
0.0
  0
LINE
  5
166
330
1F
100
AcDbEntity
  8
0
  6
Continuous
 62
     7
370
    15
100
AcDbLine
 10
707.7400283492
 20
779.9538050354
 30
0.0
 11
709.4900281704
 21
779.9538050354
 31
0.0
  0
CIRCLE
  5
167
330
1F
100
AcDbEntity
  8
0
  6
Continuous
 62
     7
370
    15
100
AcDbCircle
 10
592.4400280532
 20
779.1538053098
 30
0.0
 40
1.624999999999886
  0
CIRCLE
  5
168
330
1F
100
AcDbEntity
  8
0
  6
Continuous
 62
     7
370
    15
100
AcDbCircle
 10
592.4400280532
 20
779.1538053098
 30
0.0
 40
1.749999999999886
  0
CIRCLE
  5
169
330
1F
100
AcDbEntity
  8
0
  6
Continuous
 62
     7
370
    15
100
AcDbCircle
 10
592.4400280532
 20
779.1538053098
 30
0.0
 40
1.049999999999955
  0
CIRCLE
  5
16A
330
1F
100
AcDbEntity
  8
0
  6
Continuous
 62
     7
370
    15
100
AcDbCircle
 10
592.4400280532
 20
779.1538053098
 30
0.0
 40
1.262499999999932
  0
CIRCLE
  5
16B
330
1F
100
AcDbEntity
  8
0
  6
Continuous
 62
     7
370
    15
100
AcDbCircle
 10
592.4400280532
 20
779.1538053098
 30
0.0
 40
2.424999999999841
  0
CIRCLE
  5
16C
330
1F
100
AcDbEntity
  8
0
  6
Continuous
 62
     7
370
    15
100
AcDbCircle
 10
462.4400280532
 20
779.1538053098
 30
0.0
 40
1.624999999999886
  0
CIRCLE
  5
16D
330
1F
100
AcDbEntity
  8
0
  6
Continuous
 62
     7
370
    15
100
AcDbCircle
 10
462.4400280532
 20
779.1538053098
 30
0.0
 40
1.749999999999886
  0
CIRCLE
  5
16E
330
1F
100
AcDbEntity
  8
0
  6
Continuous
 62
     7
370
    15
100
AcDbCircle
 10
462.4400280532
 20
779.1538053098
 30
0.0
 40
1.049999999999955
  0
CIRCLE
  5
16F
330
1F
100
AcDbEntity
  8
0
  6
Continuous
 62
     7
370
    15
100
AcDbCircle
 10
462.4400280532
 20
779.1538053098
 30
0.0
 40
1.262499999999932
  0
CIRCLE
  5
170
330
1F
100
AcDbEntity
  8
0
  6
Continuous
 62
     7
370
    15
100
AcDbCircle
 10
462.4400280532
 20
779.1538053098
 30
0.0
 40
2.424999999999955
  0
CIRCLE
  5
171
330
1F
100
AcDbEntity
  8
0
  6
Continuous
 62
     7
370
    15
100
AcDbCircle
 10
722.4400280532
 20
779.1538053098
 30
0.0
 40
1.625
  0
CIRCLE
  5
172
330
1F
100
AcDbEntity
  8
0
  6
Continuous
 62
     7
370
    15
100
AcDbCircle
 10
722.4400280532
 20
779.1538053098
 30
0.0
 40
1.262500000000045
  0
CIRCLE
  5
173
330
1F
100
AcDbEntity
  8
0
  6
Continuous
 62
     7
370
    15
100
AcDbCircle
 10
722.4400280532
 20
779.1538053098
 30
0.0
 40
1.75
  0
CIRCLE
  5
174
330
1F
100
AcDbEntity
  8
0
  6
Continuous
 62
     7
370
    15
100
AcDbCircle
 10
722.4400280532
 20
779.1538053098
 30
0.0
 40
1.049999999999955
  0
CIRCLE
  5
175
330
1F
100
AcDbEntity
  8
0
  6
Continuous
 62
     7
370
    15
100
AcDbCircle
 10
722.4400280532
 20
779.1538053098
 30
0.0
 40
2.425000000000068
  0
LINE
  5
176
330
1F
100
AcDbEntity
  8
0
  6
Continuous
 62
     7
370
    15
100
AcDbLine
 10
732.4400292314
 20
782.9038177193
 30
0.0
 11
452.4400354899
 21
782.9038177193
 31
0.0
  0
ENDSEC
  0
SECTION
  2
OBJECTS
  0
DICTIONARY
  5
C
330
0
100
AcDbDictionary
281
     1
  3
ACAD_GROUP
350
D
  3
ACAD_LAYOUT
350
1A
  3
ACAD_MLINESTYLE
350
17
  3
ACAD_PLOTSETTINGS
350
19
  3
ACAD_PLOTSTYLENAME
350
E
  0
DICTIONARY
  5
D
102
{ACAD_REACTORS
330
C
102
}
330
C
100
AcDbDictionary
281
     1
  0
DICTIONARY
  5
1A
102
{ACAD_REACTORS
330
C
102
}
330
C
100
AcDbDictionary
281
     1
  3
Layout1
350
1E
  3
Layout2
350
26
  3
Model
350
22
  0
DICTIONARY
  5
17
102
{ACAD_REACTORS
330
C
102
}
330
C
100
AcDbDictionary
281
     1
  3
Standard
350
18
  0
DICTIONARY
  5
19
102
{ACAD_REACTORS
330
C
102
}
330
C
100
AcDbDictionary
281
     1
  0
ACDBDICTIONARYWDFLT
  5
E
102
{ACAD_REACTORS
330
C
102
}
330
C
100
AcDbDictionary
281
     1
  3
Normal
350
F
100
AcDbDictionaryWithDefault
340
F
  0
LAYOUT
  5
1E
102
{ACAD_REACTORS
330
1A
102
}
330
1A
100
AcDbPlotSettings
  1

  2
none_device
  4

  6

 40
0.0
 41
0.0
 42
0.0
 43
0.0
 44
0.0
 45
0.0
 46
0.0
 47
0.0
 48
0.0
 49
0.0
140
0.0
141
0.0
142
1.0
143
1.0
 70
   688
 72
     0
 73
     0
 74
     5
  7

 75
    16
147
1.0
148
0.0
149
0.0
100
AcDbLayout
  1
Layout1
 70
     1
 71
     1
 10
0.0
 20
0.0
 11
420.0
 21
297.0
 12
0.0
 22
0.0
 32
0.0
 14
1.0000000000E+20
 24
1.0000000000E+20
 34
1.0000000000E+20
 15
-1.0000000000E+20
 25
-1.0000000000E+20
 35
-1.0000000000E+20
146
0.0
 13
0.0
 23
0.0
 33
0.0
 16
1.0
 26
0.0
 36
0.0
 17
0.0
 27
1.0
 37
0.0
 76
     0
330
1B
  0
LAYOUT
  5
26
102
{ACAD_REACTORS
330
1A
102
}
330
1A
100
AcDbPlotSettings
  1

  2
none_device
  4

  6

 40
0.0
 41
0.0
 42
0.0
 43
0.0
 44
0.0
 45
0.0
 46
0.0
 47
0.0
 48
0.0
 49
0.0
140
0.0
141
0.0
142
1.0
143
1.0
 70
   688
 72
     0
 73
     0
 74
     5
  7

 75
    16
147
1.0
148
0.0
149
0.0
100
AcDbLayout
  1
Layout2
 70
     1
 71
     2
 10
0.0
 20
0.0
 11
0.0
 21
0.0
 12
0.0
 22
0.0
 32
0.0
 14
0.0
 24
0.0
 34
0.0
 15
0.0
 25
0.0
 35
0.0
146
0.0
 13
0.0
 23
0.0
 33
0.0
 16
1.0
 26
0.0
 36
0.0
 17
0.0
 27
1.0
 37
0.0
 76
     0
330
23
  0
LAYOUT
  5
22
102
{ACAD_REACTORS
330
1A
102
}
330
1A
100
AcDbPlotSettings
  1

  2
none_device
  4

  6

 40
0.0
 41
0.0
 42
0.0
 43
0.0
 44
0.0
 45
0.0
 46
0.0
 47
0.0
 48
0.0
 49
0.0
140
0.0
141
0.0
142
1.0
143
1.0
 70
  1712
 72
     0
 73
     0
 74
     0
  7

 75
     0
147
1.0
148
0.0
149
0.0
100
AcDbLayout
  1
Model
 70
     1
 71
     0
 10
0.0
 20
0.0
 11
1100.0
 21
1000.0
 12
0.0
 22
0.0
 32
0.0
 14
0.0
 24
0.0
 34
0.0
 15
1100.0
 25
1000.0
 35
0.0
146
0.0
 13
0.0
 23
0.0
 33
0.0
 16
1.0
 26
0.0
 36
0.0
 17
0.0
 27
1.0
 37
0.0
 76
     0
330
1F
331
29
  0
MLINESTYLE
  5
18
102
{ACAD_REACTORS
330
17
102
}
330
17
100
AcDbMlineStyle
  2
Standard
 70
     0
  3

 62
   256
 51
90.0
 52
90.0
 71
     2
 49
0.5
 62
   256
  6
BYLAYER
 49
-0.5
 62
   256
  6
BYLAYER
  0
ACDBPLACEHOLDER
  5
F
102
{ACAD_REACTORS
330
E
102
}
330
E
  0
ENDSEC
  0
EOF
