  0
SECTION
  2
HEADER
  9
$ACADVER
  1
AC1015
  9
$ACADMAINTVER
 70
     6
  9
$DWGCODEPAGE
  3
ANSI_1252
  9
$INSBASE
 10
0.0
 20
0.0
 30
0.0
  9
$EXTMIN
 10
0.0
 20
0.0
 30
0.0
  9
$EXTMAX
 10
1100.0
 20
1000.0
 30
0.0
  9
$LIMMIN
 10
0.0
 20
0.0
  9
$LIMMAX
 10
1100.0
 20
1000.0
  9
$ORTHOMODE
 70
     0
  9
$REGENMODE
 70
     1
  9
$FILLMODE
 70
     1
  9
$QTEXTMODE
 70
     0
  9
$MIRRTEXT
 70
     1
  9
$LTSCALE
 40
1.0
  9
$ATTMODE
 70
     1
  9
$TEXTSIZE
 40
3.5
  9
$TRACEWID
 40
1.0
  9
$TEXTSTYLE
  7
Standard
  9
$CLAYER
  8
0
  9
$CELTYPE
  6
ByLayer
  9
$CECOLOR
 62
   256
  9
$CELTSCALE
 40
1.0
  9
$DISPSILH
 70
     0
  9
$DIMSCALE
 40
1.0
  9
$DIMASZ
 40
3.302
  9
$DIMEXO
 40
1.0
  9
$DIMDLI
 40
3.75
  9
$DIMRND
 40
0.0
  9
$DIMDLE
 40
0.0
  9
$DIMEXE
 40
1.0
  9
$DIMTP
 40
0.0
  9
$DIMTM
 40
0.0
  9
$DIMTXT
 40
3.5
  9
$DIMCEN
 40
2.5
  9
$DIMTSZ
 40
0.0
  9
$DIMTOL
 70
     0
  9
$DIMLIM
 70
     0
  9
$DIMTIH
 70
     1
  9
$DIMTOH
 70
     1
  9
$DIMSE1
 70
     0
  9
$DIMSE2
 70
     0
  9
$DIMTAD
 70
     1
  9
$DIMZIN
 70
     0
  9
$DIMBLK
  1

  9
$DIMASO
 70
     1
  9
$DIMSHO
 70
     1
  9
$DIMPOST
  1

  9
$DIMAPOST
  1

  9
$DIMALT
 70
     0
  9
$DIMALTD
 70
     3
  9
$DIMALTF
 40
0.0393700787
  9
$DIMLFAC
 40
5.0
  9
$DIMTOFL
 70
     1
  9
$DIMTVP
 40
0.0
  9
$DIMTIX
 70
     0
  9
$DIMSOXD
 70
     0
  9
$DIMSAH
 70
     0
  9
$DIMBLK1
  1

  9
$DIMBLK2
  1

  9
$DIMSTYLE
  2
ISO-25
  9
$DIMCLRD
 70
     0
  9
$DIMCLRE
 70
     0
  9
$DIMCLRT
 70
     0
  9
$DIMTFAC
 40
1.0
  9
$DIMGAP
 40
1.524
  9
$DIMJUST
 70
     0
  9
$DIMSD1
 70
     0
  9
$DIMSD2
 70
     0
  9
$DIMTOLJ
 70
     0
  9
$DIMTZIN
 70
     0
  9
$DIMALTZ
 70
     0
  9
$DIMALTTZ
 70
     0
  9
$DIMUPT
 70
     0
  9
$DIMDEC
 70
     3
  9
$DIMTDEC
 70
     3
  9
$DIMALTU
 70
     2
  9
$DIMALTTD
 70
     3
  9
$DIMTXSTY
  7
Standard
  9
$DIMAUNIT
 70
     0
  9
$DIMADEC
 70
     2
  9
$DIMALTRND
 40
0.0
  9
$DIMAZIN
 70
     0
  9
$DIMDSEP
 70
    44
  9
$DIMATFIT
 70
     3
  9
$DIMFRAC
 70
     0
  9
$DIMLDRBLK
  1

  9
$DIMLUNIT
 70
     2
  9
$DIMLWD
 70
    -2
  9
$DIMLWE
 70
    -2
  9
$DIMTMOVE
 70
     0
  9
$LUNITS
 70
     2
  9
$LUPREC
 70
     8
  9
$SKETCHINC
 40
1.0
  9
$FILLETRAD
 40
10.0
  9
$AUNITS
 70
     0
  9
$AUPREC
 70
     8
  9
$MENU
  1
.
  9
$ELEVATION
 40
0.0
  9
$PELEVATION
 40
0.0
  9
$THICKNESS
 40
0.0
  9
$LIMCHECK
 70
     0
  9
$CHAMFERA
 40
10.0
  9
$CHAMFERB
 40
10.0
  9
$CHAMFERC
 40
20.0
  9
$CHAMFERD
 40
0.0
  9
$SKPOLY
 70
     0
  9
$TDCREATE
 40
2457423.478718739
  9
$TDUCREATE
 40
2457423.478718739
  9
$TDUPDATE
 40
2457423.478720544
  9
$TDUUPDATE
 40
2457423.478720544
  9
$TDINDWG
 40
0.0000000116
  9
$TDUSRTIMER
 40
0.0000000116
  9
$USRTIMER
 70
     1
  9
$ANGBASE
 50
0.0
  9
$ANGDIR
 70
     0
  9
$PDMODE
 70
     0
  9
$PDSIZE
 40
-1.0
  9
$PLINEWID
 40
0.0
  9
$SPLFRAME
 70
     0
  9
$SPLINETYPE
 70
     6
  9
$SPLINESEGS
 70
     8
  9
$HANDSEED
  5
317
  9
$SURFTAB1
 70
     6
  9
$SURFTAB2
 70
     6
  9
$SURFTYPE
 70
     6
  9
$SURFU
 70
     6
  9
$SURFV
 70
     6
  9
$UCSBASE
  2

  9
$UCSNAME
  2

  9
$UCSORG
 10
0.0
 20
0.0
 30
0.0
  9
$UCSXDIR
 10
1.0
 20
0.0
 30
0.0
  9
$UCSYDIR
 10
0.0
 20
1.0
 30
0.0
  9
$UCSORTHOREF
  2

  9
$UCSORTHOVIEW
 70
     0
  9
$UCSORGTOP
 10
0.0
 20
0.0
 30
0.0
  9
$UCSORGBOTTOM
 10
0.0
 20
0.0
 30
0.0
  9
$UCSORGLEFT
 10
0.0
 20
0.0
 30
0.0
  9
$UCSORGRIGHT
 10
0.0
 20
0.0
 30
0.0
  9
$UCSORGFRONT
 10
0.0
 20
0.0
 30
0.0
  9
$UCSORGBACK
 10
0.0
 20
0.0
 30
0.0
  9
$PUCSBASE
  2

  9
$PUCSNAME
  2

  9
$PUCSORG
 10
0.0
 20
0.0
 30
0.0
  9
$PUCSXDIR
 10
1.0
 20
0.0
 30
0.0
  9
$PUCSYDIR
 10
0.0
 20
1.0
 30
0.0
  9
$PUCSORTHOREF
  2

  9
$PUCSORTHOVIEW
 70
     0
  9
$PUCSORGTOP
 10
0.0
 20
0.0
 30
0.0
  9
$PUCSORGBOTTOM
 10
0.0
 20
0.0
 30
0.0
  9
$PUCSORGLEFT
 10
0.0
 20
0.0
 30
0.0
  9
$PUCSORGRIGHT
 10
0.0
 20
0.0
 30
0.0
  9
$PUCSORGFRONT
 10
0.0
 20
0.0
 30
0.0
  9
$PUCSORGBACK
 10
0.0
 20
0.0
 30
0.0
  9
$USERI1
 70
     0
  9
$USERI2
 70
     0
  9
$USERI3
 70
     0
  9
$USERI4
 70
     0
  9
$USERI5
 70
     0
  9
$USERR1
 40
0.0
  9
$USERR2
 40
0.0
  9
$USERR3
 40
0.0
  9
$USERR4
 40
0.0
  9
$USERR5
 40
0.0
  9
$WORLDVIEW
 70
     1
  9
$SHADEDGE
 70
     3
  9
$SHADEDIF
 70
    70
  9
$TILEMODE
 70
     1
  9
$MAXACTVP
 70
    64
  9
$PINSBASE
 10
0.0
 20
0.0
 30
0.0
  9
$PLIMCHECK
 70
     0
  9
$PEXTMIN
 10
1.0000000000E+20
 20
1.0000000000E+20
 30
1.0000000000E+20
  9
$PEXTMAX
 10
-1.0000000000E+20
 20
-1.0000000000E+20
 30
-1.0000000000E+20
  9
$PLIMMIN
 10
0.0
 20
0.0
  9
$PLIMMAX
 10
420.0
 20
297.0
  9
$UNITMODE
 70
     0
  9
$VISRETAIN
 70
     1
  9
$PLINEGEN
 70
     0
  9
$PSLTSCALE
 70
     1
  9
$TREEDEPTH
 70
  3020
  9
$CMLSTYLE
  2
Standard
  9
$CMLJUST
 70
     0
  9
$CMLSCALE
 40
20.0
  9
$PROXYGRAPHICS
 70
     1
  9
$MEASUREMENT
 70
     1
  9
$CELWEIGHT
370
    -1
  9
$ENDCAPS
280
     0
  9
$JOINSTYLE
280
     0
  9
$LWDISPLAY
290
     1
  9
$INSUNITS
 70
     4
  9
$HYPERLINKBASE
  1

  9
$STYLESHEET
  1

  9
$XEDIT
290
     1
  9
$CEPSNTYPE
380
     0
  9
$PSTYLEMODE
290
     1
  9
$FINGERPRINTGUID
  2
{C4B19720-9184-4B66-926B-8E281DF055B4}
  9
$VERSIONGUID
  2
{FAEB1C32-E019-11D5-929B-00C0DF256EC4}
  9
$EXTNAMES
290
     1
  9
$PSVPSCALE
 40
0.0
  9
$OLESTARTUP
290
     0
  0
ENDSEC
  0
SECTION
  2
CLASSES
  0
CLASS
  1
ACDBDICTIONARYWDFLT
  2
AcDbDictionaryWithDefault
  3
ObjectDBX Classes
 90
        0
280
     0
281
     0
  0
CLASS
  1
VISUALSTYLE
  2
AcDbVisualStyle
  3
ObjectDBX Classes
 90
     4095
280
     0
281
     0
  0
CLASS
  1
MATERIAL
  2
AcDbMaterial
  3
ObjectDBX Classes
 90
     1153
280
     0
281
     0
  0
CLASS
  1
ACDBPLACEHOLDER
  2
AcDbPlaceHolder
  3
ObjectDBX Classes
 90
        0
280
     0
281
     0
  0
CLASS
  1
LAYOUT
  2
AcDbLayout
  3
ObjectDBX Classes
 90
        0
280
     0
281
     0
  0
ENDSEC
  0
SECTION
  2
TABLES
  0
TABLE
  2
VPORT
  5
8
330
0
100
AcDbSymbolTable
 70
     1
  0
VPORT
  5
29
330
8
100
AcDbSymbolTableRecord
100
AcDbViewportTableRecord
  2
*Active
 70
     0
 10
0.0
 20
0.0
 11
1.0
 21
1.0
 12
550.0
 22
500.0
 13
0.0
 23
0.0
 14
10.0
 24
10.0
 15
10.0
 25
10.0
 16
0.0
 26
0.0
 36
1.0
 17
0.0
 27
0.0
 37
0.0
 40
1000.0
 41
1.1
 42
50.0
 43
0.0
 44
0.0
 50
0.0
 51
0.0
 71
     0
 72
  2000
 73
     1
 74
     3
 75
     0
 76
     0
 77
     0
 78
     0
281
     0
 65
     1
110
0.0
120
0.0
130
0.0
111
1.0
121
0.0
131
0.0
112
0.0
122
1.0
132
0.0
 79
     0
146
0.0
  0
ENDTAB
  0
TABLE
  2
LTYPE
  5
5
330
0
100
AcDbSymbolTable
 70
     6
  0
LTYPE
  5
14
330
5
100
AcDbSymbolTableRecord
100
AcDbLinetypeTableRecord
  2
ByBlock
 70
     0
  3

 72
    65
 73
     0
 40
0.0
  0
LTYPE
  5
15
330
5
100
AcDbSymbolTableRecord
100
AcDbLinetypeTableRecord
  2
ByLayer
 70
     0
  3

 72
    65
 73
     0
 40
0.0
  0
LTYPE
  5
16
330
5
100
AcDbSymbolTableRecord
100
AcDbLinetypeTableRecord
  2
Continuous
 70
     0
  3
Solid line
 72
    65
 73
     0
 40
0.0
  0
LTYPE
  5
3F
330
5
100
AcDbSymbolTableRecord
100
AcDbLinetypeTableRecord
  2
HIDDEN
 70
     0
  3
Hidden __ __ __ __ __ __ __ __ __ __ __ __ __ __
 72
    65
 73
     2
 40
1.905
 49
1.27
 74
     0
 49
-0.635
 74
     0
  0
LTYPE
  5
40
330
5
100
AcDbSymbolTableRecord
100
AcDbLinetypeTableRecord
  2
PHANTOM
 70
     0
  3
Phantom ______  __  __  ______  __  __  ______
 72
    65
 73
     6
 40
12.7
 49
6.35
 74
     0
 49
-1.27
 74
     0
 49
1.27
 74
     0
 49
-1.27
 74
     0
 49
1.27
 74
     0
 49
-1.27
 74
     0
  0
LTYPE
  5
41
330
5
100
AcDbSymbolTableRecord
100
AcDbLinetypeTableRecord
  2
CENTER
 70
     0
  3
Center ____ _ ____ _ ____ _ ____ _ ____ _ ____
 72
    65
 73
     4
 40
10.16
 49
6.35
 74
     0
 49
-1.27
 74
     0
 49
1.27
 74
     0
 49
-1.27
 74
     0
  0
LTYPE
  5
42
330
5
100
AcDbSymbolTableRecord
100
AcDbLinetypeTableRecord
  2
CENTERX2
 70
     0
  3
Center (2x) ________  __  ________  __  _____
 72
    65
 73
     4
 40
20.32
 49
12.7
 74
     0
 49
-2.54
 74
     0
 49
2.54
 74
     0
 49
-2.54
 74
     0
  0
LTYPE
  5
43
330
5
100
AcDbSymbolTableRecord
100
AcDbLinetypeTableRecord
  2
DOT2
 70
     0
  3
Dot (.5x) ........................................
 72
    65
 73
     2
 40
0.635
 49
0.0
 74
     0
 49
-0.635
 74
     0
  0
ENDTAB
  0
TABLE
  2
LAYER
  5
2
330
0
100
AcDbSymbolTable
 70
     1
  0
LAYER
  5
10
330
2
100
AcDbSymbolTableRecord
100
AcDbLayerTableRecord
  2
0
 70
     0
 62
     7
  6
Continuous
370
    -3
390
F
  0
ENDTAB
  0
TABLE
  2
STYLE
  5
3
330
0
100
AcDbSymbolTable
 70
     1
  0
STYLE
  5
11
330
3
100
AcDbSymbolTableRecord
100
AcDbTextStyleTableRecord
  2
Standard
 70
     0
 40
0.0
 41
1.0
 50
0.0
 71
     0
 42
3.5
  3
txt
  4

  0
ENDTAB
  0
TABLE
  2
VIEW
  5
6
330
0
100
AcDbSymbolTable
 70
     0
  0
ENDTAB
  0
TABLE
  2
UCS
  5
7
330
0
100
AcDbSymbolTable
 70
     0
  0
ENDTAB
  0
TABLE
  2
APPID
  5
9
330
0
100
AcDbSymbolTable
 70
     1
  0
APPID
  5
12
330
9
100
AcDbSymbolTableRecord
100
AcDbRegAppTableRecord
  2
ACAD
 70
     0
  0
ENDTAB
  0
TABLE
  2
DIMSTYLE
  5
A
330
0
100
AcDbSymbolTable
 70
     1
100
AcDbDimStyleTable
  0
DIMSTYLE
105
27
330
A
100
AcDbSymbolTableRecord
100
AcDbDimStyleTableRecord
  2
ISO-25
 70
     0
 41
2.5
 42
0.625
 43
3.75
 44
1.25
 73
     0
 74
     0
 77
     1
 78
     8
140
2.5
141
2.5
143
0.0393700787
147
0.625
171
     3
172
     1
178
     0
271
     2
272
     2
274
     3
278
    44
283
     0
284
     8
340
11
  0
ENDTAB
  0
TABLE
  2
BLOCK_RECORD
  5
1
330
0
100
AcDbSymbolTable
 70
     1
  0
BLOCK_RECORD
  5
1F
330
1
100
AcDbSymbolTableRecord
100
AcDbBlockTableRecord
  2
*Model_Space
340
22
  0
BLOCK_RECORD
  5
1B
330
1
100
AcDbSymbolTableRecord
100
AcDbBlockTableRecord
  2
*Paper_Space
340
1E
  0
BLOCK_RECORD
  5
23
330
1
100
AcDbSymbolTableRecord
100
AcDbBlockTableRecord
  2
*Paper_Space0
340
26
  0
ENDTAB
  0
ENDSEC
  0
SECTION
  2
BLOCKS
  0
BLOCK
  5
20
330
1F
100
AcDbEntity
  8
0
100
AcDbBlockBegin
  2
*Model_Space
 70
     0
 10
0.0
 20
0.0
 30
0.0
  3
*Model_Space
  1

  0
ENDBLK
  5
21
330
1F
100
AcDbEntity
  8
0
100
AcDbBlockEnd
  0
BLOCK
  5
1C
330
1B
100
AcDbEntity
 67
     1
  8
0
100
AcDbBlockBegin
  2
*Paper_Space
 70
     0
 10
0.0
 20
0.0
 30
0.0
  3
*Paper_Space
  1

  0
ENDBLK
  5
1D
330
1B
100
AcDbEntity
 67
     1
  8
0
100
AcDbBlockEnd
  0
BLOCK
  5
24
330
23
100
AcDbEntity
  8
0
100
AcDbBlockBegin
  2
*Paper_Space0
 70
     0
 10
0.0
 20
0.0
 30
0.0
  3
*Paper_Space0
  1

  0
ENDBLK
  5
25
330
23
100
AcDbEntity
  8
0
100
AcDbBlockEnd
  0
ENDSEC
  0
SECTION
  2
ENTITIES
  0
ARC
  5
44
330
1F
100
AcDbEntity
  8
0
  6
Continuous
 62
     7
370
    15
100
AcDbCircle
 10
679.1630923822
 20
247.8797100549
 30
0.0
 40
1.0
100
AcDbArc
 50
270.0
 51
0.0
  0
ARC
  5
45
330
1F
100
AcDbEntity
  8
0
  6
Continuous
 62
     7
370
    15
100
AcDbCircle
 10
652.6630923822
 20
247.8797100549
 30
0.0
 40
1.0
100
AcDbArc
 50
180.0
 51
270.0
  0
LINE
  5
46
330
1F
100
AcDbEntity
  8
0
  6
Continuous
 62
     7
370
    15
100
AcDbLine
 10
680.1630923822
 20
247.8797100549
 30
0.0
 11
680.1630923822
 21
249.8797100549
 31
0.0
  0
LINE
  5
47
330
1F
100
AcDbEntity
  8
0
  6
Continuous
 62
     7
370
    15
100
AcDbLine
 10
651.6630923822
 20
249.8797100549
 30
0.0
 11
651.6630923822
 21
247.8797100549
 31
0.0
  0
LINE
  5
48
330
1F
100
AcDbEntity
  8
0
  6
Continuous
 62
     7
370
    15
100
AcDbLine
 10
390.6630923822
 20
247.8797100549
 30
0.0
 11
390.6630923822
 21
249.8797100549
 31
0.0
  0
LINE
  5
49
330
1F
100
AcDbEntity
  8
0
  6
Continuous
 62
     7
370
    15
100
AcDbLine
 10
362.1630923822
 20
249.8797100549
 30
0.0
 11
362.1630923822
 21
247.8797100549
 31
0.0
  0
ARC
  5
4A
330
1F
100
AcDbEntity
  8
0
  6
Continuous
 62
     7
370
    15
100
AcDbCircle
 10
389.6630923822
 20
247.8797100549
 30
0.0
 40
1.0
100
AcDbArc
 50
270.0
 51
0.0
  0
ARC
  5
4B
330
1F
100
AcDbEntity
  8
0
  6
Continuous
 62
     7
370
    15
100
AcDbCircle
 10
363.1630923822
 20
247.8797100549
 30
0.0
 40
1.0
100
AcDbArc
 50
180.0
 51
270.0
  0
LINE
  5
4C
330
1F
100
AcDbEntity
  8
0
  6
Continuous
 62
     7
370
    15
100
AcDbLine
 10
390.5630923822
 20
249.8797100549
 30
0.0
 11
390.5630923822
 21
283.8797100549
 31
0.0
  0
LINE
  5
4D
330
1F
100
AcDbEntity
  8
0
  6
Continuous
 62
     7
370
    15
100
AcDbLine
 10
362.2630923822
 20
283.8797100549
 30
0.0
 11
362.2630923822
 21
249.8797100549
 31
0.0
  0
LINE
  5
4E
330
1F
100
AcDbEntity
  8
0
  6
Continuous
 62
     7
370
    15
100
AcDbLine
 10
680.0630923822
 20
249.8797100549
 30
0.0
 11
680.0630923822
 21
283.8797100549
 31
0.0
  0
LINE
  5
4F
330
1F
100
AcDbEntity
  8
0
  6
Continuous
 62
     7
370
    15
100
AcDbLine
 10
651.7630923822
 20
283.8797100549
 30
0.0
 11
651.7630923822
 21
249.8797100549
 31
0.0
  0
ARC
  5
50
330
1F
100
AcDbEntity
  8
0
  6
Continuous
 62
     7
370
    15
100
AcDbCircle
 10
393.1130923822
 20
330.1297100549
 30
0.0
 40
0.7499999999999432
100
AcDbArc
 50
90.0
 51
180.0
  0
ARC
  5
51
330
1F
100
AcDbEntity
  8
0
  6
Continuous
 62
     7
370
    15
100
AcDbCircle
 10
359.7130923822
 20
330.1297100549
 30
0.0
 40
0.75
100
AcDbArc
 50
0.0
 51
90.0
  0
LINE
  5
52
330
1F
100
AcDbEntity
  8
0
  6
Continuous
 62
     7
370
    15
100
AcDbLine
 10
392.3630923822
 20
286.8959930277
 30
0.0
 11
392.3630923822
 21
330.1297100549
 31
0.0
  0
LINE
  5
53
330
1F
100
AcDbEntity
  8
0
  6
Continuous
 62
     7
370
    15
100
AcDbLine
 10
360.4630923822
 20
330.1297100549
 30
0.0
 11
360.4630923822
 21
286.8959930277
 31
0.0
  0
ARC
  5
54
330
1F
100
AcDbEntity
  8
0
  6
Continuous
 62
     7
370
    15
100
AcDbCircle
 10
390.0130923822
 20
286.8959930277
 30
0.0
 40
2.350000000000023
100
AcDbArc
 50
350.5402980318
 51
0.0
  0
ARC
  5
55
330
1F
100
AcDbEntity
  8
0
  6
Continuous
 62
     7
370
    15
100
AcDbCircle
 10
362.8130923822
 20
286.8959930277
 30
0.0
 40
2.350000000000023
100
AcDbArc
 50
180.0
 51
189.4597019682
  0
LINE
  5
56
330
1F
100
AcDbEntity
  8
0
  6
Continuous
 62
     7
370
    15
100
AcDbLine
 10
360.4950489957
 20
286.5097614155
 30
0.0
 11
360.933267272
 21
283.8797100549
 31
0.0
  0
LINE
  5
57
330
1F
100
AcDbEntity
  8
0
  6
Continuous
 62
     7
370
    15
100
AcDbLine
 10
391.8929174924
 20
283.8797100549
 30
0.0
 11
392.3311357687
 21
286.5097614155
 31
0.0
  0
ARC
  5
58
330
1F
100
AcDbEntity
  8
0
  6
Continuous
 62
     7
370
    15
100
AcDbCircle
 10
682.6130923822
 20
330.1297100549
 30
0.0
 40
0.75
100
AcDbArc
 50
90.0
 51
180.0
  0
ARC
  5
59
330
1F
100
AcDbEntity
  8
0
  6
Continuous
 62
     7
370
    15
100
AcDbCircle
 10
649.2130923822
 20
330.1297100549
 30
0.0
 40
0.75
100
AcDbArc
 50
0.0
 51
90.0
  0
LINE
  5
5A
330
1F
100
AcDbEntity
  8
0
  6
Continuous
 62
     7
370
    15
100
AcDbLine
 10
681.8630923822
 20
286.8959930277
 30
0.0
 11
681.8630923822
 21
330.1297100549
 31
0.0
  0
LINE
  5
5B
330
1F
100
AcDbEntity
  8
0
  6
Continuous
 62
     7
370
    15
100
AcDbLine
 10
649.9630923822
 20
330.1297100549
 30
0.0
 11
649.9630923822
 21
286.8959930277
 31
0.0
  0
ARC
  5
5C
330
1F
100
AcDbEntity
  8
0
  6
Continuous
 62
     7
370
    15
100
AcDbCircle
 10
679.5130923822
 20
286.8959930277
 30
0.0
 40
2.350000000000023
100
AcDbArc
 50
350.5402980318
 51
0.0
  0
ARC
  5
5D
330
1F
100
AcDbEntity
  8
0
  6
Continuous
 62
     7
370
    15
100
AcDbCircle
 10
652.3130923822
 20
286.8959930277
 30
0.0
 40
2.350000000000023
100
AcDbArc
 50
180.0
 51
189.4597019682
  0
LINE
  5
5E
330
1F
100
AcDbEntity
  8
0
  6
Continuous
 62
     7
370
    15
100
AcDbLine
 10
649.9950489957
 20
286.5097614155
 30
0.0
 11
650.433267272
 21
283.8797100549
 31
0.0
  0
LINE
  5
5F
330
1F
100
AcDbEntity
  8
0
  6
Continuous
 62
     7
370
    15
100
AcDbLine
 10
681.3929174924
 20
283.8797100549
 30
0.0
 11
681.8311357687
 21
286.5097614155
 31
0.0
  0
ARC
  5
60
330
1F
100
AcDbEntity
  8
0
  6
Continuous
 62
     7
370
    15
100
AcDbCircle
 10
321.390966613
 20
710.2797100507
 30
0.0
 40
1.0
100
AcDbArc
 50
90.0
 51
180.0
  0
ARC
  5
61
330
1F
100
AcDbEntity
  8
0
  6
Continuous
 62
     7
370
    15
100
AcDbCircle
 10
328.890966613
 20
710.2797100507
 30
0.0
 40
1.0
100
AcDbArc
 50
0.0
 51
90.0
  0
LINE
  5
62
330
1F
100
AcDbEntity
  8
0
  6
Continuous
 62
     7
370
    15
100
AcDbLine
 10
329.890966613
 20
705.5297100507
 30
0.0
 11
329.890966613
 21
710.2797100507
 31
0.0
  0
LINE
  5
63
330
1F
100
AcDbEntity
  8
0
  6
Continuous
 62
     7
370
    15
100
AcDbLine
 10
320.390966613
 20
710.2797100507
 30
0.0
 11
320.390966613
 21
705.5297100507
 31
0.0
  0
LINE
  5
64
330
1F
100
AcDbEntity
  8
0
  6
Continuous
 62
     7
370
    15
100
AcDbLine
 10
319.2380923822
 20
566.5797100549
 30
0.0
 11
319.2380923822
 21
565.3797100549
 31
0.0
  0
LINE
  5
65
330
1F
100
AcDbEntity
  8
0
  6
Continuous
 62
     7
370
    15
100
AcDbLine
 10
334.0880923822
 20
565.3797100549
 30
0.0
 11
334.0880923822
 21
566.5797100549
 31
0.0
  0
LINE
  5
66
330
1F
100
AcDbEntity
  8
0
  6
Continuous
 62
     7
370
    15
100
AcDbLine
 10
319.2380923822
 20
563.4297100549
 30
0.0
 11
319.2380923822
 21
558.8297100549
 31
0.0
  0
LINE
  5
67
330
1F
100
AcDbEntity
  8
0
  6
Continuous
 62
     7
370
    15
100
AcDbLine
 10
334.0880923822
 20
558.8297100549
 30
0.0
 11
334.0880923822
 21
563.4297100549
 31
0.0
  0
ARC
  5
68
330
1F
100
AcDbEntity
  8
0
  6
Continuous
 62
     7
370
    15
100
AcDbCircle
 10
321.7380923822
 20
558.8297100549
 30
0.0
 40
2.500000000000114
100
AcDbArc
 50
180.0
 51
270.0
  0
ARC
  5
69
330
1F
100
AcDbEntity
  8
0
  6
Continuous
 62
     7
370
    15
100
AcDbCircle
 10
331.5880923822
 20
558.8297100549
 30
0.0
 40
2.500000000000114
100
AcDbArc
 50
270.0
 51
0.0
  0
LINE
  5
6A
330
1F
100
AcDbEntity
  8
0
  6
Continuous
 62
     7
370
    15
100
AcDbLine
 10
333.6630923822
 20
566.5797100549
 30
0.0
 11
333.6630923822
 21
569.3297100549
 31
0.0
  0
LINE
  5
6B
330
1F
100
AcDbEntity
  8
0
  6
Continuous
 62
     7
370
    15
100
AcDbLine
 10
319.6630923822
 20
569.3297100549
 30
0.0
 11
319.6630923822
 21
566.5797100549
 31
0.0
  0
LINE
  5
6C
330
1F
100
AcDbEntity
  8
0
  6
Continuous
 62
     7
370
    15
100
AcDbLine
 10
333.1630923822
 20
569.3297100549
 30
0.0
 11
333.1630923822
 21
570.3297100549
 31
0.0
  0
LINE
  5
6D
330
1F
100
AcDbEntity
  8
0
  6
Continuous
 62
     7
370
    15
100
AcDbLine
 10
320.1630923822
 20
570.3297100549
 30
0.0
 11
320.1630923822
 21
569.3297100549
 31
0.0
  0
LINE
  5
6E
330
1F
100
AcDbEntity
  8
0
  6
Continuous
 62
     7
370
    15
100
AcDbLine
 10
318.2880923822
 20
571.9297100549
 30
0.0
 11
318.2880923822
 21
570.3297100549
 31
0.0
  0
LINE
  5
6F
330
1F
100
AcDbEntity
  8
0
  6
Continuous
 62
     7
370
    15
100
AcDbLine
 10
335.0380923822
 20
570.3297100549
 30
0.0
 11
335.0380923822
 21
571.9297100549
 31
0.0
  0
ARC
  5
70
330
1F
100
AcDbEntity
  8
0
  6
Continuous
 62
     7
370
    15
100
AcDbCircle
 10
740.0730006388
 20
643.5936194225
 30
0.0
 40
1.000000000000025
100
AcDbArc
 50
205.0
 51
292.0
  0
ARC
  5
71
330
1F
100
AcDbEntity
  8
0
  6
Continuous
 62
     7
370
    15
100
AcDbCircle
 10
750.1727019084
 20
621.9347401548
 30
0.0
 40
1.000000000000062
100
AcDbArc
 50
118.0
 51
205.0
  0
LINE
  5
72
330
1F
100
AcDbEntity
  8
0
  6
Continuous
 62
     7
370
    15
100
AcDbLine
 10
749.7032303456
 20
622.8176877477
 30
0.0
 11
750.1915833194
 21
623.0773496298
 31
0.0
  0
LINE
  5
73
330
1F
100
AcDbEntity
  8
0
  6
Continuous
 62
     7
370
    15
100
AcDbLine
 10
740.9604270148
 20
642.8736282092
 30
0.0
 11
740.4476072322
 21
642.6664355679
 31
0.0
  0
LINE
  5
74
330
1F
100
AcDbEntity
  8
0
  6
Continuous
 62
     7
370
    15
100
AcDbLine
 10
755.6858675255
 20
601.8300127939
 30
0.0
 11
755.9069073511
 21
601.9475417539
 31
0.0
  0
LINE
  5
75
330
1F
100
AcDbEntity
  8
0
  6
Continuous
 62
     7
370
    15
100
AcDbLine
 10
753.3087927298
 20
605.9811855106
 30
0.0
 11
753.2982587662
 21
605.9760477532
 31
0.0
  0
LINE
  5
76
330
1F
100
AcDbEntity
  8
0
  6
Continuous
 62
     7
370
    15
100
AcDbLine
 10
754.3688614077
 20
603.6801329796
 30
0.0
 11
754.3795682594
 21
603.6848999771
 31
0.0
  0
LINE
  5
77
330
1F
100
AcDbEntity
  8
0
  6
Continuous
 62
     7
370
    15
100
AcDbLine
 10
732.6004979045
 20
650.3902670754
 30
0.0
 11
732.5899639409
 21
650.385129318
 31
0.0
  0
LINE
  5
78
330
1F
100
AcDbEntity
  8
0
  6
Continuous
 62
     7
370
    15
100
AcDbLine
 10
733.6605665824
 20
648.0892145444
 30
0.0
 11
733.6712734341
 21
648.0939815419
 31
0.0
  0
LINE
  5
79
330
1F
100
AcDbEntity
  8
0
  6
Continuous
 62
     7
370
    15
100
AcDbLine
 10
744.0521391333
 20
627.961724634
 30
0.0
 11
745.3951722601
 21
629.2224335696
 31
0.0
  0
LINE
  5
7A
330
1F
100
AcDbEntity
  8
0
  6
Continuous
 62
     7
370
    15
100
AcDbLine
 10
742.5847608195
 20
635.2493803534
 30
0.0
 11
740.7557166917
 21
635.0309253729
 31
0.0
  0
LINE
  5
7B
330
1F
100
AcDbEntity
  8
0
  6
Continuous
 62
     7
370
    15
100
AcDbLine
 10
742.4646031672
 20
629.2088971597
 30
0.0
 11
742.46531882
 21
629.2350903524
 31
0.0
  0
LINE
  5
7C
330
1F
100
AcDbEntity
  8
0
  6
Continuous
 62
     7
370
    15
100
AcDbLine
 10
740.7111829882
 20
632.9968467833
 30
0.0
 11
740.6906578257
 21
633.0131352212
 31
0.0
  0
LINE
  5
7D
330
1F
100
AcDbEntity
  8
0
  6
Continuous
 62
     7
370
    15
100
AcDbLine
 10
752.4435519204
 20
618.2479873802
 30
0.0
 11
756.1298543321
 21
622.173694263
 31
0.0
  0
LINE
  5
7E
330
1F
100
AcDbEntity
  8
0
  6
Continuous
 62
     7
370
    15
100
AcDbLine
 10
744.0852338725
 20
648.0034661935
 30
0.0
 11
738.7084584138
 21
647.7029904589
 31
0.0
  0
LINE
  5
7F
330
1F
100
AcDbEntity
  8
0
  6
Continuous
 62
     7
370
    15
100
AcDbLine
 10
756.1298543321
 20
622.173694263
 30
0.0
 11
763.0800223798
 21
630.2334286005
 31
0.0
  0
LINE
  5
80
330
1F
100
AcDbEntity
  8
0
  6
Continuous
 62
     7
370
    15
100
AcDbLine
 10
744.3352111645
 20
648.0068356882
 30
0.0
 11
744.0852338725
 21
648.0034661935
 31
0.0
  0
ARC
  5
81
330
1F
100
AcDbEntity
  8
0
  6
Continuous
 62
     7
370
    15
100
AcDbCircle
 10
762.7013666878
 20
630.5599555778
 30
0.0
 40
0.500000000000087
100
AcDbArc
 50
319.227745318
 51
25.0
  0
LINE
  5
82
330
1F
100
AcDbEntity
  8
0
  6
Continuous
 62
     7
370
    15
100
AcDbLine
 10
744.5676546983
 20
624.6988885972
 30
0.0
 11
744.5782751059
 21
624.7038409746
 31
0.0
  0
LINE
  5
83
330
1F
100
AcDbEntity
  8
0
  6
Continuous
 62
     7
370
    15
100
AcDbLine
 10
750.6851089881
 20
611.6076934519
 30
0.0
 11
750.6744885804
 21
611.6027410745
 31
0.0
  0
LINE
  5
84
330
1F
100
AcDbEntity
  8
0
  6
Continuous
 62
     7
370
    15
100
AcDbLine
 10
753.0200199331
 20
606.5727328564
 30
0.0
 11
753.0306403408
 21
606.5776852339
 31
0.0
  0
LINE
  5
85
330
1F
100
AcDbEntity
  8
0
  6
Continuous
 62
     7
370
    15
100
AcDbLine
 10
735.4472595317
 20
644.2853670649
 30
0.0
 11
735.436639124
 21
644.2804146875
 31
0.0
  0
LINE
  5
86
330
1F
100
AcDbEntity
  8
0
  6
Continuous
 62
     7
370
    15
100
AcDbLine
 10
743.5884197832
 20
627.7730731978
 30
0.0
 11
744.0415736767
 21
627.9843823287
 31
0.0
  0
LINE
  5
87
330
1F
100
AcDbEntity
  8
0
  6
Continuous
 62
     7
370
    15
100
AcDbLine
 10
740.7662821482
 20
635.0082676782
 30
0.0
 11
740.3131282547
 21
634.7969585473
 31
0.0
  0
LINE
  5
88
330
1F
100
AcDbEntity
  8
0
  6
Continuous
 62
     7
370
    15
100
AcDbLine
 10
748.2756042662
 20
616.7471650879
 30
0.0
 11
748.276319919
 21
616.7733582807
 31
0.0
  0
LINE
  5
89
330
1F
100
AcDbEntity
  8
0
  6
Continuous
 62
     7
370
    15
100
AcDbLine
 10
746.5221840871
 20
620.5351147116
 30
0.0
 11
746.5016589246
 21
620.5514031495
 31
0.0
  0
LINE
  5
8A
330
1F
100
AcDbEntity
  8
0
  6
Continuous
 62
     7
370
    15
100
AcDbLine
 10
326.6689275224
 20
704.3797100549
 30
0.0
 11
326.6689275224
 21
704.5297100549
 31
0.0
  0
LINE
  5
8B
330
1F
100
AcDbEntity
  8
0
  6
Continuous
 62
     7
370
    15
100
AcDbLine
 10
323.640966613
 20
704.5297100549
 30
0.0
 11
323.640966613
 21
704.3797100549
 31
0.0
  0
LINE
  5
8C
330
1F
100
AcDbEntity
  8
0
  6
Continuous
 62
     7
370
    15
100
AcDbLine
 10
326.640966613
 20
704.3797100549
 30
0.0
 11
326.640966613
 21
704.5297100549
 31
0.0
  0
SPLINE
  5
8D
330
1F
100
AcDbEntity
  8
0
  6
Continuous
 62
     7
370
    15
100
AcDbSpline
210
0.0
220
0.0
230
1.0
 70
     8
 71
     3
 72
    13
 73
     9
 74
     0
 42
0.00000001
 43
0.00000001
 12
1.0
 22
0.0
 32
0.0
 13
1.0
 23
0.0
 33
0.0
 40
0.0
 40
0.0
 40
0.0
 40
0.0
 40
0.0634888169710021
 40
0.2470479163444465
 40
0.4311284030615801
 40
0.6187780680144029
 40
0.8315552681847487
 40
1.0
 40
1.0
 40
1.0
 40
1.0
 10
326.6085141015402
 20
566.0047645000249
 30
0.0
 10
326.608277935624
 20
566.0098775311018
 30
0.0
 10
326.6073589659488
 20
566.0297733762916
 30
0.0
 10
326.6140314744188
 20
566.0635530980367
 30
0.0
 10
326.6270054469736
 20
566.0986028548228
 30
0.0
 10
326.6429895038053
 20
566.1218369365168
 30
0.0
 10
326.6544971458841
 20
566.1298502492849
 30
0.0
 10
326.6541259004984
 20
566.1294999603604
 30
0.0
 10
326.6539618639513
 20
566.1293451835256
 30
0.0
  0
LINE
  5
8E
330
1F
100
AcDbEntity
  8
0
  6
Continuous
 62
     7
370
    15
100
AcDbLine
 10
326.6076164704
 20
563.4547100549
 30
0.0
 11
326.6076164704
 21
566.0047100549
 31
0.0
  0
ARC
  5
8F
330
1F
100
AcDbEntity
  8
0
  6
Continuous
 62
     7
370
    15
100
AcDbCircle
 10
326.4826164704
 20
563.4547100549
 30
0.0
 40
0.125
100
AcDbArc
 50
270.0
 51
0.0
  0
ARC
  5
90
330
1F
100
AcDbEntity
  8
0
  6
Continuous
 62
     7
370
    15
100
AcDbCircle
 10
323.9542693842
 20
563.4547100549
 30
0.0
 40
0.125
100
AcDbArc
 50
180.0
 51
270.0
  0
LINE
  5
91
330
1F
100
AcDbEntity
  8
0
  6
Continuous
 62
     7
370
    15
100
AcDbLine
 10
323.8292693842
 20
566.0047100549
 30
0.0
 11
323.8292693842
 21
563.4547100549
 31
0.0
  0
ARC
  5
92
330
1F
100
AcDbEntity
  8
0
  6
Continuous
 62
     7
370
    15
100
AcDbCircle
 10
323.9380923822
 20
566.6047100549
 30
0.0
 40
0.1250000000000568
100
AcDbArc
 50
90.0
 51
180.0
  0
ARC
  5
93
330
1F
100
AcDbEntity
  8
0
  6
Continuous
 62
     7
370
    15
100
AcDbCircle
 10
323.9380923822
 20
566.2547100549
 30
0.0
 40
0.1250000000000246
100
AcDbArc
 50
180.0
 51
232.7089330723
  0
LINE
  5
94
330
1F
100
AcDbEntity
  8
0
  6
Continuous
 62
     7
370
    15
100
AcDbLine
 10
323.8130923822
 20
566.6047100549
 30
0.0
 11
323.8130923822
 21
566.2547100549
 31
0.0
  0
ARC
  5
95
330
1F
100
AcDbEntity
  8
0
  6
Continuous
 62
     7
370
    15
100
AcDbCircle
 10
332.3719153801
 20
563.4547100549
 30
0.0
 40
0.125
100
AcDbArc
 50
270.0
 51
0.0
  0
LINE
  5
96
330
1F
100
AcDbEntity
  8
0
  6
Continuous
 62
     7
370
    15
100
AcDbLine
 10
332.4969153801
 20
563.4547100549
 30
0.0
 11
332.4969153801
 21
565.5932075743
 31
0.0
  0
SPLINE
  5
97
330
1F
100
AcDbEntity
  8
0
  6
Continuous
 62
     7
370
    15
100
AcDbSpline
210
0.0
220
0.0
230
1.0
 70
     8
 71
     3
 72
    13
 73
     9
 74
     0
 42
0.00000001
 43
0.00000001
 12
1.0
 22
0.0
 32
0.0
 13
1.0
 23
0.0
 33
0.0
 40
0.0
 40
0.0
 40
0.0
 40
0.0
 40
0.0634888169708446
 40
0.2470479163444403
 40
0.4311284030616104
 40
0.6187780680144266
 40
0.8315552681850005
 40
1.0
 40
1.0
 40
1.0
 40
1.0
 10
341.4085141015402
 20
325.2047645000225
 30
0.0
 10
341.408277935624
 20
325.2098775310992
 30
0.0
 10
341.4073589659488
 20
325.2297733762891
 30
0.0
 10
341.4140314744191
 20
325.2635530980342
 30
0.0
 10
341.4270054469736
 20
325.2986028548205
 30
0.0
 10
341.4429895038053
 20
325.3218369365143
 30
0.0
 10
341.4544971458841
 20
325.3298502492824
 30
0.0
 10
341.4541259004986
 20
325.3294999603579
 30
0.0
 10
341.4539618639515
 20
325.3293451835232
 30
0.0
  0
ARC
  5
98
330
1F
100
AcDbEntity
  8
0
  6
Continuous
 62
     7
370
    15
100
AcDbCircle
 10
341.2826164704
 20
322.6547100549
 30
0.0
 40
0.1249999999999432
100
AcDbArc
 50
270.0
 51
0.0
  0
LINE
  5
99
330
1F
100
AcDbEntity
  8
0
  6
Continuous
 62
     7
370
    15
100
AcDbLine
 10
341.4076164704
 20
322.6547100549
 30
0.0
 11
341.4076164704
 21
325.2047100549
 31
0.0
  0
ARC
  5
9A
330
1F
100
AcDbEntity
  8
0
  6
Continuous
 62
     7
370
    15
100
AcDbCircle
 10
338.7542693842
 20
322.6547100549
 30
0.0
 40
0.1250000000000568
100
AcDbArc
 50
180.0
 51
270.0
  0
LINE
  5
9B
330
1F
100
AcDbEntity
  8
0
  6
Continuous
 62
     7
370
    15
100
AcDbLine
 10
338.6292693842
 20
325.2047100549
 30
0.0
 11
338.6292693842
 21
322.6547100549
 31
0.0
  0
ARC
  5
9C
330
1F
100
AcDbEntity
  8
0
  6
Continuous
 62
     7
370
    15
100
AcDbCircle
 10
338.7380923822
 20
325.8047100549
 30
0.0
 40
0.1250000000000568
100
AcDbArc
 50
90.0
 51
180.0
  0
ARC
  5
9D
330
1F
100
AcDbEntity
  8
0
  6
Continuous
 62
     7
370
    15
100
AcDbCircle
 10
338.7380923822
 20
325.4547100549
 30
0.0
 40
0.1250000000000354
100
AcDbArc
 50
180.0
 51
232.7089330724
  0
LINE
  5
9E
330
1F
100
AcDbEntity
  8
0
  6
Continuous
 62
     7
370
    15
100
AcDbLine
 10
338.6130923822
 20
325.8047100549
 30
0.0
 11
338.6130923822
 21
325.4547100549
 31
0.0
  0
ARC
  5
9F
330
1F
100
AcDbEntity
  8
0
  6
Continuous
 62
     7
370
    15
100
AcDbCircle
 10
347.1719153801
 20
322.6547100549
 30
0.0
 40
0.1250000000000568
100
AcDbArc
 50
270.0
 51
0.0
  0
LINE
  5
A0
330
1F
100
AcDbEntity
  8
0
  6
Continuous
 62
     7
370
    15
100
AcDbLine
 10
347.2969153801
 20
322.6547100549
 30
0.0
 11
347.2969153801
 21
324.7932075743
 31
0.0
  0
ARC
  5
A1
330
1F
100
AcDbEntity
  8
0
  6
Continuous
 62
     7
370
    15
100
AcDbCircle
 10
338.7380923822
 20
324.8547100549
 30
0.0
 40
0.125
100
AcDbArc
 50
180.0
 51
209.4734267881
  0
LINE
  5
A2
330
1F
100
AcDbEntity
  8
0
  6
Continuous
 62
     7
370
    15
100
AcDbLine
 10
338.6130923822
 20
325.2047100549
 30
0.0
 11
338.6130923822
 21
324.8547100549
 31
0.0
  0
SPLINE
  5
A3
330
1F
100
AcDbEntity
  8
0
  6
Continuous
 62
     7
370
    15
100
AcDbSpline
210
0.0
220
0.0
230
1.0
 70
     8
 71
     3
 72
    13
 73
     9
 74
     0
 42
0.00000001
 43
0.00000001
 12
1.0
 22
0.0
 32
0.0
 13
1.0
 23
0.0
 33
0.0
 40
0.0
 40
0.0
 40
0.0
 40
0.0
 40
0.0546880530948173
 40
0.2134688124262241
 40
0.3745771152333049
 40
0.5445034158495392
 40
0.7475374221115513
 40
1.0
 40
1.0
 40
1.0
 40
1.0
 10
344.9402298376227
 20
325.4546640223203
 30
0.0
 10
344.9404768165662
 20
325.4498721586121
 30
0.0
 10
344.9414408717625
 20
325.4311676446056
 30
0.0
 10
344.934423697703
 20
325.3992447782709
 30
0.0
 10
344.9206033255538
 20
325.3655492687817
 30
0.0
 10
344.9021503377672
 20
325.341751260929
 30
0.0
 10
344.8847618863929
 20
325.3303140146912
 30
0.0
 10
344.8788468001496
 20
325.330087044672
 30
0.0
 10
344.8755683168999
 20
325.329961244747
 30
0.0
  0
LINE
  5
A4
330
1F
100
AcDbEntity
  8
0
  6
Continuous
 62
     7
370
    15
100
AcDbLine
 10
344.941167257
 20
328.0047100549
 30
0.0
 11
344.941167257
 21
325.4547100549
 31
0.0
  0
ARC
  5
A5
330
1F
100
AcDbEntity
  8
0
  6
Continuous
 62
     7
370
    15
100
AcDbCircle
 10
345.066167257
 20
328.0047100549
 30
0.0
 40
0.1250000000000568
100
AcDbArc
 50
90.0
 51
180.0
  0
ARC
  5
A6
330
1F
100
AcDbEntity
  8
0
  6
Continuous
 62
     7
370
    15
100
AcDbCircle
 10
347.4161524566
 20
328.0047100549
 30
0.0
 40
0.1250000000000568
100
AcDbArc
 50
0.0
 51
90.0
  0
LINE
  5
A7
330
1F
100
AcDbEntity
  8
0
  6
Continuous
 62
     7
370
    15
100
AcDbLine
 10
347.5411524566
 20
325.4547100549
 30
0.0
 11
347.5411524566
 21
328.0047100549
 31
0.0
  0
ARC
  5
A8
330
1F
100
AcDbEntity
  8
0
  6
Continuous
 62
     7
370
    15
100
AcDbCircle
 10
347.1880923822
 20
324.8547100549
 30
0.0
 40
0.1250000000000568
100
AcDbArc
 50
270.0
 51
0.0
  0
LINE
  5
A9
330
1F
100
AcDbEntity
  8
0
  6
Continuous
 62
     7
370
    15
100
AcDbLine
 10
338.3850323077
 20
328.0047100549
 30
0.0
 11
338.3850323077
 21
325.4547100549
 31
0.0
  0
ARC
  5
AA
330
1F
100
AcDbEntity
  8
0
  6
Continuous
 62
     7
370
    15
100
AcDbCircle
 10
338.5100323077
 20
328.0047100549
 30
0.0
 40
0.1250000000000568
100
AcDbArc
 50
90.0
 51
180.0
  0
ARC
  5
AB
330
1F
100
AcDbEntity
  8
0
  6
Continuous
 62
     7
370
    15
100
AcDbCircle
 10
323.9380923822
 20
565.6547100549
 30
0.0
 40
0.1250000000000568
100
AcDbArc
 50
180.0
 51
209.4734267881
  0
LINE
  5
AC
330
1F
100
AcDbEntity
  8
0
  6
Continuous
 62
     7
370
    15
100
AcDbLine
 10
323.8130923822
 20
566.0047100549
 30
0.0
 11
323.8130923822
 21
565.6547100549
 31
0.0
  0
SPLINE
  5
AD
330
1F
100
AcDbEntity
  8
0
  6
Continuous
 62
     7
370
    15
100
AcDbSpline
210
0.0
220
0.0
230
1.0
 70
     8
 71
     3
 72
    13
 73
     9
 74
     0
 42
0.00000001
 43
0.00000001
 12
1.0
 22
0.0
 32
0.0
 13
1.0
 23
0.0
 33
0.0
 40
0.0
 40
0.0
 40
0.0
 40
0.0
 40
0.054688053094886
 40
0.2134688124262701
 40
0.374577115233268
 40
0.5445034158495572
 40
0.7475374221113766
 40
1.0
 40
1.0
 40
1.0
 40
1.0
 10
330.1402298376227
 20
566.2546640223228
 30
0.0
 10
330.1404768165661
 20
566.2498721586146
 30
0.0
 10
330.1414408717623
 20
566.231167644608
 30
0.0
 10
330.1344236977032
 20
566.1992447782734
 30
0.0
 10
330.1206033255537
 20
566.1655492687842
 30
0.0
 10
330.102150337767
 20
566.1417512609315
 30
0.0
 10
330.0847618863931
 20
566.1303140146936
 30
0.0
 10
330.0788468001496
 20
566.1300870446745
 30
0.0
 10
330.0755683168999
 20
566.1299612447494
 30
0.0
  0
LINE
  5
AE
330
1F
100
AcDbEntity
  8
0
  6
Continuous
 62
     7
370
    15
100
AcDbLine
 10
330.141167257
 20
568.8047100549
 30
0.0
 11
330.141167257
 21
566.2547100549
 31
0.0
  0
ARC
  5
AF
330
1F
100
AcDbEntity
  8
0
  6
Continuous
 62
     7
370
    15
100
AcDbCircle
 10
330.266167257
 20
568.8047100549
 30
0.0
 40
0.125
100
AcDbArc
 50
90.0
 51
180.0
  0
ARC
  5
B0
330
1F
100
AcDbEntity
  8
0
  6
Continuous
 62
     7
370
    15
100
AcDbCircle
 10
332.6161524566
 20
568.8047100549
 30
0.0
 40
0.1249999999999432
100
AcDbArc
 50
0.0
 51
90.0
  0
LINE
  5
B1
330
1F
100
AcDbEntity
  8
0
  6
Continuous
 62
     7
370
    15
100
AcDbLine
 10
332.7411524566
 20
566.2547100549
 30
0.0
 11
332.7411524566
 21
568.8047100549
 31
0.0
  0
ARC
  5
B2
330
1F
100
AcDbEntity
  8
0
  6
Continuous
 62
     7
370
    15
100
AcDbCircle
 10
332.3880923822
 20
565.6547100549
 30
0.0
 40
0.1250000000000568
100
AcDbArc
 50
270.0
 51
0.0
  0
LINE
  5
B3
330
1F
100
AcDbEntity
  8
0
  6
Continuous
 62
     7
370
    15
100
AcDbLine
 10
323.5850323077
 20
568.8047100549
 30
0.0
 11
323.5850323077
 21
566.2547100549
 31
0.0
  0
ARC
  5
B4
330
1F
100
AcDbEntity
  8
0
  6
Continuous
 62
     7
370
    15
100
AcDbCircle
 10
323.7100323077
 20
568.8047100549
 30
0.0
 40
0.125
100
AcDbArc
 50
90.0
 51
180.0
  0
LINE
  5
B5
330
1F
100
AcDbEntity
  8
0
  6
Continuous
 62
     7
370
    15
100
AcDbLine
 10
340.4184668073
 20
328.6804746425
 30
0.0
 11
340.4630923822
 21
328.6547100549
 31
0.0
  0
LINE
  5
B6
330
1F
100
AcDbEntity
  8
0
  6
Continuous
 62
     7
370
    15
100
AcDbLine
 10
345.4630923822
 20
328.6547100549
 30
0.0
 11
345.5077179571
 21
328.6804746425
 31
0.0
  0
LINE
  5
B7
330
1F
100
AcDbEntity
  8
0
  6
Continuous
 62
     7
370
    15
100
AcDbLine
 10
325.6184668073
 20
569.4804746425
 30
0.0
 11
325.6630923822
 21
569.4547100549
 31
0.0
  0
LINE
  5
B8
330
1F
100
AcDbEntity
  8
0
  6
Continuous
 62
     7
370
    15
100
AcDbLine
 10
330.6630923822
 20
569.4547100549
 30
0.0
 11
330.7077179571
 21
569.4804746425
 31
0.0
  0
LINE
  5
B9
330
1F
100
AcDbEntity
  8
0
  6
Continuous
 62
     7
370
    15
100
AcDbLine
 10
345.5867829089
 20
328.458297296
 30
0.0
 11
345.4630923822
 21
328.5297100549
 31
0.0
  0
LINE
  5
BA
330
1F
100
AcDbEntity
  8
0
  6
Continuous
 62
     7
370
    15
100
AcDbLine
 10
340.4630923822
 20
328.5297100549
 30
0.0
 11
340.3394018554
 21
328.458297296
 31
0.0
  0
LINE
  5
BB
330
1F
100
AcDbEntity
  8
0
  6
Continuous
 62
     7
370
    15
100
AcDbLine
 10
340.3394018554
 20
326.0011228138
 30
0.0
 11
340.4630923822
 21
325.9297100549
 31
0.0
  0
LINE
  5
BC
330
1F
100
AcDbEntity
  8
0
  6
Continuous
 62
     7
370
    15
100
AcDbLine
 10
325.4322466803
 20
563.062988883
 30
0.0
 11
325.6630923822
 21
562.9297100549
 31
0.0
  0
LINE
  5
BD
330
1F
100
AcDbEntity
  8
0
  6
Continuous
 62
     7
370
    15
100
AcDbLine
 10
330.8939380841
 20
565.3964312267
 30
0.0
 11
330.6630923822
 21
565.5297100549
 31
0.0
  0
LINE
  5
BE
330
1F
100
AcDbEntity
  8
0
  6
Continuous
 62
     7
370
    15
100
AcDbLine
 10
330.6630923822
 20
562.9297100549
 30
0.0
 11
330.8939380841
 21
563.062988883
 31
0.0
  0
LINE
  5
BF
330
1F
100
AcDbEntity
  8
0
  6
Continuous
 62
     7
370
    15
100
AcDbLine
 10
330.7867829089
 20
569.258297296
 30
0.0
 11
330.6630923822
 21
569.3297100549
 31
0.0
  0
LINE
  5
C0
330
1F
100
AcDbEntity
  8
0
  6
Continuous
 62
     7
370
    15
100
AcDbLine
 10
325.5394018554
 20
566.8011228138
 30
0.0
 11
325.6630923822
 21
566.7297100549
 31
0.0
  0
LINE
  5
C1
330
1F
100
AcDbEntity
  8
0
  6
Continuous
 62
     7
370
    15
100
AcDbLine
 10
325.6630923822
 20
569.3297100549
 30
0.0
 11
325.5394018554
 21
569.258297296
 31
0.0
  0
LINE
  5
C2
330
1F
100
AcDbEntity
  8
0
  6
Continuous
 62
     7
370
    15
100
AcDbLine
 10
340.2322466803
 20
322.262988883
 30
0.0
 11
340.4630923822
 21
322.1297100549
 31
0.0
  0
LINE
  5
C3
330
1F
100
AcDbEntity
  8
0
  6
Continuous
 62
     7
370
    15
100
AcDbLine
 10
345.6939380841
 20
324.5964312267
 30
0.0
 11
345.4630923822
 21
324.7297100549
 31
0.0
  0
LINE
  5
C4
330
1F
100
AcDbEntity
  8
0
  6
Continuous
 62
     7
370
    15
100
AcDbLine
 10
345.4630923822
 20
322.1297100549
 30
0.0
 11
345.6939380841
 21
322.262988883
 31
0.0
  0
LINE
  5
C5
330
1F
100
AcDbEntity
  8
0
  6
Continuous
 62
     7
370
    15
100
AcDbLine
 10
341.4630923822
 20
328.6547100549
 30
0.0
 11
341.4630923822
 21
328.5297100549
 31
0.0
  0
LINE
  5
C6
330
1F
100
AcDbEntity
  8
0
  6
Continuous
 62
     7
370
    15
100
AcDbLine
 10
344.4630923822
 20
328.5297100549
 30
0.0
 11
344.4630923822
 21
328.6547100549
 31
0.0
  0
LINE
  5
C7
330
1F
100
AcDbEntity
  8
0
  6
Continuous
 62
     7
370
    15
100
AcDbLine
 10
326.6630923822
 20
569.4547100549
 30
0.0
 11
326.6630923822
 21
569.3297100549
 31
0.0
  0
LINE
  5
C8
330
1F
100
AcDbEntity
  8
0
  6
Continuous
 62
     7
370
    15
100
AcDbLine
 10
329.6630923822
 20
569.3297100549
 30
0.0
 11
329.6630923822
 21
569.4547100549
 31
0.0
  0
LINE
  5
C9
330
1F
100
AcDbEntity
  8
0
  6
Continuous
 62
     7
370
    15
100
AcDbLine
 10
679.1630923822
 20
246.8797100549
 30
0.0
 11
652.6630923822
 21
246.8797100549
 31
0.0
  0
LINE
  5
CA
330
1F
100
AcDbEntity
  8
0
  6
Continuous
 62
     7
370
    15
100
AcDbLine
 10
680.1630923822
 20
249.8797100549
 30
0.0
 11
651.6630923822
 21
249.8797100549
 31
0.0
  0
LINE
  5
CB
330
1F
100
AcDbEntity
  8
0
  6
Continuous
 62
     7
370
    15
100
AcDbLine
 10
390.6630923822
 20
249.8797100549
 30
0.0
 11
362.1630923822
 21
249.8797100549
 31
0.0
  0
LINE
  5
CC
330
1F
100
AcDbEntity
  8
0
  6
Continuous
 62
     7
370
    15
100
AcDbLine
 10
389.6630923822
 20
246.8797100549
 30
0.0
 11
363.1630923822
 21
246.8797100549
 31
0.0
  0
LINE
  5
CD
330
1F
100
AcDbEntity
  8
0
  6
Continuous
 62
     7
370
    15
100
AcDbLine
 10
398.9130923822
 20
330.8797100549
 30
0.0
 11
398.9130923822
 21
331.1297100549
 31
0.0
  0
LINE
  5
CE
330
1F
100
AcDbEntity
  8
0
  6
Continuous
 62
     7
370
    15
100
AcDbLine
 10
353.9130923822
 20
330.8797100549
 30
0.0
 11
398.9130923822
 21
330.8797100549
 31
0.0
  0
LINE
  5
CF
330
1F
100
AcDbEntity
  8
0
  6
Continuous
 62
     7
370
    15
100
AcDbLine
 10
353.9130923822
 20
330.8797100549
 30
0.0
 11
353.9130923822
 21
331.1297100549
 31
0.0
  0
LINE
  5
D0
330
1F
100
AcDbEntity
  8
0
  6
Continuous
 62
     7
370
    15
100
AcDbLine
 10
391.8929174924
 20
283.8797100549
 30
0.0
 11
360.933267272
 21
283.8797100549
 31
0.0
  0
LINE
  5
D1
330
1F
100
AcDbEntity
  8
0
  6
Continuous
 62
     7
370
    15
100
AcDbLine
 10
688.4130923822
 20
330.8797100549
 30
0.0
 11
688.4130923822
 21
331.1297100549
 31
0.0
  0
LINE
  5
D2
330
1F
100
AcDbEntity
  8
0
  6
Continuous
 62
     7
370
    15
100
AcDbLine
 10
643.4130923822
 20
330.8797100549
 30
0.0
 11
688.4130923822
 21
330.8797100549
 31
0.0
  0
LINE
  5
D3
330
1F
100
AcDbEntity
  8
0
  6
Continuous
 62
     7
370
    15
100
AcDbLine
 10
643.4130923822
 20
330.8797100549
 30
0.0
 11
643.4130923822
 21
331.1297100549
 31
0.0
  0
LINE
  5
D4
330
1F
100
AcDbEntity
  8
0
  6
Continuous
 62
     7
370
    15
100
AcDbLine
 10
681.3929174924
 20
283.8797100549
 30
0.0
 11
650.433267272
 21
283.8797100549
 31
0.0
  0
LINE
  5
D5
330
1F
100
AcDbEntity
  8
0
  6
Continuous
 62
     7
370
    15
100
AcDbLine
 10
338.5977146117
 20
332.1397952623
 30
0.0
 11
338.652189969
 21
332.0479137647
 31
0.0
  0
LWPOLYLINE
  5
D6
330
1F
100
AcDbEntity
  8
0
  6
Continuous
 62
     7
370
    15
100
AcDbPolyline
 90
        3
 70
   128
 43
0.0
 10
709.0209598756
 20
331.9738229432
 10
709.0692824363
 20
332.0408042869
 10
709.1020515826
 20
332.0928031629
  0
SPLINE
  5
D7
330
1F
100
AcDbEntity
  8
0
  6
Continuous
 62
     7
370
    15
100
AcDbSpline
210
0.0
220
0.0
230
1.0
 70
     8
 71
     3
 72
    12
 73
     8
 74
     0
 42
0.00000001
 43
0.00000001
 12
1.0
 22
0.0
 32
0.0
 13
1.0
 23
0.0
 33
0.0
 40
0.0
 40
0.0
 40
0.0
 40
0.0
 40
0.2096821001528473
 40
0.4420453733185952
 40
0.6744332966681362
 40
0.9068208701180603
 40
1.0
 40
1.0
 40
1.0
 40
1.0
 10
708.8130923821882
 20
332.2797100548675
 30
0.0
 10
708.8652349861519
 20
332.1535445758799
 30
0.0
 10
708.9751604247954
 20
331.8875663821364
 30
0.0
 10
709.1431444897369
 20
331.5268756672287
 30
0.0
 10
709.3165971239453
 20
331.2551962002357
 30
0.0
 10
709.4557854550616
 20
331.140885280164
 30
0.0
 10
709.5364656856724
 20
331.1321967608518
 30
0.0
 10
709.5595568482823
 20
331.1297100548675
 30
0.0
  0
SPLINE
  5
D8
330
1F
100
AcDbEntity
  8
0
  6
Continuous
 62
     7
370
    15
100
AcDbSpline
210
0.0
220
0.0
230
1.0
 70
     8
 71
     3
 72
    11
 73
     7
 74
     0
 42
0.00000001
 43
0.00000001
 12
1.0
 22
0.0
 32
0.0
 13
1.0
 23
0.0
 33
0.0
 40
0.0
 40
0.0
 40
0.0
 40
0.0
 40
0.2543211584721378
 40
0.5088664984542618
 40
0.7634130007197666
 40
1.0
 40
1.0
 40
1.0
 40
1.0
 10
708.8130923821882
 20
332.2797100548675
 30
0.0
 10
708.8763829360809
 20
332.1797224597979
 30
0.0
 10
709.0030198338449
 20
331.9796591316123
 30
0.0
 10
709.1929921685876
 20
331.7288472545644
 30
0.0
 10
709.3786047344229
 20
331.5608146311351
 30
0.0
 10
709.5007280567576
 20
331.5398223690797
 30
0.0
 10
709.5595568482823
 20
331.5297100548675
 30
0.0
  0
LINE
  5
D9
330
1F
100
AcDbEntity
  8
0
  6
Continuous
 62
     7
370
    15
100
AcDbLine
 10
709.5595568483
 20
331.1297100549
 30
0.0
 11
709.5595568483
 21
331.5297100549
 31
0.0
  0
SPLINE
  5
DA
330
1F
100
AcDbEntity
  8
0
  6
Continuous
 62
     7
370
    15
100
AcDbSpline
210
0.0
220
0.0
230
1.0
 70
     8
 71
     3
 72
    12
 73
     8
 74
     0
 42
0.00000001
 43
0.00000001
 12
1.0
 22
0.0
 32
0.0
 13
1.0
 23
0.0
 33
0.0
 40
0.0
 40
0.0
 40
0.0
 40
0.0
 40
0.2096821001528679
 40
0.4420453733186129
 40
0.6744332966681491
 40
0.9068208701180742
 40
1.0
 40
1.0
 40
1.0
 40
1.0
 10
708.8130923821883
 20
570.7797100548675
 30
0.0
 10
708.9392578611759
 20
570.8318526588313
 30
0.0
 10
709.2052360549195
 20
570.9417780974746
 30
0.0
 10
709.5659267698269
 20
571.1097621624161
 30
0.0
 10
709.8376062368201
 20
571.2832147966245
 30
0.0
 10
709.9519171568918
 20
571.4224031277408
 30
0.0
 10
709.9606056762038
 20
571.5030833583517
 30
0.0
 10
709.9630923821883
 20
571.5261745209616
 30
0.0
  0
SPLINE
  5
DB
330
1F
100
AcDbEntity
  8
0
  6
Continuous
 62
     7
370
    15
100
AcDbSpline
210
0.0
220
0.0
230
1.0
 70
     8
 71
     3
 72
    11
 73
     7
 74
     0
 42
0.00000001
 43
0.00000001
 12
1.0
 22
0.0
 32
0.0
 13
1.0
 23
0.0
 33
0.0
 40
0.0
 40
0.0
 40
0.0
 40
0.0
 40
0.254321158472112
 40
0.5088664984542074
 40
0.7634130007197145
 40
1.0
 40
1.0
 40
1.0
 40
1.0
 10
708.8130923821883
 20
570.7797100548675
 30
0.0
 10
708.9130799772578
 20
570.8430006087602
 30
0.0
 10
709.1131433054434
 20
570.9696375065241
 30
0.0
 10
709.3639551824913
 20
571.1596098412667
 30
0.0
 10
709.5319878059206
 20
571.3452224071023
 30
0.0
 10
709.5529800679759
 20
571.4673457294368
 30
0.0
 10
709.5630923821882
 20
571.5261745209616
 30
0.0
  0
LINE
  5
DC
330
1F
100
AcDbEntity
  8
0
  6
Continuous
 62
     7
370
    15
100
AcDbLine
 10
709.9630923822
 20
571.526174521
 30
0.0
 11
709.5630923822
 21
571.526174521
 31
0.0
  0
SPLINE
  5
DD
330
1F
100
AcDbEntity
  8
0
  6
Continuous
 62
     7
370
    15
100
AcDbSpline
210
0.0
220
0.0
230
1.0
 70
     8
 71
     3
 72
    12
 73
     8
 74
     0
 42
0.00000001
 43
0.00000001
 12
1.0
 22
0.0
 32
0.0
 13
1.0
 23
0.0
 33
0.0
 40
0.0
 40
0.0
 40
0.0
 40
0.0
 40
0.2096821001528995
 40
0.4420453733186612
 40
0.6744332966681184
 40
0.9068208701180587
 40
1.0
 40
1.0
 40
1.0
 40
1.0
 10
338.8130923821881
 20
332.2797100548675
 30
0.0
 10
338.6869269032005
 20
332.2275674509036
 30
0.0
 10
338.4209487094569
 20
332.1176420122604
 30
0.0
 10
338.0602579945494
 20
331.949657947319
 30
0.0
 10
337.7885785275564
 20
331.7762053131104
 30
0.0
 10
337.6742676074846
 20
331.637016981994
 30
0.0
 10
337.6655790881725
 20
331.5563367513833
 30
0.0
 10
337.6630923821882
 20
331.5332455887734
 30
0.0
  0
SPLINE
  5
DE
330
1F
100
AcDbEntity
  8
0
  6
Continuous
 62
     7
370
    15
100
AcDbSpline
210
0.0
220
0.0
230
1.0
 70
     8
 71
     3
 72
    11
 73
     7
 74
     0
 42
0.00000001
 43
0.00000001
 12
1.0
 22
0.0
 32
0.0
 13
1.0
 23
0.0
 33
0.0
 40
0.0
 40
0.0
 40
0.0
 40
0.0
 40
0.2543211584722597
 40
0.5088664984543275
 40
0.7634130007198004
 40
0.9999999999999999
 40
0.9999999999999999
 40
0.9999999999999999
 40
0.9999999999999999
 10
338.8130923821882
 20
332.2797100548676
 30
0.0
 10
338.7131047871186
 20
332.2164195009748
 30
0.0
 10
338.5130414589329
 20
332.089782603211
 30
0.0
 10
338.262229581885
 20
331.8998102684681
 30
0.0
 10
338.0941969584558
 20
331.7141977026328
 30
0.0
 10
338.0732046964004
 20
331.5920743802981
 30
0.0
 10
338.0630923821881
 20
331.5332455887733
 30
0.0
  0
LINE
  5
DF
330
1F
100
AcDbEntity
  8
0
  6
Continuous
 62
     7
370
    15
100
AcDbLine
 10
337.6630923822
 20
331.5332455888
 30
0.0
 11
338.0630923822
 21
331.5332455888
 31
0.0
  0
LINE
  5
E0
330
1F
100
AcDbEntity
  8
0
  6
Continuous
 62
     7
370
    15
100
AcDbLine
 10
709.5595568483
 20
331.1297100549
 30
0.0
 11
338.0666279161
 21
331.1297100549
 31
0.0
  0
SPLINE
  5
E1
330
1F
100
AcDbEntity
  8
0
  6
Continuous
 62
     7
370
    15
100
AcDbSpline
210
0.0
220
0.0
230
1.0
 70
     8
 71
     3
 72
    12
 73
     8
 74
     0
 42
0.00000001
 43
0.00000001
 12
1.0
 22
0.0
 32
0.0
 13
1.0
 23
0.0
 33
0.0
 40
0.0
 40
0.0
 40
0.0
 40
0.0
 40
0.2096821001528548
 40
0.4420453733185808
 40
0.6744332966681342
 40
0.9068208701180586
 40
1.0
 40
1.0
 40
1.0
 40
1.0
 10
338.066627916094
 20
331.1297100548675
 30
0.0
 10
338.1187705200578
 20
331.1418800399518
 30
0.0
 10
338.2286959587012
 20
331.1675364292952
 30
0.0
 10
338.3966800236428
 20
331.3780017227596
 30
0.0
 10
338.570132657851
 20
331.7038964617074
 30
0.0
 10
338.7093209889674
 20
332.0286169812585
 30
0.0
 10
338.7900012195784
 20
332.2238369398117
 30
0.0
 10
338.8130923821882
 20
332.2797100548675
 30
0.0
  0
SPLINE
  5
E2
330
1F
100
AcDbEntity
  8
0
  6
Continuous
 62
     7
370
    15
100
AcDbSpline
210
0.0
220
0.0
230
1.0
 70
     8
 71
     3
 72
    12
 73
     8
 74
     0
 42
0.00000001
 43
0.00000001
 12
1.0
 22
0.0
 32
0.0
 13
1.0
 23
0.0
 33
0.0
 40
0.0
 40
0.0
 40
0.0
 40
0.0
 40
0.2096821001528788
 40
0.4420453733186291
 40
0.6744332966681287
 40
0.9068208701180513
 40
1.0
 40
1.0
 40
1.0
 40
1.0
 10
709.5595568482823
 20
571.9297100548674
 30
0.0
 10
709.5074142443185
 20
571.9175400697833
 30
0.0
 10
709.3974888056752
 20
571.8918836804398
 30
0.0
 10
709.2295047407337
 20
571.6814183869753
 30
0.0
 10
709.0560521065254
 20
571.3555236480277
 30
0.0
 10
708.9168637754088
 20
571.0308031284765
 30
0.0
 10
708.836183544798
 20
570.8355831699232
 30
0.0
 10
708.8130923821883
 20
570.7797100548675
 30
0.0
  0
LINE
  5
E3
330
1F
100
AcDbEntity
  8
0
  6
Continuous
 62
     7
370
    15
100
AcDbLine
 10
709.5595568483
 20
571.9297100549
 30
0.0
 11
709.5595568483
 21
571.5297100549
 31
0.0
  0
SPLINE
  5
E4
330
1F
100
AcDbEntity
  8
0
  6
Continuous
 62
     7
370
    15
100
AcDbSpline
210
0.0
220
0.0
230
1.0
 70
     8
 71
     3
 72
    11
 73
     7
 74
     0
 42
0.00000001
 43
0.00000001
 12
1.0
 22
0.0
 32
0.0
 13
1.0
 23
0.0
 33
0.0
 40
0.0
 40
0.0
 40
0.0
 40
0.0
 40
0.2543211584721302
 40
0.5088664984542215
 40
0.7634130007197422
 40
1.0
 40
1.0
 40
1.0
 40
1.0
 10
709.5595568482823
 20
571.5297100548676
 30
0.0
 10
709.4962662943896
 20
571.5180330238579
 30
0.0
 10
709.3696293966258
 20
571.494668668655
 30
0.0
 10
709.1796570618831
 20
571.3152248605575
 30
0.0
 10
708.9940444960476
 20
571.0656133709126
 30
0.0
 10
708.871921173713
 20
570.872659212615
 30
0.0
 10
708.8130923821883
 20
570.7797100548675
 30
0.0
  0
LINE
  5
E5
330
1F
100
AcDbEntity
  8
0
  6
Continuous
 62
     7
370
    15
100
AcDbLine
 10
337.6630923822
 20
570.6547100549
 30
0.0
 11
337.6630923822
 21
331.5332455888
 31
0.0
  0
SPLINE
  5
E6
330
1F
100
AcDbEntity
  8
0
  6
Continuous
 62
     7
370
    15
100
AcDbSpline
210
0.0
220
0.0
230
1.0
 70
     8
 71
     3
 72
    12
 73
     8
 74
     0
 42
0.00000001
 43
0.00000001
 12
1.0
 22
0.0
 32
0.0
 13
1.0
 23
0.0
 33
0.0
 40
0.0
 40
0.0
 40
0.0
 40
0.0
 40
0.2039309378941906
 40
0.4425616402550568
 40
0.6812426816310113
 40
0.9199234516442952
 40
1.0
 40
1.0
 40
1.0
 40
1.0
 10
337.6630923821882
 20
570.6547100548676
 30
0.0
 10
337.6746246940383
 20
570.7141277243127
 30
0.0
 10
337.6996515923649
 20
570.8430732463668
 30
0.0
 10
337.9108836998964
 20
571.0420140839226
 30
0.0
 10
338.2474816610645
 20
571.2508200898275
 30
0.0
 10
338.5739707175519
 20
571.4138702132191
 30
0.0
 10
338.7650823230164
 20
571.506452113516
 30
0.0
 10
338.8130923821882
 20
571.5297100548676
 30
0.0
  0
LINE
  5
E7
330
1F
100
AcDbEntity
  8
0
  6
Continuous
 62
     7
370
    15
100
AcDbLine
 10
338.0666279161
 20
331.1297100549
 30
0.0
 11
338.0666279161
 21
331.5297100549
 31
0.0
  0
SPLINE
  5
E8
330
1F
100
AcDbEntity
  8
0
  6
Continuous
 62
     7
370
    15
100
AcDbSpline
210
0.0
220
0.0
230
1.0
 70
     8
 71
     3
 72
    11
 73
     7
 74
     0
 42
0.00000001
 43
0.00000001
 12
1.0
 22
0.0
 32
0.0
 13
1.0
 23
0.0
 33
0.0
 40
0.0
 40
0.0
 40
0.0
 40
0.0
 40
0.2543211584720677
 40
0.5088664984542013
 40
0.7634130007197871
 40
1.0
 40
1.0
 40
1.0
 40
1.0
 10
338.066627916094
 20
331.5297100548675
 30
0.0
 10
338.1299184699867
 20
331.541387085877
 30
0.0
 10
338.2565553677505
 20
331.56475144108
 30
0.0
 10
338.4465277024933
 20
331.7441952491776
 30
0.0
 10
338.6321402683288
 20
331.9938067388225
 30
0.0
 10
338.7542635906634
 20
332.1867608971199
 30
0.0
 10
338.8130923821882
 20
332.2797100548675
 30
0.0
  0
LINE
  5
E9
330
1F
100
AcDbEntity
  8
0
  6
Continuous
 62
     7
370
    15
100
AcDbLine
 10
339.2880923822
 20
570.7797100549
 30
0.0
 11
339.2880923822
 21
571.5297100549
 31
0.0
  0
LINE
  5
EA
330
1F
100
AcDbEntity
  8
0
  6
Continuous
 62
     7
370
    15
100
AcDbLine
 10
338.8130923822
 20
571.5297100549
 30
0.0
 11
339.2880923822
 21
571.5297100549
 31
0.0
  0
ARC
  5
EB
330
1F
100
AcDbEntity
  8
0
  6
Continuous
 62
     7
370
    15
100
AcDbCircle
 10
339.3505923822
 20
570.7797100549
 30
0.0
 40
0.0625
100
AcDbArc
 50
180.0
 51
0.0
  0
SPLINE
  5
EC
330
1F
100
AcDbEntity
  8
0
  6
Continuous
 62
     7
370
    15
100
AcDbSpline
210
0.0
220
0.0
230
1.0
 70
     8
 71
     3
 72
    12
 73
     8
 74
     0
 42
0.00000001
 43
0.00000001
 12
1.0
 22
0.0
 32
0.0
 13
1.0
 23
0.0
 33
0.0
 40
0.0
 40
0.0
 40
0.0
 40
0.0
 40
0.2096821001528628
 40
0.4420453733185968
 40
0.6744332966681165
 40
0.9068208701180475
 40
0.9999999999999999
 40
0.9999999999999999
 40
0.9999999999999999
 40
0.9999999999999999
 10
709.9630923821883
 20
331.5332455887734
 30
0.0
 10
709.9509223971039
 20
331.5853881927372
 30
0.0
 10
709.9252660077606
 20
331.6953136313806
 30
0.0
 10
709.7148007142962
 20
331.863297696322
 30
0.0
 10
709.3889059753484
 20
332.0367503305303
 30
0.0
 10
709.0641854557971
 20
332.175938661647
 30
0.0
 10
708.868965497244
 20
332.2566188922577
 30
0.0
 10
708.8130923821883
 20
332.2797100548675
 30
0.0
  0
LINE
  5
ED
330
1F
100
AcDbEntity
  8
0
  6
Continuous
 62
     7
370
    15
100
AcDbLine
 10
709.9630923822
 20
331.5332455888
 30
0.0
 11
709.5630923822
 21
331.5332455888
 31
0.0
  0
SPLINE
  5
EE
330
1F
100
AcDbEntity
  8
0
  6
Continuous
 62
     7
370
    15
100
AcDbSpline
210
0.0
220
0.0
230
1.0
 70
     8
 71
     3
 72
    11
 73
     7
 74
     0
 42
0.00000001
 43
0.00000001
 12
1.0
 22
0.0
 32
0.0
 13
1.0
 23
0.0
 33
0.0
 40
0.0
 40
0.0
 40
0.0
 40
0.0
 40
0.2543211584721257
 40
0.5088664984542363
 40
0.763413000719715
 40
1.0
 40
1.0
 40
1.0
 40
1.0
 10
709.5630923821883
 20
331.5332455887734
 30
0.0
 10
709.5514153511787
 20
331.5965361426661
 30
0.0
 10
709.5280509959757
 20
331.72317304043
 30
0.0
 10
709.3486071878782
 20
331.9131453751727
 30
0.0
 10
709.0989956982335
 20
332.098757941008
 30
0.0
 10
708.9060415399357
 20
332.2208812633427
 30
0.0
 10
708.8130923821883
 20
332.2797100548676
 30
0.0
  0
LINE
  5
EF
330
1F
100
AcDbEntity
  8
0
  6
Continuous
 62
     7
370
    15
100
AcDbLine
 10
339.4130923822
 20
571.9297100549
 30
0.0
 11
709.5595568483
 21
571.9297100549
 31
0.0
  0
LINE
  5
F0
330
1F
100
AcDbEntity
  8
0
  6
Continuous
 62
     7
370
    15
100
AcDbLine
 10
339.4130923822
 20
570.7797100549
 30
0.0
 11
339.4130923822
 21
571.9297100549
 31
0.0
  0
LINE
  5
F1
330
1F
100
AcDbEntity
  8
0
  6
Continuous
 62
     7
370
    15
100
AcDbLine
 10
709.9630923822
 20
331.5332455888
 30
0.0
 11
709.9630923822
 21
571.526174521
 31
0.0
  0
LINE
  5
F2
330
1F
100
AcDbEntity
  8
0
  6
Continuous
 62
     7
370
    15
100
AcDbLine
 10
338.4630923822
 20
331.7667889487
 30
0.0
 11
338.4630923822
 21
332.0350500316
 31
0.0
  0
LINE
  5
F3
330
1F
100
AcDbEntity
  8
0
  6
Continuous
 62
     7
370
    15
100
AcDbLine
 10
338.0947951032
 20
331.5297100549
 30
0.0
 11
338.0630923822
 21
331.5297100549
 31
0.0
  0
LINE
  5
F4
330
1F
100
AcDbEntity
  8
0
  6
Continuous
 62
     7
370
    15
100
AcDbLine
 10
338.0630923822
 20
331.5297100549
 30
0.0
 11
338.0630923822
 21
331.5510413928
 31
0.0
  0
LINE
  5
F5
330
1F
100
AcDbEntity
  8
0
  6
Continuous
 62
     7
370
    15
100
AcDbLine
 10
339.2880923822
 20
571.1297100549
 30
0.0
 11
339.4130923822
 21
571.1297100549
 31
0.0
  0
LINE
  5
F6
330
1F
100
AcDbEntity
  8
0
  6
Continuous
 62
     7
370
    15
100
AcDbLine
 10
339.2880923822
 20
571.5297100549
 30
0.0
 11
339.4130923822
 21
571.5297100549
 31
0.0
  0
LINE
  5
F7
330
1F
100
AcDbEntity
  8
0
  6
Continuous
 62
     7
370
    15
100
AcDbLine
 10
308.6689275224
 20
705.5297100549
 30
0.0
 11
310.7531578477
 21
729.3525716841
 31
0.0
  0
LINE
  5
F8
330
1F
100
AcDbEntity
  8
0
  6
Continuous
 62
     7
370
    15
100
AcDbLine
 10
340.2014464977
 20
722.3030949211
 30
0.0
 11
341.6689275224
 21
705.5297100549
 31
0.0
  0
LINE
  5
F9
330
1F
100
AcDbEntity
  8
0
  6
Continuous
 62
     7
370
    15
100
AcDbLine
 10
311.998042433
 20
730.2339991025
 30
0.0
 11
339.4539416868
 21
723.1845223395
 31
0.0
  0
ARC
  5
FA
330
1F
100
AcDbEntity
  8
0
  6
Continuous
 62
     7
370
    15
100
AcDbCircle
 10
339.2052517996
 20
722.2159391783
 30
0.0
 40
1.000000000000032
100
AcDbArc
 50
5.0
 51
75.6
  0
ARC
  5
FB
330
1F
100
AcDbEntity
  8
0
  6
Continuous
 62
     7
370
    15
100
AcDbCircle
 10
311.7493525458
 20
729.2654159414
 30
0.0
 40
1.000000000000018
100
AcDbArc
 50
75.6
 51
175.0
  0
LINE
  5
FC
330
1F
100
AcDbEntity
  8
0
  6
Continuous
 62
     7
370
    15
100
AcDbLine
 10
728.107315261
 20
662.4512849722
 30
0.0
 11
734.4288120756
 21
665.3990473478
 31
0.0
  0
LINE
  5
FD
330
1F
100
AcDbEntity
  8
0
  6
Continuous
 62
     7
370
    15
100
AcDbLine
 10
728.2763625657
 20
662.0887618574
 30
0.0
 11
734.5978593803
 21
665.036524233
 31
0.0
  0
ARC
  5
FE
330
1F
100
AcDbEntity
  8
0
  6
Continuous
 62
     7
370
    15
100
AcDbCircle
 10
740.7280301303
 20
576.9297100549
 30
0.0
 40
5.400000000000091
100
AcDbArc
 50
270.0
 51
335.0
  0
ARC
  5
FF
330
1F
100
AcDbEntity
  8
0
  6
Continuous
 62
     7
370
    15
100
AcDbCircle
 10
740.7280301303
 20
576.9297100549
 30
0.0
 40
5.0
100
AcDbArc
 50
270.0
 51
335.0
  0
LINE
  5
100
330
1F
100
AcDbEntity
  8
0
  6
Continuous
 62
     7
370
    15
100
AcDbLine
 10
745.6220921803
 20
574.6475714415
 30
0.0
 11
755.9274914255
 21
596.7475714415
 31
0.0
  0
LINE
  5
101
330
1F
100
AcDbEntity
  8
0
  6
Continuous
 62
     7
370
    15
100
AcDbLine
 10
745.2595690654
 20
574.8166187462
 30
0.0
 11
755.5649683107
 21
596.9166187462
 31
0.0
  0
LINE
  5
102
330
1F
100
AcDbEntity
  8
0
  6
Continuous
 62
     7
370
    15
100
AcDbLine
 10
711.4133814343
 20
571.9297100549
 30
0.0
 11
740.7280301303
 21
571.9297100549
 31
0.0
  0
LINE
  5
103
330
1F
100
AcDbEntity
  8
0
  6
Continuous
 62
     7
370
    15
100
AcDbLine
 10
711.4133814343
 20
571.5297100549
 30
0.0
 11
740.7280301303
 21
571.5297100549
 31
0.0
  0
ARC
  5
104
330
1F
100
AcDbEntity
  8
0
  6
Continuous
 62
     7
370
    15
100
AcDbCircle
 10
728.5404989793
 20
661.5223194905
 30
0.0
 40
1.024999999999949
100
AcDbArc
 50
115.0
 51
205.0
  0
ARC
  5
105
330
1F
100
AcDbEntity
  8
0
  6
Continuous
 62
     7
370
    15
100
AcDbCircle
 10
728.5404989793
 20
661.5223194905
 30
0.0
 40
0.6250000000000882
100
AcDbArc
 50
115.0
 51
205.0
  0
LINE
  5
106
330
1F
100
AcDbEntity
  8
0
  6
Continuous
 62
     7
370
    15
100
AcDbLine
 10
735.3351198626
 20
665.8216656096
 30
0.0
 11
735.5041671673
 21
665.4591424948
 31
0.0
  0
LINE
  5
107
330
1F
100
AcDbEntity
  8
0
  6
Continuous
 62
     7
370
    15
100
AcDbLine
 10
735.5041671673
 20
665.4591424948
 30
0.0
 11
734.5978593803
 21
665.036524233
 31
0.0
  0
LINE
  5
108
330
1F
100
AcDbEntity
  8
0
  6
Continuous
 62
     7
370
    15
100
AcDbLine
 10
734.4288120756
 20
665.3990473478
 30
0.0
 11
735.3351198626
 21
665.8216656096
 31
0.0
  0
LINE
  5
109
330
1F
100
AcDbEntity
  8
0
  6
Continuous
 62
     7
370
    15
100
AcDbLine
 10
755.5649683107
 20
601.1428013636
 30
0.0
 11
727.6115334976
 21
661.0891357722
 31
0.0
  0
LINE
  5
10A
330
1F
100
AcDbEntity
  8
0
  6
Continuous
 62
     7
370
    15
100
AcDbLine
 10
755.9274914255
 20
601.3118486683
 30
0.0
 11
727.9740566124
 21
661.2581830769
 31
0.0
  0
ARC
  5
10B
330
1F
100
AcDbEntity
  8
0
  6
Continuous
 62
     7
370
    15
100
AcDbCircle
 10
751.0334293755
 20
599.0297100549
 30
0.0
 40
5.399999999999976
100
AcDbArc
 50
335.0
 51
25.0
  0
ARC
  5
10C
330
1F
100
AcDbEntity
  8
0
  6
Continuous
 62
     7
370
    15
100
AcDbCircle
 10
751.0334293755
 20
599.0297100549
 30
0.0
 40
4.999999999999964
100
AcDbArc
 50
335.0
 51
25.0
  0
LINE
  5
10D
330
1F
100
AcDbEntity
  8
0
  6
Continuous
 62
     7
370
    15
100
AcDbLine
 10
710.4133814343
 20
571.5297100549
 30
0.0
 11
710.4133814343
 21
571.9297100549
 31
0.0
  0
LINE
  5
10E
330
1F
100
AcDbEntity
  8
0
  6
Continuous
 62
     7
370
    15
100
AcDbLine
 10
710.4133814343
 20
571.9297100549
 30
0.0
 11
711.4133814343
 21
571.9297100549
 31
0.0
  0
LINE
  5
10F
330
1F
100
AcDbEntity
  8
0
  6
Continuous
 62
     7
370
    15
100
AcDbLine
 10
711.4133814343
 20
571.5297100549
 30
0.0
 11
710.4133814343
 21
571.5297100549
 31
0.0
  0
LINE
  5
110
330
1F
100
AcDbEntity
  8
0
  6
Continuous
 62
     7
370
    15
100
AcDbLine
 10
735.3600282393
 20
665.8750817958
 30
0.0
 11
735.3351198626
 21
665.8216656096
 31
0.0
  0
ARC
  5
111
330
1F
100
AcDbEntity
  8
0
  6
Continuous
 62
     7
370
    15
100
AcDbCircle
 10
734.2067685257
 20
666.1230401793
 30
0.0
 40
0.7500000000000018
100
AcDbArc
 50
295.0
 51
313.2887754012
  0
ARC
  5
112
330
1F
100
AcDbEntity
  8
0
  6
Continuous
 62
     7
370
    15
100
AcDbCircle
 10
344.0439275224
 20
696.6547100549
 30
0.0
 40
1.125
100
AcDbArc
 50
180.0
 51
270.0
  0
LINE
  5
113
330
1F
100
AcDbEntity
  8
0
  6
Continuous
 62
     7
370
    15
100
AcDbLine
 10
336.9189275224
 20
704.3797100549
 30
0.0
 11
336.9189275224
 21
704.5297100549
 31
0.0
  0
ARC
  5
114
330
1F
100
AcDbEntity
  8
0
  6
Continuous
 62
     7
370
    15
100
AcDbCircle
 10
340.7939275224
 20
702.4047100549
 30
0.0
 40
1.125000000000015
100
AcDbArc
 50
27.2964921046
 51
51.5214048668
  0
LWPOLYLINE
  5
115
330
1F
100
AcDbEntity
  8
0
  6
Continuous
 62
     7
370
    15
100
AcDbPolyline
 90
        3
 70
   128
 43
0.0
 10
342.9189275224
 20
702.4047100549
 10
342.8780962433
 20
702.8192769892
 10
342.7939275224
 20
703.1227803857
  0
ARC
  5
116
330
1F
100
AcDbEntity
  8
0
  6
Continuous
 62
     7
370
    15
100
AcDbCircle
 10
340.7939275224
 20
702.4047100549
 30
0.0
 40
2.125
100
AcDbArc
 50
61.9275130642
 51
90.0
  0
LINE
  5
117
330
1F
100
AcDbEntity
  8
0
  6
Continuous
 62
     7
370
    15
100
AcDbLine
 10
342.9189275224
 20
697.6547100549
 30
0.0
 11
342.9189275224
 21
696.6547100549
 31
0.0
  0
LINE
  5
118
330
1F
100
AcDbEntity
  8
0
  6
Continuous
 62
     7
370
    15
100
AcDbLine
 10
748.6392991466
 20
672.5127037777
 30
0.0
 11
755.8583463591
 21
687.9940004844
 31
0.0
  0
LINE
  5
119
330
1F
100
AcDbEntity
  8
0
  6
Continuous
 62
     7
370
    15
100
AcDbLine
 10
747.7329913595
 20
672.9353220395
 30
0.0
 11
754.952038572
 21
688.4166187462
 31
0.0
  0
LINE
  5
11A
330
1F
100
AcDbEntity
  8
0
  6
Continuous
 62
     7
370
    15
100
AcDbLine
 10
312.9189275224
 20
696.5297100549
 30
0.0
 11
308.5439275224
 21
696.5297100549
 31
0.0
  0
LINE
  5
11B
330
1F
100
AcDbEntity
  8
0
  6
Continuous
 62
     7
370
    15
100
AcDbLine
 10
312.9189275224
 20
695.5297100549
 30
0.0
 11
308.5439275224
 21
695.5297100549
 31
0.0
  0
ARC
  5
11C
330
1F
100
AcDbEntity
  8
0
  6
Continuous
 62
     7
370
    15
100
AcDbCircle
 10
308.5439275224
 20
703.4047100549
 30
0.0
 40
2.125000000000057
100
AcDbArc
 50
90.0
 51
180.0
  0
ARC
  5
11D
330
1F
100
AcDbEntity
  8
0
  6
Continuous
 62
     7
370
    15
100
AcDbCircle
 10
308.5439275224
 20
703.4047100549
 30
0.0
 40
1.125000000000057
100
AcDbArc
 50
90.0
 51
180.0
  0
LINE
  5
11E
330
1F
100
AcDbEntity
  8
0
  6
Continuous
 62
     7
370
    15
100
AcDbLine
 10
313.9189275224
 20
695.5297100549
 30
0.0
 11
313.9189275224
 21
696.5297100549
 31
0.0
  0
LINE
  5
11F
330
1F
100
AcDbEntity
  8
0
  6
Continuous
 62
     7
370
    15
100
AcDbLine
 10
313.9189275224
 20
695.5297100549
 30
0.0
 11
312.9189275224
 21
695.5297100549
 31
0.0
  0
LINE
  5
120
330
1F
100
AcDbEntity
  8
0
  6
Continuous
 62
     7
370
    15
100
AcDbLine
 10
313.9189275224
 20
696.5297100549
 30
0.0
 11
312.9189275224
 21
696.5297100549
 31
0.0
  0
LINE
  5
121
330
1F
100
AcDbEntity
  8
0
  6
Continuous
 62
     7
370
    15
100
AcDbLine
 10
308.5439275224
 20
705.5297100549
 30
0.0
 11
341.7939275224
 21
705.5297100549
 31
0.0
  0
LINE
  5
122
330
1F
100
AcDbEntity
  8
0
  6
Continuous
 62
     7
370
    15
100
AcDbLine
 10
308.5439275224
 20
704.5297100549
 30
0.0
 11
341.7939275224
 21
704.5297100549
 31
0.0
  0
LINE
  5
123
330
1F
100
AcDbEntity
  8
0
  6
Continuous
 62
     7
370
    15
100
AcDbLine
 10
345.0439275224
 20
696.5297100549
 30
0.0
 11
750.4204996369
 21
696.5297100549
 31
0.0
  0
LINE
  5
124
330
1F
100
AcDbEntity
  8
0
  6
Continuous
 62
     7
370
    15
100
AcDbLine
 10
345.0439275224
 20
695.5297100549
 30
0.0
 11
750.4204996369
 21
695.5297100549
 31
0.0
  0
LINE
  5
125
330
1F
100
AcDbEntity
  8
0
  6
Continuous
 62
     7
370
    15
100
AcDbLine
 10
306.4189275224
 20
697.6547100549
 30
0.0
 11
306.4189275224
 21
703.4047100549
 31
0.0
  0
LINE
  5
126
330
1F
100
AcDbEntity
  8
0
  6
Continuous
 62
     7
370
    15
100
AcDbLine
 10
307.4189275224
 20
697.6547100549
 30
0.0
 11
307.4189275224
 21
703.4047100549
 31
0.0
  0
ARC
  5
127
330
1F
100
AcDbEntity
  8
0
  6
Continuous
 62
     7
370
    15
100
AcDbCircle
 10
308.5439275224
 20
697.6547100549
 30
0.0
 40
2.125000000000114
100
AcDbArc
 50
180.0
 51
270.0
  0
ARC
  5
128
330
1F
100
AcDbEntity
  8
0
  6
Continuous
 62
     7
370
    15
100
AcDbCircle
 10
308.5439275224
 20
697.6547100549
 30
0.0
 40
1.125000000000114
100
AcDbArc
 50
180.0
 51
270.0
  0
ARC
  5
129
330
1F
100
AcDbEntity
  8
0
  6
Continuous
 62
     7
370
    15
100
AcDbCircle
 10
750.4204996369
 20
690.5297100549
 30
0.0
 40
5.000000000000068
100
AcDbArc
 50
335.0
 51
90.0
  0
ARC
  5
12A
330
1F
100
AcDbEntity
  8
0
  6
Continuous
 62
     7
370
    15
100
AcDbCircle
 10
750.4204996369
 20
690.5297100549
 30
0.0
 40
6.000000000000129
100
AcDbArc
 50
335.0
 51
90.0
  0
LINE
  5
12B
330
1F
100
AcDbEntity
  8
0
  6
Continuous
 62
     7
370
    15
100
AcDbLine
 10
342.9189275224
 20
697.6547100549
 30
0.0
 11
342.9189275224
 21
703.4047100549
 31
0.0
  0
LINE
  5
12C
330
1F
100
AcDbEntity
  8
0
  6
Continuous
 62
     7
370
    15
100
AcDbLine
 10
343.9189275224
 20
697.6547100549
 30
0.0
 11
343.9189275224
 21
703.4047100549
 31
0.0
  0
ARC
  5
12D
330
1F
100
AcDbEntity
  8
0
  6
Continuous
 62
     7
370
    15
100
AcDbCircle
 10
341.7939275224
 20
703.4047100549
 30
0.0
 40
1.125
100
AcDbArc
 50
0.0
 51
90.0
  0
ARC
  5
12E
330
1F
100
AcDbEntity
  8
0
  6
Continuous
 62
     7
370
    15
100
AcDbCircle
 10
341.7939275224
 20
703.4047100549
 30
0.0
 40
2.125
100
AcDbArc
 50
0.0
 51
90.0
  0
LINE
  5
12F
330
1F
100
AcDbEntity
  8
0
  6
Continuous
 62
     7
370
    15
100
AcDbLine
 10
745.7371619948
 20
669.6105666259
 30
0.0
 11
736.9639677317
 21
665.5195589546
 31
0.0
  0
LINE
  5
130
330
1F
100
AcDbEntity
  8
0
  6
Continuous
 62
     7
370
    15
100
AcDbLine
 10
745.3145437331
 20
670.516874413
 30
0.0
 11
736.54134947
 21
666.4258667416
 31
0.0
  0
LINE
  5
131
330
1F
100
AcDbEntity
  8
0
  6
Continuous
 62
     7
370
    15
100
AcDbLine
 10
736.0576599447
 20
665.0969406928
 30
0.0
 11
735.6350416829
 21
666.0032484799
 31
0.0
  0
LINE
  5
132
330
1F
100
AcDbEntity
  8
0
  6
Continuous
 62
     7
370
    15
100
AcDbLine
 10
736.9639677317
 20
665.5195589546
 30
0.0
 11
736.0576599447
 21
665.0969406928
 31
0.0
  0
LINE
  5
133
330
1F
100
AcDbEntity
  8
0
  6
Continuous
 62
     7
370
    15
100
AcDbLine
 10
736.54134947
 20
666.4258667416
 30
0.0
 11
735.6350416829
 21
666.0032484799
 31
0.0
  0
ARC
  5
134
330
1F
100
AcDbEntity
  8
0
  6
Continuous
 62
     7
370
    15
100
AcDbCircle
 10
345.0439275224
 20
697.6547100549
 30
0.0
 40
2.125
100
AcDbArc
 50
180.0
 51
270.0
  0
ARC
  5
135
330
1F
100
AcDbEntity
  8
0
  6
Continuous
 62
     7
370
    15
100
AcDbCircle
 10
345.0439275224
 20
697.6547100549
 30
0.0
 40
1.125
100
AcDbArc
 50
180.0
 51
270.0
  0
ARC
  5
136
330
1F
100
AcDbEntity
  8
0
  6
Continuous
 62
     7
370
    15
100
AcDbCircle
 10
743.2014524244
 20
675.0484133482
 30
0.0
 40
5.000000000000012
100
AcDbArc
 50
295.0
 51
335.0
  0
ARC
  5
137
330
1F
100
AcDbEntity
  8
0
  6
Continuous
 62
     7
370
    15
100
AcDbCircle
 10
743.2014524244
 20
675.0484133482
 30
0.0
 40
6.000000000000081
100
AcDbArc
 50
295.0
 51
335.0
  0
ARC
  5
138
330
1F
100
AcDbEntity
  8
0
  6
Continuous
 62
     7
370
    15
100
AcDbCircle
 10
704.972724687
 20
697.5297100549
 30
0.0
 40
1.0
100
AcDbArc
 50
243.8888439243
 51
270.0
  0
ARC
  5
139
330
1F
100
AcDbEntity
  8
0
  6
Continuous
 62
     7
370
    15
100
AcDbCircle
 10
377.3651303578
 20
697.5297100549
 30
0.0
 40
1.0
100
AcDbArc
 50
270.0
 51
296.1111560751
  0
ARC
  5
13A
330
1F
100
AcDbEntity
  8
0
  6
Continuous
 62
     7
370
    15
100
AcDbCircle
 10
552.3651303578
 20
697.5297100549
 30
0.0
 40
1.0
100
AcDbArc
 50
270.0
 51
296.1111560757
  0
ARC
  5
13B
330
1F
100
AcDbEntity
  8
0
  6
Continuous
 62
     7
370
    15
100
AcDbCircle
 10
529.972724687
 20
697.5297100549
 30
0.0
 40
1.0
100
AcDbArc
 50
243.8888439249
 51
270.0
  0
LINE
  5
13C
330
1F
100
AcDbEntity
  8
0
  6
Continuous
 62
     7
370
    15
100
AcDbLine
 10
321.3909670647
 20
711.2797100507
 30
0.0
 11
328.890966613
 21
711.2797100507
 31
0.0
  0
LINE
  5
13D
330
1F
100
AcDbEntity
  8
0
  6
Continuous
 62
     7
370
    15
100
AcDbLine
 10
333.6407802156
 20
563.4297100549
 30
0.0
 11
333.6407802156
 21
565.3797100549
 31
0.0
  0
LINE
  5
13E
330
1F
100
AcDbEntity
  8
0
  6
Continuous
 62
     7
370
    15
100
AcDbLine
 10
332.4943898673
 20
563.4297100549
 30
0.0
 11
333.6407802156
 21
563.4297100549
 31
0.0
  0
LINE
  5
13F
330
1F
100
AcDbEntity
  8
0
  6
Continuous
 62
     7
370
    15
100
AcDbLine
 10
332.4969153801
 20
565.3797100549
 30
0.0
 11
333.6407802156
 21
565.3797100549
 31
0.0
  0
LINE
  5
140
330
1F
100
AcDbEntity
  8
0
  6
Continuous
 62
     7
370
    15
100
AcDbLine
 10
319.6854045488
 20
565.3797100549
 30
0.0
 11
319.6854045488
 21
563.4297100549
 31
0.0
  0
LINE
  5
141
330
1F
100
AcDbEntity
  8
0
  6
Continuous
 62
     7
370
    15
100
AcDbLine
 10
319.6854045488
 20
563.4297100549
 30
0.0
 11
323.8317948971
 21
563.4297100549
 31
0.0
  0
LINE
  5
142
330
1F
100
AcDbEntity
  8
0
  6
Continuous
 62
     7
370
    15
100
AcDbLine
 10
319.6854045488
 20
565.3797100549
 30
0.0
 11
323.8292693842
 21
565.3797100549
 31
0.0
  0
LINE
  5
143
330
1F
100
AcDbEntity
  8
0
  6
Continuous
 62
     7
370
    15
100
AcDbLine
 10
331.2947764711
 20
570.3297100549
 30
0.0
 11
331.2947764711
 21
571.9297100549
 31
0.0
  0
LINE
  5
144
330
1F
100
AcDbEntity
  8
0
  6
Continuous
 62
     7
370
    15
100
AcDbLine
 10
330.8883792674
 20
570.3297100549
 30
0.0
 11
331.2947764711
 21
570.3297100549
 31
0.0
  0
LINE
  5
145
330
1F
100
AcDbEntity
  8
0
  6
Continuous
 62
     7
370
    15
100
AcDbLine
 10
322.9360795032
 20
570.3297100549
 30
0.0
 11
322.9360795032
 21
571.9297100549
 31
0.0
  0
LINE
  5
146
330
1F
100
AcDbEntity
  8
0
  6
Continuous
 62
     7
370
    15
100
AcDbLine
 10
322.0314082933
 20
571.9297100549
 30
0.0
 11
322.0314082933
 21
570.3297100549
 31
0.0
  0
LINE
  5
147
330
1F
100
AcDbEntity
  8
0
  6
Continuous
 62
     7
370
    15
100
AcDbLine
 10
322.0314082933
 20
570.3297100549
 30
0.0
 11
322.9360795032
 21
570.3297100549
 31
0.0
  0
LINE
  5
148
330
1F
100
AcDbEntity
  8
0
  6
Continuous
 62
     7
370
    15
100
AcDbLine
 10
322.9360795032
 20
570.3297100549
 30
0.0
 11
325.437805497
 21
570.3297100549
 31
0.0
  0
LINE
  5
149
330
1F
100
AcDbEntity
  8
0
  6
Continuous
 62
     7
370
    15
100
AcDbLine
 10
319.2380923822
 20
566.5797100549
 30
0.0
 11
323.5850323077
 21
566.5797100549
 31
0.0
  0
LINE
  5
14A
330
1F
100
AcDbEntity
  8
0
  6
Continuous
 62
     7
370
    15
100
AcDbLine
 10
332.7411524566
 20
566.5797100549
 30
0.0
 11
334.0880923822
 21
566.5797100549
 31
0.0
  0
LINE
  5
14B
330
1F
100
AcDbEntity
  8
0
  6
Continuous
 62
     7
370
    15
100
AcDbLine
 10
331.5880923822
 20
556.3297100549
 30
0.0
 11
321.738092687
 21
556.3297100549
 31
0.0
  0
LINE
  5
14C
330
1F
100
AcDbEntity
  8
0
  6
Continuous
 62
     7
370
    15
100
AcDbLine
 10
319.6630923822
 20
569.3297100549
 30
0.0
 11
325.6630923822
 21
569.3297100549
 31
0.0
  0
LINE
  5
14D
330
1F
100
AcDbEntity
  8
0
  6
Continuous
 62
     7
370
    15
100
AcDbLine
 10
330.6630923822
 20
569.3297100549
 30
0.0
 11
333.6630923822
 21
569.3297100549
 31
0.0
  0
LINE
  5
14E
330
1F
100
AcDbEntity
  8
0
  6
Continuous
 62
     7
370
    15
100
AcDbLine
 10
335.0217893501
 20
571.9297100549
 30
0.0
 11
335.0217893501
 21
570.3297100549
 31
0.0
  0
LINE
  5
14F
330
1F
100
AcDbEntity
  8
0
  6
Continuous
 62
     7
370
    15
100
AcDbLine
 10
331.2947764711
 20
570.3297100549
 30
0.0
 11
335.0217893501
 21
570.3297100549
 31
0.0
  0
LINE
  5
150
330
1F
100
AcDbEntity
  8
0
  6
Continuous
 62
     7
370
    15
100
AcDbLine
 10
318.3043954143
 20
570.3297100549
 30
0.0
 11
318.3043954143
 21
571.9297100549
 31
0.0
  0
LINE
  5
151
330
1F
100
AcDbEntity
  8
0
  6
Continuous
 62
     7
370
    15
100
AcDbLine
 10
318.3043954143
 20
570.3297100549
 30
0.0
 11
322.0314082933
 21
570.3297100549
 31
0.0
  0
LINE
  5
152
330
1F
100
AcDbEntity
  8
0
  6
Continuous
 62
     7
370
    15
100
AcDbLine
 10
319.1630923822
 20
563.4297100549
 30
0.0
 11
319.1630923822
 21
565.3797100549
 31
0.0
  0
LINE
  5
153
330
1F
100
AcDbEntity
  8
0
  6
Continuous
 62
     7
370
    15
100
AcDbLine
 10
319.1630923822
 20
563.4297100549
 30
0.0
 11
319.6854045488
 21
563.4297100549
 31
0.0
  0
LINE
  5
154
330
1F
100
AcDbEntity
  8
0
  6
Continuous
 62
     7
370
    15
100
AcDbLine
 10
319.1630923822
 20
565.3797100549
 30
0.0
 11
319.6854045488
 21
565.3797100549
 31
0.0
  0
LINE
  5
155
330
1F
100
AcDbEntity
  8
0
  6
Continuous
 62
     7
370
    15
100
AcDbLine
 10
334.1630923822
 20
565.3797100549
 30
0.0
 11
334.1630923822
 21
563.4297100549
 31
0.0
  0
LINE
  5
156
330
1F
100
AcDbEntity
  8
0
  6
Continuous
 62
     7
370
    15
100
AcDbLine
 10
333.6407802156
 20
563.4297100549
 30
0.0
 11
334.1630923822
 21
563.4297100549
 31
0.0
  0
LINE
  5
157
330
1F
100
AcDbEntity
  8
0
  6
Continuous
 62
     7
370
    15
100
AcDbLine
 10
333.6407802156
 20
565.3797100549
 30
0.0
 11
334.1630923822
 21
565.3797100549
 31
0.0
  0
LINE
  5
158
330
1F
100
AcDbEntity
  8
0
  6
Continuous
 62
     7
370
    15
100
AcDbLine
 10
318.2880923822
 20
570.3297100549
 30
0.0
 11
318.3043954143
 21
570.3297100549
 31
0.0
  0
LINE
  5
159
330
1F
100
AcDbEntity
  8
0
  6
Continuous
 62
     7
370
    15
100
AcDbLine
 10
335.0217893501
 20
570.3297100549
 30
0.0
 11
335.0380923822
 21
570.3297100549
 31
0.0
  0
LINE
  5
15A
330
1F
100
AcDbEntity
  8
0
  6
Continuous
 62
     7
370
    15
100
AcDbLine
 10
689.3079996376
 20
704.1208119478
 30
0.0
 11
568.0329996369
 21
704.1208119478
 31
0.0
  0
LINE
  5
15B
330
1F
100
AcDbEntity
  8
0
  6
Continuous
 62
     7
370
    15
100
AcDbLine
 10
703.6704996369
 20
704.1208119478
 30
0.0
 11
703.6704996369
 21
702.1270220669
 31
0.0
  0
LINE
  5
15C
330
1F
100
AcDbEntity
  8
0
  6
Continuous
 62
     7
370
    15
100
AcDbLine
 10
689.3079996376
 20
704.1208119478
 30
0.0
 11
703.6704996369
 21
704.1208119478
 31
0.0
  0
LINE
  5
15D
330
1F
100
AcDbEntity
  8
0
  6
Continuous
 62
     7
370
    15
100
AcDbLine
 10
689.3079996383
 20
702.1208119478
 30
0.0
 11
703.4722274355
 21
702.1208119478
 31
0.0
  0
LINE
  5
15E
330
1F
100
AcDbEntity
  8
0
  6
Continuous
 62
     7
370
    15
100
AcDbLine
 10
553.6704996369
 20
702.1270220669
 30
0.0
 11
553.6704996369
 21
704.1208119478
 31
0.0
  0
LINE
  5
15F
330
1F
100
AcDbEntity
  8
0
  6
Continuous
 62
     7
370
    15
100
AcDbLine
 10
553.6704996369
 20
704.1208119478
 30
0.0
 11
568.0329996369
 21
704.1208119478
 31
0.0
  0
LINE
  5
160
330
1F
100
AcDbEntity
  8
0
  6
Continuous
 62
     7
370
    15
100
AcDbLine
 10
553.8687718382
 20
702.1208119478
 30
0.0
 11
568.0329996376
 21
702.1208119478
 31
0.0
  0
LINE
  5
161
330
1F
100
AcDbEntity
  8
0
  6
Continuous
 62
     7
370
    15
100
AcDbLine
 10
689.3079996224
 20
704.8708119478
 30
0.0
 11
702.9204996369
 21
704.8708119478
 31
0.0
  0
LINE
  5
162
330
1F
100
AcDbEntity
  8
0
  6
Continuous
 62
     7
370
    15
100
AcDbLine
 10
703.6704996369
 20
704.1208119478
 30
0.0
 11
702.9204996369
 21
704.8708119478
 31
0.0
  0
LINE
  5
163
330
1F
100
AcDbEntity
  8
0
  6
Continuous
 62
     7
370
    15
100
AcDbLine
 10
568.0329996492
 20
704.8708119478
 30
0.0
 11
689.3079996224
 21
704.8708119478
 31
0.0
  0
LINE
  5
164
330
1F
100
AcDbEntity
  8
0
  6
Continuous
 62
     7
370
    15
100
AcDbLine
 10
553.6704996369
 20
704.1208119478
 30
0.0
 11
554.4204996369
 21
704.8708119478
 31
0.0
  0
LINE
  5
165
330
1F
100
AcDbEntity
  8
0
  6
Continuous
 62
     7
370
    15
100
AcDbLine
 10
554.4204996369
 20
704.8708119478
 30
0.0
 11
568.0329996492
 21
704.8708119478
 31
0.0
  0
LINE
  5
166
330
1F
100
AcDbEntity
  8
0
  6
Continuous
 62
     7
370
    15
100
AcDbLine
 10
528.6704996368
 20
704.1208119478
 30
0.0
 11
528.6704996368
 21
702.1270220667
 31
0.0
  0
LINE
  5
167
330
1F
100
AcDbEntity
  8
0
  6
Continuous
 62
     7
370
    15
100
AcDbLine
 10
514.3079996355
 20
702.1208119478
 30
0.0
 11
528.4722274465
 21
702.1208119478
 31
0.0
  0
LINE
  5
168
330
1F
100
AcDbEntity
  8
0
  6
Continuous
 62
     7
370
    15
100
AcDbLine
 10
514.3079996368
 20
704.1208119478
 30
0.0
 11
528.6704996368
 21
704.1208119478
 31
0.0
  0
LINE
  5
169
330
1F
100
AcDbEntity
  8
0
  6
Continuous
 62
     7
370
    15
100
AcDbLine
 10
514.3079996258
 20
704.8708119478
 30
0.0
 11
393.0329996492
 21
704.8708119478
 31
0.0
  0
LINE
  5
16A
330
1F
100
AcDbEntity
  8
0
  6
Continuous
 62
     7
370
    15
100
AcDbLine
 10
393.0329996355
 20
704.1208119478
 30
0.0
 11
514.3079996368
 21
704.1208119478
 31
0.0
  0
LINE
  5
16B
330
1F
100
AcDbEntity
  8
0
  6
Continuous
 62
     7
370
    15
100
AcDbLine
 10
514.3079996258
 20
704.8708119478
 30
0.0
 11
527.9204996368
 21
704.8708119478
 31
0.0
  0
LINE
  5
16C
330
1F
100
AcDbEntity
  8
0
  6
Continuous
 62
     7
370
    15
100
AcDbLine
 10
528.6704996368
 20
704.1208119478
 30
0.0
 11
527.9204996368
 21
704.8708119478
 31
0.0
  0
LINE
  5
16D
330
1F
100
AcDbEntity
  8
0
  6
Continuous
 62
     7
370
    15
100
AcDbLine
 10
378.6704996368
 20
704.1208119478
 30
0.0
 11
393.0329996355
 21
704.1208119478
 31
0.0
  0
LINE
  5
16E
330
1F
100
AcDbEntity
  8
0
  6
Continuous
 62
     7
370
    15
100
AcDbLine
 10
378.6704996368
 20
704.1208119478
 30
0.0
 11
379.4204996368
 21
704.8708119478
 31
0.0
  0
LINE
  5
16F
330
1F
100
AcDbEntity
  8
0
  6
Continuous
 62
     7
370
    15
100
AcDbLine
 10
379.4204996368
 20
704.8708119478
 30
0.0
 11
393.0329996492
 21
704.8708119478
 31
0.0
  0
LINE
  5
170
330
1F
100
AcDbEntity
  8
0
  6
Continuous
 62
     7
370
    15
100
AcDbLine
 10
378.8687718382
 20
702.1208119478
 30
0.0
 11
393.0329996355
 21
702.1208119478
 31
0.0
  0
LINE
  5
171
330
1F
100
AcDbEntity
  8
0
  6
Continuous
 62
     7
370
    15
100
AcDbLine
 10
378.6704996368
 20
702.1270220669
 30
0.0
 11
378.6704996368
 21
704.1208119478
 31
0.0
  0
LINE
  5
172
330
1F
100
AcDbEntity
  8
0
  6
Continuous
 62
     7
370
    15
100
AcDbLine
 10
706.0454996369
 20
696.6804787423
 30
0.0
 11
705.6989058129
 21
696.6317681568
 31
0.0
  0
LINE
  5
173
330
1F
100
AcDbEntity
  8
0
  6
Continuous
 62
     7
370
    15
100
AcDbLine
 10
705.6989058129
 20
696.6317681568
 30
0.0
 11
688.8204996369
 21
696.6317681568
 31
0.0
  0
LINE
  5
174
330
1F
100
AcDbEntity
  8
0
  6
Continuous
 62
     7
370
    15
100
AcDbLine
 10
706.0454996369
 20
696.6804787423
 30
0.0
 11
688.8204996352
 21
696.6804787423
 31
0.0
  0
LINE
  5
175
330
1F
100
AcDbEntity
  8
0
  6
Continuous
 62
     7
370
    15
100
AcDbLine
 10
705.521333534
 20
700.4101143595
 30
0.0
 11
706.0454996369
 21
696.6804787423
 31
0.0
  0
LINE
  5
176
330
1F
100
AcDbEntity
  8
0
  6
Continuous
 62
     7
370
    15
100
AcDbLine
 10
568.5204996302
 20
696.6804787423
 30
0.0
 11
688.8204996352
 21
696.6804787423
 31
0.0
  0
LINE
  5
177
330
1F
100
AcDbEntity
  8
0
  6
Continuous
 62
     7
370
    15
100
AcDbLine
 10
688.8204996369
 20
696.6317681568
 30
0.0
 11
568.5204996385
 21
696.6317681568
 31
0.0
  0
LINE
  5
178
330
1F
100
AcDbEntity
  8
0
  6
Continuous
 62
     7
370
    15
100
AcDbLine
 10
568.5204996302
 20
696.6804787423
 30
0.0
 11
551.2954996369
 21
696.6804787423
 31
0.0
  0
LINE
  5
179
330
1F
100
AcDbEntity
  8
0
  6
Continuous
 62
     7
370
    15
100
AcDbLine
 10
551.2954996369
 20
696.6804787423
 30
0.0
 11
551.8196657395
 21
700.4101143595
 31
0.0
  0
LINE
  5
17A
330
1F
100
AcDbEntity
  8
0
  6
Continuous
 62
     7
370
    15
100
AcDbLine
 10
568.5204996385
 20
696.6317681568
 30
0.0
 11
551.6420934609
 21
696.6317681568
 31
0.0
  0
LINE
  5
17B
330
1F
100
AcDbEntity
  8
0
  6
Continuous
 62
     7
370
    15
100
AcDbLine
 10
551.6420934609
 20
696.6317681568
 30
0.0
 11
551.2954996369
 21
696.6804787423
 31
0.0
  0
ARC
  5
17C
330
1F
100
AcDbEntity
  8
0
  6
Continuous
 62
     7
370
    15
100
AcDbCircle
 10
703.5407973964
 20
700.1317681568
 30
0.0
 40
2.000000000261959
100
AcDbArc
 50
8.0000000201
 51
86.2816950747
  0
ARC
  5
17D
330
1F
100
AcDbEntity
  8
0
  6
Continuous
 62
     7
370
    15
100
AcDbCircle
 10
553.8002018769
 20
700.1317681568
 30
0.0
 40
1.999999999999989
100
AcDbArc
 50
93.718304911
 51
171.9999999772
  0
LINE
  5
17E
330
1F
100
AcDbEntity
  8
0
  6
Continuous
 62
     7
370
    15
100
AcDbLine
 10
513.8204996368
 20
696.6804787423
 30
0.0
 11
393.5204996377
 21
696.6804787423
 31
0.0
  0
LINE
  5
17F
330
1F
100
AcDbEntity
  8
0
  6
Continuous
 62
     7
370
    15
100
AcDbLine
 10
530.5213335343
 20
700.410114359
 30
0.0
 11
531.0454996368
 21
696.6804787423
 31
0.0
  0
LINE
  5
180
330
1F
100
AcDbEntity
  8
0
  6
Continuous
 62
     7
370
    15
100
AcDbLine
 10
513.8204996368
 20
696.6804787423
 30
0.0
 11
531.0454996368
 21
696.6804787423
 31
0.0
  0
LINE
  5
181
330
1F
100
AcDbEntity
  8
0
  6
Continuous
 62
     7
370
    15
100
AcDbLine
 10
393.5204996377
 20
696.6317681568
 30
0.0
 11
513.8204996368
 21
696.6317681568
 31
0.0
  0
LINE
  5
182
330
1F
100
AcDbEntity
  8
0
  6
Continuous
 62
     7
370
    15
100
AcDbLine
 10
531.0454996368
 20
696.6804787423
 30
0.0
 11
530.6989058128
 21
696.6317681568
 31
0.0
  0
LINE
  5
183
330
1F
100
AcDbEntity
  8
0
  6
Continuous
 62
     7
370
    15
100
AcDbLine
 10
530.6989058128
 20
696.6317681568
 30
0.0
 11
513.8204996368
 21
696.6317681568
 31
0.0
  0
LINE
  5
184
330
1F
100
AcDbEntity
  8
0
  6
Continuous
 62
     7
370
    15
100
AcDbLine
 10
393.5204996377
 20
696.6804787423
 30
0.0
 11
376.2954996368
 21
696.6804787423
 31
0.0
  0
LINE
  5
185
330
1F
100
AcDbEntity
  8
0
  6
Continuous
 62
     7
370
    15
100
AcDbLine
 10
376.2954996368
 20
696.6804787423
 30
0.0
 11
376.8196657397
 21
700.4101143588
 31
0.0
  0
LINE
  5
186
330
1F
100
AcDbEntity
  8
0
  6
Continuous
 62
     7
370
    15
100
AcDbLine
 10
393.5204996377
 20
696.6317681568
 30
0.0
 11
376.6420934608
 21
696.6317681568
 31
0.0
  0
LINE
  5
187
330
1F
100
AcDbEntity
  8
0
  6
Continuous
 62
     7
370
    15
100
AcDbLine
 10
376.6420934608
 20
696.6317681568
 30
0.0
 11
376.2954996368
 21
696.6804787423
 31
0.0
  0
ARC
  5
188
330
1F
100
AcDbEntity
  8
0
  6
Continuous
 62
     7
370
    15
100
AcDbCircle
 10
528.5407973969
 20
700.131768157
 30
0.0
 40
1.999999999870089
100
AcDbArc
 50
8.000000003
 51
86.2816950912
  0
ARC
  5
189
330
1F
100
AcDbEntity
  8
0
  6
Continuous
 62
     7
370
    15
100
AcDbCircle
 10
378.8002018772
 20
700.1317681569
 30
0.0
 40
2.000000000078646
100
AcDbArc
 50
93.7183049226
 51
172.0000000024
  0
LINE
  5
18A
330
1F
100
AcDbEntity
  8
0
  6
Continuous
 62
     7
370
    15
100
AcDbLine
 10
738.7553018039
 20
644.0532321099
 30
0.0
 11
749.6777851692
 21
620.629890944
 31
0.0
  0
SPLINE
  5
18B
330
1F
100
AcDbEntity
  8
0
  6
Continuous
 62
     7
370
    15
100
AcDbSpline
210
0.0
220
0.0
230
1.0
 70
    24
 71
     3
 72
    11
 73
     7
 74
     0
 42
0.00000001
 43
0.00000001
 12
1.0
 22
0.0
 32
0.0
 13
1.0
 23
0.0
 33
0.0
 40
0.0
 40
0.0
 40
0.0
 40
0.0
 40
0.1499516226907322
 40
0.4331749578253798
 40
0.7165923401617073
 40
1.0
 40
1.0
 40
1.0
 40
1.0
 10
750.4613700797731
 20
618.949487680356
 30
0.0
 10
750.4113084170257
 20
619.05684526257
 30
0.0
 10
750.266692051693
 20
619.366976058845
 30
0.0
 10
750.0385229986703
 20
619.8562861720981
 30
0.0
 10
749.8096397558942
 20
620.3471278702201
 30
0.0
 10
749.7217361954811
 20
620.5356376638633
 30
0.0
 10
749.67778516916
 20
620.6298909439727
 30
0.0
  0
SPLINE
  5
18C
330
1F
100
AcDbEntity
  8
0
  6
Continuous
 62
     7
370
    15
100
AcDbSpline
210
0.0
220
0.0
230
1.0
 70
    24
 71
     3
 72
    11
 73
     7
 74
     0
 42
0.00000001
 43
0.00000001
 12
1.0
 22
0.0
 32
0.0
 13
1.0
 23
0.0
 33
0.0
 40
0.0
 40
0.0
 40
0.0
 40
0.0
 40
0.1499515950756835
 40
0.4331749432231907
 40
0.7165923323728053
 40
1.0
 40
1.0
 40
1.0
 40
1.0
 10
738.7553018039143
 20
644.0532321098917
 30
0.0
 10
738.7342225462096
 20
644.0984367239188
 30
0.0
 10
738.673329520998
 20
644.2290222378957
 30
0.0
 10
738.5083612665471
 20
644.5827978012298
 30
0.0
 10
738.2566972395168
 20
645.1224930488399
 30
0.0
 10
738.0667092558889
 20
645.5299235945433
 30
0.0
 10
737.9717168933012
 20
645.7336353735083
 30
0.0
  0
LINE
  5
18D
330
1F
100
AcDbEntity
  8
0
  6
Continuous
 62
     7
370
    15
100
AcDbLine
 10
731.4095941826
 20
653.9525189749
 30
0.0
 11
731.6174315433
 21
654.0364907193
 31
0.0
  0
SPLINE
  5
18E
330
1F
100
AcDbEntity
  8
0
  6
Continuous
 62
     7
370
    15
100
AcDbSpline
210
0.0
220
0.0
230
1.0
 70
     8
 71
     3
 72
    14
 73
    10
 74
     0
 42
0.00000001
 43
0.00000001
 12
1.0
 22
0.0
 32
0.0
 13
1.0
 23
0.0
 33
0.0
 40
0.0
 40
0.0
 40
0.0
 40
0.0
 40
0.0000064140457809
 40
0.0730558909547926
 40
0.2154935957733499
 40
0.4037789030075261
 40
0.5887468703998078
 40
0.8882363243876863
 40
1.0
 40
1.0
 40
1.0
 40
1.0
 10
731.6174315433326
 20
654.0364907193153
 30
0.0
 10
731.6174408133173
 20
654.0364944645662
 30
0.0
 10
731.7230258097247
 20
654.0791528196919
 30
0.0
 10
732.048533277393
 20
654.1722238809564
 30
0.0
 10
732.6874987287125
 20
654.1751565309412
 30
0.0
 10
733.4733047153638
 20
653.93813733327
 30
0.0
 10
734.3191402619043
 20
653.2847213933445
 30
0.0
 10
734.8155490180797
 20
652.4789286759542
 30
0.0
 10
735.0931127245035
 20
651.9018791585592
 30
0.0
 10
735.1685444666927
 20
651.7450580417519
 30
0.0
  0
SPLINE
  5
18F
330
1F
100
AcDbEntity
  8
0
  6
Continuous
 62
     7
370
    15
100
AcDbSpline
210
0.0
220
0.0
230
1.0
 70
     8
 71
     3
 72
    15
 73
    11
 74
     0
 42
0.00000001
 43
0.00000001
 12
1.0
 22
0.0
 32
0.0
 13
1.0
 23
0.0
 33
0.0
 40
0.0
 40
0.0
 40
0.0
 40
0.0
 40
0.0125258353877716
 40
0.2274813526119559
 40
0.4424404199769276
 40
0.4999991763207202
 40
0.7148755009569703
 40
0.9297495265588359
 40
0.987474164614663
 40
1.0
 40
1.0
 40
1.0
 40
1.0
 10
731.831635717225
 20
653.0474542436583
 30
0.0
 10
731.8290344037921
 20
653.0534329626228
 30
0.0
 10
731.7817920219492
 20
653.1620123136056
 30
0.0
 10
731.6885465955521
 20
653.3735193475007
 30
0.0
 10
731.5961806408557
 20
653.5773782534089
 30
0.0
 10
731.5173823732781
 20
653.7473589567858
 30
0.0
 10
731.4524711972157
 20
653.8827898545273
 30
0.0
 10
731.4182447491293
 20
653.9451709853329
 30
0.0
 10
731.4107481935746
 20
653.9526958098163
 30
0.0
 10
731.4097708940728
 20
653.952546576114
 30
0.0
 10
731.4095966391237
 20
653.952519967371
 30
0.0
  0
SPLINE
  5
190
330
1F
100
AcDbEntity
  8
0
  6
Continuous
 62
     7
370
    15
100
AcDbSpline
210
0.0
220
0.0
230
1.0
 70
     8
 71
     3
 72
     9
 73
     5
 74
     0
 42
0.00000001
 43
0.00000001
 12
1.0
 22
0.0
 32
0.0
 13
1.0
 23
0.0
 33
0.0
 40
0.0
 40
0.0
 40
0.0
 40
0.0
 40
0.0000220488581742
 40
1.0
 40
1.0
 40
1.0
 40
1.0
 10
756.4341794694369
 20
606.1407566093376
 30
0.0
 10
756.4341836956175
 20
606.1407475462585
 30
0.0
 10
756.625857138923
 20
605.7297022620763
 30
0.0
 10
756.7713261690965
 20
605.2991551406581
 30
0.0
 10
756.9167919918439
 20
604.868617512312
 30
0.0
  0
LINE
  5
191
330
1F
100
AcDbEntity
  8
0
  6
Continuous
 62
     7
370
    15
100
AcDbLine
 10
731.4095941826
 20
653.9525189749
 30
0.0
 11
731.3853174754
 21
653.9427105485
 31
0.0
  0
LINE
  5
192
330
1F
100
AcDbEntity
  8
0
  6
Continuous
 62
     7
370
    15
100
AcDbLine
 10
735.1685444667
 20
651.7450580418
 30
0.0
 11
737.9717168933
 21
645.7336353735
 31
0.0
  0
LINE
  5
193
330
1F
100
AcDbEntity
  8
0
  6
Continuous
 62
     7
370
    15
100
AcDbLine
 10
750.4613700798
 20
618.9494876804
 30
0.0
 11
756.4341794694
 21
606.1407566093
 31
0.0
  0
SPLINE
  5
194
330
1F
100
AcDbEntity
  8
0
  6
Continuous
 62
     7
370
    15
100
AcDbSpline
210
0.0
220
0.0
230
1.0
 70
     8
 71
     3
 72
    20
 73
    16
 74
     0
 42
0.00000001
 43
0.00000001
 12
1.0
 22
0.0
 32
0.0
 13
1.0
 23
0.0
 33
0.0
 40
0.0
 40
0.0
 40
0.0
 40
0.0
 40
0.2070577373168151
 40
0.4203770502760675
 40
0.701116302556814
 40
0.8834527988430881
 40
0.9282286404934951
 40
0.9524788585968957
 40
0.9675018207221351
 40
0.9773827146382406
 40
0.9840938553685376
 40
0.988739363909931
 40
0.9919933949590765
 40
0.9977340800222612
 40
1.0
 40
1.0
 40
1.0
 40
1.0
 10
756.916791991844
 20
604.868617512312
 30
0.0
 10
756.9692246586507
 20
604.624060276182
 30
0.0
 10
757.0756755940077
 20
604.1275502163298
 30
0.0
 10
756.9764599396954
 20
603.2731714729094
 30
0.0
 10
756.6594164926959
 20
602.6247645620966
 30
0.0
 10
756.324039734893
 20
602.2409209986524
 30
0.0
 10
756.1188638596424
 20
602.0801579402982
 30
0.0
 10
756.0461223599262
 20
602.0301102007121
 30
0.0
 10
756.0021742897188
 20
602.0021744092378
 30
0.0
 10
755.9733368986398
 20
601.9847885426527
 30
0.0
 10
755.9537112493313
 20
601.9733806756274
 30
0.0
 10
755.9400912348652
 20
601.9656634276274
 30
0.0
 10
755.9272985602312
 20
601.9585467802985
 30
0.0
 10
755.916669859244
 20
601.9527498967271
 30
0.0
 10
755.9090607712624
 20
601.9486905693261
 30
0.0
 10
755.9069073511322
 20
601.947541753941
 30
0.0
  0
SPLINE
  5
195
330
1F
100
AcDbEntity
  8
0
  6
Continuous
 62
     7
370
    15
100
AcDbSpline
210
0.0
220
0.0
230
1.0
 70
     8
 71
     3
 72
    10
 73
     6
 74
     0
 42
0.00000001
 43
0.00000001
 12
1.0
 22
0.0
 32
0.0
 13
1.0
 23
0.0
 33
0.0
 40
0.0
 40
0.0
 40
0.0
 40
0.0
 40
0.4527378322262541
 40
0.9055954617472209
 40
1.0
 40
1.0
 40
1.0
 40
1.0
 10
756.9778328629363
 20
603.4701565623923
 30
0.0
 10
756.9816443863602
 20
603.4964062744118
 30
0.0
 10
756.9892684417616
 20
603.5489126442909
 30
0.0
 10
757.0509489504309
 20
603.79024707378
 30
0.0
 10
757.0299386843266
 20
604.0284699640094
 30
0.0
 10
757.0263143437692
 20
604.0695642023429
 30
0.0
  0
SPLINE
  5
196
330
1F
100
AcDbEntity
  8
0
  6
Continuous
 62
     7
370
    15
100
AcDbSpline
210
0.0
220
0.0
230
1.0
 70
     8
 71
     3
 72
    12
 73
     8
 74
     0
 42
0.00000001
 43
0.00000001
 12
1.0
 22
0.0
 32
0.0
 13
1.0
 23
0.0
 33
0.0
 40
0.0
 40
0.0
 40
0.0
 40
0.0
 40
0.4616906276035826
 40
0.7307729957147168
 40
0.9175829515522844
 40
0.971935952720342
 40
1.0
 40
1.0
 40
1.0
 40
1.0
 10
756.9062666196476
 20
604.9063104117123
 30
0.0
 10
756.8912597232019
 20
604.9605903317224
 30
0.0
 10
756.8675065126829
 20
605.0465056554945
 30
0.0
 10
756.8316948223932
 20
605.1585551525184
 30
0.0
 10
756.8109492079632
 20
605.2207395274738
 30
0.0
 10
756.7997055980358
 20
605.2535753289749
 30
0.0
 10
756.7962335001611
 20
605.2636192811458
 30
0.0
 10
756.795051206925
 20
605.2670393738803
 30
0.0
  0
LINE
  5
197
330
1F
100
AcDbEntity
  8
0
  6
Continuous
 62
     7
370
    15
100
AcDbLine
 10
734.4836245466
 20
652.8756302158
 30
0.0
 11
734.2608181849
 21
653.2430747247
 31
0.0
  0
LINE
  5
198
330
1F
100
AcDbEntity
  8
0
  6
Continuous
 62
     7
370
    15
100
AcDbLine
 10
756.457270343
 20
606.090983879
 30
0.0
 11
756.4362533643
 21
606.1363071233
 31
0.0
  0
SPLINE
  5
199
330
1F
100
AcDbEntity
  8
0
  6
Continuous
 62
     7
370
    15
100
AcDbSpline
210
0.0
220
0.0
230
1.0
 70
     8
 71
     3
 72
     9
 73
     5
 74
     0
 42
0.00000001
 43
0.00000001
 12
1.0
 22
0.0
 32
0.0
 13
1.0
 23
0.0
 33
0.0
 40
0.0
 40
0.0
 40
0.0
 40
0.0
 40
0.5000138394957024
 40
1.0
 40
1.0
 40
1.0
 40
1.0
 10
756.6911737630236
 20
605.5471662385065
 30
0.0
 10
756.6571890568047
 20
605.6315247361564
 30
0.0
 10
756.5892215256396
 20
605.8002370616691
 30
0.0
 10
756.5012532589082
 20
605.9940700616095
 30
0.0
 10
756.4572703429789
 20
606.0909838790286
 30
0.0
  0
SPLINE
  5
19A
330
1F
100
AcDbEntity
  8
0
  6
Continuous
 62
     7
370
    15
100
AcDbSpline
210
0.0
220
0.0
230
1.0
 70
     8
 71
     3
 72
    13
 73
     9
 74
     0
 42
0.00000001
 43
0.00000001
 12
1.0
 22
0.0
 32
0.0
 13
1.0
 23
0.0
 33
0.0
 40
0.0
 40
0.0
 40
0.0
 40
0.0
 40
0.1254648118065515
 40
0.2502435788816374
 40
0.3760698054095754
 40
0.5019139201694217
 40
0.7508310514861696
 40
1.0
 40
1.0
 40
1.0
 40
1.0
 10
734.2608181847097
 20
653.2430747248927
 30
0.0
 10
734.2169796985646
 20
653.2917108640752
 30
0.0
 10
734.1295424362143
 20
653.388717198814
 30
0.0
 10
733.9927014201236
 20
653.5184172674384
 30
0.0
 10
733.859201106611
 20
653.6301533516355
 30
0.0
 10
733.696771598756
 20
653.7493902286517
 30
0.0
 10
733.5304284288851
 20
653.8481706463688
 30
0.0
 10
733.5039710839178
 20
653.8616527464758
 30
0.0
 10
733.4907357234191
 20
653.8683972045994
 30
0.0
  0
SPLINE
  5
19B
330
1F
100
AcDbEntity
  8
0
  6
Continuous
 62
     7
370
    15
100
AcDbSpline
210
0.0
220
0.0
230
1.0
 70
     8
 71
     3
 72
     9
 73
     5
 74
     0
 42
0.00000001
 43
0.00000001
 12
1.0
 22
0.0
 32
0.0
 13
1.0
 23
0.0
 33
0.0
 40
0.0
 40
0.0
 40
0.0
 40
0.0
 40
0.7838918077667932
 40
1.0
 40
1.0
 40
1.0
 40
1.0
 10
757.0359006118518
 20
603.9657247542559
 30
0.0
 10
757.0390078048372
 20
603.9745136714921
 30
0.0
 10
757.0429716082019
 20
603.9857255723552
 30
0.0
 10
757.0313778507162
 20
604.1309823352606
 30
0.0
 10
757.028872344745
 20
604.1623735117016
 30
0.0
  0
SPLINE
  5
19C
330
1F
100
AcDbEntity
  8
0
  6
Continuous
 62
     7
370
    15
100
AcDbSpline
210
0.0
220
0.0
230
1.0
 70
     8
 71
     3
 72
     9
 73
     5
 74
     0
 42
0.00000001
 43
0.00000001
 12
1.0
 22
0.0
 32
0.0
 13
1.0
 23
0.0
 33
0.0
 40
0.0
 40
0.0
 40
0.0
 40
0.0
 40
0.1164892876104554
 40
1.0
 40
1.0
 40
1.0
 40
1.0
 10
756.9223133180556
 20
604.8320387411974
 30
0.0
 10
756.9181189597957
 20
604.8538698281905
 30
0.0
 10
756.8821125737504
 20
605.0412783654118
 30
0.0
 10
756.7807386821814
 20
605.3098660988221
 30
0.0
 10
756.6911737630236
 20
605.5471662385065
 30
0.0
  0
LINE
  5
19D
330
1F
100
AcDbEntity
  8
0
  6
Continuous
 62
     7
370
    15
100
AcDbLine
 10
756.795051207
 20
605.2670393736
 30
0.0
 11
756.7104991297
 21
605.4895875069
 31
0.0
  0
LINE
  5
19E
330
1F
100
AcDbEntity
  8
0
  6
Continuous
 62
     7
370
    15
100
AcDbLine
 10
742.5847608195
 20
635.2493803534
 30
0.0
 11
745.3951722601
 21
629.2224335696
 31
0.0
  0
LINE
  5
19F
330
1F
100
AcDbEntity
  8
0
  6
Continuous
 62
     7
370
    15
100
AcDbLine
 10
740.7557166917
 20
635.0309253729
 30
0.0
 11
744.0521391333
 21
627.961724634
 31
0.0
  0
LINE
  5
1A0
330
1F
100
AcDbEntity
  8
0
  6
Continuous
 62
     7
370
    15
100
AcDbLine
 10
740.7280301303
 20
571.4922100549
 30
0.0
 11
709.9630923822
 21
571.4922100549
 31
0.0
  0
LINE
  5
1A1
330
1F
100
AcDbEntity
  8
0
  6
Continuous
 62
     7
370
    15
100
AcDbLine
 10
710.4133814343
 20
571.5297100549
 30
0.0
 11
709.5595568483
 21
571.5297100549
 31
0.0
  0
LINE
  5
1A2
330
1F
100
AcDbEntity
  8
0
  6
Continuous
 62
     7
370
    15
100
AcDbLine
 10
740.7280301303
 20
571.5297100549
 30
0.0
 11
740.7280301303
 21
571.4922100549
 31
0.0
  0
LINE
  5
1A3
330
1F
100
AcDbEntity
  8
0
  6
Continuous
 62
     7
370
    15
100
AcDbLine
 10
738.4133814343
 20
571.4297100549
 30
0.0
 11
712.4133814343
 21
571.4297100549
 31
0.0
  0
LINE
  5
1A4
330
1F
100
AcDbEntity
  8
0
  6
Continuous
 62
     7
370
    15
100
AcDbLine
 10
738.9133814343
 20
571.4922100549
 30
0.0
 11
738.9133814343
 21
571.4297100549
 31
0.0
  0
LINE
  5
1A5
330
1F
100
AcDbEntity
  8
0
  6
Continuous
 62
     7
370
    15
100
AcDbLine
 10
738.9133814343
 20
571.4297100549
 30
0.0
 11
738.4133814343
 21
571.4297100549
 31
0.0
  0
LINE
  5
1A6
330
1F
100
AcDbEntity
  8
0
  6
Continuous
 62
     7
370
    15
100
AcDbLine
 10
711.9133814343
 20
571.4922100549
 30
0.0
 11
711.9133814343
 21
571.4297100549
 31
0.0
  0
LINE
  5
1A7
330
1F
100
AcDbEntity
  8
0
  6
Continuous
 62
     7
370
    15
100
AcDbLine
 10
712.4133814343
 20
571.4297100549
 30
0.0
 11
711.9133814343
 21
571.4297100549
 31
0.0
  0
LINE
  5
1A8
330
1F
100
AcDbEntity
  8
0
  6
Continuous
 62
     7
370
    15
100
AcDbLine
 10
752.4435519204
 20
618.2479873802
 30
0.0
 11
738.7084584138
 21
647.7029904589
 31
0.0
  0
LINE
  5
1A9
330
1F
100
AcDbEntity
  8
0
  6
Continuous
 62
     7
370
    15
100
AcDbLine
 10
745.0995645448
 20
645.828227047
 30
0.0
 11
744.0852338725
 21
648.0034661935
 31
0.0
  0
LINE
  5
1AA
330
1F
100
AcDbEntity
  8
0
  6
Continuous
 62
     7
370
    15
100
AcDbLine
 10
756.1298543321
 20
622.173694263
 30
0.0
 11
755.1155236598
 21
624.3489334095
 31
0.0
  0
LINE
  5
1AB
330
1F
100
AcDbEntity
  8
0
  6
Continuous
 62
     7
370
    15
100
AcDbLine
 10
744.0732001857
 20
642.453529411
 30
0.0
 11
742.8324631349
 21
642.6630735676
 31
0.0
  0
SPLINE
  5
1AC
330
1F
100
AcDbEntity
  8
0
  6
Continuous
 62
     7
370
    15
100
AcDbSpline
210
0.0
220
0.0
230
1.0
 70
     8
 71
     3
 72
     9
 73
     5
 74
     0
 42
0.00000001
 43
0.00000001
 12
1.0
 22
0.0
 32
0.0
 13
1.0
 23
0.0
 33
0.0
 40
0.0
 40
0.0
 40
0.0
 40
0.0
 40
0.4986163301835034
 40
1.0
 40
1.0
 40
1.0
 40
1.0
 10
744.6272190124703
 20
642.419727436318
 30
0.0
 10
744.5352934327793
 20
642.4129162647038
 30
0.0
 10
744.3509320829271
 20
642.3992561192133
 30
0.0
 10
744.1659481225577
 20
642.4354049683698
 30
0.0
 10
744.0732001856504
 20
642.4535294110196
 30
0.0
  0
SPLINE
  5
1AD
330
1F
100
AcDbEntity
  8
0
  6
Continuous
 62
     7
370
    15
100
AcDbSpline
210
0.0
220
0.0
230
1.0
 70
     8
 71
     3
 72
    11
 73
     7
 74
     0
 42
0.00000001
 43
0.00000001
 12
1.0
 22
0.0
 32
0.0
 13
1.0
 23
0.0
 33
0.0
 40
0.0
 40
0.0
 40
0.0
 40
0.0
 40
0.1671876360232987
 40
0.3343907167769927
 40
0.6674481169899052
 40
1.0
 40
1.0
 40
1.0
 40
1.0
 10
745.0925111901564
 20
642.8472537907692
 30
0.0
 10
745.0874035205155
 20
642.8141936075576
 30
0.0
 10
745.0771877093889
 20
642.7480701870475
 30
0.0
 10
745.0076601778865
 20
642.6277816064201
 30
0.0
 10
744.8760202576273
 20
642.4912394998228
 30
0.0
 10
744.7101107591853
 20
642.4435527184277
 30
0.0
 10
744.6272190124703
 20
642.419727436318
 30
0.0
  0
SPLINE
  5
1AE
330
1F
100
AcDbEntity
  8
0
  6
Continuous
 62
     7
370
    15
100
AcDbSpline
210
0.0
220
0.0
230
1.0
 70
     8
 71
     3
 72
     9
 73
     5
 74
     0
 42
0.00000001
 43
0.00000001
 12
1.0
 22
0.0
 32
0.0
 13
1.0
 23
0.0
 33
0.0
 40
0.0
 40
0.0
 40
0.0
 40
0.0
 40
0.9825480035891575
 40
1.0
 40
1.0
 40
1.0
 40
1.0
 10
743.7252483719822
 20
642.8082312678985
 30
0.0
 10
743.699181115034
 20
642.8744615168871
 30
0.0
 10
743.6726508520313
 20
642.9418681461271
 30
0.0
 10
743.6893974476657
 20
643.0049835896414
 30
0.0
 10
743.6896897091926
 20
643.0060850801351
 30
0.0
  0
LINE
  5
1AF
330
1F
100
AcDbEntity
  8
0
  6
Continuous
 62
     7
370
    15
100
AcDbLine
 10
748.6862716925
 20
630.2148086199
 30
0.0
 11
748.2534367138
 21
631.1416028021
 31
0.0
  0
SPLINE
  5
1B0
330
1F
100
AcDbEntity
  8
0
  6
Continuous
 62
     7
370
    15
100
AcDbSpline
210
0.0
220
0.0
230
1.0
 70
     8
 71
     3
 72
    11
 73
     7
 74
     0
 42
0.00000001
 43
0.00000001
 12
1.0
 22
0.0
 32
0.0
 13
1.0
 23
0.0
 33
0.0
 40
0.0
 40
0.0
 40
0.0
 40
0.0
 40
0.3327148683312745
 40
0.4999172555208359
 40
0.6672668872821316
 40
1.0
 40
1.0
 40
1.0
 40
1.0
 10
750.0871113169245
 20
631.3799069231738
 30
0.0
 10
750.064154680553
 20
631.4187277230145
 30
0.0
 10
750.0296614259881
 20
631.4770575109522
 30
0.0
 10
749.9576604863985
 20
631.5249741887964
 30
0.0
 10
749.8793420142555
 20
631.5586841278794
 30
0.0
 10
749.8157742991109
 20
631.5564417131465
 30
0.0
 10
749.7734791310376
 20
631.5549497087886
 30
0.0
  0
SPLINE
  5
1B1
330
1F
100
AcDbEntity
  8
0
  6
Continuous
 62
     7
370
    15
100
AcDbSpline
210
0.0
220
0.0
230
1.0
 70
     8
 71
     3
 72
    11
 73
     7
 74
     0
 42
0.00000001
 43
0.00000001
 12
1.0
 22
0.0
 32
0.0
 13
1.0
 23
0.0
 33
0.0
 40
0.0
 40
0.0
 40
0.0
 40
0.0
 40
0.250217664909161
 40
0.5001638301791628
 40
0.7500323481731305
 40
1.0
 40
1.0
 40
1.0
 40
1.0
 10
750.045601561463
 20
630.9957125948604
 30
0.0
 10
750.0629464263827
 20
631.0243683361871
 30
0.0
 10
750.0976173361098
 20
631.0816487258182
 30
0.0
 10
750.1222707672343
 20
631.1818235858701
 30
0.0
 10
750.12245926071
 20
631.2856758780231
 30
0.0
 10
750.0988955226726
 20
631.348492421933
 30
0.0
 10
750.0871113169245
 20
631.379906923174
 30
0.0
  0
LINE
  5
1B2
330
1F
100
AcDbEntity
  8
0
  6
Continuous
 62
     7
370
    15
100
AcDbLine
 10
750.2209150011
 20
630.6017636785
 30
0.0
 11
750.0456015615
 21
630.9957125949
 31
0.0
  0
SPLINE
  5
1B3
330
1F
100
AcDbEntity
  8
0
  6
Continuous
 62
     7
370
    15
100
AcDbSpline
210
0.0
220
0.0
230
1.0
 70
     8
 71
     3
 72
     9
 73
     5
 74
     0
 42
0.00000001
 43
0.00000001
 12
1.0
 22
0.0
 32
0.0
 13
1.0
 23
0.0
 33
0.0
 40
0.0
 40
0.0
 40
0.0
 40
0.0
 40
0.8192293707431676
 40
1.0
 40
1.0
 40
1.0
 40
1.0
 10
749.4651162738722
 20
631.8718657422197
 30
0.0
 10
749.5510850533908
 20
631.9183059502474
 30
0.0
 10
749.6560236488426
 20
631.9749936248913
 30
0.0
 10
749.76772953983
 20
631.9581800706352
 30
0.0
 10
749.7879226840355
 20
631.9551406738523
 30
0.0
  0
SPLINE
  5
1B4
330
1F
100
AcDbEntity
  8
0
  6
Continuous
 62
     7
370
    15
100
AcDbSpline
210
0.0
220
0.0
230
1.0
 70
     8
 71
     3
 72
    13
 73
     9
 74
     0
 42
0.00000001
 43
0.00000001
 12
1.0
 22
0.0
 32
0.0
 13
1.0
 23
0.0
 33
0.0
 40
0.0
 40
0.0
 40
0.0
 40
0.0
 40
0.2493042775567658
 40
0.3736983464972368
 40
0.4997789606171736
 40
0.625015929847903
 40
0.7502475256883223
 40
1.0
 40
1.0
 40
1.0
 40
1.0
 10
749.1642778559118
 20
630.9037971637111
 30
0.0
 10
749.1321195344045
 20
630.9928102901973
 30
0.0
 10
749.0839153411548
 20
631.1262378370906
 30
0.0
 10
749.0900637897093
 20
631.318841407347
 30
0.0
 10
749.1203211207167
 20
631.4585691230344
 30
0.0
 10
749.1755927759051
 20
631.5891388089065
 30
0.0
 10
749.2795583677319
 20
631.744032734649
 30
0.0
 10
749.3909353305652
 20
631.820761624456
 30
0.0
 10
749.4651162738722
 20
631.8718657422197
 30
0.0
  0
LINE
  5
1B5
330
1F
100
AcDbEntity
  8
0
  6
Continuous
 62
     7
370
    15
100
AcDbLine
 10
749.2400686184
 20
630.7856897588
 30
0.0
 11
749.1642778559
 21
630.9037971637
 31
0.0
  0
LINE
  5
1B6
330
1F
100
AcDbEntity
  8
0
  6
Continuous
 62
     7
370
    15
100
AcDbLine
 10
748.8739721675
 20
630.6778125651
 30
0.0
 11
749.2400686184
 21
630.7856897588
 31
0.0
  0
LINE
  5
1B7
330
1F
100
AcDbEntity
  8
0
  6
Continuous
 62
     7
370
    15
100
AcDbLine
 10
748.2534367138
 20
631.1416028021
 30
0.0
 11
748.5698190815
 21
631.3233132153
 31
0.0
  0
LINE
  5
1B8
330
1F
100
AcDbEntity
  8
0
  6
Continuous
 62
     7
370
    15
100
AcDbLine
 10
753.8126682054
 20
622.2324131648
 30
0.0
 11
754.0882540231
 21
622.5066281849
 31
0.0
  0
LINE
  5
1B9
330
1F
100
AcDbEntity
  8
0
  6
Continuous
 62
     7
370
    15
100
AcDbLine
 10
753.8551288116
 20
622.1485453744
 30
0.0
 11
753.8126682054
 21
622.2324131648
 31
0.0
  0
LINE
  5
1BA
330
1F
100
AcDbEntity
  8
0
  6
Continuous
 62
     7
370
    15
100
AcDbLine
 10
752.8457985292
 20
621.1453632461
 30
0.0
 11
753.8551288116
 21
622.1485453744
 31
0.0
  0
LINE
  5
1BB
330
1F
100
AcDbEntity
  8
0
  6
Continuous
 62
     7
370
    15
100
AcDbLine
 10
752.9308107237
 20
620.971843466
 30
0.0
 11
752.8457985292
 21
621.1453632461
 31
0.0
  0
LINE
  5
1BC
330
1F
100
AcDbEntity
  8
0
  6
Continuous
 62
     7
370
    15
100
AcDbLine
 10
754.1307742747
 20
622.4227093785
 30
0.0
 11
754.4527596062
 21
622.7427028793
 31
0.0
  0
LINE
  5
1BD
330
1F
100
AcDbEntity
  8
0
  6
Continuous
 62
     7
370
    15
100
AcDbLine
 10
748.6884349833
 20
630.2145633538
 30
0.0
 11
748.6862716925
 21
630.2148086199
 31
0.0
  0
LINE
  5
1BE
330
1F
100
AcDbEntity
  8
0
  6
Continuous
 62
     7
370
    15
100
AcDbLine
 10
748.2554712651
 20
631.1416336189
 30
0.0
 11
748.2534367138
 21
631.1416028021
 31
0.0
  0
LINE
  5
1BF
330
1F
100
AcDbEntity
  8
0
  6
Continuous
 62
     7
370
    15
100
AcDbLine
 10
748.6884349833
 20
630.2145633538
 30
0.0
 11
748.2554712651
 21
631.1416336189
 31
0.0
  0
LINE
  5
1C0
330
1F
100
AcDbEntity
  8
0
  6
Continuous
 62
     7
370
    15
100
AcDbLine
 10
748.5718530079
 20
631.3233453722
 30
0.0
 11
748.5698190815
 21
631.3233132153
 31
0.0
  0
LINE
  5
1C1
330
1F
100
AcDbEntity
  8
0
  6
Continuous
 62
     7
370
    15
100
AcDbLine
 10
748.2554712651
 20
631.1416336189
 30
0.0
 11
748.5718530079
 21
631.3233453722
 31
0.0
  0
LINE
  5
1C2
330
1F
100
AcDbEntity
  8
0
  6
Continuous
 62
     7
370
    15
100
AcDbLine
 10
748.5718530079
 20
631.3233453722
 30
0.0
 11
748.8760967755
 21
630.6776502546
 31
0.0
  0
LINE
  5
1C3
330
1F
100
AcDbEntity
  8
0
  6
Continuous
 62
     7
370
    15
100
AcDbLine
 10
748.8760967755
 20
630.6776502546
 30
0.0
 11
749.2422046355
 21
630.7855023542
 31
0.0
  0
LINE
  5
1C4
330
1F
100
AcDbEntity
  8
0
  6
Continuous
 62
     7
370
    15
100
AcDbLine
 10
749.2422048145
 20
630.7855025285
 30
0.0
 11
749.1663960733
 21
630.9036485579
 31
0.0
  0
SPLINE
  5
1C5
330
1F
100
AcDbEntity
  8
0
  6
Continuous
 62
     7
370
    15
100
AcDbSpline
210
0.0
220
0.0
230
1.0
 70
     8
 71
     3
 72
    13
 73
     9
 74
     0
 42
0.00000001
 43
0.00000001
 12
1.0
 22
0.0
 32
0.0
 13
1.0
 23
0.0
 33
0.0
 40
0.0
 40
0.0
 40
0.0
 40
0.0
 40
0.249341857109337
 40
0.3739067550176149
 40
0.4998259552337451
 40
0.6250595944121964
 40
0.7502808147443181
 40
1.0
 40
1.0
 40
1.0
 40
1.0
 10
749.1663960733184
 20
630.9036485578553
 30
0.0
 10
749.1342147085376
 20
630.9926867011089
 30
0.0
 10
749.0859563462365
 20
631.1262060532255
 30
0.0
 10
749.092189493497
 20
631.3188548213204
 30
0.0
 10
749.1223838246812
 20
631.4586157321914
 30
0.0
 10
749.1776364014255
 20
631.5891493852434
 30
0.0
 10
749.28158371418
 20
631.7440676335783
 30
0.0
 10
749.3929631176619
 20
631.8208028129399
 30
0.0
 10
749.4671444368188
 20
631.8719102587768
 30
0.0
  0
SPLINE
  5
1C6
330
1F
100
AcDbEntity
  8
0
  6
Continuous
 62
     7
370
    15
100
AcDbSpline
210
0.0
220
0.0
230
1.0
 70
     8
 71
     3
 72
    12
 73
     8
 74
     0
 42
0.00000001
 43
0.00000001
 12
1.0
 22
0.0
 32
0.0
 13
1.0
 23
0.0
 33
0.0
 40
0.0
 40
0.0
 40
0.0
 40
0.0
 40
0.2497804431753998
 40
0.4994012335319629
 40
0.624838313812936
 40
0.7502856917678513
 40
1.0
 40
1.0
 40
1.0
 40
1.0
 10
749.4671444368188
 20
631.8719102587768
 30
0.0
 10
749.5531253432223
 20
631.9105902264378
 30
0.0
 10
749.7250321993882
 20
631.9879254385837
 30
0.0
 10
749.9626836018458
 20
631.9543341239245
 30
0.0
 10
750.1320868277321
 20
631.878528562432
 30
0.0
 10
750.288071581349
 20
631.7682706798922
 30
0.0
 10
750.3624135208112
 20
631.6400373873271
 30
0.0
 10
750.4118968413873
 20
631.5546830211318
 30
0.0
  0
SPLINE
  5
1C7
330
1F
100
AcDbEntity
  8
0
  6
Continuous
 62
     7
370
    15
100
AcDbSpline
210
0.0
220
0.0
230
1.0
 70
     8
 71
     3
 72
    11
 73
     7
 74
     0
 42
0.00000001
 43
0.00000001
 12
1.0
 22
0.0
 32
0.0
 13
1.0
 23
0.0
 33
0.0
 40
0.0
 40
0.0
 40
0.0
 40
0.0
 40
0.2502429075565842
 40
0.5000901178351986
 40
0.7498389642497151
 40
1.0
 40
1.0
 40
1.0
 40
1.0
 10
750.4118968413873
 20
631.5546830211318
 30
0.0
 10
750.442316724079
 20
631.4732885733636
 30
0.0
 10
750.5031083879402
 20
631.3106283830189
 30
0.0
 10
750.4902952241683
 20
631.0408507918521
 30
0.0
 10
750.3983413159742
 20
630.7880675773285
 30
0.0
 10
750.2815707254664
 20
630.6636513145199
 30
0.0
 10
750.2231372899437
 20
630.6013918908142
 30
0.0
  0
LINE
  5
1C8
330
1F
100
AcDbEntity
  8
0
  6
Continuous
 62
     7
370
    15
100
AcDbLine
 10
750.2231372899
 20
630.6013918908
 30
0.0
 11
750.047767435
 21
630.9954617901
 31
0.0
  0
SPLINE
  5
1C9
330
1F
100
AcDbEntity
  8
0
  6
Continuous
 62
     7
370
    15
100
AcDbSpline
210
0.0
220
0.0
230
1.0
 70
     8
 71
     3
 72
    11
 73
     7
 74
     0
 42
0.00000001
 43
0.00000001
 12
1.0
 22
0.0
 32
0.0
 13
1.0
 23
0.0
 33
0.0
 40
0.0
 40
0.0
 40
0.0
 40
0.0
 40
0.2501909120879092
 40
0.5001304459399194
 40
0.7500135060955732
 40
0.9999999999999999
 40
0.9999999999999999
 40
0.9999999999999999
 40
0.9999999999999999
 10
750.0477674350157
 20
630.9954617900698
 30
0.0
 10
750.0651103658224
 20
631.0241225545445
 30
0.0
 10
750.0997788022016
 20
631.0814152867148
 30
0.0
 10
750.1244211042275
 20
631.1816116374052
 30
0.0
 10
750.1245966389046
 20
631.2854862452456
 30
0.0
 10
750.1010255622133
 20
631.3483181896166
 30
0.0
 10
750.0892375851865
 20
631.3797406624418
 30
0.0
  0
SPLINE
  5
1CA
330
1F
100
AcDbEntity
  8
0
  6
Continuous
 62
     7
370
    15
100
AcDbSpline
210
0.0
220
0.0
230
1.0
 70
     8
 71
     3
 72
    12
 73
     8
 74
     0
 42
0.00000001
 43
0.00000001
 12
1.0
 22
0.0
 32
0.0
 13
1.0
 23
0.0
 33
0.0
 40
0.0
 40
0.0
 40
0.0
 40
0.0
 40
0.2495329045240021
 40
0.3749246843076591
 40
0.5004192239764699
 40
0.7499112932266426
 40
1.0
 40
1.0
 40
1.0
 40
1.0
 10
750.0892362009964
 20
631.3797440206084
 30
0.0
 10
750.0662854573992
 20
631.4185227479342
 30
0.0
 10
750.0318018276182
 20
631.4767880181124
 30
0.0
 10
749.9597113144705
 20
631.5251109492597
 30
0.0
 10
749.8817121083043
 20
631.5572541298536
 30
0.0
 10
749.7732535171276
 20
631.5656336130016
 30
0.0
 10
749.6954162514842
 20
631.5292213277575
 30
0.0
 10
749.6564511390582
 20
631.5109934419693
 30
0.0
  0
SPLINE
  5
1CB
330
1F
100
AcDbEntity
  8
0
  6
Continuous
 62
     7
370
    15
100
AcDbSpline
210
0.0
220
0.0
230
1.0
 70
     8
 71
     3
 72
    14
 73
    10
 74
     0
 42
0.00000001
 43
0.00000001
 12
1.0
 22
0.0
 32
0.0
 13
1.0
 23
0.0
 33
0.0
 40
0.0
 40
0.0
 40
0.0
 40
0.0
 40
0.2497964802608369
 40
0.4989738063782989
 40
0.6241985437533929
 40
0.7493921604417603
 40
0.8745742948499466
 40
0.9372820540892038
 40
1.0
 40
1.0
 40
1.0
 40
1.0
 10
749.6564511390582
 20
631.5109934419693
 30
0.0
 10
749.6221143774271
 20
631.4876143625252
 30
0.0
 10
749.5535259624424
 20
631.4409141518271
 30
0.0
 10
749.4971629537193
 20
631.3451340792312
 30
0.0
 10
749.4737325676676
 20
631.2607944650543
 30
0.0
 10
749.4675933115933
 20
631.194448236021
 30
0.0
 10
749.4753291735149
 20
631.13971662486
 30
0.0
 10
749.4872194251877
 20
631.0977866124264
 30
0.0
 10
749.4957800008285
 20
631.0780024586193
 30
0.0
 10
749.5000606362801
 20
631.068109578313
 30
0.0
  0
SPLINE
  5
1CC
330
1F
100
AcDbEntity
  8
0
  6
Continuous
 62
     7
370
    15
100
AcDbSpline
210
0.0
220
0.0
230
1.0
 70
     8
 71
     3
 72
    10
 73
     6
 74
     0
 42
0.00000001
 43
0.00000001
 12
1.0
 22
0.0
 32
0.0
 13
1.0
 23
0.0
 33
0.0
 40
0.0
 40
0.0
 40
0.0
 40
0.0
 40
0.2501216062010748
 40
0.5003940587088811
 40
0.9999999999999999
 40
0.9999999999999999
 40
0.9999999999999999
 40
0.9999999999999999
 10
749.5000621902004
 20
631.0681059975738
 30
0.0
 10
749.5125516008416
 20
631.0460833031943
 30
0.0
 10
749.5375379543858
 20
631.0020246327276
 30
0.0
 10
749.6113350706723
 20
630.9357736004138
 30
0.0
 10
749.6781139229738
 20
630.9104778256324
 30
0.0
 10
749.7226052853576
 20
630.8936245338522
 30
0.0
  0
LINE
  5
1CD
330
1F
100
AcDbEntity
  8
0
  6
Continuous
 62
     7
370
    15
100
AcDbLine
 10
749.7226055491
 20
630.893624449
 30
0.0
 11
749.7973290266
 21
630.5517663899
 31
0.0
  0
LINE
  5
1CE
330
1F
100
AcDbEntity
  8
0
  6
Continuous
 62
     7
370
    15
100
AcDbLine
 10
749.7973290266
 20
630.5517663899
 30
0.0
 11
748.6884349833
 21
630.2145633538
 31
0.0
  0
LINE
  5
1CF
330
1F
100
AcDbEntity
  8
0
  6
Continuous
 62
     7
370
    15
100
AcDbLine
 10
749.4671444368
 20
631.8719102588
 30
0.0
 11
749.4651162739
 21
631.8718657422
 31
0.0
  0
LINE
  5
1D0
330
1F
100
AcDbEntity
  8
0
  6
Continuous
 62
     7
370
    15
100
AcDbLine
 10
749.1663960733
 20
630.9036485579
 30
0.0
 11
749.1642778559
 21
630.9037971637
 31
0.0
  0
LINE
  5
1D1
330
1F
100
AcDbEntity
  8
0
  6
Continuous
 62
     7
370
    15
100
AcDbLine
 10
749.2422048926
 20
630.78550243
 30
0.0
 11
749.2400686184
 21
630.7856897588
 31
0.0
  0
LINE
  5
1D2
330
1F
100
AcDbEntity
  8
0
  6
Continuous
 62
     7
370
    15
100
AcDbLine
 10
750.089236201
 20
631.3797440206
 30
0.0
 11
750.0871113169
 21
631.3799069232
 31
0.0
  0
LINE
  5
1D3
330
1F
100
AcDbEntity
  8
0
  6
Continuous
 62
     7
370
    15
100
AcDbLine
 10
750.047767435
 20
630.9954617901
 30
0.0
 11
750.0456015615
 21
630.9957125949
 31
0.0
  0
LINE
  5
1D4
330
1F
100
AcDbEntity
  8
0
  6
Continuous
 62
     7
370
    15
100
AcDbLine
 10
750.2231372899
 20
630.6013918908
 30
0.0
 11
750.2209150011
 21
630.6017636785
 31
0.0
  0
LINE
  5
1D5
330
1F
100
AcDbEntity
  8
0
  6
Continuous
 62
     7
370
    15
100
AcDbLine
 10
745.4871855902
 20
644.9969710326
 30
0.0
 11
754.7279026143
 21
625.1801894239
 31
0.0
  0
LINE
  5
1D6
330
1F
100
AcDbEntity
  8
0
  6
Continuous
 62
     7
370
    15
100
AcDbLine
 10
742.8328966186
 20
642.6665378848
 30
0.0
 11
742.8324631349
 21
642.6630735676
 31
0.0
  0
LINE
  5
1D7
330
1F
100
AcDbEntity
  8
0
  6
Continuous
 62
     7
370
    15
100
AcDbLine
 10
744.0736902325
 20
642.4568692812
 30
0.0
 11
742.8328968558
 21
642.6665378461
 31
0.0
  0
LINE
  5
1D8
330
1F
100
AcDbEntity
  8
0
  6
Continuous
 62
     7
370
    15
100
AcDbLine
 10
742.8328966186
 20
642.6665378848
 30
0.0
 11
742.8861597535
 21
642.9477220452
 31
0.0
  0
LINE
  5
1D9
330
1F
100
AcDbEntity
  8
0
  6
Continuous
 62
     7
370
    15
100
AcDbLine
 10
742.8861597535
 20
642.9477220452
 30
0.0
 11
743.7256846476
 21
642.8116890162
 31
0.0
  0
SPLINE
  5
1DA
330
1F
100
AcDbEntity
  8
0
  6
Continuous
 62
     7
370
    15
100
AcDbSpline
210
0.0
220
0.0
230
1.0
 70
     8
 71
     3
 72
    13
 73
     9
 74
     0
 42
0.00000001
 43
0.00000001
 12
1.0
 22
0.0
 32
0.0
 13
1.0
 23
0.0
 33
0.0
 40
0.0
 40
0.0
 40
0.0
 40
0.0
 40
0.2492561668020663
 40
0.3716945146304582
 40
0.4998384439452492
 40
0.6263351851495813
 40
0.7503879552280341
 40
1.0
 40
1.0
 40
1.0
 40
1.0
 10
743.7256849036596
 20
642.811689058006
 30
0.0
 10
743.704909138877
 20
642.8772109288785
 30
0.0
 10
743.6739280084759
 20
642.9749181202554
 30
0.0
 10
743.7096528867684
 20
643.1004454984127
 30
0.0
 10
743.7609568893613
 20
643.1871610259024
 30
0.0
 10
743.835370904966
 20
643.2643314259916
 30
0.0
 10
743.9624861293754
 20
643.3496622287663
 30
0.0
 10
744.0878228894184
 20
643.3817138968016
 30
0.0
 10
744.1715491695389
 20
643.4031247497336
 30
0.0
  0
SPLINE
  5
1DB
330
1F
100
AcDbEntity
  8
0
  6
Continuous
 62
     7
370
    15
100
AcDbSpline
210
0.0
220
0.0
230
1.0
 70
     8
 71
     3
 72
    12
 73
     8
 74
     0
 42
0.00000001
 43
0.00000001
 12
1.0
 22
0.0
 32
0.0
 13
1.0
 23
0.0
 33
0.0
 40
0.0
 40
0.0
 40
0.0
 40
0.0
 40
0.2496763881762438
 40
0.3724361226465329
 40
0.5005048710572306
 40
0.7502284668960633
 40
1.0
 40
1.0
 40
1.0
 40
1.0
 10
744.1715491695389
 20
643.4031247497336
 30
0.0
 10
744.2606873818613
 20
643.4133493396033
 30
0.0
 10
744.3936526591126
 20
643.4286011086416
 30
0.0
 10
744.574835574765
 20
643.3969528092643
 30
0.0
 10
744.7438510699708
 20
643.3422913566724
 30
0.0
 10
744.9381835501304
 20
643.2356440596135
 30
0.0
 10
745.014597921468
 20
643.1110262972184
 30
0.0
 10
745.0528087739355
 20
643.0487114361481
 30
0.0
  0
SPLINE
  5
1DC
330
1F
100
AcDbEntity
  8
0
  6
Continuous
 62
     7
370
    15
100
AcDbSpline
210
0.0
220
0.0
230
1.0
 70
     8
 71
     3
 72
    12
 73
     8
 74
     0
 42
0.00000001
 43
0.00000001
 12
1.0
 22
0.0
 32
0.0
 13
1.0
 23
0.0
 33
0.0
 40
0.0
 40
0.0
 40
0.0
 40
0.0
 40
0.249784423401104
 40
0.375228283189797
 40
0.5006758907588127
 40
0.7505383114627797
 40
0.9999999999999999
 40
0.9999999999999999
 40
0.9999999999999999
 40
0.9999999999999999
 10
745.0528103690754
 20
643.0487082727553
 30
0.0
 10
745.0743969088628
 20
642.982627914314
 30
0.0
 10
745.106824392347
 20
642.8833614383948
 30
0.0
 10
745.0760432013191
 20
642.7514516550054
 30
0.0
 10
745.0090887704645
 20
642.6311162458751
 30
0.0
 10
744.8762450839984
 20
642.4945509136164
 30
0.0
 10
744.710523891036
 20
642.4468548699087
 30
0.0
 10
744.6277297942605
 20
642.4230259872659
 30
0.0
  0
SPLINE
  5
1DD
330
1F
100
AcDbEntity
  8
0
  6
Continuous
 62
     7
370
    15
100
AcDbSpline
210
0.0
220
0.0
230
1.0
 70
     8
 71
     3
 72
     9
 73
     5
 74
     0
 42
0.00000001
 43
0.00000001
 12
1.0
 22
0.0
 32
0.0
 13
1.0
 23
0.0
 33
0.0
 40
0.0
 40
0.0
 40
0.0
 40
0.0
 40
0.4986050564819651
 40
1.0
 40
1.0
 40
1.0
 40
1.0
 10
744.6277297942605
 20
642.423025987266
 30
0.0
 10
744.5358015977479
 20
642.4162184517988
 30
0.0
 10
744.351430831111
 20
642.4025652900859
 30
0.0
 10
744.1664435283869
 20
642.4387341289988
 30
0.0
 10
744.073691830186
 20
642.4568690019427
 30
0.0
  0
SPLINE
  5
1DE
330
1F
100
AcDbEntity
  8
0
  6
Continuous
 62
     7
370
    15
100
AcDbSpline
210
0.0
220
0.0
230
1.0
 70
     8
 71
     3
 72
    12
 73
     8
 74
     0
 42
0.00000001
 43
0.00000001
 12
1.0
 22
0.0
 32
0.0
 13
1.0
 23
0.0
 33
0.0
 40
0.0
 40
0.0
 40
0.0
 40
0.0
 40
0.2495342807944366
 40
0.4992411243680999
 40
0.7489190611584072
 40
0.8743786364302921
 40
1.0
 40
1.0
 40
1.0
 40
1.0
 10
744.6811291325823
 20
642.9733737506461
 30
0.0
 10
744.6644058574466
 20
642.9999742511662
 30
0.0
 10
744.6309477423721
 20
643.0531936475
 30
0.0
 10
744.5301844091432
 20
643.1066200494324
 30
0.0
 10
744.4343557694531
 20
643.1281898927548
 30
0.0
 10
744.3565645418557
 20
643.128330208932
 30
0.0
 10
744.3192852110427
 20
643.1227102568546
 30
0.0
 10
744.300633534849
 20
643.1198984701598
 30
0.0
  0
SPLINE
  5
1DF
330
1F
100
AcDbEntity
  8
0
  6
Continuous
 62
     7
370
    15
100
AcDbSpline
210
0.0
220
0.0
230
1.0
 70
     8
 71
     3
 72
    14
 73
    10
 74
     0
 42
0.00000001
 43
0.00000001
 12
1.0
 22
0.0
 32
0.0
 13
1.0
 23
0.0
 33
0.0
 40
0.0
 40
0.0
 40
0.0
 40
0.0
 40
0.2492280639566594
 40
0.3753948027360999
 40
0.4993910806604736
 40
0.6261696157544283
 40
0.7496639162294865
 40
0.8747305384645604
 40
1.0
 40
1.0
 40
1.0
 40
1.0
 10
744.300633534849
 20
643.1198984701598
 30
0.0
 10
744.2649934002714
 20
643.1107665676898
 30
0.0
 10
744.2113111580837
 20
643.0970118216474
 30
0.0
 10
744.156934939383
 20
643.0602836145675
 30
0.0
 10
744.1249558739563
 20
643.0272376243574
 30
0.0
 10
744.1034250958024
 20
642.9898189348386
 30
0.0
 10
744.0933260477896
 20
642.9491934824183
 30
0.0
 10
744.096173362081
 20
642.9071219186873
 30
0.0
 10
744.1066546960129
 20
642.8795461090916
 30
0.0
 10
744.1118996093231
 20
642.8657470323966
 30
0.0
  0
SPLINE
  5
1E0
330
1F
100
AcDbEntity
  8
0
  6
Continuous
 62
     7
370
    15
100
AcDbSpline
210
0.0
220
0.0
230
1.0
 70
     8
 71
     3
 72
    13
 73
     9
 74
     0
 42
0.00000001
 43
0.00000001
 12
1.0
 22
0.0
 32
0.0
 13
1.0
 23
0.0
 33
0.0
 40
0.0
 40
0.0
 40
0.0
 40
0.0
 40
0.2493403954113025
 40
0.3715640705554244
 40
0.4999441082160755
 40
0.7492984878481639
 40
0.8745707609942693
 40
1.0
 40
1.0
 40
1.0
 40
1.0
 10
744.1118996093231
 20
642.8657470323966
 30
0.0
 10
744.127931787333
 20
642.8394400746854
 30
0.0
 10
744.1518227469642
 20
642.8002377614181
 30
0.0
 10
744.2110026687334
 20
642.7607569031361
 30
0.0
 10
744.2775297744004
 20
642.7299264488106
 30
0.0
 10
744.3541511043189
 20
642.712801191937
 30
0.0
 10
744.43003739243
 20
642.7126858847475
 30
0.0
 10
744.4664951506996
 20
642.7182598726723
 30
0.0
 10
744.4847354430552
 20
642.7210486115898
 30
0.0
  0
SPLINE
  5
1E1
330
1F
100
AcDbEntity
  8
0
  6
Continuous
 62
     7
370
    15
100
AcDbSpline
210
0.0
220
0.0
230
1.0
 70
     8
 71
     3
 72
    11
 73
     7
 74
     0
 42
0.00000001
 43
0.00000001
 12
1.0
 22
0.0
 32
0.0
 13
1.0
 23
0.0
 33
0.0
 40
0.0
 40
0.0
 40
0.0
 40
0.0
 40
0.2503954495840142
 40
0.5003797045900414
 40
0.7504390965290487
 40
1.0
 40
1.0
 40
1.0
 40
1.0
 10
744.4847354430552
 20
642.7210486115898
 30
0.0
 10
744.520129501073
 20
642.730115375708
 30
0.0
 10
744.5908594936693
 20
642.7482340146793
 30
0.0
 10
744.6624033797
 20
642.8116734625918
 30
0.0
 10
744.7051563693109
 20
642.8895250152245
 30
0.0
 10
744.6891328824292
 20
642.9454427691987
 30
0.0
 10
744.6811291325823
 20
642.9733737506461
 30
0.0
  0
LINE
  5
1E2
330
1F
100
AcDbEntity
  8
0
  6
Continuous
 62
     7
370
    15
100
AcDbLine
 10
744.6277297943
 20
642.4230259873
 30
0.0
 11
744.6272190125
 21
642.4197274363
 31
0.0
  0
SPLINE
  5
1E3
330
1F
100
AcDbEntity
  8
0
  6
Continuous
 62
     7
370
    15
100
AcDbSpline
210
0.0
220
0.0
230
1.0
 70
     8
 71
     3
 72
    14
 73
    10
 74
     0
 42
0.00000001
 43
0.00000001
 12
1.0
 22
0.0
 32
0.0
 13
1.0
 23
0.0
 33
0.0
 40
0.0
 40
0.0
 40
0.0
 40
0.0
 40
0.2492631074119725
 40
0.3754410264839317
 40
0.499441391538122
 40
0.6262163984450527
 40
0.7497000111638853
 40
0.8747499222824583
 40
1.0
 40
1.0
 40
1.0
 40
1.0
 10
744.3002233632384
 20
643.1163841599853
 30
0.0
 10
744.2645832811214
 20
643.1072532389106
 30
0.0
 10
744.2109020558775
 20
643.0935002113703
 30
0.0
 10
744.1565214121006
 20
643.0567795771576
 30
0.0
 10
744.1245385684862
 20
643.0237414679154
 30
0.0
 10
744.1030030197705
 20
642.9863323279111
 30
0.0
 10
744.0928984604698
 20
642.9457176608366
 30
0.0
 10
744.0957399598672
 20
642.9036575502486
 30
0.0
 10
744.1062175347386
 20
642.8760897016977
 30
0.0
 10
744.1114605116683
 20
642.8622947543244
 30
0.0
  0
SPLINE
  5
1E4
330
1F
100
AcDbEntity
  8
0
  6
Continuous
 62
     7
370
    15
100
AcDbSpline
210
0.0
220
0.0
230
1.0
 70
     8
 71
     3
 72
    12
 73
     8
 74
     0
 42
0.00000001
 43
0.00000001
 12
1.0
 22
0.0
 32
0.0
 13
1.0
 23
0.0
 33
0.0
 40
0.0
 40
0.0
 40
0.0
 40
0.0
 40
0.2494968407337432
 40
0.4991901205401127
 40
0.7488841219042364
 40
0.8743600791987595
 40
0.9999999999999999
 40
0.9999999999999999
 40
0.9999999999999999
 40
0.9999999999999999
 10
744.6806899482145
 20
642.9699216585301
 30
0.0
 10
744.6639700295133
 20
642.9965139989989
 30
0.0
 10
744.6305170278342
 20
643.0497196171743
 30
0.0
 10
744.5297598288563
 20
643.1031240329321
 30
0.0
 10
744.433940347578
 20
643.1246803806365
 30
0.0
 10
744.3561536499452
 20
643.1248163766882
 30
0.0
 10
744.3188749057304
 20
643.1191961221152
 30
0.0
 10
744.3002233632384
 20
643.1163841599853
 30
0.0
  0
LINE
  5
1E5
330
1F
100
AcDbEntity
  8
0
  6
Continuous
 62
     7
370
    15
100
AcDbLine
 10
744.6935823044
 20
642.8871582954
 30
0.0
 11
744.6806899482
 21
642.9699216585
 31
0.0
  0
LINE
  5
1E6
330
1F
100
AcDbEntity
  8
0
  6
Continuous
 62
     7
370
    15
100
AcDbLine
 10
744.6806899482
 20
642.9699216585
 30
0.0
 11
744.6811291326
 21
642.9733737506
 31
0.0
  0
LINE
  5
1E7
330
1F
100
AcDbEntity
  8
0
  6
Continuous
 62
     7
370
    15
100
AcDbLine
 10
744.3002233632
 20
643.11638416
 30
0.0
 11
744.3006335348
 21
643.1198984702
 31
0.0
  0
SPLINE
  5
1E8
330
1F
100
AcDbEntity
  8
0
  6
Continuous
 62
     7
370
    15
100
AcDbSpline
210
0.0
220
0.0
230
1.0
 70
     8
 71
     3
 72
    12
 73
     8
 74
     0
 42
0.00000001
 43
0.00000001
 12
1.0
 22
0.0
 32
0.0
 13
1.0
 23
0.0
 33
0.0
 40
0.0
 40
0.0
 40
0.0
 40
0.0
 40
0.0304717459515386
 40
0.0888135668586482
 40
0.3925556175488225
 40
0.6962774394176051
 40
1.0
 40
1.0
 40
1.0
 40
1.0
 10
745.5143772736238
 20
645.4789925634417
 30
0.0
 10
745.5122476628113
 20
645.4838489560226
 30
0.0
 10
745.506040656079
 20
645.4980034960306
 30
0.0
 10
745.475116387585
 20
645.5597393231938
 30
0.0
 10
745.4022495963815
 20
645.6581452446325
 30
0.0
 10
745.2672859092031
 20
645.7658064782426
 30
0.0
 10
745.163326898571
 20
645.800874102614
 30
0.0
 10
745.1113473300426
 20
645.8184079361225
 30
0.0
  0
SPLINE
  5
1E9
330
1F
100
AcDbEntity
  8
0
  6
Continuous
 62
     7
370
    15
100
AcDbSpline
210
0.0
220
0.0
230
1.0
 70
     8
 71
     3
 72
    11
 73
     7
 74
     0
 42
0.00000001
 43
0.00000001
 12
1.0
 22
0.0
 32
0.0
 13
1.0
 23
0.0
 33
0.0
 40
0.0
 40
0.0
 40
0.0
 40
0.0
 40
0.3704320937861372
 40
0.7442498469289507
 40
0.9442480537652355
 40
0.9999999999999999
 40
0.9999999999999999
 40
0.9999999999999999
 40
0.9999999999999999
 10
745.0995645447979
 20
645.8282270470277
 30
0.0
 10
745.1003093278778
 20
645.8268335152492
 30
0.0
 10
745.101805701174
 20
645.82403371515
 30
0.0
 10
745.1054392913345
 20
645.8206827693772
 30
0.0
 10
745.1092008287677
 20
645.8189753218995
 30
0.0
 10
745.1109631540645
 20
645.8185094855547
 30
0.0
 10
745.1113473300426
 20
645.8184079361225
 30
0.0
  0
SPLINE
  5
1EA
330
1F
100
AcDbEntity
  8
0
  6
Continuous
 62
     7
370
    15
100
AcDbSpline
210
0.0
220
0.0
230
1.0
 70
     8
 71
     3
 72
    12
 73
     8
 74
     0
 42
0.00000001
 43
0.00000001
 12
1.0
 22
0.0
 32
0.0
 13
1.0
 23
0.0
 33
0.0
 40
0.0
 40
0.0
 40
0.0
 40
0.0
 40
0.0304717459459656
 40
0.088813566858585
 40
0.3925556175487665
 40
0.6962774394173868
 40
1.0
 40
1.0
 40
1.0
 40
1.0
 10
755.1146310066863
 20
624.8911819942418
 30
0.0
 10
755.116982331793
 20
624.886428988735
 30
0.0
 10
755.1238355514915
 20
624.8725757827813
 30
0.0
 10
755.1512502021984
 20
624.8092033939698
 30
0.0
 10
755.1797956409503
 20
624.690130086459
 30
0.0
 10
755.1755159448181
 20
624.5175385968649
 30
0.0
 10
755.135555739652
 20
624.4153603400111
 30
0.0
 10
755.115575612771
 20
624.3642711494546
 30
0.0
  0
SPLINE
  5
1EB
330
1F
100
AcDbEntity
  8
0
  6
Continuous
 62
     7
370
    15
100
AcDbSpline
210
0.0
220
0.0
230
1.0
 70
     8
 71
     3
 72
    10
 73
     6
 74
     0
 42
0.00000001
 43
0.00000001
 12
1.0
 22
0.0
 32
0.0
 13
1.0
 23
0.0
 33
0.0
 40
0.0
 40
0.0
 40
0.0
 40
0.0
 40
0.2117958997081855
 40
0.4880069094688032
 40
1.0
 40
1.0
 40
1.0
 40
1.0
 10
755.115575612771
 20
624.3642711494546
 30
0.0
 10
755.1150181108346
 20
624.3629010400816
 30
0.0
 10
755.1137335496257
 20
624.3597441194725
 30
0.0
 10
755.1135315599483
 20
624.3541608403928
 30
0.0
 10
755.1147392084846
 20
624.3509918730083
 30
0.0
 10
755.1155236597532
 20
624.3489334094652
 30
0.0
  0
SPLINE
  5
1EC
330
1F
100
AcDbEntity
  8
0
  6
Continuous
 62
     7
370
    15
100
AcDbSpline
210
0.0
220
0.0
230
1.0
 70
     8
 71
     3
 72
    12
 73
     8
 74
     0
 42
0.00000001
 43
0.00000001
 12
1.0
 22
0.0
 32
0.0
 13
1.0
 23
0.0
 33
0.0
 40
0.0
 40
0.0
 40
0.0
 40
0.0
 40
0.2238925571850065
 40
0.4477848984195747
 40
0.671682486203112
 40
0.8955821585469703
 40
0.9999999999999999
 40
0.9999999999999999
 40
0.9999999999999999
 40
0.9999999999999999
 10
744.4521416639902
 20
648.0078434779801
 30
0.0
 10
744.4382077834248
 20
648.0076757311036
 30
0.0
 10
744.4103400357334
 20
648.0073402375124
 30
0.0
 10
744.3743593027199
 20
648.0070385313176
 30
0.0
 10
744.3481630689048
 20
648.0068741859153
 30
0.0
 10
744.336495396783
 20
648.0068270916746
 30
0.0
 10
744.3355210663174
 20
648.0068321178237
 30
0.0
 10
744.3352111910295
 20
648.0068337163362
 30
0.0
  0
LINE
  5
1ED
330
1F
100
AcDbEntity
  8
0
  6
Continuous
 62
     7
370
    15
100
AcDbLine
 10
744.452141664
 20
648.007843478
 30
0.0
 11
753.9995569269
 21
648.1118872488
 31
0.0
  0
LINE
  5
1EE
330
1F
100
AcDbEntity
  8
0
  6
Continuous
 62
     7
370
    15
100
AcDbLine
 10
753.9995569269
 20
648.1118872488
 30
0.0
 11
754.7388751053
 21
648.1210766556
 31
0.0
  0
LINE
  5
1EF
330
1F
100
AcDbEntity
  8
0
  6
Continuous
 62
     7
370
    15
100
AcDbLine
 10
752.8492147348
 20
621.1424310956
 30
0.0
 11
753.8585437725
 21
622.1456158932
 31
0.0
  0
LINE
  5
1F0
330
1F
100
AcDbEntity
  8
0
  6
Continuous
 62
     7
370
    15
100
AcDbLine
 10
752.8457985292
 20
621.1453632461
 30
0.0
 11
752.8492147348
 21
621.1424310956
 31
0.0
  0
LINE
  5
1F1
330
1F
100
AcDbEntity
  8
0
  6
Continuous
 62
     7
370
    15
100
AcDbLine
 10
753.8551288116
 20
622.1485453744
 30
0.0
 11
753.8585437725
 21
622.1456158932
 31
0.0
  0
LINE
  5
1F2
330
1F
100
AcDbEntity
  8
0
  6
Continuous
 62
     7
370
    15
100
AcDbLine
 10
754.217811868
 20
622.249614545
 30
0.0
 11
754.3843522628
 21
621.8758743613
 31
0.0
  0
LINE
  5
1F3
330
1F
100
AcDbEntity
  8
0
  6
Continuous
 62
     7
370
    15
100
AcDbLine
 10
754.3843522628
 20
621.8758743613
 30
0.0
 11
754.1087493472
 21
621.6016717603
 31
0.0
  0
LINE
  5
1F4
330
1F
100
AcDbEntity
  8
0
  6
Continuous
 62
     7
370
    15
100
AcDbLine
 10
754.1087493472
 20
621.6016717603
 30
0.0
 11
752.934251371
 21
620.9688589002
 31
0.0
  0
LINE
  5
1F5
330
1F
100
AcDbEntity
  8
0
  6
Continuous
 62
     7
370
    15
100
AcDbLine
 10
752.9342513366
 20
620.9688589721
 30
0.0
 11
752.8492147348
 21
621.1424310956
 31
0.0
  0
LINE
  5
1F6
330
1F
100
AcDbEntity
  8
0
  6
Continuous
 62
     7
370
    15
100
AcDbLine
 10
753.8585437725
 20
622.1456158932
 30
0.0
 11
753.816070803
 21
622.2295101968
 31
0.0
  0
LINE
  5
1F7
330
1F
100
AcDbEntity
  8
0
  6
Continuous
 62
     7
370
    15
100
AcDbLine
 10
753.816070803
 20
622.2295101968
 30
0.0
 11
754.0916561137
 21
622.5037263042
 31
0.0
  0
LINE
  5
1F8
330
1F
100
AcDbEntity
  8
0
  6
Continuous
 62
     7
370
    15
100
AcDbLine
 10
754.0916561137
 20
622.5037263042
 30
0.0
 11
754.1341888605
 21
622.4197807017
 31
0.0
  0
LINE
  5
1F9
330
1F
100
AcDbEntity
  8
0
  6
Continuous
 62
     7
370
    15
100
AcDbLine
 10
754.1341888605
 20
622.4197807017
 30
0.0
 11
754.4561772829
 21
622.7397785959
 31
0.0
  0
LINE
  5
1FA
330
1F
100
AcDbEntity
  8
0
  6
Continuous
 62
     7
370
    15
100
AcDbLine
 10
754.4561772828
 20
622.7397785963
 30
0.0
 11
754.5398788171
 21
622.569544395
 31
0.0
  0
LINE
  5
1FB
330
1F
100
AcDbEntity
  8
0
  6
Continuous
 62
     7
370
    15
100
AcDbLine
 10
754.5398788171
 20
622.569544395
 30
0.0
 11
754.2178153809
 21
622.2496180346
 31
0.0
  0
LINE
  5
1FC
330
1F
100
AcDbEntity
  8
0
  6
Continuous
 62
     7
370
    15
100
AcDbLine
 10
754.0344555879
 20
621.7756954378
 30
0.0
 11
753.9420945462
 21
621.9755123104
 31
0.0
  0
LINE
  5
1FD
330
1F
100
AcDbEntity
  8
0
  6
Continuous
 62
     7
370
    15
100
AcDbLine
 10
753.9420945462
 20
621.9755123104
 30
0.0
 11
753.4164231057
 21
621.4533445173
 31
0.0
  0
LINE
  5
1FE
330
1F
100
AcDbEntity
  8
0
  6
Continuous
 62
     7
370
    15
100
AcDbLine
 10
753.4164231057
 20
621.4533445173
 30
0.0
 11
754.0344555879
 21
621.7756954378
 31
0.0
  0
LINE
  5
1FF
330
1F
100
AcDbEntity
  8
0
  6
Continuous
 62
     7
370
    15
100
AcDbLine
 10
752.9308107237
 20
620.971843466
 30
0.0
 11
752.934251371
 21
620.9688589002
 31
0.0
  0
LINE
  5
200
330
1F
100
AcDbEntity
  8
0
  6
Continuous
 62
     7
370
    15
100
AcDbLine
 10
753.8126682054
 20
622.2324131648
 30
0.0
 11
753.816070803
 21
622.2295101968
 31
0.0
  0
LINE
  5
201
330
1F
100
AcDbEntity
  8
0
  6
Continuous
 62
     7
370
    15
100
AcDbLine
 10
754.0882540231
 20
622.5066281849
 30
0.0
 11
754.0916561137
 21
622.5037263042
 31
0.0
  0
LINE
  5
202
330
1F
100
AcDbEntity
  8
0
  6
Continuous
 62
     7
370
    15
100
AcDbLine
 10
754.4527631182
 20
622.7427063697
 30
0.0
 11
754.4561772828
 21
622.7397785963
 31
0.0
  0
LINE
  5
203
330
1F
100
AcDbEntity
  8
0
  6
Continuous
 62
     7
370
    15
100
AcDbLine
 10
753.4129831414
 20
621.4563276186
 30
0.0
 11
754.030987202
 21
621.7787394894
 31
0.0
  0
LINE
  5
204
330
1F
100
AcDbEntity
  8
0
  6
Continuous
 62
     7
370
    15
100
AcDbLine
 10
754.030987202
 20
621.7787394894
 30
0.0
 11
754.0344555879
 21
621.7756954378
 31
0.0
  0
LINE
  5
205
330
1F
100
AcDbEntity
  8
0
  6
Continuous
 62
     7
370
    15
100
AcDbLine
 10
754.030987202
 20
621.7787394894
 30
0.0
 11
753.938654761
 21
621.9784950275
 31
0.0
  0
LINE
  5
206
330
1F
100
AcDbEntity
  8
0
  6
Continuous
 62
     7
370
    15
100
AcDbLine
 10
755.8810322103
 20
646.3693108566
 30
0.0
 11
762.460211735
 21
632.2602148347
 31
0.0
  0
LINE
  5
207
330
1F
100
AcDbEntity
  8
0
  6
Continuous
 62
     7
370
    15
100
AcDbLine
 10
762.460211735
 20
632.2602148347
 30
0.0
 11
763.1545205813
 21
630.7712647087
 31
0.0
  0
LINE
  5
208
330
1F
100
AcDbEntity
  8
0
  6
Continuous
 62
     7
370
    15
100
AcDbLine
 10
755.1993523848
 20
647.8311779601
 30
0.0
 11
755.8810322103
 21
646.3693108566
 31
0.0
  0
SPLINE
  5
209
330
1F
100
AcDbEntity
  8
0
  6
Continuous
 62
     7
370
    15
100
AcDbSpline
210
0.0
220
0.0
230
1.0
 70
     8
 71
     3
 72
    11
 73
     7
 74
     0
 42
0.00000001
 43
0.00000001
 12
1.0
 22
0.0
 32
0.0
 13
1.0
 23
0.0
 33
0.0
 40
0.0
 40
0.0
 40
0.0
 40
0.0
 40
0.2933118760928786
 40
0.5865991201420917
 40
0.8805021461504314
 40
1.0
 40
1.0
 40
1.0
 40
1.0
 10
754.7388751052968
 20
648.1210766556284
 30
0.0
 10
754.7952255396394
 20
648.1162414434473
 30
0.0
 10
754.9079216760705
 20
648.1065714251415
 30
0.0
 10
755.0582999159236
 20
648.0219692387307
 30
0.0
 10
755.1525239457218
 20
647.921669000183
 30
0.0
 10
755.1888515191963
 20
647.851469779883
 30
0.0
 10
755.1993523847661
 20
647.8311779600624
 30
0.0
  0
LINE
  5
20A
330
1F
100
AcDbEntity
  8
0
  6
Continuous
 62
     7
370
    15
100
AcDbLine
 10
736.2103785724
 20
642.6211250858
 30
0.0
 11
736.22099898
 21
642.6260774632
 31
0.0
  0
LINE
  5
20B
330
1F
100
AcDbEntity
  8
0
  6
Continuous
 62
     7
370
    15
100
AcDbLine
 10
738.3234698811
 20
638.0895861506
 30
0.0
 11
738.3340902887
 21
638.0945385281
 31
0.0
  0
LINE
  5
20C
330
1F
100
AcDbEntity
  8
0
  6
Continuous
 62
     7
370
    15
100
AcDbLine
 10
738.4397448542
 20
637.8679615813
 30
0.0
 11
738.4291244465
 21
637.8630092039
 31
0.0
  0
LINE
  5
20D
330
1F
100
AcDbEntity
  8
0
  6
Continuous
 62
     7
370
    15
100
AcDbLine
 10
744.3564005185
 20
625.1796525628
 30
0.0
 11
744.3457801109
 21
625.1747001854
 31
0.0
  0
LINE
  5
20E
330
1F
100
AcDbEntity
  8
0
  6
Continuous
 62
     7
370
    15
100
AcDbLine
 10
320.6689275224
 20
704.3797100549
 30
0.0
 11
320.6689275224
 21
704.5297100549
 31
0.0
  0
LINE
  5
20F
330
1F
100
AcDbEntity
  8
0
  6
Continuous
 62
     7
370
    15
100
AcDbLine
 10
329.6689275224
 20
704.5297100549
 30
0.0
 11
329.6689275224
 21
704.3797100549
 31
0.0
  0
LINE
  5
210
330
1F
100
AcDbEntity
  8
0
  6
Continuous
 62
     7
370
    15
100
AcDbLine
 10
308.8439275224
 20
704.3797100549
 30
0.0
 11
308.8439275224
 21
704.5297100549
 31
0.0
  0
LINE
  5
211
330
1F
100
AcDbEntity
  8
0
  6
Continuous
 62
     7
370
    15
100
AcDbLine
 10
341.4939275224
 20
704.5297100549
 30
0.0
 11
341.4939275224
 21
704.4111060776
 31
0.0
  0
ARC
  5
212
330
1F
100
AcDbEntity
  8
0
  6
Continuous
 62
     7
370
    15
100
AcDbCircle
 10
308.5439275224
 20
703.5297100549
 30
0.0
 40
1.0
100
AcDbArc
 50
90.0
 51
180.0
  0
LINE
  5
213
330
1F
100
AcDbEntity
  8
0
  6
Continuous
 62
     7
370
    15
100
AcDbLine
 10
308.5439275224
 20
704.5297100549
 30
0.0
 11
308.5439275224
 21
704.3797100549
 31
0.0
  0
ARC
  5
214
330
1F
100
AcDbEntity
  8
0
  6
Continuous
 62
     7
370
    15
100
AcDbCircle
 10
341.6439275224
 20
703.0797100549
 30
0.0
 40
0.1500000000000341
100
AcDbArc
 50
180.0
 51
319.9681973319
  0
LINE
  5
215
330
1F
100
AcDbEntity
  8
0
  6
Continuous
 62
     7
370
    15
100
AcDbLine
 10
341.7939275224
 20
704.3797100549
 30
0.0
 11
341.7939275224
 21
704.5297100549
 31
0.0
  0
ARC
  5
216
330
1F
100
AcDbEntity
  8
0
  6
Continuous
 62
     7
370
    15
100
AcDbCircle
 10
341.7939275224
 20
703.5297100549
 30
0.0
 40
1.0
100
AcDbArc
 50
0.0
 51
90.0
  0
ARC
  5
217
330
1F
100
AcDbEntity
  8
0
  6
Continuous
 62
     7
370
    15
100
AcDbCircle
 10
308.6939275224
 20
703.0797100549
 30
0.0
 40
0.1500000000000341
100
AcDbArc
 50
180.0
 51
0.0
  0
LINE
  5
218
330
1F
100
AcDbEntity
  8
0
  6
Continuous
 62
     7
370
    15
100
AcDbLine
 10
308.8439275224
 20
703.2297100549
 30
0.0
 11
308.8439275224
 21
704.3797100549
 31
0.0
  0
LINE
  5
219
330
1F
100
AcDbEntity
  8
0
  6
Continuous
 62
     7
370
    15
100
AcDbLine
 10
308.8439275224
 20
704.3797100549
 30
0.0
 11
341.4939275224
 21
704.3797100549
 31
0.0
  0
LINE
  5
21A
330
1F
100
AcDbEntity
  8
0
  6
Continuous
 62
     7
370
    15
100
AcDbLine
 10
341.4939275224
 20
704.3797100549
 30
0.0
 11
341.4939275224
 21
703.2297100549
 31
0.0
  0
LINE
  5
21B
330
1F
100
AcDbEntity
  8
0
  6
Continuous
 62
     7
370
    15
100
AcDbLine
 10
308.5439275224
 20
704.3797100549
 30
0.0
 11
308.5439275224
 21
702.9297100549
 31
0.0
  0
LINE
  5
21C
330
1F
100
AcDbEntity
  8
0
  6
Continuous
 62
     7
370
    15
100
AcDbLine
 10
341.4939275224
 20
703.2297100549
 30
0.0
 11
341.4939275224
 21
702.9297100549
 31
0.0
  0
ARC
  5
21D
330
1F
100
AcDbEntity
  8
0
  6
Continuous
 62
     7
370
    15
100
AcDbCircle
 10
341.6439275224
 20
702.9297100549
 30
0.0
 40
0.1500000000000341
100
AcDbArc
 50
180.0
 51
0.0
  0
LINE
  5
21E
330
1F
100
AcDbEntity
  8
0
  6
Continuous
 62
     7
370
    15
100
AcDbLine
 10
341.7939275224
 20
702.9297100549
 30
0.0
 11
341.7939275224
 21
704.3797100549
 31
0.0
  0
ARC
  5
21F
330
1F
100
AcDbEntity
  8
0
  6
Continuous
 62
     7
370
    15
100
AcDbCircle
 10
341.7939275224
 20
703.3797100549
 30
0.0
 40
1.0
100
AcDbArc
 50
0.0
 51
90.0
  0
LINE
  5
220
330
1F
100
AcDbEntity
  8
0
  6
Continuous
 62
     7
370
    15
100
AcDbLine
 10
342.7939275224
 20
703.3797100549
 30
0.0
 11
342.7939275224
 21
696.6797100549
 31
0.0
  0
LINE
  5
221
330
1F
100
AcDbEntity
  8
0
  6
Continuous
 62
     7
370
    15
100
AcDbLine
 10
314.0439275219
 20
696.6797100549
 30
0.0
 11
314.0439275219
 21
696.9797100549
 31
0.0
  0
ARC
  5
222
330
1F
100
AcDbEntity
  8
0
  6
Continuous
 62
     7
370
    15
100
AcDbCircle
 10
308.6939275224
 20
702.9297100549
 30
0.0
 40
0.1500000000000341
100
AcDbArc
 50
180.0
 51
0.0
  0
LINE
  5
223
330
1F
100
AcDbEntity
  8
0
  6
Continuous
 62
     7
370
    15
100
AcDbLine
 10
307.5439275224
 20
697.5547100549
 30
0.0
 11
307.5439275224
 21
703.3797100549
 31
0.0
  0
ARC
  5
224
330
1F
100
AcDbEntity
  8
0
  6
Continuous
 62
     7
370
    15
100
AcDbCircle
 10
308.5439275224
 20
703.3797100549
 30
0.0
 40
1.0
100
AcDbArc
 50
90.0
 51
180.0
  0
LINE
  5
225
330
1F
100
AcDbEntity
  8
0
  6
Continuous
 62
     7
370
    15
100
AcDbLine
 10
313.7439275219
 20
696.5547100549
 30
0.0
 11
308.5439275224
 21
696.5547100549
 31
0.0
  0
ARC
  5
226
330
1F
100
AcDbEntity
  8
0
  6
Continuous
 62
     7
370
    15
100
AcDbCircle
 10
308.5439275224
 20
697.5547100549
 30
0.0
 40
1.000000000000057
100
AcDbArc
 50
180.0
 51
270.0
  0
LINE
  5
227
330
1F
100
AcDbEntity
  8
0
  6
Continuous
 62
     7
370
    15
100
AcDbLine
 10
313.7439275219
 20
696.9797100549
 30
0.0
 11
313.7439275219
 21
696.5547100549
 31
0.0
  0
ARC
  5
228
330
1F
100
AcDbEntity
  8
0
  6
Continuous
 62
     7
370
    15
100
AcDbCircle
 10
313.8939275219
 20
696.9797100549
 30
0.0
 40
0.1500000000000341
100
AcDbArc
 50
0.0
 51
180.0
  0
LINE
  5
229
330
1F
100
AcDbEntity
  8
0
  6
Continuous
 62
     7
370
    15
100
AcDbLine
 10
308.8439275224
 20
702.9297100549
 30
0.0
 11
308.8439275224
 21
703.2297100549
 31
0.0
  0
LINE
  5
22A
330
1F
100
AcDbEntity
  8
0
  6
Continuous
 62
     7
370
    15
100
AcDbLine
 10
342.7939275224
 20
696.6797100549
 30
0.0
 11
342.7939275224
 21
695.5297100549
 31
0.0
  0
LINE
  5
22B
330
1F
100
AcDbEntity
  8
0
  6
Continuous
 62
     7
370
    15
100
AcDbLine
 10
342.7939275224
 20
695.5297100549
 30
0.0
 11
314.0439275219
 21
695.5297100549
 31
0.0
  0
LINE
  5
22C
330
1F
100
AcDbEntity
  8
0
  6
Continuous
 62
     7
370
    15
100
AcDbLine
 10
314.0439275219
 20
695.5297100549
 30
0.0
 11
314.0439275219
 21
696.6797100549
 31
0.0
  0
LINE
  5
22D
330
1F
100
AcDbEntity
  8
0
  6
Continuous
 62
     7
370
    15
100
AcDbLine
 10
745.2788577604
 20
670.5003079614
 30
0.0
 11
727.5822147746
 21
662.2482278134
 31
0.0
  0
SPLINE
  5
22E
330
1F
100
AcDbEntity
  8
0
  6
Continuous
 62
     7
370
    15
100
AcDbSpline
210
0.0
220
0.0
230
1.0
 70
     8
 71
     3
 72
    14
 73
    10
 74
     0
 42
0.00000001
 43
0.00000001
 12
1.0
 22
0.0
 32
0.0
 13
1.0
 23
0.0
 33
0.0
 40
0.0
 40
0.0
 40
0.0
 40
0.0
 40
0.1424979789612807
 40
0.2891107491291701
 40
0.4316087267218909
 40
0.578221423293946
 40
0.7209671108987271
 40
0.867849816673804
 40
1.0
 40
1.0
 40
1.0
 40
1.0
 10
727.5822147745763
 20
662.2482278134411
 30
0.0
 10
727.5099062104873
 20
662.2206630781018
 30
0.0
 10
727.3632010902842
 20
662.1647376443409
 30
0.0
 10
727.1130940002108
 20
662.1478291048433
 30
0.0
 10
726.8397518960932
 20
662.175607903177
 30
0.0
 10
726.5487740375538
 20
662.2460151577095
 30
0.0
 10
726.2394580732604
 20
662.3502800181851
 30
0.0
 10
725.9298713516536
 20
662.4734952360004
 30
0.0
 10
725.721933256024
 20
662.5618718589828
 30
0.0
 10
725.6234536196398
 20
662.6037270932046
 30
0.0
  0
LINE
  5
22F
330
1F
100
AcDbEntity
  8
0
  6
Continuous
 62
     7
370
    15
100
AcDbLine
 10
727.3515692191
 20
661.6189030514
 30
0.0
 11
755.5520385715
 21
601.1428013636
 31
0.0
  0
SPLINE
  5
230
330
1F
100
AcDbEntity
  8
0
  6
Continuous
 62
     7
370
    15
100
AcDbSpline
210
0.0
220
0.0
230
1.0
 70
     8
 71
     3
 72
    11
 73
     7
 74
     0
 42
0.00000001
 43
0.00000001
 12
1.0
 22
0.0
 32
0.0
 13
1.0
 23
0.0
 33
0.0
 40
0.0
 40
0.0
 40
0.0
 40
0.0
 40
0.2888077077194049
 40
0.5776153362197914
 40
0.866934541432361
 40
1.0
 40
1.0
 40
1.0
 40
1.0
 10
725.62345361964
 20
662.6037270932047
 30
0.0
 10
725.8473026320289
 20
662.5356227157765
 30
0.0
 10
726.2950005954056
 20
662.399413979601
 30
0.0
 10
726.8685813899359
 20
662.1494093160438
 30
0.0
 10
727.2060251643015
 20
661.8812839508292
 30
0.0
 10
727.3167022065263
 20
661.6817598828034
 30
0.0
 10
727.3515692190849
 20
661.6189030513797
 30
0.0
  0
ARC
  5
231
330
1F
100
AcDbEntity
  8
0
  6
Continuous
 62
     7
370
    15
100
AcDbCircle
 10
751.0204996363
 20
599.0297100549
 30
0.0
 40
4.999999999999964
100
AcDbArc
 50
335.0
 51
25.0
  0
SPLINE
  5
232
330
1F
100
AcDbEntity
  8
0
  6
Continuous
 62
     7
370
    15
100
AcDbSpline
210
0.0
220
0.0
230
1.0
 70
     8
 71
     3
 72
    12
 73
     8
 74
     0
 42
0.00000001
 43
0.00000001
 12
1.0
 22
0.0
 32
0.0
 13
1.0
 23
0.0
 33
0.0
 40
0.0
 40
0.0
 40
0.0
 40
0.0
 40
0.2096821001528904
 40
0.442045373318579
 40
0.6744332966681436
 40
0.9068208701180427
 40
0.9999999999999999
 40
0.9999999999999999
 40
0.9999999999999999
 40
0.9999999999999999
 10
307.5689275224431
 20
694.3797100548663
 30
0.0
 10
307.5167849184793
 20
694.505875533854
 30
0.0
 10
307.4068594798359
 20
694.7718537275977
 30
0.0
 10
307.2388754148948
 20
695.1325444425049
 30
0.0
 10
307.065422780686
 20
695.4042239094982
 30
0.0
 10
306.9262344495698
 20
695.5185348295698
 30
0.0
 10
306.845554218959
 20
695.527223348882
 30
0.0
 10
306.8224630563491
 20
695.5297100548663
 30
0.0
  0
SPLINE
  5
233
330
1F
100
AcDbEntity
  8
0
  6
Continuous
 62
     7
370
    15
100
AcDbSpline
210
0.0
220
0.0
230
1.0
 70
     8
 71
     3
 72
    11
 73
     7
 74
     0
 42
0.00000001
 43
0.00000001
 12
1.0
 22
0.0
 32
0.0
 13
1.0
 23
0.0
 33
0.0
 40
0.0
 40
0.0
 40
0.0
 40
0.0
 40
0.2543211584720629
 40
0.5088664984541644
 40
0.763413000719657
 40
1.0
 40
1.0
 40
1.0
 40
1.0
 10
307.5689275224432
 20
694.3797100548663
 30
0.0
 10
307.5056369685505
 20
694.4796976499359
 30
0.0
 10
307.3790000707867
 20
694.6797609781214
 30
0.0
 10
307.189027736044
 20
694.9305728551692
 30
0.0
 10
307.0034151702085
 20
695.0986054785986
 30
0.0
 10
306.8812918478739
 20
695.1195977406542
 30
0.0
 10
306.8224630563491
 20
695.1297100548663
 30
0.0
  0
LINE
  5
234
330
1F
100
AcDbEntity
  8
0
  6
Continuous
 62
     7
370
    15
100
AcDbLine
 10
306.8224630563
 20
695.5297100549
 30
0.0
 11
306.8224630563
 21
695.1297100549
 31
0.0
  0
LINE
  5
235
330
1F
100
AcDbEntity
  8
0
  6
Continuous
 62
     7
370
    15
100
AcDbLine
 10
306.8224630563
 20
695.5297100549
 30
0.0
 11
308.5439275224
 21
695.5297100549
 31
0.0
  0
LINE
  5
236
330
1F
100
AcDbEntity
  8
0
  6
Continuous
 62
     7
370
    15
100
AcDbLine
 10
313.9189275224
 20
695.5297100549
 30
0.0
 11
314.0439275219
 21
695.5297100549
 31
0.0
  0
LINE
  5
237
330
1F
100
AcDbEntity
  8
0
  6
Continuous
 62
     7
370
    15
100
AcDbLine
 10
342.7939275224
 20
695.5297100549
 30
0.0
 11
345.0439275224
 21
695.5297100549
 31
0.0
  0
SPLINE
  5
238
330
1F
100
AcDbEntity
  8
0
  6
Continuous
 62
     7
370
    15
100
AcDbSpline
210
0.0
220
0.0
230
1.0
 70
     8
 71
     3
 72
    12
 73
     8
 74
     0
 42
0.00000001
 43
0.00000001
 12
1.0
 22
0.0
 32
0.0
 13
1.0
 23
0.0
 33
0.0
 40
0.0
 40
0.0
 40
0.0
 40
0.0
 40
0.209682100152868
 40
0.4420453733185927
 40
0.674433296668106
 40
0.9068208701180378
 40
1.0
 40
1.0
 40
1.0
 40
1.0
 10
306.4189275224431
 20
695.1261745209604
 30
0.0
 10
306.4310975075274
 20
695.0740319169965
 30
0.0
 10
306.4567538968709
 20
694.9641064783533
 30
0.0
 10
306.6672191903352
 20
694.7961224134118
 30
0.0
 10
306.9931139292828
 20
694.6226697792034
 30
0.0
 10
307.3178344488344
 20
694.483481448087
 30
0.0
 10
307.5130544073875
 20
694.402801217476
 30
0.0
 10
307.5689275224432
 20
694.3797100548663
 30
0.0
  0
LINE
  5
239
330
1F
100
AcDbEntity
  8
0
  6
Continuous
 62
     7
370
    15
100
AcDbLine
 10
306.4189275224
 20
695.126174521
 30
0.0
 11
306.8189275224
 21
695.126174521
 31
0.0
  0
SPLINE
  5
23A
330
1F
100
AcDbEntity
  8
0
  6
Continuous
 62
     7
370
    15
100
AcDbSpline
210
0.0
220
0.0
230
1.0
 70
     8
 71
     3
 72
    11
 73
     7
 74
     0
 42
0.00000001
 43
0.00000001
 12
1.0
 22
0.0
 32
0.0
 13
1.0
 23
0.0
 33
0.0
 40
0.0
 40
0.0
 40
0.0
 40
0.0
 40
0.254321158472108
 40
0.5088664984542033
 40
0.7634130007197125
 40
1.0
 40
1.0
 40
1.0
 40
1.0
 10
306.8189275224432
 20
695.1261745209604
 30
0.0
 10
306.8306045534528
 20
695.0628839670676
 30
0.0
 10
306.8539689086556
 20
694.9362470693039
 30
0.0
 10
307.0334127167532
 20
694.7462747345611
 30
0.0
 10
307.283024206398
 20
694.5606621687257
 30
0.0
 10
307.4759783646957
 20
694.4385388463912
 30
0.0
 10
307.5689275224431
 20
694.3797100548663
 30
0.0
  0
CIRCLE
  5
23B
330
1F
100
AcDbEntity
  8
0
  6
Continuous
 62
     7
370
    15
100
AcDbCircle
 10
345.1925387274
 20
685.5297100549
 30
0.0
 40
3.173831552685783
  0
CIRCLE
  5
23C
330
1F
100
AcDbEntity
  8
0
  6
Continuous
 62
     7
370
    15
100
AcDbCircle
 10
730.1925387274
 20
685.5297100549
 30
0.0
 40
3.173831552685783
  0
CIRCLE
  5
23D
330
1F
100
AcDbEntity
  8
0
  6
Continuous
 62
     7
370
    15
100
AcDbCircle
 10
540.1925387274
 20
685.5297100549
 30
0.0
 40
3.173831552685783
  0
SPLINE
  5
23E
330
1F
100
AcDbEntity
  8
0
  6
Continuous
 62
     7
370
    15
100
AcDbSpline
210
0.0
220
0.0
230
1.0
 70
     8
 71
     3
 72
    12
 73
     8
 74
     0
 42
0.00000001
 43
0.00000001
 12
1.0
 22
0.0
 32
0.0
 13
1.0
 23
0.0
 33
0.0
 40
0.0
 40
0.0
 40
0.0
 40
0.0
 40
0.2096821001528878
 40
0.4420453733185978
 40
0.6744332966681351
 40
0.9068208701180639
 40
1.0
 40
1.0
 40
1.0
 40
1.0
 10
307.5689275224432
 20
573.0797100548662
 30
0.0
 10
307.4427620434556
 20
573.0275674509023
 30
0.0
 10
307.176783849712
 20
572.9176420122591
 30
0.0
 10
306.8160931348045
 20
572.7496579473175
 30
0.0
 10
306.5444136678114
 20
572.5762053131092
 30
0.0
 10
306.4301027477397
 20
572.4370169819927
 30
0.0
 10
306.4214142284275
 20
572.3563367513818
 30
0.0
 10
306.4189275224432
 20
572.333245588772
 30
0.0
  0
SPLINE
  5
23F
330
1F
100
AcDbEntity
  8
0
  6
Continuous
 62
     7
370
    15
100
AcDbSpline
210
0.0
220
0.0
230
1.0
 70
     8
 71
     3
 72
    11
 73
     7
 74
     0
 42
0.00000001
 43
0.00000001
 12
1.0
 22
0.0
 32
0.0
 13
1.0
 23
0.0
 33
0.0
 40
0.0
 40
0.0
 40
0.0
 40
0.0
 40
0.2543211584721489
 40
0.5088664984542584
 40
0.7634130007197295
 40
1.0
 40
1.0
 40
1.0
 40
1.0
 10
307.5689275224432
 20
573.0797100548662
 30
0.0
 10
307.4689399273736
 20
573.0164195009734
 30
0.0
 10
307.2688765991879
 20
572.8897826032096
 30
0.0
 10
307.0180647221403
 20
572.6998102684669
 30
0.0
 10
306.8500320987108
 20
572.5141977026313
 30
0.0
 10
306.8290398366555
 20
572.3920743802968
 30
0.0
 10
306.8189275224432
 20
572.333245588772
 30
0.0
  0
LINE
  5
240
330
1F
100
AcDbEntity
  8
0
  6
Continuous
 62
     7
370
    15
100
AcDbLine
 10
306.4189275224
 20
572.3332455888
 30
0.0
 11
306.8189275224
 21
572.3332455888
 31
0.0
  0
LINE
  5
241
330
1F
100
AcDbEntity
  8
0
  6
Continuous
 62
     7
370
    15
100
AcDbLine
 10
306.4189275224
 20
695.126174521
 30
0.0
 11
306.4189275224
 21
572.3332455888
 31
0.0
  0
ARC
  5
242
330
1F
100
AcDbEntity
  8
0
  6
Continuous
 62
     7
370
    15
100
AcDbCircle
 10
743.1657664517
 20
675.0318468965
 30
0.0
 40
5.000000000000115
100
AcDbArc
 50
295.0
 51
335.0
  0
ARC
  5
243
330
1F
100
AcDbEntity
  8
0
  6
Continuous
 62
     7
370
    15
100
AcDbCircle
 10
750.3925387274
 20
690.5297100549
 30
0.0
 40
4.999999999999964
100
AcDbArc
 50
335.0
 51
90.0
  0
LINE
  5
244
330
1F
100
AcDbEntity
  8
0
  6
Continuous
 62
     7
370
    15
100
AcDbLine
 10
747.6973053869
 20
672.9187555878
 30
0.0
 11
754.9240776626
 21
688.4166187462
 31
0.0
  0
LINE
  5
245
330
1F
100
AcDbEntity
  8
0
  6
Continuous
 62
     7
370
    15
100
AcDbLine
 10
710.4133814343
 20
571.9297100549
 30
0.0
 11
306.8224630563
 21
571.9297100549
 31
0.0
  0
SPLINE
  5
246
330
1F
100
AcDbEntity
  8
0
  6
Continuous
 62
     7
370
    15
100
AcDbSpline
210
0.0
220
0.0
230
1.0
 70
     8
 71
     3
 72
    24
 73
    20
 74
     0
 42
0.00000001
 43
0.00000001
 12
1.0
 22
0.0
 32
0.0
 13
1.0
 23
0.0
 33
0.0
 40
0.0
 40
0.0
 40
0.0
 40
0.0
 40
0.1298673967973465
 40
0.2094795282572617
 40
0.2952785543294353
 40
0.3534027966188234
 40
0.412369122163159
 40
0.4419947996130584
 40
0.4705315161441254
 40
0.5278396605623176
 40
0.5859701202268638
 40
0.6449429372026737
 40
0.6745719078989738
 40
0.7603796844751985
 40
0.8185100568084417
 40
0.8774827829390863
 40
0.9071117073237218
 40
0.9534502912150558
 40
1.0
 40
1.0
 40
1.0
 40
1.0
 10
306.8224630563491
 20
571.9297100548661
 30
0.0
 10
306.854819321232
 20
571.9341934978513
 30
0.0
 10
306.907010827884
 20
571.9414254093601
 30
0.0
 10
306.9804626219754
 20
571.9899151810434
 30
0.0
 10
307.0361090181146
 20
572.041711542405
 30
0.0
 10
307.0865741524497
 20
572.1014264699835
 30
0.0
 10
307.1230765237935
 20
572.151466179812
 30
0.0
 10
307.152206918374
 20
572.1953231585112
 30
0.0
 10
307.1809260651438
 20
572.2409943053843
 30
0.0
 10
307.2167473397055
 20
572.3022816238717
 30
0.0
 10
307.2601341669854
 20
572.3829444104944
 30
0.0
 10
307.2966412787318
 20
572.4557466511567
 30
0.0
 10
307.3400113810458
 20
572.5460956646677
 30
0.0
 10
307.3832295560815
 20
572.6407650051513
 30
0.0
 10
307.4336990202713
 20
572.7564008505457
 30
0.0
 10
307.470207128768
 20
572.8423399289053
 30
0.0
 10
307.503764626447
 20
572.9224149407078
 30
0.0
 10
307.5342423966798
 20
572.9957763291093
 30
0.0
 10
307.5573483081218
 20
573.0516897845648
 30
0.0
 10
307.5689275224432
 20
573.0797100548662
 30
0.0
  0
LINE
  5
247
330
1F
100
AcDbEntity
  8
0
  6
Continuous
 62
     7
370
    15
100
AcDbLine
 10
745.2466393262
 20
574.8166187462
 30
0.0
 11
755.5520385715
 21
596.9166187462
 31
0.0
  0
LINE
  5
248
330
1F
100
AcDbEntity
  8
0
  6
Continuous
 62
     7
370
    15
100
AcDbLine
 10
306.8224630563
 20
571.9297100549
 30
0.0
 11
306.8224630563
 21
572.3297100549
 31
0.0
  0
SPLINE
  5
249
330
1F
100
AcDbEntity
  8
0
  6
Continuous
 62
     7
370
    15
100
AcDbSpline
210
0.0
220
0.0
230
1.0
 70
     8
 71
     3
 72
    21
 73
    17
 74
     0
 42
0.00000001
 43
0.00000001
 12
1.0
 22
0.0
 32
0.0
 13
1.0
 23
0.0
 33
0.0
 40
0.0
 40
0.0
 40
0.0
 40
0.0
 40
0.0624749974636244
 40
0.1253838348886001
 40
0.1896568957286252
 40
0.2544026636590008
 40
0.3169312361942952
 40
0.3803517131827991
 40
0.4442261936265192
 40
0.5090316067318109
 40
0.5715604604369552
 40
0.6345242850377967
 40
0.698855992680389
 40
0.7636617110834456
 40
0.8807395084365109
 40
1.0
 40
1.0
 40
1.0
 40
1.0
 10
306.8224630563491
 20
572.3297100548662
 30
0.0
 10
306.8380057904875
 20
572.3304057822063
 30
0.0
 10
306.8691991908884
 20
572.3318020681686
 30
0.0
 10
306.9163799560367
 20
572.3431747976844
 30
0.0
 10
306.9641264330975
 20
572.3615375940602
 30
0.0
 10
307.0117815215983
 20
572.3872987938242
 30
0.0
 10
307.0592228523757
 20
572.419804651493
 30
0.0
 10
307.1064452611673
 20
572.4586558946885
 30
0.0
 10
307.1542346246243
 20
572.504209116024
 30
0.0
 10
307.2018055195473
 20
572.5553705312427
 30
0.0
 10
307.2491483887005
 20
572.6114983695386
 30
0.0
 10
307.2963697461201
 20
572.6720702645196
 30
0.0
 10
307.3441623510232
 20
572.7374728245809
 30
0.0
 10
307.4054072945991
 20
572.8257469613781
 30
0.0
 10
307.4804002652146
 20
572.9399942900492
 30
0.0
 10
307.5392373075342
 20
573.0328522710212
 30
0.0
 10
307.5689275224432
 20
573.0797100548662
 30
0.0
  0
ARC
  5
24A
330
1F
100
AcDbEntity
  8
0
  6
Continuous
 62
     7
370
    15
100
AcDbCircle
 10
740.7151003911
 20
576.9297100549
 30
0.0
 40
4.999999999999964
100
AcDbArc
 50
270.0
 51
335.0
  0
CIRCLE
  5
24B
330
1F
100
AcDbEntity
  8
0
  6
Continuous
 62
     7
370
    15
100
AcDbCircle
 10
540.1925387274
 20
685.5297100549
 30
0.0
 40
1.349999999999909
  0
CIRCLE
  5
24C
330
1F
100
AcDbEntity
  8
0
  6
Continuous
 62
     7
370
    15
100
AcDbCircle
 10
730.1925387274
 20
685.5297100549
 30
0.0
 40
1.349999999999909
  0
CIRCLE
  5
24D
330
1F
100
AcDbEntity
  8
0
  6
Continuous
 62
     7
370
    15
100
AcDbCircle
 10
345.1925387274
 20
685.5297100549
 30
0.0
 40
1.349999999999909
  0
LINE
  5
24E
330
1F
100
AcDbEntity
  8
0
  6
Continuous
 62
     7
370
    15
100
AcDbLine
 10
306.8189275224
 20
572.3332455888
 30
0.0
 11
306.8599120265
 21
572.3332455888
 31
0.0
  0
CIRCLE
  5
24F
330
1F
100
AcDbEntity
  8
0
  6
Continuous
 62
     7
370
    15
100
AcDbCircle
 10
730.2204996369
 20
685.5297100549
 30
0.0
 40
1.262499999999856
  0
CIRCLE
  5
250
330
1F
100
AcDbEntity
  8
0
  6
Continuous
 62
     7
370
    15
100
AcDbCircle
 10
730.2204996369
 20
685.5297100549
 30
0.0
 40
1.050000000000055
  0
CIRCLE
  5
251
330
1F
100
AcDbEntity
  8
0
  6
Continuous
 62
     7
370
    15
100
AcDbCircle
 10
540.2204996369
 20
685.5297100549
 30
0.0
 40
1.262500000000045
  0
CIRCLE
  5
252
330
1F
100
AcDbEntity
  8
0
  6
Continuous
 62
     7
370
    15
100
AcDbCircle
 10
540.2204996369
 20
685.5297100549
 30
0.0
 40
1.050000000000068
  0
CIRCLE
  5
253
330
1F
100
AcDbEntity
  8
0
  6
Continuous
 62
     7
370
    15
100
AcDbCircle
 10
345.2204996369
 20
685.5297100549
 30
0.0
 40
1.262499999999989
  0
CIRCLE
  5
254
330
1F
100
AcDbEntity
  8
0
  6
Continuous
 62
     7
370
    15
100
AcDbCircle
 10
345.2204996369
 20
685.5297100549
 30
0.0
 40
1.050000000000011
  0
SPLINE
  5
255
330
1F
100
AcDbEntity
  8
0
  6
Continuous
 62
     7
370
    15
100
AcDbSpline
210
0.0
220
0.0
230
1.0
 70
     8
 71
     3
 72
    13
 73
     9
 74
     0
 42
0.00000001
 43
0.00000001
 12
1.0
 22
0.0
 32
0.0
 13
1.0
 23
0.0
 33
0.0
 40
0.0
 40
0.0
 40
0.0
 40
0.0
 40
0.1695411050602199
 40
0.3386458383073663
 40
0.5184804584260418
 40
0.7277236211479436
 40
0.9924537768846039
 40
1.0
 40
1.0
 40
1.0
 40
1.0
 10
326.7975897548733
 20
566.6047100548678
 30
0.0
 10
326.7972383531758
 20
566.6170156285111
 30
0.0
 10
326.7965364542326
 20
566.6415951032103
 30
0.0
 10
326.7912174913865
 20
566.6746629999005
 30
0.0
 10
326.7832211592219
 20
566.7024988014527
 30
0.0
 10
326.7717830366813
 20
566.7238581910889
 30
0.0
 10
326.7625507370931
 20
566.7296510208951
 30
0.0
 10
326.7574045657694
 20
566.7297084628466
 30
0.0
 10
326.7572619380573
 20
566.7297100548678
 30
0.0
  0
LINE
  5
256
330
1F
100
AcDbEntity
  8
0
  6
Continuous
 62
     7
370
    15
100
AcDbLine
 10
326.7572619381
 20
566.7297100549
 30
0.0
 11
330.141167257
 21
566.7297100549
 31
0.0
  0
SPLINE
  5
257
330
1F
100
AcDbEntity
  8
0
  6
Continuous
 62
     7
370
    15
100
AcDbSpline
210
0.0
220
0.0
230
1.0
 70
     8
 71
     3
 72
    13
 73
     9
 74
     0
 42
0.00000001
 43
0.00000001
 12
1.0
 22
0.0
 32
0.0
 13
1.0
 23
0.0
 33
0.0
 40
0.0
 40
0.0
 40
0.0
 40
0.0
 40
0.0075462231156985
 40
0.2722763788520314
 40
0.4815195415742765
 40
0.6613541616927313
 40
0.8304588949399053
 40
1.0
 40
1.0
 40
1.0
 40
1.0
 10
326.7572619380574
 20
566.1297100548678
 30
0.0
 10
326.7574045657695
 20
566.1297116468891
 30
0.0
 10
326.7625507370914
 20
566.1297690888405
 30
0.0
 10
326.7717830366823
 20
566.1355619186469
 30
0.0
 10
326.7832211592217
 20
566.1569213082828
 30
0.0
 10
326.7912174913866
 20
566.1847571098351
 30
0.0
 10
326.7965364542325
 20
566.2178250065253
 30
0.0
 10
326.7972383531757
 20
566.2424044812244
 30
0.0
 10
326.7975897548734
 20
566.2547100548678
 30
0.0
  0
LINE
  5
258
330
1F
100
AcDbEntity
  8
0
  6
Continuous
 62
     7
370
    15
100
AcDbLine
 10
329.9685220821
 20
566.1297100549
 30
0.0
 11
326.7572619381
 21
566.1297100549
 31
0.0
  0
LINE
  5
259
330
1F
100
AcDbEntity
  8
0
  6
Continuous
 62
     7
370
    15
100
AcDbLine
 10
326.7975897549
 20
566.2547100549
 30
0.0
 11
326.7975897549
 21
566.6047100549
 31
0.0
  0
SPLINE
  5
25A
330
1F
100
AcDbEntity
  8
0
  6
Continuous
 62
     7
370
    15
100
AcDbSpline
210
0.0
220
0.0
230
1.0
 70
     8
 71
     3
 72
    12
 73
     8
 74
     0
 42
0.00000001
 43
0.00000001
 12
1.0
 22
0.0
 32
0.0
 13
1.0
 23
0.0
 33
0.0
 40
0.0
 40
0.0
 40
0.0
 40
0.0
 40
0.2289440738515986
 40
0.4594214300240814
 40
0.6825355698157961
 40
0.8947175231628787
 40
1.0
 40
1.0
 40
1.0
 40
1.0
 10
324.3635286977952
 20
566.7297100548678
 30
0.0
 10
324.3026232406131
 20
566.721042812579
 30
0.0
 10
324.1804044307347
 20
566.7036502818195
 30
0.0
 10
324.0204345500381
 20
566.5667153589133
 30
0.0
 10
323.9057113047912
 20
566.3681970916718
 30
0.0
 10
323.8543382001049
 20
566.1677590969955
 30
0.0
 10
323.8499690334774
 20
566.0453164004518
 30
0.0
 10
323.8485200626936
 20
566.0047100548678
 30
0.0
  0
LINE
  5
25B
330
1F
100
AcDbEntity
  8
0
  6
Continuous
 62
     7
370
    15
100
AcDbLine
 10
324.3635286978
 20
566.7297100549
 30
0.0
 11
326.6538863099
 21
566.7297100549
 31
0.0
  0
LINE
  5
25C
330
1F
100
AcDbEntity
  8
0
  6
Continuous
 62
     7
370
    15
100
AcDbLine
 10
326.2446269963
 20
563.3297100549
 30
0.0
 11
323.9542693842
 21
563.3297100549
 31
0.0
  0
LINE
  5
25D
330
1F
100
AcDbEntity
  8
0
  6
Continuous
 62
     7
370
    15
100
AcDbLine
 10
326.4826164704
 20
563.3297100549
 30
0.0
 11
326.2446269963
 21
563.3297100549
 31
0.0
  0
LINE
  5
25E
330
1F
100
AcDbEntity
  8
0
  6
Continuous
 62
     7
370
    15
100
AcDbLine
 10
326.6538863099
 20
566.7297100549
 30
0.0
 11
326.7572619381
 21
566.7297100549
 31
0.0
  0
LINE
  5
25F
330
1F
100
AcDbEntity
  8
0
  6
Continuous
 62
     7
370
    15
100
AcDbLine
 10
326.7572619381
 20
566.1297100549
 30
0.0
 11
326.6538863099
 21
566.1297100549
 31
0.0
  0
LINE
  5
260
330
1F
100
AcDbEntity
  8
0
  6
Continuous
 62
     7
370
    15
100
AcDbLine
 10
323.8485200627
 20
566.0047100549
 30
0.0
 11
323.8292693842
 21
566.0047100549
 31
0.0
  0
LINE
  5
261
330
1F
100
AcDbEntity
  8
0
  6
Continuous
 62
     7
370
    15
100
AcDbLine
 10
323.9380923822
 20
566.7297100549
 30
0.0
 11
324.3635286978
 21
566.7297100549
 31
0.0
  0
ARC
  5
262
330
1F
100
AcDbEntity
  8
0
  6
Continuous
 62
     7
370
    15
100
AcDbCircle
 10
332.1434941643
 20
563.4464951445
 30
0.0
 40
0.1171764000643291
100
AcDbArc
 50
175.9798550464
 51
265.3161909112
  0
LINE
  5
263
330
1F
100
AcDbEntity
  8
0
  6
Continuous
 62
     7
370
    15
100
AcDbLine
 10
332.1339259061
 20
563.3297100549
 30
0.0
 11
331.0279864004
 21
563.3297100549
 31
0.0
  0
LINE
  5
264
330
1F
100
AcDbEntity
  8
0
  6
Continuous
 62
     7
370
    15
100
AcDbLine
 10
332.3719153801
 20
563.3297100549
 30
0.0
 11
332.1339259061
 21
563.3297100549
 31
0.0
  0
SPLINE
  5
265
330
1F
100
AcDbEntity
  8
0
  6
Continuous
 62
     7
370
    15
100
AcDbSpline
210
0.0
220
0.0
230
1.0
 70
     8
 71
     3
 72
    13
 73
     9
 74
     0
 42
0.00000001
 43
0.00000001
 12
1.0
 22
0.0
 32
0.0
 13
1.0
 23
0.0
 33
0.0
 40
0.0
 40
0.0
 40
0.0
 40
0.0
 40
0.1695411050602301
 40
0.3386458383072995
 40
0.5184804584259614
 40
0.7277236211479632
 40
0.9924537768844758
 40
1.0
 40
1.0
 40
1.0
 40
1.0
 10
341.5975897548734
 20
325.8047100548653
 30
0.0
 10
341.5972383531757
 20
325.8170156285086
 30
0.0
 10
341.5965364542324
 20
325.8415951032077
 30
0.0
 10
341.5912174913867
 20
325.8746629998981
 30
0.0
 10
341.5832211592218
 20
325.9024988014502
 30
0.0
 10
341.5717830366814
 20
325.9238581910865
 30
0.0
 10
341.5625507370932
 20
325.9296510208921
 30
0.0
 10
341.5574045657696
 20
325.9297084628441
 30
0.0
 10
341.5572619380574
 20
325.9297100548653
 30
0.0
  0
LINE
  5
266
330
1F
100
AcDbEntity
  8
0
  6
Continuous
 62
     7
370
    15
100
AcDbLine
 10
341.5572619381
 20
325.9297100549
 30
0.0
 11
344.941167257
 21
325.9297100549
 31
0.0
  0
SPLINE
  5
267
330
1F
100
AcDbEntity
  8
0
  6
Continuous
 62
     7
370
    15
100
AcDbSpline
210
0.0
220
0.0
230
1.0
 70
     8
 71
     3
 72
    13
 73
     9
 74
     0
 42
0.00000001
 43
0.00000001
 12
1.0
 22
0.0
 32
0.0
 13
1.0
 23
0.0
 33
0.0
 40
0.0
 40
0.0
 40
0.0
 40
0.0
 40
0.0075462231158268
 40
0.2722763788520746
 40
0.481519541574366
 40
0.6613541616928083
 40
0.8304588949399063
 40
1.0
 40
1.0
 40
1.0
 40
1.0
 10
341.5572619380574
 20
325.3297100548652
 30
0.0
 10
341.5574045657696
 20
325.3297116468865
 30
0.0
 10
341.5625507370923
 20
325.3297690888381
 30
0.0
 10
341.5717830366821
 20
325.3355619186443
 30
0.0
 10
341.5832211592221
 20
325.3569213082803
 30
0.0
 10
341.5912174913867
 20
325.3847571098325
 30
0.0
 10
341.5965364542325
 20
325.4178250065228
 30
0.0
 10
341.5972383531758
 20
325.4424044812221
 30
0.0
 10
341.5975897548734
 20
325.4547100548652
 30
0.0
  0
LINE
  5
268
330
1F
100
AcDbEntity
  8
0
  6
Continuous
 62
     7
370
    15
100
AcDbLine
 10
344.7685220821
 20
325.3297100549
 30
0.0
 11
341.5572619381
 21
325.3297100549
 31
0.0
  0
LINE
  5
269
330
1F
100
AcDbEntity
  8
0
  6
Continuous
 62
     7
370
    15
100
AcDbLine
 10
341.5975897549
 20
325.4547100549
 30
0.0
 11
341.5975897549
 21
325.8047100549
 31
0.0
  0
SPLINE
  5
26A
330
1F
100
AcDbEntity
  8
0
  6
Continuous
 62
     7
370
    15
100
AcDbSpline
210
0.0
220
0.0
230
1.0
 70
     8
 71
     3
 72
    12
 73
     8
 74
     0
 42
0.00000001
 43
0.00000001
 12
1.0
 22
0.0
 32
0.0
 13
1.0
 23
0.0
 33
0.0
 40
0.0
 40
0.0
 40
0.0
 40
0.0
 40
0.2289440738515981
 40
0.4594214300240804
 40
0.6825355698157946
 40
0.8947175231628797
 40
1.0
 40
1.0
 40
1.0
 40
1.0
 10
339.1635286977952
 20
325.9297100548654
 30
0.0
 10
339.1026232406132
 20
325.9210428125765
 30
0.0
 10
338.9804044307348
 20
325.903650281817
 30
0.0
 10
338.8204345500379
 20
325.7667153589107
 30
0.0
 10
338.7057113047914
 20
325.5681970916695
 30
0.0
 10
338.6543382001049
 20
325.367759096993
 30
0.0
 10
338.6499690334774
 20
325.2453164004494
 30
0.0
 10
338.6485200626936
 20
325.2047100548654
 30
0.0
  0
LINE
  5
26B
330
1F
100
AcDbEntity
  8
0
  6
Continuous
 62
     7
370
    15
100
AcDbLine
 10
339.1635286978
 20
325.9297100549
 30
0.0
 11
341.4538863099
 21
325.9297100549
 31
0.0
  0
LINE
  5
26C
330
1F
100
AcDbEntity
  8
0
  6
Continuous
 62
     7
370
    15
100
AcDbLine
 10
341.0446269963
 20
322.5297100549
 30
0.0
 11
338.7542693842
 21
322.5297100549
 31
0.0
  0
LINE
  5
26D
330
1F
100
AcDbEntity
  8
0
  6
Continuous
 62
     7
370
    15
100
AcDbLine
 10
341.2826164704
 20
322.5297100549
 30
0.0
 11
341.0446269963
 21
322.5297100549
 31
0.0
  0
LINE
  5
26E
330
1F
100
AcDbEntity
  8
0
  6
Continuous
 62
     7
370
    15
100
AcDbLine
 10
341.4538863099
 20
325.9297100549
 30
0.0
 11
341.5572619381
 21
325.9297100549
 31
0.0
  0
LINE
  5
26F
330
1F
100
AcDbEntity
  8
0
  6
Continuous
 62
     7
370
    15
100
AcDbLine
 10
341.5572619381
 20
325.3297100549
 30
0.0
 11
341.4538863099
 21
325.3297100549
 31
0.0
  0
LINE
  5
270
330
1F
100
AcDbEntity
  8
0
  6
Continuous
 62
     7
370
    15
100
AcDbLine
 10
338.6485200627
 20
325.2047100549
 30
0.0
 11
338.6292693842
 21
325.2047100549
 31
0.0
  0
LINE
  5
271
330
1F
100
AcDbEntity
  8
0
  6
Continuous
 62
     7
370
    15
100
AcDbLine
 10
338.7380923822
 20
325.9297100549
 30
0.0
 11
339.1635286978
 21
325.9297100549
 31
0.0
  0
ARC
  5
272
330
1F
100
AcDbEntity
  8
0
  6
Continuous
 62
     7
370
    15
100
AcDbCircle
 10
346.9434941643
 20
322.6464951445
 30
0.0
 40
0.1171764000647015
100
AcDbArc
 50
175.9798550465
 51
265.316190911
  0
LINE
  5
273
330
1F
100
AcDbEntity
  8
0
  6
Continuous
 62
     7
370
    15
100
AcDbLine
 10
346.9339259061
 20
322.5297100549
 30
0.0
 11
345.8279864004
 21
322.5297100549
 31
0.0
  0
LINE
  5
274
330
1F
100
AcDbEntity
  8
0
  6
Continuous
 62
     7
370
    15
100
AcDbLine
 10
347.1719153801
 20
322.5297100549
 30
0.0
 11
346.9339259061
 21
322.5297100549
 31
0.0
  0
SPLINE
  5
275
330
1F
100
AcDbEntity
  8
0
  6
Continuous
 62
     7
370
    15
100
AcDbSpline
210
0.0
220
0.0
230
1.0
 70
     8
 71
     3
 72
    13
 73
     9
 74
     0
 42
0.00000001
 43
0.00000001
 12
1.0
 22
0.0
 32
0.0
 13
1.0
 23
0.0
 33
0.0
 40
0.0
 40
0.0
 40
0.0
 40
0.0
 40
0.1695411050599052
 40
0.3386458383074901
 40
0.5184804584270413
 40
0.727723621148785
 40
0.9924537768851165
 40
1.0
 40
1.0
 40
1.0
 40
1.0
 10
344.7348901538019
 20
325.2047100548654
 30
0.0
 10
344.73511514942
 20
325.2170156285088
 30
0.0
 10
344.7355645615534
 20
325.2415951032081
 30
0.0
 10
344.7389641326168
 20
325.2746629998982
 30
0.0
 10
344.7440569784226
 20
325.3024988014502
 30
0.0
 10
344.7513057358117
 20
325.3238581910867
 30
0.0
 10
344.7571132150265
 20
325.3296510208923
 30
0.0
 10
344.7603348276209
 20
325.3297084628442
 30
0.0
 10
344.7604241155993
 20
325.3297100548653
 30
0.0
  0
LINE
  5
276
330
1F
100
AcDbEntity
  8
0
  6
Continuous
 62
     7
370
    15
100
AcDbLine
 10
341.5572619381
 20
325.3297100549
 30
0.0
 11
344.7604241156
 21
325.3297100549
 31
0.0
  0
SPLINE
  5
277
330
1F
100
AcDbEntity
  8
0
  6
Continuous
 62
     7
370
    15
100
AcDbSpline
210
0.0
220
0.0
230
1.0
 70
     8
 71
     3
 72
    13
 73
     9
 74
     0
 42
0.00000001
 43
0.00000001
 12
1.0
 22
0.0
 32
0.0
 13
1.0
 23
0.0
 33
0.0
 40
0.0
 40
0.0
 40
0.0
 40
0.0
 40
0.0075462231151572
 40
0.2722763788518962
 40
0.481519541573297
 40
0.661354161692916
 40
0.8304588949400905
 40
0.9999999999999999
 40
0.9999999999999999
 40
0.9999999999999999
 40
0.9999999999999999
 10
344.7604241155994
 20
324.7297100548654
 30
0.0
 10
344.760334827621
 20
324.7297116468867
 30
0.0
 10
344.7571132150256
 20
324.729769088839
 30
0.0
 10
344.7513057358124
 20
324.7355619186441
 30
0.0
 10
344.7440569784225
 20
324.7569213082808
 30
0.0
 10
344.738964132617
 20
324.7847571098325
 30
0.0
 10
344.7355645615532
 20
324.8178250065229
 30
0.0
 10
344.7351151494199
 20
324.842404481222
 30
0.0
 10
344.7348901538018
 20
324.8547100548654
 30
0.0
  0
LINE
  5
278
330
1F
100
AcDbEntity
  8
0
  6
Continuous
 62
     7
370
    15
100
AcDbLine
 10
344.7604241156
 20
324.7297100549
 30
0.0
 11
341.4630923822
 21
324.7297100549
 31
0.0
  0
LINE
  5
279
330
1F
100
AcDbEntity
  8
0
  6
Continuous
 62
     7
370
    15
100
AcDbLine
 10
344.7348901538
 20
325.2047100549
 30
0.0
 11
344.7348901538
 21
324.8547100549
 31
0.0
  0
SPLINE
  5
27A
330
1F
100
AcDbEntity
  8
0
  6
Continuous
 62
     7
370
    15
100
AcDbSpline
210
0.0
220
0.0
230
1.0
 70
     8
 71
     3
 72
    12
 73
     8
 74
     0
 42
0.00000001
 43
0.00000001
 12
1.0
 22
0.0
 32
0.0
 13
1.0
 23
0.0
 33
0.0
 40
0.0
 40
0.0
 40
0.0
 40
0.0
 40
0.2289440738515833
 40
0.4594214300240991
 40
0.6825355698157872
 40
0.8947175231628129
 40
1.0
 40
1.0
 40
1.0
 40
1.0
 10
346.9605533556402
 20
324.7297100548653
 30
0.0
 10
347.02759936395
 20
324.738377297154
 30
0.0
 10
347.1621404005311
 20
324.7557698279136
 30
0.0
 10
347.338443928252
 20
324.8927047508199
 30
0.0
 10
347.4649487125859
 20
325.0912230180612
 30
0.0
 10
347.5216201350183
 20
325.2916610127378
 30
0.0
 10
347.5264399623086
 20
325.4141037092812
 30
0.0
 10
347.5280383881693
 20
325.4547100548652
 30
0.0
  0
LINE
  5
27B
330
1F
100
AcDbEntity
  8
0
  6
Continuous
 62
     7
370
    15
100
AcDbLine
 10
346.9605533556
 20
324.7297100549
 30
0.0
 11
344.8755048033
 21
324.7297100549
 31
0.0
  0
LINE
  5
27C
330
1F
100
AcDbEntity
  8
0
  6
Continuous
 62
     7
370
    15
100
AcDbLine
 10
345.3311039043
 20
328.1297100549
 30
0.0
 11
347.4161524566
 21
328.1297100549
 31
0.0
  0
LINE
  5
27D
330
1F
100
AcDbEntity
  8
0
  6
Continuous
 62
     7
370
    15
100
AcDbLine
 10
345.066167257
 20
328.1297100549
 30
0.0
 11
345.3311039043
 21
328.1297100549
 31
0.0
  0
LINE
  5
27E
330
1F
100
AcDbEntity
  8
0
  6
Continuous
 62
     7
370
    15
100
AcDbLine
 10
344.7604241156
 20
325.3297100549
 30
0.0
 11
344.8755048033
 21
325.3297100549
 31
0.0
  0
LINE
  5
27F
330
1F
100
AcDbEntity
  8
0
  6
Continuous
 62
     7
370
    15
100
AcDbLine
 10
344.8755048033
 20
324.7297100549
 30
0.0
 11
344.7604241156
 21
324.7297100549
 31
0.0
  0
LINE
  5
280
330
1F
100
AcDbEntity
  8
0
  6
Continuous
 62
     7
370
    15
100
AcDbLine
 10
347.5280383882
 20
325.4547100549
 30
0.0
 11
347.5411524566
 21
325.4547100549
 31
0.0
  0
LINE
  5
281
330
1F
100
AcDbEntity
  8
0
  6
Continuous
 62
     7
370
    15
100
AcDbLine
 10
347.1880923822
 20
324.7297100549
 30
0.0
 11
346.9605533556
 21
324.7297100549
 31
0.0
  0
SPLINE
  5
282
330
1F
100
AcDbEntity
  8
0
  6
Continuous
 62
     7
370
    15
100
AcDbSpline
210
0.0
220
0.0
230
1.0
 70
     8
 71
     3
 72
    11
 73
     7
 74
     0
 42
0.00000001
 43
0.00000001
 12
1.0
 22
0.0
 32
0.0
 13
1.0
 23
0.0
 33
0.0
 40
0.0
 40
0.0
 40
0.0
 40
0.0
 40
0.0873544003317999
 40
0.4640325544690059
 40
0.8222541651774118
 40
1.0
 40
1.0
 40
1.0
 40
1.0
 10
338.6330336892888
 20
324.8761240383793
 30
0.0
 10
338.6197034529908
 20
324.8854692191919
 30
0.0
 10
338.5488923252453
 20
324.9351114593997
 30
0.0
 10
338.4631115034558
 20
325.0954017738939
 30
0.0
 10
338.4043627235874
 20
325.2912111398423
 30
0.0
 10
338.3996945186893
 20
325.4139916712464
 30
0.0
 10
338.3981463761974
 20
325.4547100548654
 30
0.0
  0
ARC
  5
283
330
1F
100
AcDbEntity
  8
0
  6
Continuous
 62
     7
370
    15
100
AcDbCircle
 10
338.7687572987
 20
328.0103349594
 30
0.0
 40
0.1195365972844464
100
AcDbArc
 50
357.3028984187
 51
87.0213133887
  0
LINE
  5
284
330
1F
100
AcDbEntity
  8
0
  6
Continuous
 62
     7
370
    15
100
AcDbLine
 10
338.5100323077
 20
328.1297100549
 30
0.0
 11
338.774968955
 21
328.1297100549
 31
0.0
  0
LINE
  5
285
330
1F
100
AcDbEntity
  8
0
  6
Continuous
 62
     7
370
    15
100
AcDbLine
 10
338.774968955
 20
328.1297100549
 30
0.0
 11
340.1429997535
 21
328.1297100549
 31
0.0
  0
SPLINE
  5
286
330
1F
100
AcDbEntity
  8
0
  6
Continuous
 62
     7
370
    15
100
AcDbSpline
210
0.0
220
0.0
230
1.0
 70
     8
 71
     3
 72
    13
 73
     9
 74
     0
 42
0.00000001
 43
0.00000001
 12
1.0
 22
0.0
 32
0.0
 13
1.0
 23
0.0
 33
0.0
 40
0.0
 40
0.0
 40
0.0
 40
0.0
 40
0.1695411050598988
 40
0.3386458383074849
 40
0.5184804584270375
 40
0.727723621148783
 40
0.9924537768851585
 40
1.0
 40
1.0
 40
1.0
 40
1.0
 10
329.9348901538019
 20
566.0047100548679
 30
0.0
 10
329.9351151494199
 20
566.0170156285112
 30
0.0
 10
329.9355645615532
 20
566.0415951032105
 30
0.0
 10
329.9389641326168
 20
566.0746629999007
 30
0.0
 10
329.9440569784226
 20
566.1024988014527
 30
0.0
 10
329.951305735811
 20
566.123858191089
 30
0.0
 10
329.9571132150283
 20
566.129651020895
 30
0.0
 10
329.9603348276208
 20
566.1297084628466
 30
0.0
 10
329.9604241155992
 20
566.1297100548678
 30
0.0
  0
LINE
  5
287
330
1F
100
AcDbEntity
  8
0
  6
Continuous
 62
     7
370
    15
100
AcDbLine
 10
326.7572619381
 20
566.1297100549
 30
0.0
 11
329.9604241156
 21
566.1297100549
 31
0.0
  0
SPLINE
  5
288
330
1F
100
AcDbEntity
  8
0
  6
Continuous
 62
     7
370
    15
100
AcDbSpline
210
0.0
220
0.0
230
1.0
 70
     8
 71
     3
 72
    13
 73
     9
 74
     0
 42
0.00000001
 43
0.00000001
 12
1.0
 22
0.0
 32
0.0
 13
1.0
 23
0.0
 33
0.0
 40
0.0
 40
0.0
 40
0.0
 40
0.0
 40
0.0075462231151571
 40
0.2722763788518912
 40
0.4815195415732883
 40
0.6613541616929359
 40
0.8304588949400857
 40
0.9999999999999999
 40
0.9999999999999999
 40
0.9999999999999999
 40
0.9999999999999999
 10
329.9604241155994
 20
565.529710054868
 30
0.0
 10
329.960334827621
 20
565.5297116468892
 30
0.0
 10
329.9571132150259
 20
565.5297690888408
 30
0.0
 10
329.9513057358124
 20
565.5355619186469
 30
0.0
 10
329.9440569784223
 20
565.5569213082832
 30
0.0
 10
329.9389641326169
 20
565.5847571098351
 30
0.0
 10
329.9355645615534
 20
565.6178250065253
 30
0.0
 10
329.9351151494199
 20
565.6424044812246
 30
0.0
 10
329.9348901538017
 20
565.6547100548679
 30
0.0
  0
LINE
  5
289
330
1F
100
AcDbEntity
  8
0
  6
Continuous
 62
     7
370
    15
100
AcDbLine
 10
329.9604241156
 20
565.5297100549
 30
0.0
 11
326.6630923822
 21
565.5297100549
 31
0.0
  0
LINE
  5
28A
330
1F
100
AcDbEntity
  8
0
  6
Continuous
 62
     7
370
    15
100
AcDbLine
 10
329.9348901538
 20
566.0047100549
 30
0.0
 11
329.9348901538
 21
565.6547100549
 31
0.0
  0
SPLINE
  5
28B
330
1F
100
AcDbEntity
  8
0
  6
Continuous
 62
     7
370
    15
100
AcDbSpline
210
0.0
220
0.0
230
1.0
 70
     8
 71
     3
 72
    12
 73
     8
 74
     0
 42
0.00000001
 43
0.00000001
 12
1.0
 22
0.0
 32
0.0
 13
1.0
 23
0.0
 33
0.0
 40
0.0
 40
0.0
 40
0.0
 40
0.0
 40
0.2289440738515631
 40
0.4594214300240799
 40
0.6825355698157756
 40
0.8947175231628085
 40
1.0
 40
1.0
 40
1.0
 40
1.0
 10
332.1605533556402
 20
565.5297100548678
 30
0.0
 10
332.22759936395
 20
565.5383772971566
 30
0.0
 10
332.3621404005308
 20
565.5557698279162
 30
0.0
 10
332.538443928252
 20
565.6927047508225
 30
0.0
 10
332.6649487125857
 20
565.8912230180637
 30
0.0
 10
332.7216201350183
 20
566.0916610127402
 30
0.0
 10
332.7264399623086
 20
566.2141037092837
 30
0.0
 10
332.7280383881692
 20
566.2547100548678
 30
0.0
  0
LINE
  5
28C
330
1F
100
AcDbEntity
  8
0
  6
Continuous
 62
     7
370
    15
100
AcDbLine
 10
332.1605533556
 20
565.5297100549
 30
0.0
 11
330.0755048033
 21
565.5297100549
 31
0.0
  0
LINE
  5
28D
330
1F
100
AcDbEntity
  8
0
  6
Continuous
 62
     7
370
    15
100
AcDbLine
 10
330.5311039043
 20
568.9297100549
 30
0.0
 11
332.6161524566
 21
568.9297100549
 31
0.0
  0
LINE
  5
28E
330
1F
100
AcDbEntity
  8
0
  6
Continuous
 62
     7
370
    15
100
AcDbLine
 10
330.266167257
 20
568.9297100549
 30
0.0
 11
330.5311039043
 21
568.9297100549
 31
0.0
  0
LINE
  5
28F
330
1F
100
AcDbEntity
  8
0
  6
Continuous
 62
     7
370
    15
100
AcDbLine
 10
329.9604241156
 20
566.1297100549
 30
0.0
 11
330.0755048033
 21
566.1297100549
 31
0.0
  0
LINE
  5
290
330
1F
100
AcDbEntity
  8
0
  6
Continuous
 62
     7
370
    15
100
AcDbLine
 10
330.0755048033
 20
565.5297100549
 30
0.0
 11
329.9604241156
 21
565.5297100549
 31
0.0
  0
LINE
  5
291
330
1F
100
AcDbEntity
  8
0
  6
Continuous
 62
     7
370
    15
100
AcDbLine
 10
332.7280383882
 20
566.2547100549
 30
0.0
 11
332.7411524566
 21
566.2547100549
 31
0.0
  0
LINE
  5
292
330
1F
100
AcDbEntity
  8
0
  6
Continuous
 62
     7
370
    15
100
AcDbLine
 10
332.3880923822
 20
565.5297100549
 30
0.0
 11
332.1605533556
 21
565.5297100549
 31
0.0
  0
SPLINE
  5
293
330
1F
100
AcDbEntity
  8
0
  6
Continuous
 62
     7
370
    15
100
AcDbSpline
210
0.0
220
0.0
230
1.0
 70
     8
 71
     3
 72
    11
 73
     7
 74
     0
 42
0.00000001
 43
0.00000001
 12
1.0
 22
0.0
 32
0.0
 13
1.0
 23
0.0
 33
0.0
 40
0.0
 40
0.0
 40
0.0
 40
0.0
 40
0.0449088511983105
 40
0.4391056468594366
 40
0.8139875175674652
 40
1.0
 40
1.0
 40
1.0
 40
1.0
 10
323.8130923821831
 20
565.6911229425178
 30
0.0
 10
323.8066022774968
 20
565.6958201960887
 30
0.0
 10
323.7431439270744
 20
565.7417485712884
 30
0.0
 10
323.6635728192082
 20
565.8962423107683
 30
0.0
 10
323.6043130596535
 20
566.0911206500502
 30
0.0
 10
323.5996821501967
 20
566.2139691353308
 30
0.0
 10
323.5981463761973
 20
566.2547100548678
 30
0.0
  0
ARC
  5
294
330
1F
100
AcDbEntity
  8
0
  6
Continuous
 62
     7
370
    15
100
AcDbCircle
 10
323.9687572987
 20
568.8103349594
 30
0.0
 40
0.1195365972842822
100
AcDbArc
 50
357.3028984187
 51
87.0213133888
  0
LINE
  5
295
330
1F
100
AcDbEntity
  8
0
  6
Continuous
 62
     7
370
    15
100
AcDbLine
 10
323.7100323077
 20
568.9297100549
 30
0.0
 11
323.974968955
 21
568.9297100549
 31
0.0
  0
LINE
  5
296
330
1F
100
AcDbEntity
  8
0
  6
Continuous
 62
     7
370
    15
100
AcDbLine
 10
323.974968955
 20
568.9297100549
 30
0.0
 11
325.3429997535
 21
568.9297100549
 31
0.0
  0
LINE
  5
297
330
1F
100
AcDbEntity
  8
0
  6
Continuous
 62
     7
370
    15
100
AcDbLine
 10
342.4248326762
 20
331.0314190612
 30
0.0
 11
343.0246579347
 21
331.1297100549
 31
0.0
  0
LINE
  5
298
330
1F
100
AcDbEntity
  8
0
  6
Continuous
 62
     7
370
    15
100
AcDbLine
 10
344.5898839635
 20
331.1297100549
 30
0.0
 11
345.1501195613
 21
331.0314190612
 31
0.0
  0
LINE
  5
299
330
1F
100
AcDbEntity
  8
0
  6
Continuous
 62
     7
370
    15
100
AcDbLine
 10
345.1501195613
 20
331.0314190612
 30
0.0
 11
345.1501195613
 21
328.8780010486
 31
0.0
  0
SPLINE
  5
29A
330
1F
100
AcDbEntity
  8
0
  6
Continuous
 62
     7
370
    15
100
AcDbSpline
210
0.0
220
0.0
230
1.0
 70
     8
 71
     3
 72
     9
 73
     5
 74
     0
 42
0.00000001
 43
0.00000001
 12
1.0
 22
0.0
 32
0.0
 13
1.0
 23
0.0
 33
0.0
 40
0.0
 40
0.0
 40
0.0
 40
0.0
 40
0.0702005767033677
 40
1.0
 40
1.0
 40
1.0
 40
1.0
 10
343.7874761187414
 20
328.6547100548653
 30
0.0
 10
343.8197788310075
 20
328.6549331129991
 30
0.0
 10
344.2799276472001
 20
328.6581105531891
 30
0.0
 10
344.7308511492109
 20
328.772055294137
 30
0.0
 10
345.1501195613315
 20
328.8780010485579
 30
0.0
  0
LINE
  5
29B
330
1F
100
AcDbEntity
  8
0
  6
Continuous
 62
     7
370
    15
100
AcDbLine
 10
342.4248326762
 20
328.8780010486
 30
0.0
 11
343.7874761187
 21
328.6547100549
 31
0.0
  0
LINE
  5
29C
330
1F
100
AcDbEntity
  8
0
  6
Continuous
 62
     7
370
    15
100
AcDbLine
 10
342.4248326762
 20
331.0314190612
 30
0.0
 11
342.4248326762
 21
328.8780010486
 31
0.0
  0
SPLINE
  5
29D
330
1F
100
AcDbEntity
  8
0
  6
Continuous
 62
     7
370
    15
100
AcDbSpline
210
0.0
220
0.0
230
1.0
 70
     8
 71
     3
 72
     9
 73
     5
 74
     0
 42
0.00000001
 43
0.00000001
 12
1.0
 22
0.0
 32
0.0
 13
1.0
 23
0.0
 33
0.0
 40
0.0
 40
0.0
 40
0.0
 40
0.0
 40
0.0702005767034421
 40
0.9999999999999999
 40
0.9999999999999999
 40
0.9999999999999999
 40
0.9999999999999999
 10
341.3313190865778
 20
328.6547100548653
 30
0.0
 10
341.3572418289028
 20
328.6549331129992
 30
0.0
 10
341.7265086290105
 20
328.6581105531893
 30
0.0
 10
342.0883721671125
 20
328.7720552941371
 30
0.0
 10
342.4248326761518
 20
328.8780010485579
 30
0.0
  0
LINE
  5
29E
330
1F
100
AcDbEntity
  8
0
  6
Continuous
 62
     7
370
    15
100
AcDbLine
 10
343.7874761187
 20
328.6547100549
 30
0.0
 11
341.3313190866
 21
328.6547100549
 31
0.0
  0
LINE
  5
29F
330
1F
100
AcDbEntity
  8
0
  6
Continuous
 62
     7
370
    15
100
AcDbLine
 10
341.9752468047
 20
331.1297100549
 30
0.0
 11
342.4248326762
 21
331.0314190612
 31
0.0
  0
LINE
  5
2A0
330
1F
100
AcDbEntity
  8
0
  6
Continuous
 62
     7
370
    15
100
AcDbLine
 10
340.237805497
 20
331.0314190612
 30
0.0
 11
340.7191618453
 21
331.1297100549
 31
0.0
  0
LINE
  5
2A1
330
1F
100
AcDbEntity
  8
0
  6
Continuous
 62
     7
370
    15
100
AcDbLine
 10
340.237805497
 20
328.8780010486
 30
0.0
 11
341.3313190866
 21
328.6547100549
 31
0.0
  0
LINE
  5
2A2
330
1F
100
AcDbEntity
  8
0
  6
Continuous
 62
     7
370
    15
100
AcDbLine
 10
340.237805497
 20
331.0314190612
 30
0.0
 11
340.237805497
 21
328.8780010486
 31
0.0
  0
SPLINE
  5
2A3
330
1F
100
AcDbEntity
  8
0
  6
Continuous
 62
     7
370
    15
100
AcDbSpline
210
0.0
220
0.0
230
1.0
 70
     8
 71
     3
 72
     9
 73
     5
 74
     0
 42
0.00000001
 43
0.00000001
 12
1.0
 22
0.0
 32
0.0
 13
1.0
 23
0.0
 33
0.0
 40
0.0
 40
0.0
 40
0.0
 40
0.0
 40
0.2575513451037952
 40
1.0
 40
1.0
 40
1.0
 40
1.0
 10
345.1501195613315
 20
328.8780010485579
 30
0.0
 10
345.1727134800858
 20
328.8442934371704
 30
0.0
 10
345.2604393614831
 20
328.7134161886984
 30
0.0
 10
345.3515812453016
 20
328.6797244448022
 30
0.0
 10
345.4192494143472
 20
328.6547100548653
 30
0.0
  0
LINE
  5
2A4
330
1F
100
AcDbEntity
  8
0
  6
Continuous
 62
     7
370
    15
100
AcDbLine
 10
345.4192494143
 20
328.6547100549
 30
0.0
 11
343.7874761187
 21
328.6547100549
 31
0.0
  0
SPLINE
  5
2A5
330
1F
100
AcDbEntity
  8
0
  6
Continuous
 62
     7
370
    15
100
AcDbSpline
210
0.0
220
0.0
230
1.0
 70
     8
 71
     3
 72
     9
 73
     5
 74
     0
 42
0.00000001
 43
0.00000001
 12
1.0
 22
0.0
 32
0.0
 13
1.0
 23
0.0
 33
0.0
 40
0.0
 40
0.0
 40
0.0
 40
0.0
 40
0.9250528692966234
 40
1.0
 40
1.0
 40
1.0
 40
1.0
 10
345.1501195613311
 20
331.0314190611728
 30
0.0
 10
345.1725177250244
 20
331.0706959175549
 30
0.0
 10
345.1967305721348
 20
331.1131549571252
 30
0.0
 10
345.221894495716
 20
331.1285558054734
 30
0.0
 10
345.2237804595856
 20
331.1297100548675
 30
0.0
  0
SPLINE
  5
2A6
330
1F
100
AcDbEntity
  8
0
  6
Continuous
 62
     7
370
    15
100
AcDbSpline
210
0.0
220
0.0
230
1.0
 70
     8
 71
     3
 72
     9
 73
     5
 74
     0
 42
0.00000001
 43
0.00000001
 12
1.0
 22
0.0
 32
0.0
 13
1.0
 23
0.0
 33
0.0
 40
0.0
 40
0.0
 40
0.0
 40
0.0
 40
0.9250528692914324
 40
1.0
 40
1.0
 40
1.0
 40
1.0
 10
340.2378054970037
 20
331.0314190611725
 30
0.0
 10
340.2602036606973
 20
331.0706959175549
 30
0.0
 10
340.2844165078083
 20
331.1131549571258
 30
0.0
 10
340.309580431389
 20
331.1285558054732
 30
0.0
 10
340.3114663952588
 20
331.1297100548675
 30
0.0
  0
SPLINE
  5
2A7
330
1F
100
AcDbEntity
  8
0
  6
Continuous
 62
     7
370
    15
100
AcDbSpline
210
0.0
220
0.0
230
1.0
 70
     8
 71
     3
 72
     9
 73
     5
 74
     0
 42
0.00000001
 43
0.00000001
 12
1.0
 22
0.0
 32
0.0
 13
1.0
 23
0.0
 33
0.0
 40
0.0
 40
0.0
 40
0.0
 40
0.0
 40
0.2575513451038512
 40
1.0
 40
1.0
 40
1.0
 40
1.0
 10
340.2378054970036
 20
328.8780010485578
 30
0.0
 10
340.260399415758
 20
328.8442934371704
 30
0.0
 10
340.3481252971557
 20
328.7134161886984
 30
0.0
 10
340.4392671809741
 20
328.679724444802
 30
0.0
 10
340.5069353500199
 20
328.654710054865
 30
0.0
  0
LINE
  5
2A8
330
1F
100
AcDbEntity
  8
0
  6
Continuous
 62
     7
370
    15
100
AcDbLine
 10
341.3313190866
 20
328.6547100549
 30
0.0
 11
340.4671037759
 21
328.6547100549
 31
0.0
  0
LINE
  5
2A9
330
1F
100
AcDbEntity
  8
0
  6
Continuous
 62
     7
370
    15
100
AcDbLine
 10
345.5947233557
 20
331.1297100549
 30
0.0
 11
345.6883792674
 21
331.0314190612
 31
0.0
  0
LINE
  5
2AA
330
1F
100
AcDbEntity
  8
0
  6
Continuous
 62
     7
370
    15
100
AcDbLine
 10
345.6883792674
 20
331.0314190612
 30
0.0
 11
345.6883792674
 21
328.8780010486
 31
0.0
  0
SPLINE
  5
2AB
330
1F
100
AcDbEntity
  8
0
  6
Continuous
 62
     7
370
    15
100
AcDbSpline
210
0.0
220
0.0
230
1.0
 70
     8
 71
     3
 72
     9
 73
     5
 74
     0
 42
0.00000001
 43
0.00000001
 12
1.0
 22
0.0
 32
0.0
 13
1.0
 23
0.0
 33
0.0
 40
0.0
 40
0.0
 40
0.0
 40
0.0
 40
0.2686336050555443
 40
1.0
 40
1.0
 40
1.0
 40
1.0
 10
345.4192494143472
 20
328.6547100548653
 30
0.0
 10
345.4437208487348
 20
328.6580245311575
 30
0.0
 10
345.5348168022081
 20
328.6703628098757
 30
0.0
 10
345.6235111800145
 20
328.7902901916758
 30
0.0
 10
345.6883792673627
 20
328.8780010485579
 30
0.0
  0
LINE
  5
2AC
330
1F
100
AcDbEntity
  8
0
  6
Continuous
 62
     7
370
    15
100
AcDbLine
 10
345.6883792674
 20
331.0314190612
 30
0.0
 11
345.207022919
 21
331.1297100549
 31
0.0
  0
LINE
  5
2AD
330
1F
100
AcDbEntity
  8
0
  6
Continuous
 62
     7
370
    15
100
AcDbLine
 10
345.6883792674
 20
328.8780010486
 30
0.0
 11
344.5948656778
 21
328.6547100549
 31
0.0
  0
LINE
  5
2AE
330
1F
100
AcDbEntity
  8
0
  6
Continuous
 62
     7
370
    15
100
AcDbLine
 10
327.6248326762
 20
571.8314190612
 30
0.0
 11
328.2246579347
 21
571.9297100549
 31
0.0
  0
LINE
  5
2AF
330
1F
100
AcDbEntity
  8
0
  6
Continuous
 62
     7
370
    15
100
AcDbLine
 10
329.7898839635
 20
571.9297100549
 30
0.0
 11
330.3501195613
 21
571.8314190612
 31
0.0
  0
LINE
  5
2B0
330
1F
100
AcDbEntity
  8
0
  6
Continuous
 62
     7
370
    15
100
AcDbLine
 10
330.3501195613
 20
571.8314190612
 30
0.0
 11
330.3501195613
 21
569.6780010486
 31
0.0
  0
SPLINE
  5
2B1
330
1F
100
AcDbEntity
  8
0
  6
Continuous
 62
     7
370
    15
100
AcDbSpline
210
0.0
220
0.0
230
1.0
 70
     8
 71
     3
 72
     9
 73
     5
 74
     0
 42
0.00000001
 43
0.00000001
 12
1.0
 22
0.0
 32
0.0
 13
1.0
 23
0.0
 33
0.0
 40
0.0
 40
0.0
 40
0.0
 40
0.0
 40
0.0702005767033679
 40
1.0
 40
1.0
 40
1.0
 40
1.0
 10
328.9874761187414
 20
569.4547100548679
 30
0.0
 10
329.0197788310074
 20
569.4549331130015
 30
0.0
 10
329.4799276472005
 20
569.4581105531919
 30
0.0
 10
329.930851149211
 20
569.5720552941395
 30
0.0
 10
330.3501195613314
 20
569.6780010485604
 30
0.0
  0
LINE
  5
2B2
330
1F
100
AcDbEntity
  8
0
  6
Continuous
 62
     7
370
    15
100
AcDbLine
 10
327.6248326762
 20
569.6780010486
 30
0.0
 11
328.9874761187
 21
569.4547100549
 31
0.0
  0
LINE
  5
2B3
330
1F
100
AcDbEntity
  8
0
  6
Continuous
 62
     7
370
    15
100
AcDbLine
 10
327.6248326762
 20
571.8314190612
 30
0.0
 11
327.6248326762
 21
569.6780010486
 31
0.0
  0
SPLINE
  5
2B4
330
1F
100
AcDbEntity
  8
0
  6
Continuous
 62
     7
370
    15
100
AcDbSpline
210
0.0
220
0.0
230
1.0
 70
     8
 71
     3
 72
     9
 73
     5
 74
     0
 42
0.00000001
 43
0.00000001
 12
1.0
 22
0.0
 32
0.0
 13
1.0
 23
0.0
 33
0.0
 40
0.0
 40
0.0
 40
0.0
 40
0.0
 40
0.0702005767034437
 40
1.0
 40
1.0
 40
1.0
 40
1.0
 10
326.5313190865777
 20
569.4547100548679
 30
0.0
 10
326.5572418289026
 20
569.4549331130015
 30
0.0
 10
326.9265086290105
 20
569.4581105531918
 30
0.0
 10
327.2883721671124
 20
569.5720552941395
 30
0.0
 10
327.6248326761516
 20
569.6780010485604
 30
0.0
  0
LINE
  5
2B5
330
1F
100
AcDbEntity
  8
0
  6
Continuous
 62
     7
370
    15
100
AcDbLine
 10
328.9874761187
 20
569.4547100549
 30
0.0
 11
326.5313190866
 21
569.4547100549
 31
0.0
  0
LINE
  5
2B6
330
1F
100
AcDbEntity
  8
0
  6
Continuous
 62
     7
370
    15
100
AcDbLine
 10
327.1752468047
 20
571.9297100549
 30
0.0
 11
327.6248326762
 21
571.8314190612
 31
0.0
  0
LINE
  5
2B7
330
1F
100
AcDbEntity
  8
0
  6
Continuous
 62
     7
370
    15
100
AcDbLine
 10
325.437805497
 20
571.8314190612
 30
0.0
 11
325.9191618453
 21
571.9297100549
 31
0.0
  0
LINE
  5
2B8
330
1F
100
AcDbEntity
  8
0
  6
Continuous
 62
     7
370
    15
100
AcDbLine
 10
325.437805497
 20
569.6780010486
 30
0.0
 11
326.5313190866
 21
569.4547100549
 31
0.0
  0
LINE
  5
2B9
330
1F
100
AcDbEntity
  8
0
  6
Continuous
 62
     7
370
    15
100
AcDbLine
 10
325.437805497
 20
571.8314190612
 30
0.0
 11
325.437805497
 21
569.6780010486
 31
0.0
  0
SPLINE
  5
2BA
330
1F
100
AcDbEntity
  8
0
  6
Continuous
 62
     7
370
    15
100
AcDbSpline
210
0.0
220
0.0
230
1.0
 70
     8
 71
     3
 72
     9
 73
     5
 74
     0
 42
0.00000001
 43
0.00000001
 12
1.0
 22
0.0
 32
0.0
 13
1.0
 23
0.0
 33
0.0
 40
0.0
 40
0.0
 40
0.0
 40
0.0
 40
0.9250528693711068
 40
1.0
 40
1.0
 40
1.0
 40
1.0
 10
330.350119561331
 20
571.8314190611752
 30
0.0
 10
330.3725177250239
 20
571.8706959175579
 30
0.0
 10
330.3967305721318
 20
571.9131549571256
 30
0.0
 10
330.4218944957119
 20
571.9285558054731
 30
0.0
 10
330.4237804595794
 20
571.9297100548661
 30
0.0
  0
SPLINE
  5
2BB
330
1F
100
AcDbEntity
  8
0
  6
Continuous
 62
     7
370
    15
100
AcDbSpline
210
0.0
220
0.0
230
1.0
 70
     8
 71
     3
 72
     9
 73
     5
 74
     0
 42
0.00000001
 43
0.00000001
 12
1.0
 22
0.0
 32
0.0
 13
1.0
 23
0.0
 33
0.0
 40
0.0
 40
0.0
 40
0.0
 40
0.0
 40
0.2575513451037883
 40
1.0
 40
1.0
 40
1.0
 40
1.0
 10
330.3501195613314
 20
569.6780010485604
 30
0.0
 10
330.3727134800857
 20
569.6442934371729
 30
0.0
 10
330.4604393614829
 20
569.513416188701
 30
0.0
 10
330.5515812453015
 20
569.4797244448047
 30
0.0
 10
330.6192494143472
 20
569.4547100548679
 30
0.0
  0
LINE
  5
2BC
330
1F
100
AcDbEntity
  8
0
  6
Continuous
 62
     7
370
    15
100
AcDbLine
 10
330.6192494143
 20
569.4547100549
 30
0.0
 11
328.9874761187
 21
569.4547100549
 31
0.0
  0
SPLINE
  5
2BD
330
1F
100
AcDbEntity
  8
0
  6
Continuous
 62
     7
370
    15
100
AcDbSpline
210
0.0
220
0.0
230
1.0
 70
     8
 71
     3
 72
     9
 73
     5
 74
     0
 42
0.00000001
 43
0.00000001
 12
1.0
 22
0.0
 32
0.0
 13
1.0
 23
0.0
 33
0.0
 40
0.0
 40
0.0
 40
0.0
 40
0.0
 40
0.9250528693658864
 40
1.0
 40
1.0
 40
1.0
 40
1.0
 10
325.4378054970036
 20
571.831419061175
 30
0.0
 10
325.4602036606969
 20
571.8706959175577
 30
0.0
 10
325.4844165078055
 20
571.9131549571255
 30
0.0
 10
325.509580431385
 20
571.9285558054731
 30
0.0
 10
325.5114663952527
 20
571.9297100548661
 30
0.0
  0
SPLINE
  5
2BE
330
1F
100
AcDbEntity
  8
0
  6
Continuous
 62
     7
370
    15
100
AcDbSpline
210
0.0
220
0.0
230
1.0
 70
     8
 71
     3
 72
     9
 73
     5
 74
     0
 42
0.00000001
 43
0.00000001
 12
1.0
 22
0.0
 32
0.0
 13
1.0
 23
0.0
 33
0.0
 40
0.0
 40
0.0
 40
0.0
 40
0.0
 40
0.257551345103858
 40
1.0
 40
1.0
 40
1.0
 40
1.0
 10
325.4378054970035
 20
569.6780010485603
 30
0.0
 10
325.4603994157578
 20
569.6442934371728
 30
0.0
 10
325.5481252971554
 20
569.5134161887008
 30
0.0
 10
325.6392671809739
 20
569.4797244448044
 30
0.0
 10
325.7069353500198
 20
569.4547100548675
 30
0.0
  0
LINE
  5
2BF
330
1F
100
AcDbEntity
  8
0
  6
Continuous
 62
     7
370
    15
100
AcDbLine
 10
326.5313190866
 20
569.4547100549
 30
0.0
 11
325.6671037759
 21
569.4547100549
 31
0.0
  0
LINE
  5
2C0
330
1F
100
AcDbEntity
  8
0
  6
Continuous
 62
     7
370
    15
100
AcDbLine
 10
330.7947233557
 20
571.9297100549
 30
0.0
 11
330.8883792674
 21
571.8314190612
 31
0.0
  0
LINE
  5
2C1
330
1F
100
AcDbEntity
  8
0
  6
Continuous
 62
     7
370
    15
100
AcDbLine
 10
330.8883792674
 20
571.8314190612
 30
0.0
 11
330.8883792674
 21
569.6780010486
 31
0.0
  0
SPLINE
  5
2C2
330
1F
100
AcDbEntity
  8
0
  6
Continuous
 62
     7
370
    15
100
AcDbSpline
210
0.0
220
0.0
230
1.0
 70
     8
 71
     3
 72
     9
 73
     5
 74
     0
 42
0.00000001
 43
0.00000001
 12
1.0
 22
0.0
 32
0.0
 13
1.0
 23
0.0
 33
0.0
 40
0.0
 40
0.0
 40
0.0
 40
0.0
 40
0.2686336050555443
 40
1.0
 40
1.0
 40
1.0
 40
1.0
 10
330.6192494143472
 20
569.4547100548679
 30
0.0
 10
330.6437208487347
 20
569.45802453116
 30
0.0
 10
330.7348168022079
 20
569.4703628098782
 30
0.0
 10
330.8235111800145
 20
569.5902901916782
 30
0.0
 10
330.8883792673626
 20
569.6780010485604
 30
0.0
  0
LINE
  5
2C3
330
1F
100
AcDbEntity
  8
0
  6
Continuous
 62
     7
370
    15
100
AcDbLine
 10
330.8883792674
 20
571.8314190612
 30
0.0
 11
330.4070229191
 21
571.9297100549
 31
0.0
  0
LINE
  5
2C4
330
1F
100
AcDbEntity
  8
0
  6
Continuous
 62
     7
370
    15
100
AcDbLine
 10
330.8883792674
 20
569.6780010486
 30
0.0
 11
329.7948656778
 21
569.4547100549
 31
0.0
  0
LINE
  5
2C5
330
1F
100
AcDbEntity
  8
0
  6
Continuous
 62
     7
370
    15
100
AcDbLine
 10
341.0189036017
 20
328.3064190612
 30
0.0
 11
342.4289499161
 21
328.5297100549
 31
0.0
  0
SPLINE
  5
2C6
330
1F
100
AcDbEntity
  8
0
  6
Continuous
 62
     7
370
    15
100
AcDbSpline
210
0.0
220
0.0
230
1.0
 70
     8
 71
     3
 72
     9
 73
     5
 74
     0
 42
0.00000001
 43
0.00000001
 12
1.0
 22
0.0
 32
0.0
 13
1.0
 23
0.0
 33
0.0
 40
0.0
 40
0.0
 40
0.0
 40
0.0
 40
0.0702005767034693
 40
1.0
 40
1.0
 40
1.0
 40
1.0
 10
342.4289499160767
 20
328.5297100548653
 30
0.0
 10
342.4623763568836
 20
328.5294869967316
 30
0.0
 10
342.9385325706435
 20
328.5263095565415
 30
0.0
 10
343.4051425451934
 20
328.4123648155937
 30
0.0
 10
343.8389962304343
 20
328.3064190611727
 30
0.0
  0
LINE
  5
2C7
330
1F
100
AcDbEntity
  8
0
  6
Continuous
 62
     7
370
    15
100
AcDbLine
 10
343.8389962304
 20
328.3064190612
 30
0.0
 11
343.8389962304
 21
326.1530010486
 31
0.0
  0
SPLINE
  5
2C8
330
1F
100
AcDbEntity
  8
0
  6
Continuous
 62
     7
370
    15
100
AcDbSpline
210
0.0
220
0.0
230
1.0
 70
     8
 71
     3
 72
     9
 73
     5
 74
     0
 42
0.00000001
 43
0.00000001
 12
1.0
 22
0.0
 32
0.0
 13
1.0
 23
0.0
 33
0.0
 40
0.0
 40
0.0
 40
0.0
 40
0.0
 40
0.0702005767034315
 40
1.0
 40
1.0
 40
1.0
 40
1.0
 10
342.4289499160766
 20
325.9297100548654
 30
0.0
 10
342.4623763568835
 20
325.9299331129992
 30
0.0
 10
342.9385325706435
 20
325.9331105531894
 30
0.0
 10
343.4051425451934
 20
326.0470552941371
 30
0.0
 10
343.8389962304343
 20
326.1530010485579
 30
0.0
  0
LINE
  5
2C9
330
1F
100
AcDbEntity
  8
0
  6
Continuous
 62
     7
370
    15
100
AcDbLine
 10
341.0189036017
 20
326.1530010486
 30
0.0
 11
342.4289499161
 21
325.9297100549
 31
0.0
  0
LINE
  5
2CA
330
1F
100
AcDbEntity
  8
0
  6
Continuous
 62
     7
370
    15
100
AcDbLine
 10
341.0189036017
 20
328.3064190612
 30
0.0
 11
341.0189036017
 21
326.1530010486
 31
0.0
  0
LINE
  5
2CB
330
1F
100
AcDbEntity
  8
0
  6
Continuous
 62
     7
370
    15
100
AcDbLine
 10
343.8389962304
 20
326.1530010486
 30
0.0
 11
344.8110906207
 21
325.9297100549
 31
0.0
  0
LINE
  5
2CC
330
1F
100
AcDbEntity
  8
0
  6
Continuous
 62
     7
370
    15
100
AcDbLine
 10
343.8389962304
 20
328.3064190612
 30
0.0
 11
344.8110906207
 21
328.5297100549
 31
0.0
  0
LINE
  5
2CD
330
1F
100
AcDbEntity
  8
0
  6
Continuous
 62
     7
370
    15
100
AcDbLine
 10
342.4289499161
 20
328.5297100549
 30
0.0
 11
344.8110906207
 21
328.5297100549
 31
0.0
  0
SPLINE
  5
2CE
330
1F
100
AcDbEntity
  8
0
  6
Continuous
 62
     7
370
    15
100
AcDbSpline
210
0.0
220
0.0
230
1.0
 70
     8
 71
     3
 72
     9
 73
     5
 74
     0
 42
0.00000001
 43
0.00000001
 12
1.0
 22
0.0
 32
0.0
 13
1.0
 23
0.0
 33
0.0
 40
0.0
 40
0.0
 40
0.0
 40
0.0
 40
0.2575513451038663
 40
1.0
 40
1.0
 40
1.0
 40
1.0
 10
341.0189036017186
 20
326.1530010485578
 30
0.0
 10
340.9821367767788
 20
326.1192934371704
 30
0.0
 10
340.8393814557955
 20
325.9884161886985
 30
0.0
 10
340.6910673132378
 20
325.9547244448021
 30
0.0
 10
340.5809516775936
 20
325.929710054865
 30
0.0
  0
SPLINE
  5
2CF
330
1F
100
AcDbEntity
  8
0
  6
Continuous
 62
     7
370
    15
100
AcDbSpline
210
0.0
220
0.0
230
1.0
 70
     8
 71
     3
 72
     9
 73
     5
 74
     0
 42
0.00000001
 43
0.00000001
 12
1.0
 22
0.0
 32
0.0
 13
1.0
 23
0.0
 33
0.0
 40
0.0
 40
0.0
 40
0.0
 40
0.0
 40
0.2575513451037468
 40
1.0
 40
1.0
 40
1.0
 40
1.0
 10
341.0189036017186
 20
328.3064190611725
 30
0.0
 10
340.9821367767788
 20
328.34012667256
 30
0.0
 10
340.8393814557961
 20
328.4710039210317
 30
0.0
 10
340.6910673132377
 20
328.5046956649281
 30
0.0
 10
340.5809516775932
 20
328.5297100548652
 30
0.0
  0
LINE
  5
2D0
330
1F
100
AcDbEntity
  8
0
  6
Continuous
 62
     7
370
    15
100
AcDbLine
 10
340.5809516776
 20
328.5297100549
 30
0.0
 11
342.4289499161
 21
328.5297100549
 31
0.0
  0
SPLINE
  5
2D1
330
1F
100
AcDbEntity
  8
0
  6
Continuous
 62
     7
370
    15
100
AcDbSpline
210
0.0
220
0.0
230
1.0
 70
     8
 71
     3
 72
     9
 73
     5
 74
     0
 42
0.00000001
 43
0.00000001
 12
1.0
 22
0.0
 32
0.0
 13
1.0
 23
0.0
 33
0.0
 40
0.0
 40
0.0
 40
0.0
 40
0.0
 40
0.0702005767032834
 40
1.0
 40
1.0
 40
1.0
 40
1.0
 10
344.8110906206666
 20
328.5297100548653
 30
0.0
 10
344.8341350095372
 20
328.5294869967315
 30
0.0
 10
345.1623999605225
 20
328.5263095565409
 30
0.0
 10
345.4840836769139
 20
328.4123648155934
 30
0.0
 10
345.7831850108988
 20
328.3064190611727
 30
0.0
  0
LINE
  5
2D2
330
1F
100
AcDbEntity
  8
0
  6
Continuous
 62
     7
370
    15
100
AcDbLine
 10
345.7831850109
 20
328.3064190612
 30
0.0
 11
345.7831850109
 21
328.1297100549
 31
0.0
  0
SPLINE
  5
2D3
330
1F
100
AcDbEntity
  8
0
  6
Continuous
 62
     7
370
    15
100
AcDbSpline
210
0.0
220
0.0
230
1.0
 70
     8
 71
     3
 72
     9
 73
     5
 74
     0
 42
0.00000001
 43
0.00000001
 12
1.0
 22
0.0
 32
0.0
 13
1.0
 23
0.0
 33
0.0
 40
0.0
 40
0.0
 40
0.0
 40
0.0
 40
0.5278771639356559
 40
1.0
 40
1.0
 40
1.0
 40
1.0
 10
344.8110906206666
 20
325.9297100548654
 30
0.0
 10
344.8342054927179
 20
325.9287468262093
 30
0.0
 10
344.8779938465822
 20
325.9269221050017
 30
0.0
 10
344.9209069845903
 20
325.9398279478804
 30
0.0
 10
344.941167257011
 20
325.9459210910221
 30
0.0
  0
LINE
  5
2D4
330
1F
100
AcDbEntity
  8
0
  6
Continuous
 62
     7
370
    15
100
AcDbLine
 10
340.344961445
 20
326.0227494791
 30
0.0
 11
340.1429997535
 21
326.1530010486
 31
0.0
  0
LINE
  5
2D5
330
1F
100
AcDbEntity
  8
0
  6
Continuous
 62
     7
370
    15
100
AcDbLine
 10
340.1429997535
 20
328.3064190612
 30
0.0
 11
340.1429997535
 21
326.1530010486
 31
0.0
  0
SPLINE
  5
2D6
330
1F
100
AcDbEntity
  8
0
  6
Continuous
 62
     7
370
    15
100
AcDbSpline
210
0.0
220
0.0
230
1.0
 70
     8
 71
     3
 72
     9
 73
     5
 74
     0
 42
0.00000001
 43
0.00000001
 12
1.0
 22
0.0
 32
0.0
 13
1.0
 23
0.0
 33
0.0
 40
0.0
 40
0.0
 40
0.0
 40
0.0
 40
0.2686336050554636
 40
1.0
 40
1.0
 40
1.0
 40
1.0
 10
340.5809516775932
 20
328.5297100548652
 30
0.0
 10
340.5411295929897
 20
328.5263955785729
 30
0.0
 10
340.392890192356
 20
328.5140572998547
 30
0.0
 10
340.2485588482697
 20
328.3941299180546
 30
0.0
 10
340.1429997534681
 20
328.3064190611725
 30
0.0
  0
SPLINE
  5
2D7
330
1F
100
AcDbEntity
  8
0
  6
Continuous
 62
     7
370
    15
100
AcDbSpline
210
0.0
220
0.0
230
1.0
 70
     8
 71
     3
 72
     9
 73
     5
 74
     0
 42
0.00000001
 43
0.00000001
 12
1.0
 22
0.0
 32
0.0
 13
1.0
 23
0.0
 33
0.0
 40
0.0
 40
0.0
 40
0.0
 40
0.0
 40
0.5569342110491918
 40
1.0
 40
1.0
 40
1.0
 40
1.0
 10
345.7831850108988
 20
328.3064190611727
 30
0.0
 10
345.7465610596429
 20
328.3426245492948
 30
0.0
 10
345.6808011358866
 20
328.4076331039928
 30
0.0
 10
345.6124705638469
 20
328.4276987248011
 30
0.0
 10
345.5821956250366
 20
328.4365891149154
 30
0.0
  0
LINE
  5
2D8
330
1F
100
AcDbEntity
  8
0
  6
Continuous
 62
     7
370
    15
100
AcDbLine
 10
344.8110906207
 20
328.5297100549
 30
0.0
 11
345.4630923822
 21
328.5297100549
 31
0.0
  0
LINE
  5
2D9
330
1F
100
AcDbEntity
  8
0
  6
Continuous
 62
     7
370
    15
100
AcDbLine
 10
340.5809516776
 20
328.5297100549
 30
0.0
 11
340.4630923822
 21
328.5297100549
 31
0.0
  0
LINE
  5
2DA
330
1F
100
AcDbEntity
  8
0
  6
Continuous
 62
     7
370
    15
100
AcDbLine
 10
327.0377067649
 20
565.3064190612
 30
0.0
 11
328.470153774
 21
565.5297100549
 31
0.0
  0
SPLINE
  5
2DB
330
1F
100
AcDbEntity
  8
0
  6
Continuous
 62
     7
370
    15
100
AcDbSpline
210
0.0
220
0.0
230
1.0
 70
     8
 71
     3
 72
     9
 73
     5
 74
     0
 42
0.00000001
 43
0.00000001
 12
1.0
 22
0.0
 32
0.0
 13
1.0
 23
0.0
 33
0.0
 40
0.0
 40
0.0
 40
0.0
 40
0.0
 40
0.0702005767034576
 40
1.0
 40
1.0
 40
1.0
 40
1.0
 10
328.4701537739966
 20
565.5297100548678
 30
0.0
 10
328.5041112438124
 20
565.529486996734
 30
0.0
 10
328.9878319112262
 20
565.5263095565438
 30
0.0
 10
329.461854683142
 20
565.4123648155961
 30
0.0
 10
329.9026007830986
 20
565.3064190611752
 30
0.0
  0
LINE
  5
2DC
330
1F
100
AcDbEntity
  8
0
  6
Continuous
 62
     7
370
    15
100
AcDbLine
 10
329.9026007831
 20
565.3064190612
 30
0.0
 11
329.9026007831
 21
563.1530010486
 31
0.0
  0
SPLINE
  5
2DD
330
1F
100
AcDbEntity
  8
0
  6
Continuous
 62
     7
370
    15
100
AcDbSpline
210
0.0
220
0.0
230
1.0
 70
     8
 71
     3
 72
     9
 73
     5
 74
     0
 42
0.00000001
 43
0.00000001
 12
1.0
 22
0.0
 32
0.0
 13
1.0
 23
0.0
 33
0.0
 40
0.0
 40
0.0
 40
0.0
 40
0.0
 40
0.07020057670345
 40
1.0
 40
1.0
 40
1.0
 40
1.0
 10
328.4701537739965
 20
562.9297100548678
 30
0.0
 10
328.5041112438124
 20
562.9299331130015
 30
0.0
 10
328.9878319112264
 20
562.9331105531918
 30
0.0
 10
329.4618546831421
 20
563.0470552941396
 30
0.0
 10
329.9026007830986
 20
563.1530010485603
 30
0.0
  0
LINE
  5
2DE
330
1F
100
AcDbEntity
  8
0
  6
Continuous
 62
     7
370
    15
100
AcDbLine
 10
327.0377067649
 20
563.1530010486
 30
0.0
 11
328.470153774
 21
562.9297100549
 31
0.0
  0
LINE
  5
2DF
330
1F
100
AcDbEntity
  8
0
  6
Continuous
 62
     7
370
    15
100
AcDbLine
 10
327.0377067649
 20
565.3064190612
 30
0.0
 11
327.0377067649
 21
563.1530010486
 31
0.0
  0
SPLINE
  5
2E0
330
1F
100
AcDbEntity
  8
0
  6
Continuous
 62
     7
370
    15
100
AcDbSpline
210
0.0
220
0.0
230
1.0
 70
     8
 71
     3
 72
     9
 73
     5
 74
     0
 42
0.00000001
 43
0.00000001
 12
1.0
 22
0.0
 32
0.0
 13
1.0
 23
0.0
 33
0.0
 40
0.0
 40
0.0
 40
0.0
 40
0.0
 40
0.2575513451038703
 40
1.0
 40
1.0
 40
1.0
 40
1.0
 10
327.0377067648941
 20
563.1530010485602
 30
0.0
 10
326.9646893886309
 20
563.1192934371728
 30
0.0
 10
326.6811832930456
 20
562.9884161887009
 30
0.0
 10
326.3866376103554
 20
562.9547244448046
 30
0.0
 10
326.1679525644366
 20
562.9297100548674
 30
0.0
  0
LINE
  5
2E1
330
1F
100
AcDbEntity
  8
0
  6
Continuous
 62
     7
370
    15
100
AcDbLine
 10
328.470153774
 20
562.9297100549
 30
0.0
 11
326.1679525644
 21
562.9297100549
 31
0.0
  0
SPLINE
  5
2E2
330
1F
100
AcDbEntity
  8
0
  6
Continuous
 62
     7
370
    15
100
AcDbSpline
210
0.0
220
0.0
230
1.0
 70
     8
 71
     3
 72
     9
 73
     5
 74
     0
 42
0.00000001
 43
0.00000001
 12
1.0
 22
0.0
 32
0.0
 13
1.0
 23
0.0
 33
0.0
 40
0.0
 40
0.0
 40
0.0
 40
0.0
 40
0.5174000252721622
 40
0.9999999999999999
 40
0.9999999999999999
 40
0.9999999999999999
 40
0.9999999999999999
 10
327.037706764894
 20
565.306419061175
 30
0.0
 10
326.9649356611278
 20
565.3422946990147
 30
0.0
 10
326.8242879993347
 20
565.4116329983718
 30
0.0
 10
326.6781450527145
 20
565.4325943046764
 30
0.0
 10
326.607616470369
 20
565.4427102305692
 30
0.0
  0
LINE
  5
2E3
330
1F
100
AcDbEntity
  8
0
  6
Continuous
 62
     7
370
    15
100
AcDbLine
 10
329.9026007831
 20
563.1530010486
 30
0.0
 11
330.4652935917
 21
562.9297100549
 31
0.0
  0
LINE
  5
2E4
330
1F
100
AcDbEntity
  8
0
  6
Continuous
 62
     7
370
    15
100
AcDbLine
 10
330.4652935917
 20
562.9297100549
 30
0.0
 11
328.470153774
 21
562.9297100549
 31
0.0
  0
LINE
  5
2E5
330
1F
100
AcDbEntity
  8
0
  6
Continuous
 62
     7
370
    15
100
AcDbLine
 10
329.9026007831
 20
565.3064190612
 30
0.0
 11
330.4652935917
 21
565.5297100549
 31
0.0
  0
SPLINE
  5
2E6
330
1F
100
AcDbEntity
  8
0
  6
Continuous
 62
     7
370
    15
100
AcDbSpline
210
0.0
220
0.0
230
1.0
 70
     8
 71
     3
 72
     9
 73
     5
 74
     0
 42
0.00000001
 43
0.00000001
 12
1.0
 22
0.0
 32
0.0
 13
1.0
 23
0.0
 33
0.0
 40
0.0
 40
0.0
 40
0.0
 40
0.0
 40
0.2686336050556469
 40
1.0
 40
1.0
 40
1.0
 40
1.0
 10
326.1679525644367
 20
562.9297100548674
 30
0.0
 10
326.0888675702927
 20
562.9330245311597
 30
0.0
 10
325.7944703219375
 20
562.9453628098777
 30
0.0
 10
325.5078343103991
 20
563.065290191678
 30
0.0
 10
325.298198363979
 20
563.1530010485601
 30
0.0
  0
LINE
  5
2E7
330
1F
100
AcDbEntity
  8
0
  6
Continuous
 62
     7
370
    15
100
AcDbLine
 10
325.298198364
 20
563.3297100549
 30
0.0
 11
325.298198364
 21
563.1530010486
 31
0.0
  0
LINE
  5
2E8
330
1F
100
AcDbEntity
  8
0
  6
Continuous
 62
     7
370
    15
100
AcDbLine
 10
330.8786109681
 20
565.3698838831
 30
0.0
 11
331.0279864004
 21
565.3064190612
 31
0.0
  0
LINE
  5
2E9
330
1F
100
AcDbEntity
  8
0
  6
Continuous
 62
     7
370
    15
100
AcDbLine
 10
331.0279864004
 20
565.3064190612
 30
0.0
 11
331.0279864004
 21
563.1530010486
 31
0.0
  0
SPLINE
  5
2EA
330
1F
100
AcDbEntity
  8
0
  6
Continuous
 62
     7
370
    15
100
AcDbSpline
210
0.0
220
0.0
230
1.0
 70
     8
 71
     3
 72
     9
 73
     5
 74
     0
 42
0.00000001
 43
0.00000001
 12
1.0
 22
0.0
 32
0.0
 13
1.0
 23
0.0
 33
0.0
 40
0.0
 40
0.0
 40
0.0
 40
0.0
 40
0.0702005767033586
 40
1.0
 40
1.0
 40
1.0
 40
1.0
 10
330.4652935917433
 20
562.9297100548678
 30
0.0
 10
330.4786327407267
 20
562.9299331130015
 30
0.0
 10
330.6686475470112
 20
562.9331105531918
 30
0.0
 10
330.854852832928
 20
563.0470552941396
 30
0.0
 10
331.0279864003881
 20
563.1530010485603
 30
0.0
  0
LINE
  5
2EB
330
1F
100
AcDbEntity
  8
0
  6
Continuous
 62
     7
370
    15
100
AcDbLine
 10
325.4475737962
 20
563.0895362266
 30
0.0
 11
325.298198364
 21
563.1530010486
 31
0.0
  0
LINE
  5
2EC
330
1F
100
AcDbEntity
  8
0
  6
Continuous
 62
     7
370
    15
100
AcDbLine
 10
326.1679525644
 20
562.9297100549
 30
0.0
 11
325.6630923822
 21
562.9297100549
 31
0.0
  0
LINE
  5
2ED
330
1F
100
AcDbEntity
  8
0
  6
Continuous
 62
     7
370
    15
100
AcDbLine
 10
330.6630923822
 20
562.9297100549
 30
0.0
 11
330.4652935917
 21
562.9297100549
 31
0.0
  0
LINE
  5
2EE
330
1F
100
AcDbEntity
  8
0
  6
Continuous
 62
     7
370
    15
100
AcDbLine
 10
326.2189036017
 20
569.1064190612
 30
0.0
 11
327.6289499161
 21
569.3297100549
 31
0.0
  0
SPLINE
  5
2EF
330
1F
100
AcDbEntity
  8
0
  6
Continuous
 62
     7
370
    15
100
AcDbSpline
210
0.0
220
0.0
230
1.0
 70
     8
 71
     3
 72
     9
 73
     5
 74
     0
 42
0.00000001
 43
0.00000001
 12
1.0
 22
0.0
 32
0.0
 13
1.0
 23
0.0
 33
0.0
 40
0.0
 40
0.0
 40
0.0
 40
0.0
 40
0.0702005767034673
 40
1.0
 40
1.0
 40
1.0
 40
1.0
 10
327.6289499160766
 20
569.3297100548677
 30
0.0
 10
327.6623763568835
 20
569.329486996734
 30
0.0
 10
328.1385325706431
 20
569.3263095565437
 30
0.0
 10
328.6051425451932
 20
569.2123648155961
 30
0.0
 10
329.0389962304342
 20
569.1064190611752
 30
0.0
  0
LINE
  5
2F0
330
1F
100
AcDbEntity
  8
0
  6
Continuous
 62
     7
370
    15
100
AcDbLine
 10
329.0389962304
 20
569.1064190612
 30
0.0
 11
329.0389962304
 21
566.9530010486
 31
0.0
  0
SPLINE
  5
2F1
330
1F
100
AcDbEntity
  8
0
  6
Continuous
 62
     7
370
    15
100
AcDbSpline
210
0.0
220
0.0
230
1.0
 70
     8
 71
     3
 72
     9
 73
     5
 74
     0
 42
0.00000001
 43
0.00000001
 12
1.0
 22
0.0
 32
0.0
 13
1.0
 23
0.0
 33
0.0
 40
0.0
 40
0.0
 40
0.0
 40
0.0
 40
0.0702005767034705
 40
1.0
 40
1.0
 40
1.0
 40
1.0
 10
327.6289499160766
 20
566.7297100548678
 30
0.0
 10
327.6623763568834
 20
566.7299331130016
 30
0.0
 10
328.1385325706435
 20
566.7331105531919
 30
0.0
 10
328.6051425451934
 20
566.8470552941396
 30
0.0
 10
329.0389962304342
 20
566.9530010485604
 30
0.0
  0
LINE
  5
2F2
330
1F
100
AcDbEntity
  8
0
  6
Continuous
 62
     7
370
    15
100
AcDbLine
 10
326.2189036017
 20
566.9530010486
 30
0.0
 11
327.6289499161
 21
566.7297100549
 31
0.0
  0
LINE
  5
2F3
330
1F
100
AcDbEntity
  8
0
  6
Continuous
 62
     7
370
    15
100
AcDbLine
 10
326.2189036017
 20
569.1064190612
 30
0.0
 11
326.2189036017
 21
566.9530010486
 31
0.0
  0
LINE
  5
2F4
330
1F
100
AcDbEntity
  8
0
  6
Continuous
 62
     7
370
    15
100
AcDbLine
 10
329.0389962304
 20
566.9530010486
 30
0.0
 11
330.0110906207
 21
566.7297100549
 31
0.0
  0
LINE
  5
2F5
330
1F
100
AcDbEntity
  8
0
  6
Continuous
 62
     7
370
    15
100
AcDbLine
 10
329.0389962304
 20
569.1064190612
 30
0.0
 11
330.0110906207
 21
569.3297100549
 31
0.0
  0
LINE
  5
2F6
330
1F
100
AcDbEntity
  8
0
  6
Continuous
 62
     7
370
    15
100
AcDbLine
 10
327.6289499161
 20
569.3297100549
 30
0.0
 11
330.0110906207
 21
569.3297100549
 31
0.0
  0
SPLINE
  5
2F7
330
1F
100
AcDbEntity
  8
0
  6
Continuous
 62
     7
370
    15
100
AcDbSpline
210
0.0
220
0.0
230
1.0
 70
     8
 71
     3
 72
     9
 73
     5
 74
     0
 42
0.00000001
 43
0.00000001
 12
1.0
 22
0.0
 32
0.0
 13
1.0
 23
0.0
 33
0.0
 40
0.0
 40
0.0
 40
0.0
 40
0.0
 40
0.2575513451038551
 40
1.0
 40
1.0
 40
1.0
 40
1.0
 10
326.2189036017186
 20
566.9530010485603
 30
0.0
 10
326.1821367767786
 20
566.9192934371729
 30
0.0
 10
326.0393814557956
 20
566.7884161887009
 30
0.0
 10
325.8910673132377
 20
566.7547244448044
 30
0.0
 10
325.7809516775935
 20
566.7297100548675
 30
0.0
  0
SPLINE
  5
2F8
330
1F
100
AcDbEntity
  8
0
  6
Continuous
 62
     7
370
    15
100
AcDbSpline
210
0.0
220
0.0
230
1.0
 70
     8
 71
     3
 72
     9
 73
     5
 74
     0
 42
0.00000001
 43
0.00000001
 12
1.0
 22
0.0
 32
0.0
 13
1.0
 23
0.0
 33
0.0
 40
0.0
 40
0.0
 40
0.0
 40
0.0
 40
0.257551345103758
 40
1.0
 40
1.0
 40
1.0
 40
1.0
 10
326.2189036017186
 20
569.106419061175
 30
0.0
 10
326.1821367767787
 20
569.1401266725625
 30
0.0
 10
326.0393814557958
 20
569.2710039210341
 30
0.0
 10
325.8910673132376
 20
569.3046956649306
 30
0.0
 10
325.7809516775932
 20
569.3297100548676
 30
0.0
  0
LINE
  5
2F9
330
1F
100
AcDbEntity
  8
0
  6
Continuous
 62
     7
370
    15
100
AcDbLine
 10
325.7809516776
 20
569.3297100549
 30
0.0
 11
327.6289499161
 21
569.3297100549
 31
0.0
  0
SPLINE
  5
2FA
330
1F
100
AcDbEntity
  8
0
  6
Continuous
 62
     7
370
    15
100
AcDbSpline
210
0.0
220
0.0
230
1.0
 70
     8
 71
     3
 72
     9
 73
     5
 74
     0
 42
0.00000001
 43
0.00000001
 12
1.0
 22
0.0
 32
0.0
 13
1.0
 23
0.0
 33
0.0
 40
0.0
 40
0.0
 40
0.0
 40
0.0
 40
0.0702005767033089
 40
0.9999999999999999
 40
0.9999999999999999
 40
0.9999999999999999
 40
0.9999999999999999
 10
330.0110906206665
 20
569.3297100548677
 30
0.0
 10
330.0341350095371
 20
569.3294869967339
 30
0.0
 10
330.3623999605227
 20
569.3263095565432
 30
0.0
 10
330.684083676914
 20
569.2123648155958
 30
0.0
 10
330.9831850108987
 20
569.1064190611752
 30
0.0
  0
LINE
  5
2FB
330
1F
100
AcDbEntity
  8
0
  6
Continuous
 62
     7
370
    15
100
AcDbLine
 10
330.9831850109
 20
569.1064190612
 30
0.0
 11
330.9831850109
 21
568.9297100549
 31
0.0
  0
SPLINE
  5
2FC
330
1F
100
AcDbEntity
  8
0
  6
Continuous
 62
     7
370
    15
100
AcDbSpline
210
0.0
220
0.0
230
1.0
 70
     8
 71
     3
 72
     9
 73
     5
 74
     0
 42
0.00000001
 43
0.00000001
 12
1.0
 22
0.0
 32
0.0
 13
1.0
 23
0.0
 33
0.0
 40
0.0
 40
0.0
 40
0.0
 40
0.0
 40
0.5278771639359026
 40
1.0
 40
1.0
 40
1.0
 40
1.0
 10
330.0110906206666
 20
566.7297100548678
 30
0.0
 10
330.0342054927178
 20
566.7287468262118
 30
0.0
 10
330.0779938465822
 20
566.7269221050042
 30
0.0
 10
330.1209069845902
 20
566.7398279478829
 30
0.0
 10
330.141167257011
 20
566.7459210910245
 30
0.0
  0
LINE
  5
2FD
330
1F
100
AcDbEntity
  8
0
  6
Continuous
 62
     7
370
    15
100
AcDbLine
 10
325.544961445
 20
566.8227494791
 30
0.0
 11
325.3429997535
 21
566.9530010486
 31
0.0
  0
LINE
  5
2FE
330
1F
100
AcDbEntity
  8
0
  6
Continuous
 62
     7
370
    15
100
AcDbLine
 10
325.3429997535
 20
569.1064190612
 30
0.0
 11
325.3429997535
 21
566.9530010486
 31
0.0
  0
SPLINE
  5
2FF
330
1F
100
AcDbEntity
  8
0
  6
Continuous
 62
     7
370
    15
100
AcDbSpline
210
0.0
220
0.0
230
1.0
 70
     8
 71
     3
 72
     9
 73
     5
 74
     0
 42
0.00000001
 43
0.00000001
 12
1.0
 22
0.0
 32
0.0
 13
1.0
 23
0.0
 33
0.0
 40
0.0
 40
0.0
 40
0.0
 40
0.0
 40
0.2686336050554672
 40
1.0
 40
1.0
 40
1.0
 40
1.0
 10
325.7809516775932
 20
569.3297100548676
 30
0.0
 10
325.7411295929897
 20
569.3263955785753
 30
0.0
 10
325.5928901923558
 20
569.3140572998572
 30
0.0
 10
325.4485588482698
 20
569.1941299180572
 30
0.0
 10
325.3429997534681
 20
569.106419061175
 30
0.0
  0
SPLINE
  5
300
330
1F
100
AcDbEntity
  8
0
  6
Continuous
 62
     7
370
    15
100
AcDbSpline
210
0.0
220
0.0
230
1.0
 70
     8
 71
     3
 72
     9
 73
     5
 74
     0
 42
0.00000001
 43
0.00000001
 12
1.0
 22
0.0
 32
0.0
 13
1.0
 23
0.0
 33
0.0
 40
0.0
 40
0.0
 40
0.0
 40
0.0
 40
0.5569342110491663
 40
0.9999999999999999
 40
0.9999999999999999
 40
0.9999999999999999
 40
0.9999999999999999
 10
330.9831850108987
 20
569.1064190611752
 30
0.0
 10
330.9465610596429
 20
569.1426245492974
 30
0.0
 10
330.8808011358867
 20
569.2076331039952
 30
0.0
 10
330.8124705638468
 20
569.2276987248036
 30
0.0
 10
330.7821956250365
 20
569.2365891149178
 30
0.0
  0
LINE
  5
301
330
1F
100
AcDbEntity
  8
0
  6
Continuous
 62
     7
370
    15
100
AcDbLine
 10
330.0110906207
 20
569.3297100549
 30
0.0
 11
330.6630923822
 21
569.3297100549
 31
0.0
  0
LINE
  5
302
330
1F
100
AcDbEntity
  8
0
  6
Continuous
 62
     7
370
    15
100
AcDbLine
 10
325.7809516776
 20
569.3297100549
 30
0.0
 11
325.6630923822
 21
569.3297100549
 31
0.0
  0
LINE
  5
303
330
1F
100
AcDbEntity
  8
0
  6
Continuous
 62
     7
370
    15
100
AcDbLine
 10
341.8377067649
 20
324.5064190612
 30
0.0
 11
343.270153774
 21
324.7297100549
 31
0.0
  0
SPLINE
  5
304
330
1F
100
AcDbEntity
  8
0
  6
Continuous
 62
     7
370
    15
100
AcDbSpline
210
0.0
220
0.0
230
1.0
 70
     8
 71
     3
 72
     9
 73
     5
 74
     0
 42
0.00000001
 43
0.00000001
 12
1.0
 22
0.0
 32
0.0
 13
1.0
 23
0.0
 33
0.0
 40
0.0
 40
0.0
 40
0.0
 40
0.0
 40
0.0702005767034591
 40
1.0
 40
1.0
 40
1.0
 40
1.0
 10
343.2701537739966
 20
324.7297100548653
 30
0.0
 10
343.3041112438125
 20
324.7294869967316
 30
0.0
 10
343.7878319112263
 20
324.7263095565413
 30
0.0
 10
344.261854683142
 20
324.6123648155935
 30
0.0
 10
344.7026007830987
 20
324.5064190611727
 30
0.0
  0
LINE
  5
305
330
1F
100
AcDbEntity
  8
0
  6
Continuous
 62
     7
370
    15
100
AcDbLine
 10
344.7026007831
 20
324.5064190612
 30
0.0
 11
344.7026007831
 21
322.3530010486
 31
0.0
  0
SPLINE
  5
306
330
1F
100
AcDbEntity
  8
0
  6
Continuous
 62
     7
370
    15
100
AcDbSpline
210
0.0
220
0.0
230
1.0
 70
     8
 71
     3
 72
     9
 73
     5
 74
     0
 42
0.00000001
 43
0.00000001
 12
1.0
 22
0.0
 32
0.0
 13
1.0
 23
0.0
 33
0.0
 40
0.0
 40
0.0
 40
0.0
 40
0.0
 40
0.0702005767034473
 40
1.0
 40
1.0
 40
1.0
 40
1.0
 10
343.2701537739966
 20
322.1297100548654
 30
0.0
 10
343.3041112438124
 20
322.1299331129991
 30
0.0
 10
343.7878319112261
 20
322.1331105531891
 30
0.0
 10
344.261854683142
 20
322.247055294137
 30
0.0
 10
344.7026007830988
 20
322.3530010485579
 30
0.0
  0
LINE
  5
307
330
1F
100
AcDbEntity
  8
0
  6
Continuous
 62
     7
370
    15
100
AcDbLine
 10
341.8377067649
 20
322.3530010486
 30
0.0
 11
343.270153774
 21
322.1297100549
 31
0.0
  0
LINE
  5
308
330
1F
100
AcDbEntity
  8
0
  6
Continuous
 62
     7
370
    15
100
AcDbLine
 10
341.8377067649
 20
324.5064190612
 30
0.0
 11
341.8377067649
 21
322.3530010486
 31
0.0
  0
SPLINE
  5
309
330
1F
100
AcDbEntity
  8
0
  6
Continuous
 62
     7
370
    15
100
AcDbSpline
210
0.0
220
0.0
230
1.0
 70
     8
 71
     3
 72
     9
 73
     5
 74
     0
 42
0.00000001
 43
0.00000001
 12
1.0
 22
0.0
 32
0.0
 13
1.0
 23
0.0
 33
0.0
 40
0.0
 40
0.0
 40
0.0
 40
0.0
 40
0.2575513451038539
 40
1.0
 40
1.0
 40
1.0
 40
1.0
 10
341.8377067648941
 20
322.3530010485578
 30
0.0
 10
341.764689388631
 20
322.3192934371702
 30
0.0
 10
341.4811832930458
 20
322.1884161886984
 30
0.0
 10
341.1866376103555
 20
322.154724444802
 30
0.0
 10
340.9679525644368
 20
322.129710054865
 30
0.0
  0
LINE
  5
30A
330
1F
100
AcDbEntity
  8
0
  6
Continuous
 62
     7
370
    15
100
AcDbLine
 10
343.270153774
 20
322.1297100549
 30
0.0
 11
340.9679525644
 21
322.1297100549
 31
0.0
  0
SPLINE
  5
30B
330
1F
100
AcDbEntity
  8
0
  6
Continuous
 62
     7
370
    15
100
AcDbSpline
210
0.0
220
0.0
230
1.0
 70
     8
 71
     3
 72
     9
 73
     5
 74
     0
 42
0.00000001
 43
0.00000001
 12
1.0
 22
0.0
 32
0.0
 13
1.0
 23
0.0
 33
0.0
 40
0.0
 40
0.0
 40
0.0
 40
0.0
 40
0.5174000252721074
 40
0.9999999999999999
 40
0.9999999999999999
 40
0.9999999999999999
 40
0.9999999999999999
 10
341.8377067648941
 20
324.5064190611725
 30
0.0
 10
341.7649356611279
 20
324.5422946990122
 30
0.0
 10
341.6242879993347
 20
324.6116329983694
 30
0.0
 10
341.4781450527146
 20
324.6325943046739
 30
0.0
 10
341.407616470369
 20
324.6427102305666
 30
0.0
  0
LINE
  5
30C
330
1F
100
AcDbEntity
  8
0
  6
Continuous
 62
     7
370
    15
100
AcDbLine
 10
344.7026007831
 20
322.3530010486
 30
0.0
 11
345.2652935917
 21
322.1297100549
 31
0.0
  0
LINE
  5
30D
330
1F
100
AcDbEntity
  8
0
  6
Continuous
 62
     7
370
    15
100
AcDbLine
 10
345.2652935917
 20
322.1297100549
 30
0.0
 11
343.270153774
 21
322.1297100549
 31
0.0
  0
LINE
  5
30E
330
1F
100
AcDbEntity
  8
0
  6
Continuous
 62
     7
370
    15
100
AcDbLine
 10
344.7026007831
 20
324.5064190612
 30
0.0
 11
345.2652935917
 21
324.7297100549
 31
0.0
  0
SPLINE
  5
30F
330
1F
100
AcDbEntity
  8
0
  6
Continuous
 62
     7
370
    15
100
AcDbSpline
210
0.0
220
0.0
230
1.0
 70
     8
 71
     3
 72
     9
 73
     5
 74
     0
 42
0.00000001
 43
0.00000001
 12
1.0
 22
0.0
 32
0.0
 13
1.0
 23
0.0
 33
0.0
 40
0.0
 40
0.0
 40
0.0
 40
0.0
 40
0.2686336050556635
 40
0.9999999999999999
 40
0.9999999999999999
 40
0.9999999999999999
 40
0.9999999999999999
 10
340.9679525644368
 20
322.129710054865
 30
0.0
 10
340.8888675702927
 20
322.1330245311572
 30
0.0
 10
340.5944703219374
 20
322.1453628098752
 30
0.0
 10
340.3078343103991
 20
322.2652901916754
 30
0.0
 10
340.098198363979
 20
322.3530010485577
 30
0.0
  0
LINE
  5
310
330
1F
100
AcDbEntity
  8
0
  6
Continuous
 62
     7
370
    15
100
AcDbLine
 10
340.098198364
 20
322.5297100549
 30
0.0
 11
340.098198364
 21
322.3530010486
 31
0.0
  0
LINE
  5
311
330
1F
100
AcDbEntity
  8
0
  6
Continuous
 62
     7
370
    15
100
AcDbLine
 10
345.6786109681
 20
324.5698838831
 30
0.0
 11
345.8279864004
 21
324.5064190612
 31
0.0
  0
LINE
  5
312
330
1F
100
AcDbEntity
  8
0
  6
Continuous
 62
     7
370
    15
100
AcDbLine
 10
345.8279864004
 20
324.5064190612
 30
0.0
 11
345.8279864004
 21
322.3530010486
 31
0.0
  0
SPLINE
  5
313
330
1F
100
AcDbEntity
  8
0
  6
Continuous
 62
     7
370
    15
100
AcDbSpline
210
0.0
220
0.0
230
1.0
 70
     8
 71
     3
 72
     9
 73
     5
 74
     0
 42
0.00000001
 43
0.00000001
 12
1.0
 22
0.0
 32
0.0
 13
1.0
 23
0.0
 33
0.0
 40
0.0
 40
0.0
 40
0.0
 40
0.0
 40
0.0702005767033586
 40
1.0
 40
1.0
 40
1.0
 40
1.0
 10
345.2652935917433
 20
322.1297100548654
 30
0.0
 10
345.2786327407267
 20
322.1299331129991
 30
0.0
 10
345.4686475470116
 20
322.1331105531896
 30
0.0
 10
345.6548528329281
 20
322.2470552941372
 30
0.0
 10
345.8279864003882
 20
322.3530010485579
 30
0.0
  0
LINE
  5
314
330
1F
100
AcDbEntity
  8
0
  6
Continuous
 62
     7
370
    15
100
AcDbLine
 10
340.2475737962
 20
322.2895362266
 30
0.0
 11
340.098198364
 21
322.3530010486
 31
0.0
  0
LINE
  5
315
330
1F
100
AcDbEntity
  8
0
  6
Continuous
 62
     7
370
    15
100
AcDbLine
 10
340.9679525644
 20
322.1297100549
 30
0.0
 11
340.4630923822
 21
322.1297100549
 31
0.0
  0
LINE
  5
316
330
1F
100
AcDbEntity
  8
0
  6
Continuous
 62
     7
370
    15
100
AcDbLine
 10
345.4630923822
 20
322.1297100549
 30
0.0
 11
345.2652935917
 21
322.1297100549
 31
0.0
  0
ENDSEC
  0
SECTION
  2
OBJECTS
  0
DICTIONARY
  5
C
330
0
100
AcDbDictionary
281
     1
  3
ACAD_GROUP
350
D
  3
ACAD_LAYOUT
350
1A
  3
ACAD_MLINESTYLE
350
17
  3
ACAD_PLOTSETTINGS
350
19
  3
ACAD_PLOTSTYLENAME
350
E
  0
DICTIONARY
  5
D
102
{ACAD_REACTORS
330
C
102
}
330
C
100
AcDbDictionary
281
     1
  0
DICTIONARY
  5
1A
102
{ACAD_REACTORS
330
C
102
}
330
C
100
AcDbDictionary
281
     1
  3
Layout1
350
1E
  3
Layout2
350
26
  3
Model
350
22
  0
DICTIONARY
  5
17
102
{ACAD_REACTORS
330
C
102
}
330
C
100
AcDbDictionary
281
     1
  3
Standard
350
18
  0
DICTIONARY
  5
19
102
{ACAD_REACTORS
330
C
102
}
330
C
100
AcDbDictionary
281
     1
  0
ACDBDICTIONARYWDFLT
  5
E
102
{ACAD_REACTORS
330
C
102
}
330
C
100
AcDbDictionary
281
     1
  3
Normal
350
F
100
AcDbDictionaryWithDefault
340
F
  0
LAYOUT
  5
1E
102
{ACAD_REACTORS
330
1A
102
}
330
1A
100
AcDbPlotSettings
  1

  2
none_device
  4

  6

 40
0.0
 41
0.0
 42
0.0
 43
0.0
 44
0.0
 45
0.0
 46
0.0
 47
0.0
 48
0.0
 49
0.0
140
0.0
141
0.0
142
1.0
143
1.0
 70
   688
 72
     0
 73
     0
 74
     5
  7

 75
    16
147
1.0
148
0.0
149
0.0
100
AcDbLayout
  1
Layout1
 70
     1
 71
     1
 10
0.0
 20
0.0
 11
420.0
 21
297.0
 12
0.0
 22
0.0
 32
0.0
 14
1.0000000000E+20
 24
1.0000000000E+20
 34
1.0000000000E+20
 15
-1.0000000000E+20
 25
-1.0000000000E+20
 35
-1.0000000000E+20
146
0.0
 13
0.0
 23
0.0
 33
0.0
 16
1.0
 26
0.0
 36
0.0
 17
0.0
 27
1.0
 37
0.0
 76
     0
330
1B
  0
LAYOUT
  5
26
102
{ACAD_REACTORS
330
1A
102
}
330
1A
100
AcDbPlotSettings
  1

  2
none_device
  4

  6

 40
0.0
 41
0.0
 42
0.0
 43
0.0
 44
0.0
 45
0.0
 46
0.0
 47
0.0
 48
0.0
 49
0.0
140
0.0
141
0.0
142
1.0
143
1.0
 70
   688
 72
     0
 73
     0
 74
     5
  7

 75
    16
147
1.0
148
0.0
149
0.0
100
AcDbLayout
  1
Layout2
 70
     1
 71
     2
 10
0.0
 20
0.0
 11
0.0
 21
0.0
 12
0.0
 22
0.0
 32
0.0
 14
0.0
 24
0.0
 34
0.0
 15
0.0
 25
0.0
 35
0.0
146
0.0
 13
0.0
 23
0.0
 33
0.0
 16
1.0
 26
0.0
 36
0.0
 17
0.0
 27
1.0
 37
0.0
 76
     0
330
23
  0
LAYOUT
  5
22
102
{ACAD_REACTORS
330
1A
102
}
330
1A
100
AcDbPlotSettings
  1

  2
none_device
  4

  6

 40
0.0
 41
0.0
 42
0.0
 43
0.0
 44
0.0
 45
0.0
 46
0.0
 47
0.0
 48
0.0
 49
0.0
140
0.0
141
0.0
142
1.0
143
1.0
 70
  1712
 72
     0
 73
     0
 74
     0
  7

 75
     0
147
1.0
148
0.0
149
0.0
100
AcDbLayout
  1
Model
 70
     1
 71
     0
 10
0.0
 20
0.0
 11
1100.0
 21
1000.0
 12
0.0
 22
0.0
 32
0.0
 14
0.0
 24
0.0
 34
0.0
 15
1100.0
 25
1000.0
 35
0.0
146
0.0
 13
0.0
 23
0.0
 33
0.0
 16
1.0
 26
0.0
 36
0.0
 17
0.0
 27
1.0
 37
0.0
 76
     0
330
1F
331
29
  0
MLINESTYLE
  5
18
102
{ACAD_REACTORS
330
17
102
}
330
17
100
AcDbMlineStyle
  2
Standard
 70
     0
  3

 62
   256
 51
90.0
 52
90.0
 71
     2
 49
0.5
 62
   256
  6
BYLAYER
 49
-0.5
 62
   256
  6
BYLAYER
  0
ACDBPLACEHOLDER
  5
F
102
{ACAD_REACTORS
330
E
102
}
330
E
  0
ENDSEC
  0
EOF
