  0
SECTION
  2
HEADER
  9
$ACADVER
  1
AC1015
  9
$ACADMAINTVER
 70
     6
  9
$DWGCODEPAGE
  3
ANSI_1252
  9
$INSBASE
 10
0.0
 20
0.0
 30
0.0
  9
$EXTMIN
 10
0.0
 20
0.0
 30
0.0
  9
$EXTMAX
 10
1100.0
 20
1000.0
 30
0.0
  9
$LIMMIN
 10
0.0
 20
0.0
  9
$LIMMAX
 10
1100.0
 20
1000.0
  9
$ORTHOMODE
 70
     0
  9
$REGENMODE
 70
     1
  9
$FILLMODE
 70
     1
  9
$QTEXTMODE
 70
     0
  9
$MIRRTEXT
 70
     1
  9
$LTSCALE
 40
1.0
  9
$ATTMODE
 70
     1
  9
$TEXTSIZE
 40
3.5
  9
$TRACEWID
 40
1.0
  9
$TEXTSTYLE
  7
Standard
  9
$CLAYER
  8
0
  9
$CELTYPE
  6
ByLayer
  9
$CECOLOR
 62
   256
  9
$CELTSCALE
 40
1.0
  9
$DISPSILH
 70
     0
  9
$DIMSCALE
 40
1.0
  9
$DIMASZ
 40
3.302
  9
$DIMEXO
 40
1.0
  9
$DIMDLI
 40
3.75
  9
$DIMRND
 40
0.0
  9
$DIMDLE
 40
0.0
  9
$DIMEXE
 40
1.0
  9
$DIMTP
 40
0.0
  9
$DIMTM
 40
0.0
  9
$DIMTXT
 40
3.5
  9
$DIMCEN
 40
2.5
  9
$DIMTSZ
 40
0.0
  9
$DIMTOL
 70
     0
  9
$DIMLIM
 70
     0
  9
$DIMTIH
 70
     1
  9
$DIMTOH
 70
     1
  9
$DIMSE1
 70
     0
  9
$DIMSE2
 70
     0
  9
$DIMTAD
 70
     1
  9
$DIMZIN
 70
     0
  9
$DIMBLK
  1

  9
$DIMASO
 70
     1
  9
$DIMSHO
 70
     1
  9
$DIMPOST
  1

  9
$DIMAPOST
  1

  9
$DIMALT
 70
     0
  9
$DIMALTD
 70
     3
  9
$DIMALTF
 40
0.0393700787
  9
$DIMLFAC
 40
5.0
  9
$DIMTOFL
 70
     1
  9
$DIMTVP
 40
0.0
  9
$DIMTIX
 70
     0
  9
$DIMSOXD
 70
     0
  9
$DIMSAH
 70
     0
  9
$DIMBLK1
  1

  9
$DIMBLK2
  1

  9
$DIMSTYLE
  2
ISO-25
  9
$DIMCLRD
 70
     0
  9
$DIMCLRE
 70
     0
  9
$DIMCLRT
 70
     0
  9
$DIMTFAC
 40
1.0
  9
$DIMGAP
 40
1.524
  9
$DIMJUST
 70
     0
  9
$DIMSD1
 70
     0
  9
$DIMSD2
 70
     0
  9
$DIMTOLJ
 70
     0
  9
$DIMTZIN
 70
     0
  9
$DIMALTZ
 70
     0
  9
$DIMALTTZ
 70
     0
  9
$DIMUPT
 70
     0
  9
$DIMDEC
 70
     3
  9
$DIMTDEC
 70
     3
  9
$DIMALTU
 70
     2
  9
$DIMALTTD
 70
     3
  9
$DIMTXSTY
  7
Standard
  9
$DIMAUNIT
 70
     0
  9
$DIMADEC
 70
     2
  9
$DIMALTRND
 40
0.0
  9
$DIMAZIN
 70
     0
  9
$DIMDSEP
 70
    44
  9
$DIMATFIT
 70
     3
  9
$DIMFRAC
 70
     0
  9
$DIMLDRBLK
  1

  9
$DIMLUNIT
 70
     2
  9
$DIMLWD
 70
    -2
  9
$DIMLWE
 70
    -2
  9
$DIMTMOVE
 70
     0
  9
$LUNITS
 70
     2
  9
$LUPREC
 70
     8
  9
$SKETCHINC
 40
1.0
  9
$FILLETRAD
 40
10.0
  9
$AUNITS
 70
     0
  9
$AUPREC
 70
     8
  9
$MENU
  1
.
  9
$ELEVATION
 40
0.0
  9
$PELEVATION
 40
0.0
  9
$THICKNESS
 40
0.0
  9
$LIMCHECK
 70
     0
  9
$CHAMFERA
 40
10.0
  9
$CHAMFERB
 40
10.0
  9
$CHAMFERC
 40
20.0
  9
$CHAMFERD
 40
0.0
  9
$SKPOLY
 70
     0
  9
$TDCREATE
 40
2457423.464388681
  9
$TDUCREATE
 40
2457423.464388681
  9
$TDUPDATE
 40
2457423.464389225
  9
$TDUUPDATE
 40
2457423.464389225
  9
$TDINDWG
 40
0.0000000116
  9
$TDUSRTIMER
 40
0.0000000116
  9
$USRTIMER
 70
     1
  9
$ANGBASE
 50
0.0
  9
$ANGDIR
 70
     0
  9
$PDMODE
 70
     0
  9
$PDSIZE
 40
-1.0
  9
$PLINEWID
 40
0.0
  9
$SPLFRAME
 70
     0
  9
$SPLINETYPE
 70
     6
  9
$SPLINESEGS
 70
     8
  9
$HANDSEED
  5
1A3
  9
$SURFTAB1
 70
     6
  9
$SURFTAB2
 70
     6
  9
$SURFTYPE
 70
     6
  9
$SURFU
 70
     6
  9
$SURFV
 70
     6
  9
$UCSBASE
  2

  9
$UCSNAME
  2

  9
$UCSORG
 10
0.0
 20
0.0
 30
0.0
  9
$UCSXDIR
 10
1.0
 20
0.0
 30
0.0
  9
$UCSYDIR
 10
0.0
 20
1.0
 30
0.0
  9
$UCSORTHOREF
  2

  9
$UCSORTHOVIEW
 70
     0
  9
$UCSORGTOP
 10
0.0
 20
0.0
 30
0.0
  9
$UCSORGBOTTOM
 10
0.0
 20
0.0
 30
0.0
  9
$UCSORGLEFT
 10
0.0
 20
0.0
 30
0.0
  9
$UCSORGRIGHT
 10
0.0
 20
0.0
 30
0.0
  9
$UCSORGFRONT
 10
0.0
 20
0.0
 30
0.0
  9
$UCSORGBACK
 10
0.0
 20
0.0
 30
0.0
  9
$PUCSBASE
  2

  9
$PUCSNAME
  2

  9
$PUCSORG
 10
0.0
 20
0.0
 30
0.0
  9
$PUCSXDIR
 10
1.0
 20
0.0
 30
0.0
  9
$PUCSYDIR
 10
0.0
 20
1.0
 30
0.0
  9
$PUCSORTHOREF
  2

  9
$PUCSORTHOVIEW
 70
     0
  9
$PUCSORGTOP
 10
0.0
 20
0.0
 30
0.0
  9
$PUCSORGBOTTOM
 10
0.0
 20
0.0
 30
0.0
  9
$PUCSORGLEFT
 10
0.0
 20
0.0
 30
0.0
  9
$PUCSORGRIGHT
 10
0.0
 20
0.0
 30
0.0
  9
$PUCSORGFRONT
 10
0.0
 20
0.0
 30
0.0
  9
$PUCSORGBACK
 10
0.0
 20
0.0
 30
0.0
  9
$USERI1
 70
     0
  9
$USERI2
 70
     0
  9
$USERI3
 70
     0
  9
$USERI4
 70
     0
  9
$USERI5
 70
     0
  9
$USERR1
 40
0.0
  9
$USERR2
 40
0.0
  9
$USERR3
 40
0.0
  9
$USERR4
 40
0.0
  9
$USERR5
 40
0.0
  9
$WORLDVIEW
 70
     1
  9
$SHADEDGE
 70
     3
  9
$SHADEDIF
 70
    70
  9
$TILEMODE
 70
     1
  9
$MAXACTVP
 70
    64
  9
$PINSBASE
 10
0.0
 20
0.0
 30
0.0
  9
$PLIMCHECK
 70
     0
  9
$PEXTMIN
 10
1.0000000000E+20
 20
1.0000000000E+20
 30
1.0000000000E+20
  9
$PEXTMAX
 10
-1.0000000000E+20
 20
-1.0000000000E+20
 30
-1.0000000000E+20
  9
$PLIMMIN
 10
0.0
 20
0.0
  9
$PLIMMAX
 10
420.0
 20
297.0
  9
$UNITMODE
 70
     0
  9
$VISRETAIN
 70
     1
  9
$PLINEGEN
 70
     0
  9
$PSLTSCALE
 70
     1
  9
$TREEDEPTH
 70
  3020
  9
$CMLSTYLE
  2
Standard
  9
$CMLJUST
 70
     0
  9
$CMLSCALE
 40
20.0
  9
$PROXYGRAPHICS
 70
     1
  9
$MEASUREMENT
 70
     1
  9
$CELWEIGHT
370
    -1
  9
$ENDCAPS
280
     0
  9
$JOINSTYLE
280
     0
  9
$LWDISPLAY
290
     1
  9
$INSUNITS
 70
     4
  9
$HYPERLINKBASE
  1

  9
$STYLESHEET
  1

  9
$XEDIT
290
     1
  9
$CEPSNTYPE
380
     0
  9
$PSTYLEMODE
290
     1
  9
$FINGERPRINTGUID
  2
{4FD67A0A-6B5E-4F3E-BB99-83C566F5BBED}
  9
$VERSIONGUID
  2
{FAEB1C32-E019-11D5-929B-00C0DF256EC4}
  9
$EXTNAMES
290
     1
  9
$PSVPSCALE
 40
0.0
  9
$OLESTARTUP
290
     0
  0
ENDSEC
  0
SECTION
  2
CLASSES
  0
CLASS
  1
ACDBDICTIONARYWDFLT
  2
AcDbDictionaryWithDefault
  3
ObjectDBX Classes
 90
        0
280
     0
281
     0
  0
CLASS
  1
VISUALSTYLE
  2
AcDbVisualStyle
  3
ObjectDBX Classes
 90
     4095
280
     0
281
     0
  0
CLASS
  1
MATERIAL
  2
AcDbMaterial
  3
ObjectDBX Classes
 90
     1153
280
     0
281
     0
  0
CLASS
  1
ACDBPLACEHOLDER
  2
AcDbPlaceHolder
  3
ObjectDBX Classes
 90
        0
280
     0
281
     0
  0
CLASS
  1
LAYOUT
  2
AcDbLayout
  3
ObjectDBX Classes
 90
        0
280
     0
281
     0
  0
ENDSEC
  0
SECTION
  2
TABLES
  0
TABLE
  2
VPORT
  5
8
330
0
100
AcDbSymbolTable
 70
     1
  0
VPORT
  5
29
330
8
100
AcDbSymbolTableRecord
100
AcDbViewportTableRecord
  2
*Active
 70
     0
 10
0.0
 20
0.0
 11
1.0
 21
1.0
 12
550.0
 22
500.0
 13
0.0
 23
0.0
 14
10.0
 24
10.0
 15
10.0
 25
10.0
 16
0.0
 26
0.0
 36
1.0
 17
0.0
 27
0.0
 37
0.0
 40
1000.0
 41
1.1
 42
50.0
 43
0.0
 44
0.0
 50
0.0
 51
0.0
 71
     0
 72
  2000
 73
     1
 74
     3
 75
     0
 76
     0
 77
     0
 78
     0
281
     0
 65
     1
110
0.0
120
0.0
130
0.0
111
1.0
121
0.0
131
0.0
112
0.0
122
1.0
132
0.0
 79
     0
146
0.0
  0
ENDTAB
  0
TABLE
  2
LTYPE
  5
5
330
0
100
AcDbSymbolTable
 70
     6
  0
LTYPE
  5
14
330
5
100
AcDbSymbolTableRecord
100
AcDbLinetypeTableRecord
  2
ByBlock
 70
     0
  3

 72
    65
 73
     0
 40
0.0
  0
LTYPE
  5
15
330
5
100
AcDbSymbolTableRecord
100
AcDbLinetypeTableRecord
  2
ByLayer
 70
     0
  3

 72
    65
 73
     0
 40
0.0
  0
LTYPE
  5
16
330
5
100
AcDbSymbolTableRecord
100
AcDbLinetypeTableRecord
  2
Continuous
 70
     0
  3
Solid line
 72
    65
 73
     0
 40
0.0
  0
LTYPE
  5
3F
330
5
100
AcDbSymbolTableRecord
100
AcDbLinetypeTableRecord
  2
HIDDEN
 70
     0
  3
Hidden __ __ __ __ __ __ __ __ __ __ __ __ __ __
 72
    65
 73
     2
 40
1.905
 49
1.27
 74
     0
 49
-0.635
 74
     0
  0
LTYPE
  5
40
330
5
100
AcDbSymbolTableRecord
100
AcDbLinetypeTableRecord
  2
PHANTOM
 70
     0
  3
Phantom ______  __  __  ______  __  __  ______
 72
    65
 73
     6
 40
12.7
 49
6.35
 74
     0
 49
-1.27
 74
     0
 49
1.27
 74
     0
 49
-1.27
 74
     0
 49
1.27
 74
     0
 49
-1.27
 74
     0
  0
LTYPE
  5
41
330
5
100
AcDbSymbolTableRecord
100
AcDbLinetypeTableRecord
  2
CENTER
 70
     0
  3
Center ____ _ ____ _ ____ _ ____ _ ____ _ ____
 72
    65
 73
     4
 40
10.16
 49
6.35
 74
     0
 49
-1.27
 74
     0
 49
1.27
 74
     0
 49
-1.27
 74
     0
  0
LTYPE
  5
42
330
5
100
AcDbSymbolTableRecord
100
AcDbLinetypeTableRecord
  2
CENTERX2
 70
     0
  3
Center (2x) ________  __  ________  __  _____
 72
    65
 73
     4
 40
20.32
 49
12.7
 74
     0
 49
-2.54
 74
     0
 49
2.54
 74
     0
 49
-2.54
 74
     0
  0
LTYPE
  5
43
330
5
100
AcDbSymbolTableRecord
100
AcDbLinetypeTableRecord
  2
DOT2
 70
     0
  3
Dot (.5x) ........................................
 72
    65
 73
     2
 40
0.635
 49
0.0
 74
     0
 49
-0.635
 74
     0
  0
ENDTAB
  0
TABLE
  2
LAYER
  5
2
330
0
100
AcDbSymbolTable
 70
     1
  0
LAYER
  5
10
330
2
100
AcDbSymbolTableRecord
100
AcDbLayerTableRecord
  2
0
 70
     0
 62
     7
  6
Continuous
370
    -3
390
F
  0
ENDTAB
  0
TABLE
  2
STYLE
  5
3
330
0
100
AcDbSymbolTable
 70
     1
  0
STYLE
  5
11
330
3
100
AcDbSymbolTableRecord
100
AcDbTextStyleTableRecord
  2
Standard
 70
     0
 40
0.0
 41
1.0
 50
0.0
 71
     0
 42
3.5
  3
txt
  4

  0
ENDTAB
  0
TABLE
  2
VIEW
  5
6
330
0
100
AcDbSymbolTable
 70
     0
  0
ENDTAB
  0
TABLE
  2
UCS
  5
7
330
0
100
AcDbSymbolTable
 70
     0
  0
ENDTAB
  0
TABLE
  2
APPID
  5
9
330
0
100
AcDbSymbolTable
 70
     1
  0
APPID
  5
12
330
9
100
AcDbSymbolTableRecord
100
AcDbRegAppTableRecord
  2
ACAD
 70
     0
  0
ENDTAB
  0
TABLE
  2
DIMSTYLE
  5
A
330
0
100
AcDbSymbolTable
 70
     1
100
AcDbDimStyleTable
  0
DIMSTYLE
105
27
330
A
100
AcDbSymbolTableRecord
100
AcDbDimStyleTableRecord
  2
ISO-25
 70
     0
 41
2.5
 42
0.625
 43
3.75
 44
1.25
 73
     0
 74
     0
 77
     1
 78
     8
140
2.5
141
2.5
143
0.0393700787
147
0.625
171
     3
172
     1
178
     0
271
     2
272
     2
274
     3
278
    44
283
     0
284
     8
340
11
  0
ENDTAB
  0
TABLE
  2
BLOCK_RECORD
  5
1
330
0
100
AcDbSymbolTable
 70
     1
  0
BLOCK_RECORD
  5
1F
330
1
100
AcDbSymbolTableRecord
100
AcDbBlockTableRecord
  2
*Model_Space
340
22
  0
BLOCK_RECORD
  5
1B
330
1
100
AcDbSymbolTableRecord
100
AcDbBlockTableRecord
  2
*Paper_Space
340
1E
  0
BLOCK_RECORD
  5
23
330
1
100
AcDbSymbolTableRecord
100
AcDbBlockTableRecord
  2
*Paper_Space0
340
26
  0
ENDTAB
  0
ENDSEC
  0
SECTION
  2
BLOCKS
  0
BLOCK
  5
20
330
1F
100
AcDbEntity
  8
0
100
AcDbBlockBegin
  2
*Model_Space
 70
     0
 10
0.0
 20
0.0
 30
0.0
  3
*Model_Space
  1

  0
ENDBLK
  5
21
330
1F
100
AcDbEntity
  8
0
100
AcDbBlockEnd
  0
BLOCK
  5
1C
330
1B
100
AcDbEntity
 67
     1
  8
0
100
AcDbBlockBegin
  2
*Paper_Space
 70
     0
 10
0.0
 20
0.0
 30
0.0
  3
*Paper_Space
  1

  0
ENDBLK
  5
1D
330
1B
100
AcDbEntity
 67
     1
  8
0
100
AcDbBlockEnd
  0
BLOCK
  5
24
330
23
100
AcDbEntity
  8
0
100
AcDbBlockBegin
  2
*Paper_Space0
 70
     0
 10
0.0
 20
0.0
 30
0.0
  3
*Paper_Space0
  1

  0
ENDBLK
  5
25
330
23
100
AcDbEntity
  8
0
100
AcDbBlockEnd
  0
ENDSEC
  0
SECTION
  2
ENTITIES
  0
LINE
  5
44
330
1F
100
AcDbEntity
  8
0
  6
Continuous
 62
     7
370
    15
100
AcDbLine
 10
333.9998267348
 20
366.3791357825
 30
0.0
 11
389.4588492568
 21
366.3791357825
 31
0.0
  0
LINE
  5
45
330
1F
100
AcDbEntity
  8
0
  6
Continuous
 62
     7
370
    15
100
AcDbLine
 10
403.5458184536
 20
366.3791357825
 30
0.0
 11
464.4588485118
 21
366.3791357825
 31
0.0
  0
LINE
  5
46
330
1F
100
AcDbEntity
  8
0
  6
Continuous
 62
     7
370
    15
100
AcDbLine
 10
478.5458214338
 20
366.3791357825
 30
0.0
 11
589.458852237
 21
366.3791357825
 31
0.0
  0
LINE
  5
47
330
1F
100
AcDbEntity
  8
0
  6
Continuous
 62
     7
370
    15
100
AcDbLine
 10
603.5458214338
 20
366.3791357825
 30
0.0
 11
664.4588552173
 21
366.3791357825
 31
0.0
  0
LINE
  5
48
330
1F
100
AcDbEntity
  8
0
  6
Continuous
 62
     7
370
    15
100
AcDbLine
 10
678.5458169635
 20
366.3791357825
 30
0.0
 11
733.9998326953
 21
366.3791357825
 31
0.0
  0
LINE
  5
49
330
1F
100
AcDbEntity
  8
0
  6
Continuous
 62
     7
370
    15
100
AcDbLine
 10
333.9998267348
 20
366.3920625398
 30
0.0
 11
733.9998326953
 21
366.3920625398
 31
0.0
  0
SPLINE
  5
4A
330
1F
100
AcDbEntity
  8
0
  6
Continuous
 62
     7
370
    15
100
AcDbSpline
210
0.0
220
0.0
230
1.0
 70
     8
 71
     3
 72
     9
 73
     5
 74
     0
 42
0.00000001
 43
0.00000001
 12
1.0
 22
0.0
 32
0.0
 13
1.0
 23
0.0
 33
0.0
 40
0.0
 40
0.0
 40
0.0
 40
0.0
 40
0.0544516885078356
 40
1.0
 40
1.0
 40
1.0
 40
1.0
 10
401.659480458076
 20
365.9083112428177
 30
0.0
 10
401.6618541833645
 20
365.9170981439888
 30
0.0
 10
401.7054474190135
 20
366.0784687352757
 30
0.0
 10
401.7922917993581
 20
366.239654043647
 30
0.0
 10
401.8744073565554
 20
366.3920625398148
 30
0.0
  0
LINE
  5
4B
330
1F
100
AcDbEntity
  8
0
  6
Continuous
 62
     7
370
    15
100
AcDbLine
 10
391.1283455546
 20
366.3920625398
 30
0.0
 11
391.2292711194
 21
366.1553054402
 31
0.0
  0
ARC
  5
4C
330
1F
100
AcDbEntity
  8
0
  6
Continuous
 62
     7
370
    15
100
AcDbCircle
 10
401.8172286238
 20
360.8055072874
 30
0.0
 40
0.4999999999999807
100
AcDbArc
 50
286.1036910378
 51
349.3444562998
  0
ARC
  5
4D
330
1F
100
AcDbEntity
  8
0
  6
Continuous
 62
     7
370
    15
100
AcDbCircle
 10
391.1824253634
 20
360.8055072874
 30
0.0
 40
0.5000000000000365
100
AcDbArc
 50
190.6555437002
 51
253.8963089622
  0
SPLINE
  5
4E
330
1F
100
AcDbEntity
  8
0
  6
Continuous
 62
     7
370
    15
100
AcDbSpline
210
0.0
220
0.0
230
1.0
 70
     8
 71
     3
 72
    17
 73
    13
 74
     0
 42
0.00000001
 43
0.00000001
 12
1.0
 22
0.0
 32
0.0
 13
1.0
 23
0.0
 33
0.0
 40
0.0
 40
0.0
 40
0.0
 40
0.0
 40
0.0568464938462664
 40
0.1651288604566278
 40
0.2731854105527864
 40
0.3810464151830585
 40
0.4887966809866716
 40
0.5965119707677375
 40
0.7042561646115105
 40
0.8120890795272857
 40
0.9200906932404617
 40
1.0
 40
1.0
 40
1.0
 40
1.0
 10
391.0437367613864
 20
360.3251292655457
 30
0.0
 10
391.228624854475
 20
360.2740704020339
 30
0.0
 10
391.7656915767655
 20
360.1257535687972
 30
0.0
 10
392.7157976664
 20
359.9261461942139
 30
0.0
 10
393.8994983597271
 20
359.7501772736589
 30
0.0
 10
395.1243491326924
 20
359.6414324077032
 30
0.0
 10
396.3697503229237
 20
359.6001820724226
 30
0.0
 10
397.6167787224729
 20
359.6272500757725
 30
0.0
 10
398.8465118662334
 20
359.7218259652536
 30
0.0
 10
400.038140352662
 20
359.8838857057356
 30
0.0
 10
401.0804307433008
 20
360.0873854100768
 30
0.0
 10
401.694698661902
 20
360.2541938217474
 30
0.0
 10
401.9559167082857
 20
360.3251292655457
 30
0.0
  0
SPLINE
  5
4F
330
1F
100
AcDbEntity
  8
0
  6
Continuous
 62
     7
370
    15
100
AcDbSpline
210
0.0
220
0.0
230
1.0
 70
     8
 71
     3
 72
    10
 73
     6
 74
     0
 42
0.00000001
 43
0.00000001
 12
1.0
 22
0.0
 32
0.0
 13
1.0
 23
0.0
 33
0.0
 40
0.0
 40
0.0
 40
0.0
 40
0.0
 40
0.0935711955407854
 40
0.7127017630860126
 40
1.0
 40
1.0
 40
1.0
 40
1.0
 10
389.4556157048297
 20
366.3920625398148
 30
0.0
 10
389.5006419711776
 20
366.2124624269549
 30
0.0
 10
389.8435925899647
 20
364.8445060131684
 30
0.0
 10
390.2690132315392
 20
362.9381846920909
 30
0.0
 10
390.5774992043153
 20
361.2546348807529
 30
0.0
 10
390.6752757485461
 20
360.7210233161438
 30
0.0
  0
SPLINE
  5
50
330
1F
100
AcDbEntity
  8
0
  6
Continuous
 62
     7
370
    15
100
AcDbSpline
210
0.0
220
0.0
230
1.0
 70
     8
 71
     3
 72
     9
 73
     5
 74
     0
 42
0.00000001
 43
0.00000001
 12
1.0
 22
0.0
 32
0.0
 13
1.0
 23
0.0
 33
0.0
 40
0.0
 40
0.0
 40
0.0
 40
0.0
 40
0.534509571506815
 40
1.0
 40
1.0
 40
1.0
 40
1.0
 10
402.3090444262576
 20
360.7132300088394
 30
0.0
 10
402.5037290435958
 20
361.7134229002383
 30
0.0
 10
402.8679594104897
 20
363.5846576633114
 30
0.0
 10
403.3325812645533
 20
365.5003336867911
 30
0.0
 10
403.5488582904886
 20
366.3920625398148
 30
0.0
  0
SPLINE
  5
51
330
1F
100
AcDbEntity
  8
0
  6
Continuous
 62
     7
370
    15
100
AcDbSpline
210
0.0
220
0.0
230
1.0
 70
     8
 71
     3
 72
     9
 73
     5
 74
     0
 42
0.00000001
 43
0.00000001
 12
1.0
 22
0.0
 32
0.0
 13
1.0
 23
0.0
 33
0.0
 40
0.0
 40
0.0
 40
0.0
 40
0.0
 40
0.0544517467434403
 40
1.0
 40
1.0
 40
1.0
 40
1.0
 10
601.6594834383083
 20
365.9083112428177
 30
0.0
 10
601.6618571673221
 20
365.9170981437186
 30
0.0
 10
601.7054504247644
 20
366.0784685574594
 30
0.0
 10
601.7922909650389
 20
366.2396539620519
 30
0.0
 10
601.8744028862071
 20
366.3920625398148
 30
0.0
  0
LINE
  5
52
330
1F
100
AcDbEntity
  8
0
  6
Continuous
 62
     7
370
    15
100
AcDbLine
 10
591.1283410843
 20
366.3920625398
 30
0.0
 11
591.2292740996
 21
366.1553054402
 31
0.0
  0
ARC
  5
53
330
1F
100
AcDbEntity
  8
0
  6
Continuous
 62
     7
370
    15
100
AcDbCircle
 10
601.8172286238
 20
360.8055072875
 30
0.0
 40
0.5000000000000365
100
AcDbArc
 50
286.1036910378
 51
349.3444562998
  0
ARC
  5
54
330
1F
100
AcDbEntity
  8
0
  6
Continuous
 62
     7
370
    15
100
AcDbCircle
 10
591.1824253634
 20
360.8055072875
 30
0.0
 40
0.4999999999998934
100
AcDbArc
 50
190.6555437002
 51
253.8963089622
  0
SPLINE
  5
55
330
1F
100
AcDbEntity
  8
0
  6
Continuous
 62
     7
370
    15
100
AcDbSpline
210
0.0
220
0.0
230
1.0
 70
     8
 71
     3
 72
    17
 73
    13
 74
     0
 42
0.00000001
 43
0.00000001
 12
1.0
 22
0.0
 32
0.0
 13
1.0
 23
0.0
 33
0.0
 40
0.0
 40
0.0
 40
0.0
 40
0.0
 40
0.0568459447588994
 40
0.1651283101168691
 40
0.2731860783586538
 40
0.3810464504850254
 40
0.4887960723637962
 40
0.5965120046580503
 40
0.7042561972556562
 40
0.812088495878535
 40
0.920090694164691
 40
1.0
 40
1.0
 40
1.0
 40
1.0
 10
591.0437397416187
 20
360.3251292655457
 30
0.0
 10
591.2286252612417
 20
360.2740703496216
 30
0.0
 10
591.7656879057267
 20
360.125752425824
 30
0.0
 10
592.715797284113
 20
359.9261448679011
 30
0.0
 10
593.8995024846516
 20
359.750178938316
 30
0.0
 10
595.1243518434237
 20
359.6414321038449
 30
0.0
 10
596.3697508847687
 20
359.6001821026378
 30
0.0
 10
597.6167791293065
 20
359.6272500089294
 30
0.0
 10
598.8465129188447
 20
359.7218252820594
 30
0.0
 10
600.0381394724628
 20
359.8838872133666
 30
0.0
 10
601.0804321273706
 20
360.0873845693358
 30
0.0
 10
601.694701737269
 20
360.2541937260585
 30
0.0
 10
601.9559196885181
 20
360.3251292655457
 30
0.0
  0
SPLINE
  5
56
330
1F
100
AcDbEntity
  8
0
  6
Continuous
 62
     7
370
    15
100
AcDbSpline
210
0.0
220
0.0
230
1.0
 70
     8
 71
     3
 72
     9
 73
     5
 74
     0
 42
0.00000001
 43
0.00000001
 12
1.0
 22
0.0
 32
0.0
 13
1.0
 23
0.0
 33
0.0
 40
0.0
 40
0.0
 40
0.0
 40
0.0
 40
0.534509571506815
 40
1.0
 40
1.0
 40
1.0
 40
1.0
 10
602.3090474064899
 20
360.7132300088394
 30
0.0
 10
602.503732023828
 20
361.7134229002383
 30
0.0
 10
602.8679623907219
 20
363.5846576633114
 30
0.0
 10
603.3325842447855
 20
365.5003336867911
 30
0.0
 10
603.548861270721
 20
366.3920625398148
 30
0.0
  0
SPLINE
  5
57
330
1F
100
AcDbEntity
  8
0
  6
Continuous
 62
     7
370
    15
100
AcDbSpline
210
0.0
220
0.0
230
1.0
 70
     8
 71
     3
 72
    10
 73
     6
 74
     0
 42
0.00000001
 43
0.00000001
 12
1.0
 22
0.0
 32
0.0
 13
1.0
 23
0.0
 33
0.0
 40
0.0
 40
0.0
 40
0.0
 40
0.0
 40
0.0935710643249608
 40
0.7127018323646406
 40
1.0
 40
1.0
 40
1.0
 40
1.0
 10
589.4556261356425
 20
366.3920625398148
 30
0.0
 10
589.5006496726238
 20
366.2124624006593
 30
0.0
 10
589.8435800169307
 20
364.8445037353123
 30
0.0
 10
590.2690320366358
 20
362.9381859009545
 30
0.0
 10
590.5775060218198
 20
361.2546350153331
 30
0.0
 10
590.6752787287784
 20
360.7210233161438
 30
0.0
  0
LINE
  5
58
330
1F
100
AcDbEntity
  8
0
  6
Continuous
 62
     7
370
    15
100
AcDbLine
 10
666.1283366139
 20
366.3920625398
 30
0.0
 11
666.2292770799
 21
366.1553054402
 31
0.0
  0
SPLINE
  5
59
330
1F
100
AcDbEntity
  8
0
  6
Continuous
 62
     7
370
    15
100
AcDbSpline
210
0.0
220
0.0
230
1.0
 70
     8
 71
     3
 72
     9
 73
     5
 74
     0
 42
0.00000001
 43
0.00000001
 12
1.0
 22
0.0
 32
0.0
 13
1.0
 23
0.0
 33
0.0
 40
0.0
 40
0.0
 40
0.0
 40
0.0
 40
0.0544524182801349
 40
1.0
 40
1.0
 40
1.0
 40
1.0
 10
676.6594789679599
 20
365.9083112428177
 30
0.0
 10
676.6618552500688
 20
365.9170981406029
 30
0.0
 10
676.7054948566121
 20
366.0784665070195
 30
0.0
 10
676.7923102914201
 20
366.2396530211618
 30
0.0
 10
676.8743984158588
 20
366.3920625398148
 30
0.0
  0
ARC
  5
5A
330
1F
100
AcDbEntity
  8
0
  6
Continuous
 62
     7
370
    15
100
AcDbCircle
 10
666.1824253634
 20
360.8055072875
 30
0.0
 40
0.5000000000000365
100
AcDbArc
 50
190.6555437002
 51
253.8963089622
  0
ARC
  5
5B
330
1F
100
AcDbEntity
  8
0
  6
Continuous
 62
     7
370
    15
100
AcDbCircle
 10
676.8172286238
 20
360.8055072875
 30
0.0
 40
0.5000000000000365
100
AcDbArc
 50
286.1036910378
 51
349.3444562998
  0
SPLINE
  5
5C
330
1F
100
AcDbEntity
  8
0
  6
Continuous
 62
     7
370
    15
100
AcDbSpline
210
0.0
220
0.0
230
1.0
 70
     8
 71
     3
 72
    17
 73
    13
 74
     0
 42
0.00000001
 43
0.00000001
 12
1.0
 22
0.0
 32
0.0
 13
1.0
 23
0.0
 33
0.0
 40
0.0
 40
0.0
 40
0.0
 40
0.0
 40
0.0568453950925716
 40
0.1651277580914443
 40
0.2731855239790252
 40
0.3810465250118623
 40
0.4887955018645744
 40
0.5965120755710888
 40
0.7042562658213227
 40
0.8120879470495652
 40
0.9200901429827282
 40
1.0
 40
1.0
 40
1.0
 40
1.0
 10
666.0437427218509
 20
360.3251292655457
 30
0.0
 10
666.2286256508465
 20
360.274070274116
 30
0.0
 10
666.7656841676311
 20
360.125751192659
 30
0.0
 10
667.7157932301711
 20
359.9261451985744
 30
0.0
 10
668.899500125539
 20
359.7501783229285
 30
0.0
 10
670.1243501188923
 20
359.6414327202481
 30
0.0
 10
671.3697513186872
 20
359.60018194139
 30
0.0
 10
672.6167796204472
 20
359.6272499493575
 30
0.0
 10
673.8465137620215
 20
359.7218247613822
 30
0.0
 10
675.0381371894476
 20
359.8838877691986
 30
0.0
 10
676.080428861402
 20
360.0873854655025
 30
0.0
 10
676.6947021249451
 20
360.2541937955145
 30
0.0
 10
676.9559226687503
 20
360.3251292655457
 30
0.0
  0
SPLINE
  5
5D
330
1F
100
AcDbEntity
  8
0
  6
Continuous
 62
     7
370
    15
100
AcDbSpline
210
0.0
220
0.0
230
1.0
 70
     8
 71
     3
 72
    10
 73
     6
 74
     0
 42
0.00000001
 43
0.00000001
 12
1.0
 22
0.0
 32
0.0
 13
1.0
 23
0.0
 33
0.0
 40
0.0
 40
0.0
 40
0.0
 40
0.0
 40
0.0935711955407854
 40
0.7127017630860126
 40
1.0
 40
1.0
 40
1.0
 40
1.0
 10
664.4556216652942
 20
366.3920625398148
 30
0.0
 10
664.5006479316421
 20
366.2124624269549
 30
0.0
 10
664.8435985504293
 20
364.8445060131684
 30
0.0
 10
665.2690191920036
 20
362.9381846920909
 30
0.0
 10
665.5775051647797
 20
361.2546348807529
 30
0.0
 10
665.6752817090106
 20
360.7210233161438
 30
0.0
  0
SPLINE
  5
5E
330
1F
100
AcDbEntity
  8
0
  6
Continuous
 62
     7
370
    15
100
AcDbSpline
210
0.0
220
0.0
230
1.0
 70
     8
 71
     3
 72
     9
 73
     5
 74
     0
 42
0.00000001
 43
0.00000001
 12
1.0
 22
0.0
 32
0.0
 13
1.0
 23
0.0
 33
0.0
 40
0.0
 40
0.0
 40
0.0
 40
0.0
 40
0.534509643004425
 40
0.9999999999999999
 40
0.9999999999999999
 40
0.9999999999999999
 40
0.9999999999999999
 10
677.3090503867221
 20
360.7132300088394
 30
0.0
 10
677.5037357464963
 20
361.713422821318
 30
0.0
 10
677.8679674536736
 20
363.5846571864392
 30
0.0
 10
678.3325828252104
 20
365.500333628781
 30
0.0
 10
678.5488568003726
 20
366.3920625398148
 30
0.0
  0
LINE
  5
5F
330
1F
100
AcDbEntity
  8
0
  6
Continuous
 62
     7
370
    15
100
AcDbLine
 10
466.1283448096
 20
366.3920625398
 30
0.0
 11
466.2292703744
 21
366.1553054402
 31
0.0
  0
SPLINE
  5
60
330
1F
100
AcDbEntity
  8
0
  6
Continuous
 62
     7
370
    15
100
AcDbSpline
210
0.0
220
0.0
230
1.0
 70
     8
 71
     3
 72
     9
 73
     5
 74
     0
 42
0.00000001
 43
0.00000001
 12
1.0
 22
0.0
 32
0.0
 13
1.0
 23
0.0
 33
0.0
 40
0.0
 40
0.0
 40
0.0
 40
0.0
 40
0.0544513820901733
 40
0.9999999999999999
 40
0.9999999999999999
 40
0.9999999999999999
 40
0.9999999999999999
 10
476.6594834383082
 20
365.9083112428177
 30
0.0
 10
476.661855888912
 20
365.9170981454104
 30
0.0
 10
476.7054259602808
 20
366.0784696708959
 30
0.0
 10
476.7922809736488
 20
366.239654472978
 30
0.0
 10
476.8744066114974
 20
366.3920625398148
 30
0.0
  0
ARC
  5
61
330
1F
100
AcDbEntity
  8
0
  6
Continuous
 62
     7
370
    15
100
AcDbCircle
 10
466.1824253634
 20
360.8055072874
 30
0.0
 40
0.5000000000000365
100
AcDbArc
 50
190.6555437002
 51
253.8963089622
  0
ARC
  5
62
330
1F
100
AcDbEntity
  8
0
  6
Continuous
 62
     7
370
    15
100
AcDbCircle
 10
476.8172286238
 20
360.8055072874
 30
0.0
 40
0.4999999999999953
100
AcDbArc
 50
286.1036910378
 51
349.3444562998
  0
SPLINE
  5
63
330
1F
100
AcDbEntity
  8
0
  6
Continuous
 62
     7
370
    15
100
AcDbSpline
210
0.0
220
0.0
230
1.0
 70
     8
 71
     3
 72
    17
 73
    13
 74
     0
 42
0.00000001
 43
0.00000001
 12
1.0
 22
0.0
 32
0.0
 13
1.0
 23
0.0
 33
0.0
 40
0.0
 40
0.0
 40
0.0
 40
0.0
 40
0.056846218810679
 40
0.1651288730650051
 40
0.273186031299216
 40
0.3810467187446537
 40
0.4887963403146374
 40
0.59651195042069
 40
0.7042564599524764
 40
0.8120890657891388
 40
0.9200909708546388
 40
1.0
 40
1.0
 40
1.0
 40
1.0
 10
466.0437360163283
 20
360.3251292655457
 30
0.0
 10
466.2286227951315
 20
360.2740703512451
 30
0.0
 10
466.7656883391048
 20
360.1257526415582
 30
0.0
 10
467.715798208297
 20
359.9261459555075
 30
0.0
 10
468.899501832882
 20
359.7501780263342
 30
0.0
 10
470.1243507817981
 20
359.6414324155317
 30
0.0
 10
471.3697496082428
 20
359.6001820085387
 30
0.0
 10
472.6167778612844
 20
359.6272502169858
 30
0.0
 10
473.8465127762991
 20
359.7218253557349
 30
0.0
 10
475.0381412769115
 20
359.8838865683254
 30
0.0
 10
476.0804323436541
 20
360.0873845108279
 30
0.0
 10
476.694699266772
 20
360.2541937299873
 30
0.0
 10
476.9559159632277
 20
360.3251292655457
 30
0.0
  0
SPLINE
  5
64
330
1F
100
AcDbEntity
  8
0
  6
Continuous
 62
     7
370
    15
100
AcDbSpline
210
0.0
220
0.0
230
1.0
 70
     8
 71
     3
 72
     9
 73
     5
 74
     0
 42
0.00000001
 43
0.00000001
 12
1.0
 22
0.0
 32
0.0
 13
1.0
 23
0.0
 33
0.0
 40
0.0
 40
0.0
 40
0.0
 40
0.0
 40
0.5345095357577063
 40
1.0
 40
1.0
 40
1.0
 40
1.0
 10
477.3090436811995
 20
360.7132300088394
 30
0.0
 10
477.50372792732
 20
361.7134229396988
 30
0.0
 10
477.8679576240729
 20
363.5846579017496
 30
0.0
 10
478.3325827193989
 20
365.5003337157964
 30
0.0
 10
478.5488612707209
 20
366.3920625398148
 30
0.0
  0
SPLINE
  5
65
330
1F
100
AcDbEntity
  8
0
  6
Continuous
 62
     7
370
    15
100
AcDbSpline
210
0.0
220
0.0
230
1.0
 70
     8
 71
     3
 72
    10
 73
     6
 74
     0
 42
0.00000001
 43
0.00000001
 12
1.0
 22
0.0
 32
0.0
 13
1.0
 23
0.0
 33
0.0
 40
0.0
 40
0.0
 40
0.0
 40
0.0
 40
0.093571200406103
 40
0.7127018001435753
 40
1.0
 40
1.0
 40
1.0
 40
1.0
 10
464.4556224103522
 20
366.3920625398148
 30
0.0
 10
464.5006486662014
 20
366.2124624261292
 30
0.0
 10
464.8435992050229
 20
364.8445060060538
 30
0.0
 10
465.269022276068
 20
362.9381849769057
 30
0.0
 10
465.5775036532397
 20
361.2546348992117
 30
0.0
 10
465.6752787287783
 20
360.7210233161438
 30
0.0
  0
LWPOLYLINE
  5
66
330
1F
100
AcDbEntity
  8
0
  6
Continuous
 62
     7
370
    15
100
AcDbPolyline
 90
        3
 70
   128
 43
0.0
 10
649.2953143771
 20
807.4801727483
 10
649.2969386037
 20
807.4729009817
 10
649.299829429
 20
807.4436351011
  0
LINE
  5
67
330
1F
100
AcDbEntity
  8
0
  6
Continuous
 62
     7
370
    15
100
AcDbLine
 10
649.299829429
 20
805.1436408708
 30
0.0
 11
649.4248203691
 21
804.8436506937
 31
0.0
  0
LINE
  5
68
330
1F
100
AcDbEntity
  8
0
  6
Continuous
 62
     7
370
    15
100
AcDbLine
 10
652.6748232301
 20
804.8436506937
 30
0.0
 11
652.7998290713
 21
805.1436408708
 31
0.0
  0
LINE
  5
69
330
1F
100
AcDbEntity
  8
0
  6
Continuous
 62
     7
370
    15
100
AcDbLine
 10
649.299829429
 20
807.4436351011
 30
0.0
 11
649.299829429
 21
805.1436408708
 31
0.0
  0
LINE
  5
6A
330
1F
100
AcDbEntity
  8
0
  6
Continuous
 62
     7
370
    15
100
AcDbLine
 10
652.7998290713
 20
805.1436408708
 30
0.0
 11
652.7998290713
 21
807.420329685
 31
0.0
  0
ELLIPSE
  5
6B
330
1F
100
AcDbEntity
  8
0
  6
Continuous
 62
     7
370
    15
100
AcDbEllipse
 10
432.7009060588
 20
782.5804262492
 30
0.0
 11
1.000042385046072
 21
0.0002850122531299347
 31
0.0
210
0.0
220
0.0
230
1.0
 40
0.0923977318
 41
2.799914295309718
 42
3.10469866454931
  0
ELLIPSE
  5
6C
330
1F
100
AcDbEntity
  8
0
  6
Continuous
 62
     7
370
    15
100
AcDbEllipse
 10
432.7101132615
 20
783.6073133293
 30
0.0
 11
1.000908400233698
 21
0.9919743571692834
 31
0.0
210
0.0
220
0.0
230
1.0
 40
0.1263244604
 41
3.355637671335854
 42
4.587840123242392
  0
ELLIPSE
  5
6D
330
1F
100
AcDbEntity
  8
0
  6
Continuous
 62
     7
370
    15
100
AcDbEllipse
 10
592.7895407257
 20
783.6073133293
 30
0.0
 11
1.000908400233584
 21
-0.9919743571693972
 31
0.0
210
0.0
220
0.0
230
1.0
 40
0.1263244604
 41
4.836937837526909
 42
6.069140289434376
  0
ELLIPSE
  5
6E
330
1F
100
AcDbEntity
  8
0
  6
Continuous
 62
     7
370
    15
100
AcDbEllipse
 10
592.7987479284
 20
782.5804262492
 30
0.0
 11
1.000042385045844
 21
-0.0002850122531299348
 31
0.0
210
0.0
220
0.0
230
1.0
 40
0.0923977318
 41
0.0368939890404732
 42
0.3416783582800028
  0
ELLIPSE
  5
6F
330
1F
100
AcDbEntity
  8
0
  6
Continuous
 62
     7
370
    15
100
AcDbEllipse
 10
435.2895407257
 20
783.6073133293
 30
0.0
 11
1.000908400233641
 21
-0.9919743571693972
 31
0.0
210
0.0
220
0.0
230
1.0
 40
0.1263244604
 41
4.83693783752704
 42
6.069140289434652
  0
ELLIPSE
  5
70
330
1F
100
AcDbEntity
  8
0
  6
Continuous
 62
     7
370
    15
100
AcDbEllipse
 10
435.2987479284
 20
782.5804262492
 30
0.0
 11
1.000042385045958
 21
-0.0002850122531299348
 31
0.0
210
0.0
220
0.0
230
1.0
 40
0.0923977318
 41
0.0368939890404771
 42
0.3416783582800195
  0
ELLIPSE
  5
71
330
1F
100
AcDbEntity
  8
0
  6
Continuous
 62
     7
370
    15
100
AcDbEllipse
 10
590.2009060588
 20
782.5804262492
 30
0.0
 11
1.000042385046072
 21
0.0002850122531299347
 31
0.0
210
0.0
220
0.0
230
1.0
 40
0.0923977318
 41
2.799914295309718
 42
3.10469866454931
  0
ELLIPSE
  5
72
330
1F
100
AcDbEntity
  8
0
  6
Continuous
 62
     7
370
    15
100
AcDbEllipse
 10
590.2101132615
 20
783.6073133293
 30
0.0
 11
1.000908400233584
 21
0.9919743571692835
 31
0.0
210
0.0
220
0.0
230
1.0
 40
0.1263244604
 41
3.355637671335183
 42
4.587840123242371
  0
ELLIPSE
  5
73
330
1F
100
AcDbEntity
  8
0
  6
Continuous
 62
     7
370
    15
100
AcDbEllipse
 10
385.7536468311
 20
813.1398177689
 30
0.0
 11
-0.7124986078902679
 21
0.712498607890211
 31
0.0
210
0.0
220
0.0
230
1.0
 40
0.9924325091
 41
5.501585242055435
 42
7.064785372303673
  0
ELLIPSE
  5
74
330
1F
100
AcDbEntity
  8
0
  6
Continuous
 62
     7
370
    15
100
AcDbEllipse
 10
682.2460071561
 20
813.1398177689
 30
0.0
 11
0.7124986078902111
 21
0.7124986078902111
 31
0.0
210
0.0
220
0.0
230
1.0
 40
0.9924325091
 41
5.501585242055515
 42
7.064785372303786
  0
LINE
  5
75
330
1F
100
AcDbEntity
  8
0
  6
Continuous
 62
     7
370
    15
100
AcDbLine
 10
384.7498289998
 20
813.1474419782
 30
0.0
 11
384.7498289998
 21
782.1398242662
 31
0.0
  0
LINE
  5
76
330
1F
100
AcDbEntity
  8
0
  6
Continuous
 62
     7
370
    15
100
AcDbLine
 10
682.2536281999
 20
814.1436442087
 30
0.0
 11
385.7460163291
 21
814.1436442087
 31
0.0
  0
LINE
  5
77
330
1F
100
AcDbEntity
  8
0
  6
Continuous
 62
     7
370
    15
100
AcDbLine
 10
683.2498304303
 20
782.1398242662
 30
0.0
 11
683.2498304303
 21
813.1474419782
 31
0.0
  0
LINE
  5
78
330
1F
100
AcDbEntity
  8
0
  6
Continuous
 62
     7
370
    15
100
AcDbLine
 10
588.9704145248
 20
782.0044919202
 30
0.0
 11
589.2015464361
 21
782.5835510442
 31
0.0
  0
LINE
  5
79
330
1F
100
AcDbEntity
  8
0
  6
Continuous
 62
     7
370
    15
100
AcDbLine
 10
588.749027973
 20
789.5385488222
 30
0.0
 11
588.749027973
 21
805.7487174222
 31
0.0
  0
LINE
  5
7A
330
1F
100
AcDbEntity
  8
0
  6
Continuous
 62
     7
370
    15
100
AcDbLine
 10
594.2506260927
 20
805.6606217573
 30
0.0
 11
594.2506260927
 21
789.6266444871
 31
0.0
  0
LINE
  5
7B
330
1F
100
AcDbEntity
  8
0
  6
Continuous
 62
     7
370
    15
100
AcDbLine
 10
593.7981076296
 20
782.5835510442
 30
0.0
 11
594.0292395409
 21
782.0044919202
 31
0.0
  0
LINE
  5
7C
330
1F
100
AcDbEntity
  8
0
  6
Continuous
 62
     7
370
    15
100
AcDbLine
 10
436.7506198342
 20
805.2928312967
 30
0.0
 11
436.7506198342
 21
789.9944647501
 31
0.0
  0
LINE
  5
7D
330
1F
100
AcDbEntity
  8
0
  6
Continuous
 62
     7
370
    15
100
AcDbLine
 10
436.2981088217
 20
782.5835510442
 30
0.0
 11
436.529240733
 21
782.0044919202
 31
0.0
  0
LINE
  5
7E
330
1F
100
AcDbEntity
  8
0
  6
Continuous
 62
     7
370
    15
100
AcDbLine
 10
431.4704157169
 20
782.0044919202
 30
0.0
 11
431.7015401776
 21
782.5835510442
 31
0.0
  0
LINE
  5
7F
330
1F
100
AcDbEntity
  8
0
  6
Continuous
 62
     7
370
    15
100
AcDbLine
 10
431.2490291651
 20
790.1476784894
 30
0.0
 11
431.2490291651
 21
805.139587755
 31
0.0
  0
LINE
  5
80
330
1F
100
AcDbEntity
  8
0
  6
Continuous
 62
     7
370
    15
100
AcDbLine
 10
391.7506180461
 20
803.3102019975
 30
0.0
 11
391.7506180461
 21
801.7783626268
 31
0.0
  0
LINE
  5
81
330
1F
100
AcDbEntity
  8
0
  6
Continuous
 62
     7
370
    15
100
AcDbLine
 10
391.7506180461
 20
793.5089036176
 30
0.0
 11
391.7506180461
 21
791.9770940492
 31
0.0
  0
LINE
  5
82
330
1F
100
AcDbEntity
  8
0
  6
Continuous
 62
     7
370
    15
100
AcDbLine
 10
536.750623187
 20
805.9459193895
 30
0.0
 11
536.750623187
 21
789.3413468549
 31
0.0
  0
LINE
  5
83
330
1F
100
AcDbEntity
  8
0
  6
Continuous
 62
     7
370
    15
100
AcDbLine
 10
531.2490306552
 20
789.3413468549
 30
0.0
 11
531.2490306552
 21
805.9459193895
 31
0.0
  0
LINE
  5
84
330
1F
100
AcDbEntity
  8
0
  6
Continuous
 62
     7
370
    15
100
AcDbLine
 10
636.7506228145
 20
805.139587755
 30
0.0
 11
636.7506228145
 21
790.1476784894
 31
0.0
  0
LINE
  5
85
330
1F
100
AcDbEntity
  8
0
  6
Continuous
 62
     7
370
    15
100
AcDbLine
 10
473.7490296121
 20
789.6266444871
 30
0.0
 11
473.7490296121
 21
805.6606217573
 31
0.0
  0
LINE
  5
86
330
1F
100
AcDbEntity
  8
0
  6
Continuous
 62
     7
370
    15
100
AcDbLine
 10
631.2490321453
 20
789.9944647501
 30
0.0
 11
631.2490321453
 21
805.2928312967
 31
0.0
  0
LINE
  5
87
330
1F
100
AcDbEntity
  8
0
  6
Continuous
 62
     7
370
    15
100
AcDbLine
 10
479.2506240066
 20
805.7487174222
 30
0.0
 11
479.2506240066
 21
789.5385488222
 31
0.0
  0
LINE
  5
88
330
1F
100
AcDbEntity
  8
0
  6
Continuous
 62
     7
370
    15
100
AcDbLine
 10
676.2490264829
 20
803.3102019975
 30
0.0
 11
676.2490264829
 21
801.7783626268
 31
0.0
  0
LINE
  5
89
330
1F
100
AcDbEntity
  8
0
  6
Continuous
 62
     7
370
    15
100
AcDbLine
 10
676.2490264829
 20
793.5089036176
 30
0.0
 11
676.2490264829
 21
791.9770940492
 31
0.0
  0
ELLIPSE
  5
8A
330
1F
100
AcDbEntity
  8
0
  6
Continuous
 62
     7
370
    15
100
AcDbEllipse
 10
385.7536468311
 20
782.147457444
 30
0.0
 11
-0.7124986078902679
 21
-0.712498607890211
 31
0.0
210
0.0
220
0.0
230
1.0
 40
0.9924325091
 41
5.501585242055481
 42
7.064785372303671
  0
ELLIPSE
  5
8B
330
1F
100
AcDbEntity
  8
0
  6
Continuous
 62
     7
370
    15
100
AcDbEllipse
 10
682.2460071561
 20
782.147457444
 30
0.0
 11
0.7124986078902111
 21
-0.7124986078902111
 31
0.0
210
0.0
220
0.0
230
1.0
 40
0.9924325091
 41
5.501585242055441
 42
7.064785372303745
  0
SPLINE
  5
8C
330
1F
100
AcDbEntity
  8
0
  6
Continuous
 62
     7
370
    15
100
AcDbSpline
210
0.0
220
0.0
230
1.0
 70
     8
 71
     3
 72
    13
 73
     9
 74
     0
 42
0.00000001
 43
0.00000001
 12
1.0
 22
0.0
 32
0.0
 13
1.0
 23
0.0
 33
0.0
 40
0.0
 40
0.0
 40
0.0
 40
0.0
 40
0.0016184419783466
 40
0.107641048403944
 40
0.2135398810082592
 40
0.5545571077717358
 40
0.7768842765332008
 40
1.0
 40
1.0
 40
1.0
 40
1.0
 10
596.6367341335368
 20
781.7199393460738
 30
0.0
 10
596.6347001183855
 20
781.7200386455369
 30
0.0
 10
596.4994196904923
 20
781.7266429590903
 30
0.0
 10
596.2312234280593
 20
781.7408401593132
 30
0.0
 10
595.5489200477683
 20
781.7777293431385
 30
0.0
 10
594.7880469389621
 20
781.832885521361
 30
0.0
 10
594.166432429401
 20
781.9196072427203
 30
0.0
 10
594.075024442688
 20
781.9761636543332
 30
0.0
 10
594.0292395408702
 20
782.0044919202315
 30
0.0
  0
LINE
  5
8D
330
1F
100
AcDbEntity
  8
0
  6
Continuous
 62
     7
370
    15
100
AcDbLine
 10
385.7460163291
 20
781.1436518381
 30
0.0
 11
682.2536281999
 21
781.1436518381
 31
0.0
  0
SPLINE
  5
8E
330
1F
100
AcDbEntity
  8
0
  6
Continuous
 62
     7
370
    15
100
AcDbSpline
210
0.0
220
0.0
230
1.0
 70
     8
 71
     3
 72
    13
 73
     9
 74
     0
 42
0.00000001
 43
0.00000001
 12
1.0
 22
0.0
 32
0.0
 13
1.0
 23
0.0
 33
0.0
 40
0.0
 40
0.0
 40
0.0
 40
0.0
 40
0.2231157654900525
 40
0.4454429761262485
 40
0.7864615452352834
 40
0.8923603977853621
 40
0.9983815577168244
 40
1.0
 40
1.0
 40
1.0
 40
1.0
 10
431.4704157169413
 20
782.0044919202317
 30
0.0
 10
431.4246307753911
 20
781.9761636576748
 30
0.0
 10
431.3332227093537
 20
781.9196072527336
 30
0.0
 10
430.7116078883552
 20
781.8328853316676
 30
0.0
 10
429.9507297775331
 20
781.7777293446284
 30
0.0
 10
429.2684253951494
 20
781.7408403774144
 30
0.0
 10
429.0002337314184
 20
781.7266428680324
 30
0.0
 10
428.8649551395313
 20
781.7200386455207
 30
0.0
 10
428.8629211242747
 20
781.7199393460738
 30
0.0
  0
SPLINE
  5
8F
330
1F
100
AcDbEntity
  8
0
  6
Continuous
 62
     7
370
    15
100
AcDbSpline
210
0.0
220
0.0
230
1.0
 70
     8
 71
     3
 72
    13
 73
     9
 74
     0
 42
0.00000001
 43
0.00000001
 12
1.0
 22
0.0
 32
0.0
 13
1.0
 23
0.0
 33
0.0
 40
0.0
 40
0.0
 40
0.0
 40
0.0
 40
0.0016184411527264
 40
0.107640993492727
 40
0.2135397720745864
 40
0.5545568248740297
 40
0.776884744987632
 40
1.0
 40
1.0
 40
1.0
 40
1.0
 10
439.1367353256297
 20
781.7199393460738
 30
0.0
 10
439.1347013104763
 20
781.7200386455368
 30
0.0
 10
438.9994208824432
 20
781.7266429590878
 30
0.0
 10
438.7312246752333
 20
781.7408401617954
 30
0.0
 10
438.0489208634096
 20
781.777729326164
 30
0.0
 10
437.2880513953533
 20
781.832885784172
 30
0.0
 10
436.6664230286532
 20
781.9196069698341
 30
0.0
 10
436.5750220162531
 20
781.9761636148796
 30
0.0
 10
436.529240732963
 20
782.0044919202315
 30
0.0
  0
SPLINE
  5
90
330
1F
100
AcDbEntity
  8
0
  6
Continuous
 62
     7
370
    15
100
AcDbSpline
210
0.0
220
0.0
230
1.0
 70
     8
 71
     3
 72
    13
 73
     9
 74
     0
 42
0.00000001
 43
0.00000001
 12
1.0
 22
0.0
 32
0.0
 13
1.0
 23
0.0
 33
0.0
 40
0.0
 40
0.0
 40
0.0
 40
0.0
 40
0.223115759587022
 40
0.4454429643410505
 40
0.7864615244276706
 40
0.8923589341700378
 40
0.9983815577596438
 40
1.0
 40
1.0
 40
1.0
 40
1.0
 10
588.9704145248485
 20
782.0044919202315
 30
0.0
 10
588.9246295255992
 20
781.9761636657338
 30
0.0
 10
588.8332213443676
 20
781.9196072768821
 30
0.0
 10
588.21160753813
 20
781.8328852140824
 30
0.0
 10
587.4507266748723
 20
781.7777299588265
 30
0.0
 10
586.7684296217358
 20
781.7408399577723
 30
0.0
 10
586.500234373178
 20
781.7266429593665
 30
0.0
 10
586.3649539473028
 20
781.720038645541
 30
0.0
 10
586.3629199321819
 20
781.7199393460739
 30
0.0
  0
SPLINE
  5
91
330
1F
100
AcDbEntity
  8
0
  6
Continuous
 62
     7
370
    15
100
AcDbSpline
210
0.0
220
0.0
230
1.0
 70
     8
 71
     3
 72
    19
 73
    15
 74
     0
 42
0.00000001
 43
0.00000001
 12
1.0
 22
0.0
 32
0.0
 13
1.0
 23
0.0
 33
0.0
 40
0.0
 40
0.0
 40
0.0
 40
0.0
 40
0.3243823501308625
 40
0.5392451231233288
 40
0.682226340514239
 40
0.7780879412170124
 40
0.8430815331512047
 40
0.8878384051701323
 40
0.9311135790490149
 40
0.9564447278012874
 40
0.9725850118888907
 40
0.9849281164750928
 40
0.9973134501537527
 40
0.9999999999999999
 40
0.9999999999999999
 40
0.9999999999999999
 40
0.9999999999999999
 10
392.0568369086337
 20
793.3172746846664
 30
0.0
 10
392.0231818294288
 20
793.3873166493248
 30
0.0
 10
391.9672344657014
 20
793.5037526633088
 30
0.0
 10
391.8960703460697
 20
793.6266116896069
 30
0.0
 10
391.8485365426016
 20
793.6895584917376
 30
0.0
 10
391.8165504211713
 20
793.7146667786403
 30
0.0
 10
391.7948742372027
 20
793.7170856431142
 30
0.0
 10
391.7787529968597
 20
793.7048546015941
 30
0.0
 10
391.7669119616404
 20
793.6812360360905
 30
0.0
 10
391.7585372129726
 20
793.6438650882943
 30
0.0
 10
391.7538673252565
 20
793.6047351901934
 30
0.0
 10
391.751390045944
 20
793.5634420239821
 30
0.0
 10
391.7506579012367
 20
793.5303798535438
 30
0.0
 10
391.7506240755064
 20
793.5121526079505
 30
0.0
 10
391.7506180461001
 20
793.5089036176192
 30
0.0
  0
SPLINE
  5
92
330
1F
100
AcDbEntity
  8
0
  6
Continuous
 62
     7
370
    15
100
AcDbSpline
210
0.0
220
0.0
230
1.0
 70
     8
 71
     3
 72
    14
 73
    10
 74
     0
 42
0.00000001
 43
0.00000001
 12
1.0
 22
0.0
 32
0.0
 13
1.0
 23
0.0
 33
0.0
 40
0.0
 40
0.0
 40
0.0
 40
0.0
 40
0.0119799240984744
 40
0.0239850681294474
 40
0.0398824736813011
 40
0.0687365359227226
 40
0.1675488970969289
 40
0.6411404662598513
 40
0.9999999999999999
 40
0.9999999999999999
 40
0.9999999999999999
 40
0.9999999999999999
 10
391.7506180461001
 20
801.7783626267898
 30
0.0
 10
391.7507301717981
 20
801.7637818971832
 30
0.0
 10
391.7509546592389
 20
801.7345897428661
 30
0.0
 10
391.7531580125813
 20
801.6917586496654
 30
0.0
 10
391.7577633492222
 20
801.646750152559
 30
0.0
 10
391.7720792708601
 20
801.5824650475731
 30
0.0
 10
391.8360481490906
 20
801.5443359001241
 30
0.0
 10
391.9332899182244
 20
801.7198204027569
 30
0.0
 10
392.0196207418259
 20
801.894632285688
 30
0.0
 10
392.0568369086337
 20
801.9699915597427
 30
0.0
  0
LINE
  5
93
330
1F
100
AcDbEntity
  8
0
  6
Continuous
 62
     7
370
    15
100
AcDbLine
 10
392.0568369086
 20
801.9699915597
 30
0.0
 11
392.6044694837
 21
801.1086746404
 31
0.0
  0
LINE
  5
94
330
1F
100
AcDbEntity
  8
0
  6
Continuous
 62
     7
370
    15
100
AcDbLine
 10
392.6044694837
 20
794.178591604
 30
0.0
 11
392.0568369086
 21
793.3172746847
 31
0.0
  0
LINE
  5
95
330
1F
100
AcDbEntity
  8
0
  6
Continuous
 62
     7
370
    15
100
AcDbLine
 10
675.9428225215
 20
793.3172746847
 30
0.0
 11
675.3951899465
 21
794.178591604
 31
0.0
  0
LINE
  5
96
330
1F
100
AcDbEntity
  8
0
  6
Continuous
 62
     7
370
    15
100
AcDbLine
 10
675.3951899465
 20
801.1086746404
 30
0.0
 11
675.9428225215
 21
801.9699915597
 31
0.0
  0
SPLINE
  5
97
330
1F
100
AcDbEntity
  8
0
  6
Continuous
 62
     7
370
    15
100
AcDbSpline
210
0.0
220
0.0
230
1.0
 70
     8
 71
     3
 72
    19
 73
    15
 74
     0
 42
0.00000001
 43
0.00000001
 12
1.0
 22
0.0
 32
0.0
 13
1.0
 23
0.0
 33
0.0
 40
0.0
 40
0.0
 40
0.0
 40
0.0
 40
0.324382203595878
 40
0.5392454638418542
 40
0.6822272410446888
 40
0.7780897336636297
 40
0.8430839378252805
 40
0.8878412345772583
 40
0.9311165778906919
 40
0.9564449627558153
 40
0.972585027548757
 40
0.9849283805172002
 40
0.997321646038675
 40
1.0
 40
1.0
 40
1.0
 40
1.0
 10
675.942822521503
 20
801.9699915597427
 30
0.0
 10
675.9764812588694
 20
801.8999638758779
 30
0.0
 10
676.0324347644635
 20
801.7835514757869
 30
0.0
 10
676.1035683348289
 20
801.6606767018815
 30
0.0
 10
676.1511139097975
 20
801.5977518865935
 30
0.0
 10
676.183082827518
 20
801.5725990618618
 30
0.0
 10
676.2047942883082
 20
801.5701677752405
 30
0.0
 10
676.2208917941332
 20
801.5824454083277
 30
0.0
 10
676.2327146393823
 20
801.6060756986548
 30
0.0
 10
676.2411392356806
 20
801.6433970253305
 30
0.0
 10
676.2457633934658
 20
801.6825329846205
 30
0.0
 10
676.2482828199268
 20
801.7238309891997
 30
0.0
 10
676.2489851339437
 20
801.7568969581828
 30
0.0
 10
676.2490202435941
 20
801.7751235989272
 30
0.0
 10
676.2490264828754
 20
801.7783626267898
 30
0.0
  0
SPLINE
  5
98
330
1F
100
AcDbEntity
  8
0
  6
Continuous
 62
     7
370
    15
100
AcDbSpline
210
0.0
220
0.0
230
1.0
 70
     8
 71
     3
 72
    14
 73
    10
 74
     0
 42
0.00000001
 43
0.00000001
 12
1.0
 22
0.0
 32
0.0
 13
1.0
 23
0.0
 33
0.0
 40
0.0
 40
0.0
 40
0.0
 40
0.0
 40
0.012709029334968
 40
0.0254478750063434
 40
0.0421359511568155
 40
0.0736035894414667
 40
0.1869963844188686
 40
0.636256946935851
 40
1.0
 40
1.0
 40
1.0
 40
1.0
 10
676.2490264828754
 20
793.5089036176192
 30
0.0
 10
676.2488999248657
 20
793.5243875880478
 30
0.0
 10
676.248646511932
 20
793.5553918554609
 30
0.0
 10
676.2461969558414
 20
793.5998690776369
 30
0.0
 10
676.2410902528394
 20
793.6459100875445
 30
0.0
 10
676.224801255112
 20
793.7120917427858
 30
0.0
 10
676.1614918474748
 20
793.7309146168111
 30
0.0
 10
676.0649038722054
 20
793.5664757001439
 30
0.0
 10
675.9805589726949
 20
793.3943049755622
 30
0.0
 10
675.942822521503
 20
793.3172746846664
 30
0.0
  0
ARC
  5
99
330
1F
100
AcDbEntity
  8
0
  6
Continuous
 62
     7
370
    15
100
AcDbCircle
 10
388.9998269936
 20
797.6436376065
 30
0.0
 40
5.000000000000048
100
AcDbArc
 50
316.1311450389
 51
43.8688549611
  0
ARC
  5
9A
330
1F
100
AcDbEntity
  8
0
  6
Continuous
 62
     7
370
    15
100
AcDbCircle
 10
678.9998269936
 20
797.6436376065
 30
0.0
 40
5.000000000000089
100
AcDbArc
 50
136.1311450389
 51
223.8688549611
  0
SPLINE
  5
9B
330
1F
100
AcDbEntity
  8
0
  6
Continuous
 62
     7
370
    15
100
AcDbSpline
210
0.0
220
0.0
230
1.0
 70
     8
 71
     3
 72
    12
 73
     8
 74
     0
 42
0.00000001
 43
0.00000001
 12
1.0
 22
0.0
 32
0.0
 13
1.0
 23
0.0
 33
0.0
 40
0.0
 40
0.0
 40
0.0
 40
0.0
 40
0.2156072254546354
 40
0.4312495118845396
 40
0.6462108765449347
 40
0.8603629000357014
 40
1.0
 40
1.0
 40
1.0
 40
1.0
 10
536.7506231870008
 20
789.3413468549239
 30
0.0
 10
536.7782831543557
 20
789.0591520696171
 30
0.0
 10
536.833607586992
 20
788.4947166098901
 30
0.0
 10
537.26579987008
 20
787.7430240588146
 30
0.0
 10
537.9014480305582
 20
787.1777876900854
 30
0.0
 10
538.602662297081
 20
786.8809474982186
 30
0.0
 10
539.0642576070775
 20
786.8511877653863
 30
0.0
 10
539.2464447523904
 20
786.8394418904769
 30
0.0
  0
SPLINE
  5
9C
330
1F
100
AcDbEntity
  8
0
  6
Continuous
 62
     7
370
    15
100
AcDbSpline
210
0.0
220
0.0
230
1.0
 70
     8
 71
     3
 72
    12
 73
     8
 74
     0
 42
0.00000001
 43
0.00000001
 12
1.0
 22
0.0
 32
0.0
 13
1.0
 23
0.0
 33
0.0
 40
0.0
 40
0.0
 40
0.0
 40
0.0
 40
0.213891132051571
 40
0.427788720182142
 40
0.6416319183092604
 40
0.8559739157025343
 40
1.0
 40
1.0
 40
1.0
 40
1.0
 10
539.2464447523904
 20
808.4478541562545
 30
0.0
 10
538.9664655714903
 20
808.4205671000706
 30
0.0
 10
538.4064987588131
 20
808.3659921640719
 30
0.0
 10
537.6599856708453
 20
807.9372195784287
 30
0.0
 10
537.0959481326851
 20
807.3055009528056
 30
0.0
 10
536.7942284310299
 20
806.601457137351
 30
0.0
 10
536.7631239144723
 20
806.1338485919443
 30
0.0
 10
536.7506231870008
 20
805.9459193894851
 30
0.0
  0
SPLINE
  5
9D
330
1F
100
AcDbEntity
  8
0
  6
Continuous
 62
     7
370
    15
100
AcDbSpline
210
0.0
220
0.0
230
1.0
 70
     8
 71
     3
 72
    12
 73
     8
 74
     0
 42
0.00000001
 43
0.00000001
 12
1.0
 22
0.0
 32
0.0
 13
1.0
 23
0.0
 33
0.0
 40
0.0
 40
0.0
 40
0.0
 40
0.0
 40
0.213890360691304
 40
0.427788333529991
 40
0.6416318369629567
 40
0.855981219264563
 40
1.0
 40
1.0
 40
1.0
 40
1.0
 10
528.7532090898109
 20
786.8394418904769
 30
0.0
 10
529.0331888923397
 20
786.8667165507571
 30
0.0
 10
529.593158461603
 20
786.9212668419956
 30
0.0
 10
530.3396673645545
 20
787.3500489820939
 30
0.0
 10
530.9037153519491
 20
787.9817705390183
 30
0.0
 10
531.2054168847479
 20
788.6858216767497
 30
0.0
 10
531.2365279376802
 20
789.1534280841989
 30
0.0
 10
531.2490306552005
 20
789.3413468549239
 30
0.0
  0
SPLINE
  5
9E
330
1F
100
AcDbEntity
  8
0
  6
Continuous
 62
     7
370
    15
100
AcDbSpline
210
0.0
220
0.0
230
1.0
 70
     8
 71
     3
 72
    12
 73
     8
 74
     0
 42
0.00000001
 43
0.00000001
 12
1.0
 22
0.0
 32
0.0
 13
1.0
 23
0.0
 33
0.0
 40
0.0
 40
0.0
 40
0.0
 40
0.0
 40
0.2156139436882149
 40
0.4312487637709249
 40
0.6462094219582719
 40
0.8603635352385082
 40
1.0
 40
1.0
 40
1.0
 40
1.0
 10
531.2490306552005
 20
805.9459193894852
 30
0.0
 10
531.2213737743825
 20
806.2281251271535
 30
0.0
 10
531.1660573349238
 20
806.7925639265037
 30
0.0
 10
530.7338447246365
 20
807.5442489722362
 30
0.0
 10
530.0981993853178
 20
808.1094713845793
 30
0.0
 10
529.396996961618
 20
808.406353256573
 30
0.0
 10
528.9353966366563
 20
808.4361096866302
 30
0.0
 10
528.7532090898109
 20
808.4478541562545
 30
0.0
  0
ARC
  5
9F
330
1F
100
AcDbEntity
  8
0
  6
Continuous
 62
     7
370
    15
100
AcDbCircle
 10
396.6264227515
 20
793.5213466632
 30
0.0
 40
5.306210322340818
100
AcDbArc
 50
213.2125857976
 51
268.8508071346
  0
LINE
  5
A0
330
1F
100
AcDbEntity
  8
0
  6
Continuous
 62
     7
370
    15
100
AcDbLine
 10
392.1870134528
 20
790.6148894975
 30
0.0
 11
392.0833311732
 21
790.7821699331
 31
0.0
  0
ARC
  5
A1
330
1F
100
AcDbEntity
  8
0
  6
Continuous
 62
     7
370
    15
100
AcDbCircle
 10
671.3732312357
 20
801.7659285498
 30
0.0
 40
5.306210322340651
100
AcDbArc
 50
33.2125857976
 51
88.8508071346
  0
LINE
  5
A2
330
1F
100
AcDbEntity
  8
0
  6
Continuous
 62
     7
370
    15
100
AcDbLine
 10
675.8126459773
 20
804.6723767469
 30
0.0
 11
675.9163282569
 21
804.5051261137
 31
0.0
  0
SPLINE
  5
A3
330
1F
100
AcDbEntity
  8
0
  6
Continuous
 62
     7
370
    15
100
AcDbSpline
210
0.0
220
0.0
230
1.0
 70
     8
 71
     3
 72
    12
 73
     8
 74
     0
 42
0.00000001
 43
0.00000001
 12
1.0
 22
0.0
 32
0.0
 13
1.0
 23
0.0
 33
0.0
 40
0.0
 40
0.0
 40
0.0
 40
0.0
 40
0.2167538114157674
 40
0.4335420668311579
 40
0.6496458245576697
 40
0.8649501959442756
 40
1.0
 40
1.0
 40
1.0
 40
1.0
 10
479.2506240065646
 20
789.5385488221633
 30
0.0
 10
479.278283544628
 20
789.2563634959953
 30
0.0
 10
479.3336070160876
 20
788.6919480020422
 30
0.0
 10
479.7657761313898
 20
787.9402939761517
 30
0.0
 10
480.4014448725056
 20
787.3750341654535
 30
0.0
 10
481.0960501369484
 20
787.0811202772154
 30
0.0
 10
481.5504072421381
 20
787.0491041948094
 30
0.0
 10
481.7255466933798
 20
787.0367630670058
 30
0.0
  0
SPLINE
  5
A4
330
1F
100
AcDbEntity
  8
0
  6
Continuous
 62
     7
370
    15
100
AcDbSpline
210
0.0
220
0.0
230
1.0
 70
     8
 71
     3
 72
    12
 73
     8
 74
     0
 42
0.00000001
 43
0.00000001
 12
1.0
 22
0.0
 32
0.0
 13
1.0
 23
0.0
 33
0.0
 40
0.0
 40
0.0
 40
0.0
 40
0.0
 40
0.2167533042084875
 40
0.4335410523359988
 40
0.6496486769337496
 40
0.8649496464880884
 40
1.0
 40
1.0
 40
1.0
 40
1.0
 10
588.7490279729915
 20
805.7487174222457
 30
0.0
 10
588.7213690768311
 20
806.0309036708549
 30
0.0
 10
588.6660468892798
 20
806.5953210098361
 30
0.0
 10
588.2338652447659
 20
807.3469662699559
 30
0.0
 10
587.5982293951839
 20
807.9122778130857
 30
0.0
 10
586.903596375574
 20
808.206127543343
 30
0.0
 10
586.4492474486743
 20
808.2381783254864
 30
0.0
 10
586.2741090114665
 20
808.2505329797256
 30
0.0
  0
SPLINE
  5
A5
330
1F
100
AcDbEntity
  8
0
  6
Continuous
 62
     7
370
    15
100
AcDbSpline
210
0.0
220
0.0
230
1.0
 70
     8
 71
     3
 72
    12
 73
     8
 74
     0
 42
0.00000001
 43
0.00000001
 12
1.0
 22
0.0
 32
0.0
 13
1.0
 23
0.0
 33
0.0
 40
0.0
 40
0.0
 40
0.0
 40
0.0
 40
0.2150359524621241
 40
0.4300768997494543
 40
0.6450763730290513
 40
0.8605893974360553
 40
1.0
 40
1.0
 40
1.0
 40
1.0
 10
481.7255466933798
 20
808.2505329797257
 30
0.0
 10
481.4458058611548
 20
808.2208954306835
 30
0.0
 10
480.8863176989237
 20
808.1616196441822
 30
0.0
 10
480.1434255273438
 20
807.7266143485493
 30
0.0
 10
479.5846082455467
 20
807.0901375071397
 30
0.0
 10
479.2917934860049
 20
806.3901949519811
 30
0.0
 10
479.2622344951633
 20
805.9296249208743
 30
0.0
 10
479.2506240065646
 20
805.7487174222457
 30
0.0
  0
SPLINE
  5
A6
330
1F
100
AcDbEntity
  8
0
  6
Continuous
 62
     7
370
    15
100
AcDbSpline
210
0.0
220
0.0
230
1.0
 70
     8
 71
     3
 72
    12
 73
     8
 74
     0
 42
0.00000001
 43
0.00000001
 12
1.0
 22
0.0
 32
0.0
 13
1.0
 23
0.0
 33
0.0
 40
0.0
 40
0.0
 40
0.0
 40
0.0
 40
0.215034157291571
 40
0.4300755963659806
 40
0.645075561337808
 40
0.8605890786115062
 40
0.9999999999999999
 40
0.9999999999999999
 40
0.9999999999999999
 40
0.9999999999999999
 10
586.2741090114665
 20
787.0367630670058
 30
0.0
 10
586.5538489678446
 20
787.0663884586676
 30
0.0
 10
587.1133383535406
 20
787.1256402452065
 30
0.0
 10
587.8562260664235
 20
787.5606540127858
 30
0.0
 10
588.4150438386455
 20
788.1971281631024
 30
0.0
 10
588.7078584778226
 20
788.8970713787347
 30
0.0
 10
588.7374174799569
 20
789.3576413478748
 30
0.0
 10
588.7490279729915
 20
789.5385488221633
 30
0.0
  0
SPLINE
  5
A7
330
1F
100
AcDbEntity
  8
0
  6
Continuous
 62
     7
370
    15
100
AcDbSpline
210
0.0
220
0.0
230
1.0
 70
     8
 71
     3
 72
    12
 73
     8
 74
     0
 42
0.00000001
 43
0.00000001
 12
1.0
 22
0.0
 32
0.0
 13
1.0
 23
0.0
 33
0.0
 40
0.0
 40
0.0
 40
0.0
 40
0.0
 40
0.2144737099884738
 40
0.4289765379788121
 40
0.6428082576832495
 40
0.8558268718581082
 40
1.0
 40
1.0
 40
1.0
 40
1.0
 10
594.2506260927272
 20
789.6266444871413
 30
0.0
 10
594.2782841164042
 20
789.3444398033059
 30
0.0
 10
594.3336039187469
 20
788.7799921221441
 30
0.0
 10
594.7658338393295
 20
788.0282741793991
 30
0.0
 10
595.40146378767
 20
787.4630876671526
 30
0.0
 10
596.1092612251684
 20
787.1632232979098
 30
0.0
 10
596.5781040225465
 20
787.1358484313367
 30
0.0
 10
596.7673428114009
 20
787.1247991273391
 30
0.0
  0
SPLINE
  5
A8
330
1F
100
AcDbEntity
  8
0
  6
Continuous
 62
     7
370
    15
100
AcDbSpline
210
0.0
220
0.0
230
1.0
 70
     8
 71
     3
 72
    12
 73
     8
 74
     0
 42
0.00000001
 43
0.00000001
 12
1.0
 22
0.0
 32
0.0
 13
1.0
 23
0.0
 33
0.0
 40
0.0
 40
0.0
 40
0.0
 40
0.0
 40
0.2127593044213103
 40
0.4255236205784539
 40
0.6382315457911575
 40
0.8514218113138556
 40
1.0
 40
1.0
 40
1.0
 40
1.0
 10
471.2323091681552
 20
787.1247991273391
 30
0.0
 10
471.5125058885696
 20
787.1497286375624
 30
0.0
 10
472.0729059296829
 20
787.1995882452459
 30
0.0
 10
472.8230231916676
 20
787.6220562583813
 30
0.0
 10
473.3922076588685
 20
788.2490287311323
 30
0.0
 10
473.7029194130841
 20
788.9570685510112
 30
0.0
 10
473.735605462185
 20
789.4317095715049
 30
0.0
 10
473.7490296121192
 20
789.6266444871413
 30
0.0
  0
SPLINE
  5
A9
330
1F
100
AcDbEntity
  8
0
  6
Continuous
 62
     7
370
    15
100
AcDbSpline
210
0.0
220
0.0
230
1.0
 70
     8
 71
     3
 72
    12
 73
     8
 74
     0
 42
0.00000001
 43
0.00000001
 12
1.0
 22
0.0
 32
0.0
 13
1.0
 23
0.0
 33
0.0
 40
0.0
 40
0.0
 40
0.0
 40
0.0
 40
0.2144732152485098
 40
0.4289821814292759
 40
0.6428090816398535
 40
0.8558272044313092
 40
1.0
 40
1.0
 40
1.0
 40
1.0
 10
473.7490296121192
 20
805.6606217572677
 30
0.0
 10
473.721369297262
 20
805.9428249326102
 30
0.0
 10
473.6660440567991
 20
806.5072783242582
 30
0.0
 10
473.2338415220699
 20
807.2590201179279
 30
0.0
 10
472.5981761554503
 20
807.8241739989606
 30
0.0
 10
471.8903918093526
 20
808.1240440293178
 30
0.0
 10
471.4215482603766
 20
808.1514181244492
 30
0.0
 10
471.2323091681552
 20
808.1624671170699
 30
0.0
  0
SPLINE
  5
AA
330
1F
100
AcDbEntity
  8
0
  6
Continuous
 62
     7
370
    15
100
AcDbSpline
210
0.0
220
0.0
230
1.0
 70
     8
 71
     3
 72
    12
 73
     8
 74
     0
 42
0.00000001
 43
0.00000001
 12
1.0
 22
0.0
 32
0.0
 13
1.0
 23
0.0
 33
0.0
 40
0.0
 40
0.0
 40
0.0
 40
0.0
 40
0.2127585258589062
 40
0.4255238326749272
 40
0.6382312782392066
 40
0.8514217014303548
 40
1.0
 40
1.0
 40
1.0
 40
1.0
 10
596.7673428114009
 20
808.1624671170699
 30
0.0
 10
596.4871475505109
 20
808.1375371513698
 30
0.0
 10
595.9267480984566
 20
808.0876764254112
 30
0.0
 10
595.1766292406666
 20
807.6652124296095
 30
0.0
 10
594.607448450387
 20
807.0382359717421
 30
0.0
 10
594.2967361689253
 20
806.3301978174763
 30
0.0
 10
594.2640502068996
 20
805.8555567090273
 30
0.0
 10
594.2506260927272
 20
805.6606217572677
 30
0.0
  0
ARC
  5
AB
330
1F
100
AcDbEntity
  8
0
  6
Continuous
 62
     7
370
    15
100
AcDbCircle
 10
533.9998269936
 20
7641.6849773013
 30
0.0
 40
6854.847550017126
100
AcDbArc
 50
269.5630647268
 51
269.9561464964
  0
ARC
  5
AC
330
1F
100
AcDbEntity
  8
0
  6
Continuous
 62
     7
370
    15
100
AcDbCircle
 10
533.9998269936
 20
-6046.3977020794
 30
0.0
 40
6854.84755000827
100
AcDbArc
 50
89.5630647268
 51
89.9561464964
  0
ARC
  5
AD
330
1F
100
AcDbEntity
  8
0
  6
Continuous
 62
     7
370
    15
100
AcDbCircle
 10
533.9998269936
 20
7641.6849773013
 30
0.0
 40
6854.847550017126
100
AcDbArc
 50
270.0438535036
 51
270.4369352732
  0
ARC
  5
AE
330
1F
100
AcDbEntity
  8
0
  6
Continuous
 62
     7
370
    15
100
AcDbCircle
 10
533.9998269936
 20
-6046.3977020794
 30
0.0
 40
6854.84755000827
100
AcDbArc
 50
90.0438535036
 51
90.4369352732
  0
ARC
  5
AF
330
1F
100
AcDbEntity
  8
0
  6
Continuous
 62
     7
370
    15
100
AcDbCircle
 10
671.3732312357
 20
793.5213466632
 30
0.0
 40
5.306210322340529
100
AcDbArc
 50
271.1491928654
 51
326.7874142024
  0
LINE
  5
B0
330
1F
100
AcDbEntity
  8
0
  6
Continuous
 62
     7
370
    15
100
AcDbLine
 10
675.9163282569
 20
790.7821699331
 30
0.0
 11
675.8126459773
 21
790.6148894975
 31
0.0
  0
ARC
  5
B1
330
1F
100
AcDbEntity
  8
0
  6
Continuous
 62
     7
370
    15
100
AcDbCircle
 10
396.6264227515
 20
801.7659285498
 30
0.0
 40
5.3062103223405
100
AcDbArc
 50
91.1491928654
 51
146.7874142024
  0
LINE
  5
B2
330
1F
100
AcDbEntity
  8
0
  6
Continuous
 62
     7
370
    15
100
AcDbLine
 10
392.0833311732
 20
804.5051261137
 30
0.0
 11
392.1870134528
 21
804.6723767469
 31
0.0
  0
ARC
  5
B3
330
1F
100
AcDbEntity
  8
0
  6
Continuous
 62
     7
370
    15
100
AcDbCircle
 10
533.9998269936
 20
-6046.3977020794
 30
0.0
 40
6854.84755000827
100
AcDbArc
 50
89.2076812253
 51
89.4753546315
  0
ARC
  5
B4
330
1F
100
AcDbEntity
  8
0
  6
Continuous
 62
     7
370
    15
100
AcDbCircle
 10
533.9998269936
 20
7641.6849773013
 30
0.0
 40
6854.847550017127
100
AcDbArc
 50
269.2076812253
 51
269.4753546315
  0
ARC
  5
B5
330
1F
100
AcDbEntity
  8
0
  6
Continuous
 62
     7
370
    15
100
AcDbCircle
 10
533.9998269936
 20
-6046.3977020794
 30
0.0
 40
6854.84755000827
100
AcDbArc
 50
90.5246453685
 51
90.7923187747
  0
ARC
  5
B6
330
1F
100
AcDbEntity
  8
0
  6
Continuous
 62
     7
370
    15
100
AcDbCircle
 10
533.9998269936
 20
7641.6849773013
 30
0.0
 40
6854.847550017127
100
AcDbArc
 50
270.5246453685
 51
270.7923187747
  0
SPLINE
  5
B7
330
1F
100
AcDbEntity
  8
0
  6
Continuous
 62
     7
370
    15
100
AcDbSpline
210
0.0
220
0.0
230
1.0
 70
     8
 71
     3
 72
    12
 73
     8
 74
     0
 42
0.00000001
 43
0.00000001
 12
1.0
 22
0.0
 32
0.0
 13
1.0
 23
0.0
 33
0.0
 40
0.0
 40
0.0
 40
0.0
 40
0.0
 40
0.2176141078135273
 40
0.4352551331161966
 40
0.6522130106584633
 40
0.8683719256118744
 40
1.0
 40
1.0
 40
1.0
 40
1.0
 10
436.7506198342394
 20
789.9944647500503
 30
0.0
 10
436.7782780723862
 20
789.7122774320528
 30
0.0
 10
436.8335979698289
 20
789.1478678912708
 30
0.0
 10
437.2657729566279
 20
788.3962550357849
 30
0.0
 10
437.9014186668672
 20
787.8309216719582
 30
0.0
 10
438.5911759483619
 20
787.539274522017
 30
0.0
 10
439.0401692396964
 20
787.5055803496443
 30
0.0
 10
439.2101011927676
 20
787.4928280065047
 30
0.0
  0
SPLINE
  5
B8
330
1F
100
AcDbEntity
  8
0
  6
Continuous
 62
     7
370
    15
100
AcDbSpline
210
0.0
220
0.0
230
1.0
 70
     8
 71
     3
 72
    12
 73
     8
 74
     0
 42
0.00000001
 43
0.00000001
 12
1.0
 22
0.0
 32
0.0
 13
1.0
 23
0.0
 33
0.0
 40
0.0
 40
0.0
 40
0.0
 40
0.0
 40
0.2158902989208627
 40
0.4317872042092887
 40
0.6476483480307066
 40
0.8640284989137353
 40
1.0
 40
1.0
 40
1.0
 40
1.0
 10
628.7895507867885
 20
787.4928280065047
 30
0.0
 10
629.0691062808086
 20
787.524195334825
 30
0.0
 10
629.628225823408
 20
787.5869309513237
 30
0.0
 10
630.3683872882126
 20
788.0265739325203
 30
0.0
 10
630.9233272102773
 20
788.6665212821384
 30
0.0
 10
631.209628738254
 20
789.3633675755633
 30
0.0
 10
631.2380604345288
 20
789.8187384310968
 30
0.0
 10
631.2490321453166
 20
789.9944647500503
 30
0.0
  0
SPLINE
  5
B9
330
1F
100
AcDbEntity
  8
0
  6
Continuous
 62
     7
370
    15
100
AcDbSpline
210
0.0
220
0.0
230
1.0
 70
     8
 71
     3
 72
    12
 73
     8
 74
     0
 42
0.00000001
 43
0.00000001
 12
1.0
 22
0.0
 32
0.0
 13
1.0
 23
0.0
 33
0.0
 40
0.0
 40
0.0
 40
0.0
 40
0.0
 40
0.2176075834604406
 40
0.4352487383994739
 40
0.652214222748486
 40
0.8683712831724753
 40
1.0
 40
1.0
 40
1.0
 40
1.0
 10
631.2490321453166
 20
805.2928312966811
 30
0.0
 10
631.2213723726585
 20
805.5750086717055
 30
0.0
 10
631.1660485601225
 20
806.1394069547576
 30
0.0
 10
630.7338774702989
 20
806.8910126611115
 30
0.0
 10
630.0982514534512
 20
807.4563823710837
 30
0.0
 10
629.4084698831604
 20
807.7479867785204
 30
0.0
 10
628.9594820831543
 20
807.7816844599752
 30
0.0
 10
628.7895507867885
 20
807.7944382379043
 30
0.0
  0
SPLINE
  5
BA
330
1F
100
AcDbEntity
  8
0
  6
Continuous
 62
     7
370
    15
100
AcDbSpline
210
0.0
220
0.0
230
1.0
 70
     8
 71
     3
 72
    12
 73
     8
 74
     0
 42
0.00000001
 43
0.00000001
 12
1.0
 22
0.0
 32
0.0
 13
1.0
 23
0.0
 33
0.0
 40
0.0
 40
0.0
 40
0.0
 40
0.0
 40
0.2158915224576125
 40
0.4317858286699976
 40
0.6476540119245838
 40
0.8640275269374308
 40
1.0
 40
1.0
 40
1.0
 40
1.0
 10
439.2101011927676
 20
807.7944382379043
 30
0.0
 10
438.9305474777208
 20
807.7630682059594
 30
0.0
 10
438.3714364429975
 20
807.700327737577
 30
0.0
 10
437.6312451442737
 20
807.2607270157248
 30
0.0
 10
437.0763413363481
 20
806.6207523793631
 30
0.0
 10
436.7900307929148
 20
805.9239192601051
 30
0.0
 10
436.7615938316271
 20
805.4685579954155
 30
0.0
 10
436.7506198342394
 20
805.2928312966811
 30
0.0
  0
SPLINE
  5
BB
330
1F
100
AcDbEntity
  8
0
  6
Continuous
 62
     7
370
    15
100
AcDbSpline
210
0.0
220
0.0
230
1.0
 70
     8
 71
     3
 72
    12
 73
     8
 74
     0
 42
0.00000001
 43
0.00000001
 12
1.0
 22
0.0
 32
0.0
 13
1.0
 23
0.0
 33
0.0
 40
0.0
 40
0.0
 40
0.0
 40
0.0
 40
0.2119284417887487
 40
0.4238654375269916
 40
0.6357361794417251
 40
0.8480819001178102
 40
1.0
 40
1.0
 40
1.0
 40
1.0
 10
428.7168673928331
 20
787.6459821412552
 30
0.0
 10
428.9972103449318
 20
787.6691719068231
 30
0.0
 10
429.5579075644552
 20
787.7155523739543
 30
0.0
 10
430.3106325658769
 20
788.1333618866573
 30
0.0
 10
430.8836246314796
 20
788.7567646557748
 30
0.0
 10
431.2010337769321
 20
789.4677033298129
 30
0.0
 10
431.2349035867127
 20
789.9475542113028
 30
0.0
 10
431.2490291650843
 20
790.1476784894454
 30
0.0
  0
SPLINE
  5
BC
330
1F
100
AcDbEntity
  8
0
  6
Continuous
 62
     7
370
    15
100
AcDbSpline
210
0.0
220
0.0
230
1.0
 70
     8
 71
     3
 72
    12
 73
     8
 74
     0
 42
0.00000001
 43
0.00000001
 12
1.0
 22
0.0
 32
0.0
 13
1.0
 23
0.0
 33
0.0
 40
0.0
 40
0.0
 40
0.0
 40
0.0
 40
0.2136457950129716
 40
0.4273203534441103
 40
0.6403181170688547
 40
0.852506722140793
 40
1.0
 40
1.0
 40
1.0
 40
1.0
 10
636.7506228144717
 20
790.1476784894454
 30
0.0
 10
636.7782842648568
 20
789.8654659668933
 30
0.0
 10
636.8336108897252
 20
789.3010029271408
 30
0.0
 10
637.2658280063715
 20
788.5492340401714
 30
0.0
 10
637.9015018612104
 20
787.9841428229632
 30
0.0
 10
638.6141449036546
 20
787.6820463861153
 30
0.0
 10
639.0883405635377
 20
787.6564701030073
 30
0.0
 10
639.2827920373035
 20
787.6459821412551
 30
0.0
  0
SPLINE
  5
BD
330
1F
100
AcDbEntity
  8
0
  6
Continuous
 62
     7
370
    15
100
AcDbSpline
210
0.0
220
0.0
230
1.0
 70
     8
 71
     3
 72
    12
 73
     8
 74
     0
 42
0.00000001
 43
0.00000001
 12
1.0
 22
0.0
 32
0.0
 13
1.0
 23
0.0
 33
0.0
 40
0.0
 40
0.0
 40
0.0
 40
0.0
 40
0.2136447445341566
 40
0.427319484375263
 40
0.640320119411754
 40
0.8525079954990442
 40
1.0
 40
1.0
 40
1.0
 40
1.0
 10
431.2490291650843
 20
805.1395877549636
 30
0.0
 10
431.221371977023
 20
805.4218012867938
 30
0.0
 10
431.1660537178851
 20
805.9862679726855
 30
0.0
 10
430.7338129021267
 20
806.738027509829
 30
0.0
 10
430.0981687204787
 20
807.3031550554748
 30
0.0
 10
429.385515557598
 20
807.6052599985748
 30
0.0
 10
428.911318743601
 20
807.6308078375112
 30
0.0
 10
428.7168673928332
 20
807.6412841031539
 30
0.0
  0
SPLINE
  5
BE
330
1F
100
AcDbEntity
  8
0
  6
Continuous
 62
     7
370
    15
100
AcDbSpline
210
0.0
220
0.0
230
1.0
 70
     8
 71
     3
 72
    12
 73
     8
 74
     0
 42
0.00000001
 43
0.00000001
 12
1.0
 22
0.0
 32
0.0
 13
1.0
 23
0.0
 33
0.0
 40
0.0
 40
0.0
 40
0.0
 40
0.0
 40
0.2119300232753945
 40
0.423866734138098
 40
0.6357371912663474
 40
0.8480818793654726
 40
1.0
 40
1.0
 40
1.0
 40
1.0
 10
639.2827920373035
 20
807.6412841031539
 30
0.0
 10
639.0024464492549
 20
807.6180947134333
 30
0.0
 10
638.4417464266735
 20
807.5717152022357
 30
0.0
 10
637.6890202920009
 20
807.1539040384646
 30
0.0
 10
637.1160247040091
 20
806.5305034934787
 30
0.0
 10
636.7986297347907
 20
805.8195606941008
 30
0.0
 10
636.7647518159465
 20
805.3397117911665
 30
0.0
 10
636.7506228144717
 20
805.1395877549636
 30
0.0
  0
ARC
  5
BF
330
1F
100
AcDbEntity
  8
0
  6
Continuous
 62
     7
370
    15
100
AcDbCircle
 10
533.9998269936
 20
-6046.3977020794
 30
0.0
 40
6854.84755000827
100
AcDbArc
 50
90.880035123
 51
91.1491928654
  0
ARC
  5
C0
330
1F
100
AcDbEntity
  8
0
  6
Continuous
 62
     7
370
    15
100
AcDbCircle
 10
533.9998269936
 20
7641.6849773013
 30
0.0
 40
6854.847550017128
100
AcDbArc
 50
270.880035123
 51
271.1491928654
  0
ARC
  5
C1
330
1F
100
AcDbEntity
  8
0
  6
Continuous
 62
     7
370
    15
100
AcDbCircle
 10
533.9998269936
 20
-6046.3977020794
 30
0.0
 40
6854.84755000827
100
AcDbArc
 50
88.8508071346
 51
89.119964877
  0
ARC
  5
C2
330
1F
100
AcDbEntity
  8
0
  6
Continuous
 62
     7
370
    15
100
AcDbCircle
 10
533.9998269936
 20
7641.6849773013
 30
0.0
 40
6854.847550017129
100
AcDbArc
 50
268.8508071346
 51
269.119964877
  0
SPLINE
  5
C3
330
1F
100
AcDbEntity
  8
0
  6
Continuous
 62
     7
370
    15
100
AcDbSpline
210
0.0
220
0.0
230
1.0
 70
     8
 71
     3
 72
    12
 73
     8
 74
     0
 42
0.00000001
 43
0.00000001
 12
1.0
 22
0.0
 32
0.0
 13
1.0
 23
0.0
 33
0.0
 40
0.0
 40
0.0
 40
0.0
 40
0.0
 40
0.2406700022301397
 40
0.4814838464702895
 40
0.7183626746908712
 40
0.9505612862481716
 40
1.0
 40
1.0
 40
1.0
 40
1.0
 10
391.8304137642932
 20
791.6110023210036
 30
0.0
 10
391.8280820425494
 20
791.5910883724986
 30
0.0
 10
391.8234172054543
 20
791.5512485734552
 30
0.0
 10
391.850398418471
 20
791.3650277698373
 30
0.0
 10
391.9197523514061
 20
791.1164812818758
 30
0.0
 10
392.0102562630631
 20
790.9099234176815
 30
0.0
 10
392.0724190891823
 20
790.8012470247771
 30
0.0
 10
392.0833311732363
 20
790.7821699330794
 30
0.0
  0
SPLINE
  5
C4
330
1F
100
AcDbEntity
  8
0
  6
Continuous
 62
     7
370
    15
100
AcDbSpline
210
0.0
220
0.0
230
1.0
 70
     8
 71
     3
 72
    12
 73
     8
 74
     0
 42
0.00000001
 43
0.00000001
 12
1.0
 22
0.0
 32
0.0
 13
1.0
 23
0.0
 33
0.0
 40
0.0
 40
0.0
 40
0.0
 40
0.0
 40
0.0403662763725859
 40
0.0805572248564481
 40
0.1538242161847848
 40
0.3585380413548562
 40
1.0
 40
1.0
 40
1.0
 40
1.0
 10
391.7506180461001
 20
791.9770940492141
 30
0.0
 10
391.7507448080838
 20
791.9631519102337
 30
0.0
 10
391.7509977814701
 20
791.9353281889057
 30
0.0
 10
391.7533483082277
 20
791.8884227139259
 30
0.0
 10
391.7604391810612
 20
791.813309384934
 30
0.0
 10
391.7862568318138
 20
791.6877024667895
 30
0.0
 10
391.8113735157249
 20
791.6440750404835
 30
0.0
 10
391.8304137642932
 20
791.6110023210036
 30
0.0
  0
SPLINE
  5
C5
330
1F
100
AcDbEntity
  8
0
  6
Continuous
 62
     7
370
    15
100
AcDbSpline
210
0.0
220
0.0
230
1.0
 70
     8
 71
     3
 72
    12
 73
     8
 74
     0
 42
0.00000001
 43
0.00000001
 12
1.0
 22
0.0
 32
0.0
 13
1.0
 23
0.0
 33
0.0
 40
0.0
 40
0.0
 40
0.0
 40
0.0
 40
0.2406670087634369
 40
0.4814788316595124
 40
0.7183715119577537
 40
0.9505672354159737
 40
0.9999999999999999
 40
0.9999999999999999
 40
0.9999999999999999
 40
0.9999999999999999
 10
676.1692456658435
 20
803.6762639234054
 30
0.0
 10
676.1715794038937
 20
803.6961784102024
 30
0.0
 10
676.1762482842511
 20
803.7360193667395
 30
0.0
 10
676.1492362316319
 20
803.9222369972858
 30
0.0
 10
676.079904760701
 20
804.1708167746374
 30
0.0
 10
675.9893726274977
 20
804.37736134451
 30
0.0
 10
675.9272349551238
 20
804.486048780666
 30
0.0
 10
675.9163282569003
 20
804.505126113652
 30
0.0
  0
SPLINE
  5
C6
330
1F
100
AcDbEntity
  8
0
  6
Continuous
 62
     7
370
    15
100
AcDbSpline
210
0.0
220
0.0
230
1.0
 70
     8
 71
     3
 72
    12
 73
     8
 74
     0
 42
0.00000001
 43
0.00000001
 12
1.0
 22
0.0
 32
0.0
 13
1.0
 23
0.0
 33
0.0
 40
0.0
 40
0.0
 40
0.0
 40
0.0
 40
0.0402770559843431
 40
0.0803623965175629
 40
0.15350846704042
 40
0.3575282720017698
 40
1.0
 40
1.0
 40
1.0
 40
1.0
 10
676.2490264828754
 20
803.3102019975174
 30
0.0
 10
676.2489062431761
 20
803.324113791956
 30
0.0
 10
676.2486663361086
 20
803.3518711618437
 30
0.0
 10
676.2463052061538
 20
803.3986820623937
 30
0.0
 10
676.239258901002
 20
803.4736925012506
 30
0.0
 10
676.2134532123044
 20
803.5995028096285
 30
0.0
 10
676.1883207495007
 20
803.6431423234947
 30
0.0
 10
676.1692456658435
 20
803.6762639234055
 30
0.0
  0
SPLINE
  5
C7
330
1F
100
AcDbEntity
  8
0
  6
Continuous
 62
     7
370
    15
100
AcDbSpline
210
0.0
220
0.0
230
1.0
 70
     8
 71
     3
 72
    15
 73
    11
 74
     0
 42
0.00000001
 43
0.00000001
 12
1.0
 22
0.0
 32
0.0
 13
1.0
 23
0.0
 33
0.0
 40
0.0
 40
0.0
 40
0.0
 40
0.0
 40
0.3098105842765532
 40
0.5224560198104139
 40
0.6701023470806443
 40
0.8213341250187003
 40
0.885018593590959
 40
0.9493444888385176
 40
0.9897447215080506
 40
1.0
 40
1.0
 40
1.0
 40
1.0
 10
391.8304137642932
 20
803.6762639234054
 30
0.0
 10
391.8212209541093
 20
803.6603326505466
 30
0.0
 10
391.8057184526994
 20
803.6334665916357
 30
0.0
 10
391.7860934989113
 20
803.5813647870398
 30
0.0
 10
391.7714790387083
 20
803.5278505715696
 30
0.0
 10
391.7615032624577
 20
803.4756006425204
 30
0.0
 10
391.7548037699636
 20
803.4170191361636
 30
0.0
 10
391.751639992846
 20
803.3701713241574
 30
0.0
 10
391.7506759998941
 20
803.3311687413681
 30
0.0
 10
391.7506278035224
 20
803.3137320748399
 30
0.0
 10
391.7506180461001
 20
803.3102019975173
 30
0.0
  0
SPLINE
  5
C8
330
1F
100
AcDbEntity
  8
0
  6
Continuous
 62
     7
370
    15
100
AcDbSpline
210
0.0
220
0.0
230
1.0
 70
     8
 71
     3
 72
    12
 73
     8
 74
     0
 42
0.00000001
 43
0.00000001
 12
1.0
 22
0.0
 32
0.0
 13
1.0
 23
0.0
 33
0.0
 40
0.0
 40
0.0
 40
0.0
 40
0.0
 40
0.2431861220728722
 40
0.4869787793059594
 40
0.7196929225044904
 40
0.9552557627656012
 40
0.9999999999999999
 40
0.9999999999999999
 40
0.9999999999999999
 40
0.9999999999999999
 10
392.0833311732363
 20
804.505126113652
 30
0.0
 10
392.0334152956851
 20
804.4094739266674
 30
0.0
 10
391.9334590444373
 20
804.2179309847484
 30
0.0
 10
391.8581836422357
 20
803.9549297327258
 30
0.0
 10
391.8264234954022
 20
803.7648742217631
 30
0.0
 10
391.8251074765807
 20
803.6919613219376
 30
0.0
 10
391.8296833387096
 20
803.6784247149238
 30
0.0
 10
391.8304137642932
 20
803.6762639234054
 30
0.0
  0
SPLINE
  5
C9
330
1F
100
AcDbEntity
  8
0
  6
Continuous
 62
     7
370
    15
100
AcDbSpline
210
0.0
220
0.0
230
1.0
 70
     8
 71
     3
 72
    12
 73
     8
 74
     0
 42
0.00000001
 43
0.00000001
 12
1.0
 22
0.0
 32
0.0
 13
1.0
 23
0.0
 33
0.0
 40
0.0
 40
0.0
 40
0.0
 40
0.0
 40
0.243167827417629
 40
0.4869685616462521
 40
0.7196866578830671
 40
0.9552547796979919
 40
1.0
 40
1.0
 40
1.0
 40
1.0
 10
675.9163282569003
 20
790.7821699330794
 30
0.0
 10
675.966236203289
 20
790.8778121682622
 30
0.0
 10
676.0661819943327
 20
791.0693455721429
 30
0.0
 10
676.141487705119
 20
791.3323340933072
 30
0.0
 10
676.1732077957691
 20
791.5223928916483
 30
0.0
 10
676.1745529942766
 20
791.5953048899333
 30
0.0
 10
676.1699762344468
 20
791.6088415257115
 30
0.0
 10
676.1692456658435
 20
791.6110023210036
 30
0.0
  0
SPLINE
  5
CA
330
1F
100
AcDbEntity
  8
0
  6
Continuous
 62
     7
370
    15
100
AcDbSpline
210
0.0
220
0.0
230
1.0
 70
     8
 71
     3
 72
    15
 73
    11
 74
     0
 42
0.00000001
 43
0.00000001
 12
1.0
 22
0.0
 32
0.0
 13
1.0
 23
0.0
 33
0.0
 40
0.0
 40
0.0
 40
0.0
 40
0.0
 40
0.3098089835296731
 40
0.5224421764234669
 40
0.6700866727891711
 40
0.8213153511108116
 40
0.8850165145532845
 40
0.9493176833027669
 40
0.9897449824589515
 40
1.0
 40
1.0
 40
1.0
 40
1.0
 10
676.1692456658435
 20
791.6110023210038
 30
0.0
 10
676.1784426245528
 20
791.6269525368351
 30
0.0
 10
676.1939517911037
 20
791.6538499669175
 30
0.0
 10
676.2135399718508
 20
791.7058928411784
 30
0.0
 10
676.2281868639195
 20
791.7594234841418
 30
0.0
 10
676.238155088774
 20
791.8116492899103
 30
0.0
 10
676.2448573960187
 20
791.8702771361595
 30
0.0
 10
676.2480094368207
 20
791.9171060330306
 30
0.0
 10
676.2490011967487
 20
791.956117938949
 30
0.0
 10
676.2490222275255
 20
791.9735640231406
 30
0.0
 10
676.2490264828754
 20
791.9770940492142
 30
0.0
  0
LINE
  5
CB
330
1F
100
AcDbEntity
  8
0
  6
Continuous
 62
     7
370
    15
100
AcDbLine
 10
392.0169017966
 20
803.4897907922
 30
0.0
 11
391.8304882701
 21
803.6762043188
 31
0.0
  0
ELLIPSE
  5
CC
330
1F
100
AcDbEntity
  8
0
  6
Continuous
 62
     7
370
    15
100
AcDbEllipse
 10
392.0130895282
 20
802.9916823418
 30
0.0
 11
0.0
 21
0.5
 31
0.0
210
0.0
220
0.0
230
1.0
 40
0.0874886635
 41
4.712388980384691
 42
6.195918844579552
  0
LINE
  5
CD
330
1F
100
AcDbEntity
  8
0
  6
Continuous
 62
     7
370
    15
100
AcDbLine
 10
392.0568369086
 20
801.9699915597
 30
0.0
 11
392.0568369086
 21
802.9916747758
 31
0.0
  0
ELLIPSE
  5
CE
330
1F
100
AcDbEntity
  8
0
  6
Continuous
 62
     7
370
    15
100
AcDbEllipse
 10
391.8381122012
 20
804.6723894252
 30
0.0
 11
0.0
 21
1.000000000000114
 31
0.0
210
0.0
220
0.0
230
1.0
 40
0.0874886635
 41
3.053409736769492
 42
3.054326190990167
  0
LINE
  5
CF
330
1F
100
AcDbEntity
  8
0
  6
Continuous
 62
     7
370
    15
100
AcDbLine
 10
675.9827576335
 20
791.7975052545
 30
0.0
 11
676.16917116
 21
791.611091728
 31
0.0
  0
ELLIPSE
  5
D0
330
1F
100
AcDbEntity
  8
0
  6
Continuous
 62
     7
370
    15
100
AcDbEllipse
 10
675.9865644589
 20
792.2955928712
 30
0.0
 11
0.0
 21
0.5
 31
0.0
210
0.0
220
0.0
230
1.0
 40
0.0874886635
 41
1.570796326794897
 42
3.054326190992076
  0
LINE
  5
D1
330
1F
100
AcDbEntity
  8
0
  6
Continuous
 62
     7
370
    15
100
AcDbLine
 10
675.9428225215
 20
792.2955914686
 30
0.0
 11
675.9428225215
 21
793.3172746847
 31
0.0
  0
ELLIPSE
  5
D2
330
1F
100
AcDbEntity
  8
0
  6
Continuous
 62
     7
370
    15
100
AcDbEllipse
 10
676.161541786
 20
790.6148857878
 30
0.0
 11
0.0
 21
1.000000000000114
 31
0.0
210
0.0
220
0.0
230
1.0
 40
0.0874886635
 41
6.195002390359626
 42
6.195918844579655
  0
LINE
  5
D3
330
1F
100
AcDbEntity
  8
0
  6
Continuous
 62
     7
370
    15
100
AcDbLine
 10
675.9428225215
 20
801.9699915597
 30
0.0
 11
675.9428225215
 21
802.9916747758
 31
0.0
  0
ELLIPSE
  5
D4
330
1F
100
AcDbEntity
  8
0
  6
Continuous
 62
     7
370
    15
100
AcDbEllipse
 10
675.9865644589
 20
802.9916823418
 30
0.0
 11
0.0
 21
0.5
 31
0.0
210
0.0
220
0.0
230
1.0
 40
0.0874886635
 41
0.0872664625977191
 42
1.570796326794897
  0
LINE
  5
D5
330
1F
100
AcDbEntity
  8
0
  6
Continuous
 62
     7
370
    15
100
AcDbLine
 10
675.9827576335
 20
803.4897907922
 30
0.0
 11
676.16917116
 21
803.6762043188
 31
0.0
  0
ELLIPSE
  5
D6
330
1F
100
AcDbEntity
  8
0
  6
Continuous
 62
     7
370
    15
100
AcDbEllipse
 10
676.161541786
 20
804.6723894252
 30
0.0
 11
0.0
 21
1.000000000000114
 31
0.0
210
0.0
220
0.0
230
1.0
 40
0.0874886635
 41
3.228859116190053
 42
3.229775570410072
  0
LINE
  5
D7
330
1F
100
AcDbEntity
  8
0
  6
Continuous
 62
     7
370
    15
100
AcDbLine
 10
392.0568369086
 20
792.2955914686
 30
0.0
 11
392.0568369086
 21
793.3172746847
 31
0.0
  0
ELLIPSE
  5
D8
330
1F
100
AcDbEntity
  8
0
  6
Continuous
 62
     7
370
    15
100
AcDbEllipse
 10
392.0130895282
 20
792.2955928712
 30
0.0
 11
0.0
 21
0.5
 31
0.0
210
0.0
220
0.0
230
1.0
 40
0.0874886635
 41
3.228859116188851
 42
4.712388980384691
  0
LINE
  5
D9
330
1F
100
AcDbEntity
  8
0
  6
Continuous
 62
     7
370
    15
100
AcDbLine
 10
392.0169017966
 20
791.7975052545
 30
0.0
 11
391.8304882701
 21
791.611091728
 31
0.0
  0
ELLIPSE
  5
DA
330
1F
100
AcDbEntity
  8
0
  6
Continuous
 62
     7
370
    15
100
AcDbEllipse
 10
391.8381122012
 20
790.6148857878
 30
0.0
 11
0.0
 21
1.000000000000114
 31
0.0
210
0.0
220
0.0
230
1.0
 40
0.0874886635
 41
0.0872664625996143
 42
0.0881829168189985
  0
LINE
  5
DB
330
1F
100
AcDbEntity
  8
0
  6
Continuous
 62
     7
370
    15
100
AcDbLine
 10
733.9998326953
 20
366.3791357825
 30
0.0
 11
733.9998326953
 21
366.3920625398
 31
0.0
  0
LINE
  5
DC
330
1F
100
AcDbEntity
  8
0
  6
Continuous
 62
     7
370
    15
100
AcDbLine
 10
333.9998267348
 20
366.3791357825
 30
0.0
 11
333.9998267348
 21
366.3920625398
 31
0.0
  0
LINE
  5
DD
330
1F
100
AcDbEntity
  8
0
  6
Continuous
 62
     7
370
    15
100
AcDbLine
 10
333.9998267348
 20
814.2686351488
 30
0.0
 11
333.9998267348
 21
816.393630142
 31
0.0
  0
LINE
  5
DE
330
1F
100
AcDbEntity
  8
0
  6
Continuous
 62
     7
370
    15
100
AcDbLine
 10
733.9998326953
 20
816.393630142
 30
0.0
 11
333.9998267348
 21
816.393630142
 31
0.0
  0
LINE
  5
DF
330
1F
100
AcDbEntity
  8
0
  6
Continuous
 62
     7
370
    15
100
AcDbLine
 10
733.9998326953
 20
816.393630142
 30
0.0
 11
733.9998326953
 21
814.2686351488
 31
0.0
  0
LINE
  5
E0
330
1F
100
AcDbEntity
  8
0
  6
Continuous
 62
     7
370
    15
100
AcDbLine
 10
733.9998326953
 20
781.0186310956
 30
0.0
 11
733.9998326953
 21
778.8936361024
 31
0.0
  0
LINE
  5
E1
330
1F
100
AcDbEntity
  8
0
  6
Continuous
 62
     7
370
    15
100
AcDbLine
 10
733.9998326953
 20
778.8936361024
 30
0.0
 11
333.9998267348
 21
778.8936361024
 31
0.0
  0
LINE
  5
E2
330
1F
100
AcDbEntity
  8
0
  6
Continuous
 62
     7
370
    15
100
AcDbLine
 10
333.9998267348
 20
778.8936361024
 30
0.0
 11
333.9998267348
 21
781.0186310956
 31
0.0
  0
LINE
  5
E3
330
1F
100
AcDbEntity
  8
0
  6
Continuous
 62
     7
370
    15
100
AcDbLine
 10
733.9998326953
 20
781.0186310956
 30
0.0
 11
733.9998326953
 21
814.2686351488
 31
0.0
  0
LINE
  5
E4
330
1F
100
AcDbEntity
  8
0
  6
Continuous
 62
     7
370
    15
100
AcDbLine
 10
333.9998267348
 20
814.2686351488
 30
0.0
 11
333.9998267348
 21
781.0186310956
 31
0.0
  0
LINE
  5
E5
330
1F
100
AcDbEntity
  8
0
  6
Continuous
 62
     7
370
    15
100
AcDbLine
 10
393.999829119
 20
806.3764437387
 30
0.0
 11
393.999829119
 21
788.9108225057
 31
0.0
  0
LINE
  5
E6
330
1F
100
AcDbEntity
  8
0
  6
Continuous
 62
     7
370
    15
100
AcDbLine
 10
673.9998303111
 20
788.9108225057
 30
0.0
 11
673.9998303111
 21
806.3764437387
 31
0.0
  0
LINE
  5
E7
330
1F
100
AcDbEntity
  8
0
  6
Continuous
 62
     7
370
    15
100
AcDbLine
 10
733.9998326953
 20
777.7686282346
 30
0.0
 11
733.9998326953
 21
778.8936361024
 31
0.0
  0
LINE
  5
E8
330
1F
100
AcDbEntity
  8
0
  6
Continuous
 62
     7
370
    15
100
AcDbLine
 10
333.9998267348
 20
778.8936361024
 30
0.0
 11
333.9998267348
 21
777.7686282346
 31
0.0
  0
LINE
  5
E9
330
1F
100
AcDbEntity
  8
0
  6
Continuous
 62
     7
370
    15
100
AcDbLine
 10
333.9998267348
 20
777.7686282346
 30
0.0
 11
333.9998267348
 21
372.3920672486
 31
0.0
  0
LINE
  5
EA
330
1F
100
AcDbEntity
  8
0
  6
Continuous
 62
     7
370
    15
100
AcDbLine
 10
733.9998326953
 20
372.3920672486
 30
0.0
 11
733.9998326953
 21
777.7686282346
 31
0.0
  0
ARC
  5
EB
330
1F
100
AcDbEntity
  8
0
  6
Continuous
 62
     7
370
    15
100
AcDbCircle
 10
496.9998269936
 20
428.3936376065
 30
0.0
 40
25.00000000000009
100
AcDbArc
 50
270.0
 51
0.0
  0
ARC
  5
EC
330
1F
100
AcDbEntity
  8
0
  6
Continuous
 62
     7
370
    15
100
AcDbCircle
 10
496.9998269936
 20
734.8936376065
 30
0.0
 40
25.00000000000011
100
AcDbArc
 50
0.0
 51
90.0
  0
ARC
  5
ED
330
1F
100
AcDbEntity
  8
0
  6
Continuous
 62
     7
370
    15
100
AcDbCircle
 10
370.9998269936
 20
734.8936376065
 30
0.0
 40
25.00000000000011
100
AcDbArc
 50
90.0
 51
180.0
  0
ARC
  5
EE
330
1F
100
AcDbEntity
  8
0
  6
Continuous
 62
     7
370
    15
100
AcDbCircle
 10
370.9998269936
 20
428.3936376065
 30
0.0
 40
25.0
100
AcDbArc
 50
180.0
 51
270.0
  0
ARC
  5
EF
330
1F
100
AcDbEntity
  8
0
  6
Continuous
 62
     7
370
    15
100
AcDbCircle
 10
570.9998269936
 20
734.8936376065
 30
0.0
 40
25.00000000000021
100
AcDbArc
 50
90.0
 51
180.0
  0
ARC
  5
F0
330
1F
100
AcDbEntity
  8
0
  6
Continuous
 62
     7
370
    15
100
AcDbCircle
 10
570.9998269936
 20
428.3936376065
 30
0.0
 40
25.0
100
AcDbArc
 50
180.0
 51
270.0
  0
ARC
  5
F1
330
1F
100
AcDbEntity
  8
0
  6
Continuous
 62
     7
370
    15
100
AcDbCircle
 10
696.9998269936
 20
428.3936376065
 30
0.0
 40
25.0
100
AcDbArc
 50
270.0
 51
0.0
  0
ARC
  5
F2
330
1F
100
AcDbEntity
  8
0
  6
Continuous
 62
     7
370
    15
100
AcDbCircle
 10
696.9998269936
 20
734.8936376065
 30
0.0
 40
25.00000000000011
100
AcDbArc
 50
0.0
 51
90.0
  0
LINE
  5
F3
330
1F
100
AcDbEntity
  8
0
  6
Continuous
 62
     7
370
    15
100
AcDbLine
 10
733.9998326953
 20
372.3920672486
 30
0.0
 11
733.9998326953
 21
366.3920625398
 31
0.0
  0
LINE
  5
F4
330
1F
100
AcDbEntity
  8
0
  6
Continuous
 62
     7
370
    15
100
AcDbLine
 10
333.9998267348
 20
366.3920625398
 30
0.0
 11
333.9998267348
 21
372.3920672486
 31
0.0
  0
CIRCLE
  5
F5
330
1F
100
AcDbEntity
  8
0
  6
Continuous
 62
     7
370
    15
100
AcDbCircle
 10
338.9998269934
 20
797.6715985159
 30
0.0
 40
4.75
  0
CIRCLE
  5
F6
330
1F
100
AcDbEntity
  8
0
  6
Continuous
 62
     7
370
    15
100
AcDbCircle
 10
728.9998269934
 20
797.6715985159
 30
0.0
 40
4.75
  0
LINE
  5
F7
330
1F
100
AcDbEntity
  8
0
  6
Continuous
 62
     7
370
    15
100
AcDbLine
 10
603.8812093194
 20
808.0936237524
 30
0.0
 11
596.3392697032
 21
808.0936237524
 31
0.0
  0
LINE
  5
F8
330
1F
100
AcDbEntity
  8
0
  6
Continuous
 62
     7
370
    15
100
AcDbLine
 10
587.0347909387
 20
808.0936237524
 30
0.0
 11
538.0342427399
 21
808.0936237524
 31
0.0
  0
LINE
  5
F9
330
1F
100
AcDbEntity
  8
0
  6
Continuous
 62
     7
370
    15
100
AcDbLine
 10
530.0177789051
 20
808.0936237524
 30
0.0
 11
480.8841116484
 21
808.0936237524
 31
0.0
  0
LINE
  5
FA
330
1F
100
AcDbEntity
  8
0
  6
Continuous
 62
     7
370
    15
100
AcDbLine
 10
471.8192510064
 20
808.0936237524
 30
0.0
 11
464.1184426601
 21
808.0936237524
 31
0.0
  0
ARC
  5
FB
330
1F
100
AcDbEntity
  8
0
  6
Continuous
 62
     7
370
    15
100
AcDbCircle
 10
533.9998269936
 20
794.6494727467
 30
0.0
 40
5.000000000000028
100
AcDbArc
 50
123.3779429052
 51
236.6220570949
  0
ARC
  5
FC
330
1F
100
AcDbEntity
  8
0
  6
Continuous
 62
     7
370
    15
100
AcDbCircle
 10
533.9998269936
 20
794.6494727467
 30
0.0
 40
4.99999999999998
100
AcDbArc
 50
303.3779429052
 51
56.6220570948
  0
ARC
  5
FD
330
1F
100
AcDbEntity
  8
0
  6
Continuous
 62
     7
370
    15
100
AcDbCircle
 10
433.9998269936
 20
794.6494727467
 30
0.0
 40
4.999999999999959
100
AcDbArc
 50
123.3779429051
 51
236.6220570949
  0
ARC
  5
FE
330
1F
100
AcDbEntity
  8
0
  6
Continuous
 62
     7
370
    15
100
AcDbCircle
 10
433.9998269936
 20
794.6494727467
 30
0.0
 40
4.999999999999995
100
AcDbArc
 50
303.3779429052
 51
56.6220570948
  0
CIRCLE
  5
FF
330
1F
100
AcDbEntity
  8
0
  6
Continuous
 62
     7
370
    15
100
AcDbCircle
 10
513.9998269936
 20
794.6494727467
 30
0.0
 40
5.000000000000114
  0
CIRCLE
  5
100
330
1F
100
AcDbEntity
  8
0
  6
Continuous
 62
     7
370
    15
100
AcDbCircle
 10
493.9998269936
 20
794.6494727467
 30
0.0
 40
5.000000000000114
  0
ARC
  5
101
330
1F
100
AcDbEntity
  8
0
  6
Continuous
 62
     7
370
    15
100
AcDbCircle
 10
473.9998269936
 20
794.6494727467
 30
0.0
 40
4.999999999999984
100
AcDbArc
 50
92.8751231729
 51
267.1248768271
  0
CIRCLE
  5
102
330
1F
100
AcDbEntity
  8
0
  6
Continuous
 62
     7
370
    15
100
AcDbCircle
 10
453.9998269936
 20
794.6494727467
 30
0.0
 40
5.000000000000114
  0
CIRCLE
  5
103
330
1F
100
AcDbEntity
  8
0
  6
Continuous
 62
     7
370
    15
100
AcDbCircle
 10
553.9998269936
 20
794.6494727467
 30
0.0
 40
5.0
  0
CIRCLE
  5
104
330
1F
100
AcDbEntity
  8
0
  6
Continuous
 62
     7
370
    15
100
AcDbCircle
 10
573.9998269936
 20
794.6494727467
 30
0.0
 40
5.0
  0
ARC
  5
105
330
1F
100
AcDbEntity
  8
0
  6
Continuous
 62
     7
370
    15
100
AcDbCircle
 10
593.9998269936
 20
794.6494727467
 30
0.0
 40
5.000000000000019
100
AcDbArc
 50
272.8751231729
 51
87.1248768271
  0
CIRCLE
  5
106
330
1F
100
AcDbEntity
  8
0
  6
Continuous
 62
     7
370
    15
100
AcDbCircle
 10
613.9998269936
 20
794.6494727467
 30
0.0
 40
4.999999999999886
  0
ARC
  5
107
330
1F
100
AcDbEntity
  8
0
  6
Continuous
 62
     7
370
    15
100
AcDbCircle
 10
633.9998269936
 20
794.6494727467
 30
0.0
 40
5.000000000000007
100
AcDbArc
 50
123.3779429051
 51
236.6220570949
  0
ARC
  5
108
330
1F
100
AcDbEntity
  8
0
  6
Continuous
 62
     7
370
    15
100
AcDbCircle
 10
633.9998269936
 20
794.6494727467
 30
0.0
 40
5.000000000000018
100
AcDbArc
 50
303.3779429052
 51
56.6220570948
  0
CIRCLE
  5
109
330
1F
100
AcDbEntity
  8
0
  6
Continuous
 62
     7
370
    15
100
AcDbCircle
 10
663.9998269936
 20
804.3494727467
 30
0.0
 40
1.100000000000023
  0
CIRCLE
  5
10A
330
1F
100
AcDbEntity
  8
0
  6
Continuous
 62
     7
370
    15
100
AcDbCircle
 10
403.9998269936
 20
804.3494727467
 30
0.0
 40
1.100000000000023
  0
LINE
  5
10B
330
1F
100
AcDbEntity
  8
0
  6
Continuous
 62
     7
370
    15
100
AcDbLine
 10
673.9998303111
 20
807.1494861791
 30
0.0
 11
671.7534802611
 21
807.1494861791
 31
0.0
  0
LINE
  5
10C
330
1F
100
AcDbEntity
  8
0
  6
Continuous
 62
     7
370
    15
100
AcDbLine
 10
667.5140850003
 20
807.1494861791
 30
0.0
 11
652.7998290713
 21
807.1494861791
 31
0.0
  0
LINE
  5
10D
330
1F
100
AcDbEntity
  8
0
  6
Continuous
 62
     7
370
    15
100
AcDbLine
 10
649.299829429
 20
807.1494861791
 30
0.0
 11
637.7747796233
 21
807.1494861791
 31
0.0
  0
LINE
  5
10E
330
1F
100
AcDbEntity
  8
0
  6
Continuous
 62
     7
370
    15
100
AcDbLine
 10
630.3741626199
 20
807.1494861791
 30
0.0
 11
594.7697527464
 21
807.1494861791
 31
0.0
  0
LINE
  5
10F
330
1F
100
AcDbEntity
  8
0
  6
Continuous
 62
     7
370
    15
100
AcDbLine
 10
588.2919274028
 20
807.1494861791
 30
0.0
 11
537.0800403635
 21
807.1494861791
 31
0.0
  0
LINE
  5
110
330
1F
100
AcDbEntity
  8
0
  6
Continuous
 62
     7
370
    15
100
AcDbLine
 10
530.9012445379
 20
807.1494861791
 30
0.0
 11
479.697256511
 21
807.1494861791
 31
0.0
  0
LINE
  5
111
330
1F
100
AcDbEntity
  8
0
  6
Continuous
 62
     7
370
    15
100
AcDbLine
 10
473.243127739
 20
807.1494861791
 30
0.0
 11
437.5946812089
 21
807.1494861791
 31
0.0
  0
LINE
  5
112
330
1F
100
AcDbEntity
  8
0
  6
Continuous
 62
     7
370
    15
100
AcDbLine
 10
430.2017234023
 20
807.1494861791
 30
0.0
 11
400.4855744298
 21
807.1494861791
 31
0.0
  0
ARC
  5
113
330
1F
100
AcDbEntity
  8
0
  6
Continuous
 62
     7
370
    15
100
AcDbCircle
 10
373.3623269936
 20
608.5045654921
 30
0.0
 40
13.61250000000007
100
AcDbArc
 50
179.9999999534
 51
270.0000000462
  0
LINE
  5
114
330
1F
100
AcDbEntity
  8
0
  6
Continuous
 62
     7
370
    15
100
AcDbLine
 10
359.7498230393
 20
608.5045649955
 30
0.0
 11
359.7498230393
 21
729.7795578191
 31
0.0
  0
ARC
  5
115
330
1F
100
AcDbEntity
  8
0
  6
Continuous
 62
     7
370
    15
100
AcDbCircle
 10
373.3623269936
 20
729.7795654921
 30
0.0
 40
13.61250000000007
100
AcDbArc
 50
89.9999999531
 51
180.0000000521
  0
LINE
  5
116
330
1F
100
AcDbEntity
  8
0
  6
Continuous
 62
     7
370
    15
100
AcDbLine
 10
494.6373264994
 20
743.3920665929
 30
0.0
 11
373.3623318132
 21
743.3920665929
 31
0.0
  0
ARC
  5
117
330
1F
100
AcDbEntity
  8
0
  6
Continuous
 62
     7
370
    15
100
AcDbCircle
 10
494.6373269936
 20
729.7795654921
 30
0.0
 40
13.61250000000018
100
AcDbArc
 50
359.9999999391
 51
90.0000000521
  0
LINE
  5
118
330
1F
100
AcDbEntity
  8
0
  6
Continuous
 62
     7
370
    15
100
AcDbLine
 10
508.2498278226
 20
608.5045649955
 30
0.0
 11
508.2498278226
 21
729.7795578191
 31
0.0
  0
ARC
  5
119
330
1F
100
AcDbEntity
  8
0
  6
Continuous
 62
     7
370
    15
100
AcDbCircle
 10
494.6373269936
 20
608.5045654921
 30
0.0
 40
13.61250000000007
100
AcDbArc
 50
269.9999999303
 51
0.0000000521
  0
LINE
  5
11A
330
1F
100
AcDbEntity
  8
0
  6
Continuous
 62
     7
370
    15
100
AcDbLine
 10
373.3623318132
 20
594.8920711229
 30
0.0
 11
494.6373264994
 21
594.8920711229
 31
0.0
  0
LINE
  5
11B
330
1F
100
AcDbEntity
  8
0
  6
Continuous
 62
     7
370
    15
100
AcDbLine
 10
373.3623318132
 20
744.1420718381
 30
0.0
 11
494.6373264994
 21
744.1420718381
 31
0.0
  0
ARC
  5
11C
330
1F
100
AcDbEntity
  8
0
  6
Continuous
 62
     7
370
    15
100
AcDbCircle
 10
494.6373269936
 20
729.7795654921
 30
0.0
 40
14.36249999999995
100
AcDbArc
 50
0.0000000029
 51
90.0
  0
LINE
  5
11D
330
1F
100
AcDbEntity
  8
0
  6
Continuous
 62
     7
370
    15
100
AcDbLine
 10
508.9998265486
 20
729.7795578191
 30
0.0
 11
508.9998265486
 21
608.5045649955
 31
0.0
  0
LINE
  5
11E
330
1F
100
AcDbEntity
  8
0
  6
Continuous
 62
     7
370
    15
100
AcDbLine
 10
494.6373264994
 20
594.1420658777
 30
0.0
 11
373.3623318132
 21
594.1420658777
 31
0.0
  0
ARC
  5
11F
330
1F
100
AcDbEntity
  8
0
  6
Continuous
 62
     7
370
    15
100
AcDbCircle
 10
494.6373269936
 20
608.5045654921
 30
0.0
 40
14.36250000000001
100
AcDbArc
 50
269.9999999941
 51
0.0
  0
ARC
  5
120
330
1F
100
AcDbEntity
  8
0
  6
Continuous
 62
     7
370
    15
100
AcDbCircle
 10
373.3623269936
 20
729.7795654921
 30
0.0
 40
14.36250000000007
100
AcDbArc
 50
90.0000000143
 51
179.9999999945
  0
ARC
  5
121
330
1F
100
AcDbEntity
  8
0
  6
Continuous
 62
     7
370
    15
100
AcDbCircle
 10
373.3623269936
 20
608.5045654921
 30
0.0
 40
14.36250000000007
100
AcDbArc
 50
180.0
 51
269.9999999974
  0
LINE
  5
122
330
1F
100
AcDbEntity
  8
0
  6
Continuous
 62
     7
370
    15
100
AcDbLine
 10
358.9998326953
 20
729.7795578191
 30
0.0
 11
358.9998326953
 21
608.5045649955
 31
0.0
  0
ARC
  5
123
330
1F
100
AcDbEntity
  8
0
  6
Continuous
 62
     7
370
    15
100
AcDbCircle
 10
694.6373269936
 20
554.7795654921
 30
0.0
 40
13.61250000000007
100
AcDbArc
 50
359.9999999534
 51
90.0000000462
  0
LINE
  5
124
330
1F
100
AcDbEntity
  8
0
  6
Continuous
 62
     7
370
    15
100
AcDbLine
 10
708.2498214896
 20
554.7795682499
 30
0.0
 11
708.2498214896
 21
433.5045661131
 31
0.0
  0
ARC
  5
125
330
1F
100
AcDbEntity
  8
0
  6
Continuous
 62
     7
370
    15
100
AcDbCircle
 10
694.6373269936
 20
433.5045654921
 30
0.0
 40
13.61250000000013
100
AcDbArc
 50
269.9999999531
 51
0.0000000521
  0
LINE
  5
126
330
1F
100
AcDbEntity
  8
0
  6
Continuous
 62
     7
370
    15
100
AcDbLine
 10
573.3623273428
 20
419.8920647899
 30
0.0
 11
694.637327617
 21
419.8920647899
 31
0.0
  0
ARC
  5
127
330
1F
100
AcDbEntity
  8
0
  6
Continuous
 62
     7
370
    15
100
AcDbCircle
 10
573.3623269936
 20
433.5045654921
 30
0.0
 40
13.61250000000018
100
AcDbArc
 50
179.9999999391
 51
270.0000000521
  0
LINE
  5
128
330
1F
100
AcDbEntity
  8
0
  6
Continuous
 62
     7
370
    15
100
AcDbLine
 10
559.7498260196
 20
554.7795682499
 30
0.0
 11
559.7498260196
 21
433.5045661131
 31
0.0
  0
ARC
  5
129
330
1F
100
AcDbEntity
  8
0
  6
Continuous
 62
     7
370
    15
100
AcDbCircle
 10
573.3623269936
 20
554.7795654921
 30
0.0
 40
13.61250000000018
100
AcDbArc
 50
89.9999999303
 51
180.0000000521
  0
LINE
  5
12A
330
1F
100
AcDbEntity
  8
0
  6
Continuous
 62
     7
370
    15
100
AcDbLine
 10
694.637327617
 20
568.3920621226
 30
0.0
 11
573.3623273428
 21
568.3920621226
 31
0.0
  0
LINE
  5
12B
330
1F
100
AcDbEntity
  8
0
  6
Continuous
 62
     7
370
    15
100
AcDbLine
 10
573.3623273428
 20
569.1420673678
 30
0.0
 11
694.637327617
 21
569.1420673678
 31
0.0
  0
LINE
  5
12C
330
1F
100
AcDbEntity
  8
0
  6
Continuous
 62
     7
370
    15
100
AcDbLine
 10
558.999828225
 20
433.5045661131
 30
0.0
 11
558.999828225
 21
554.7795682499
 31
0.0
  0
ARC
  5
12D
330
1F
100
AcDbEntity
  8
0
  6
Continuous
 62
     7
370
    15
100
AcDbCircle
 10
573.3623269936
 20
554.7795654921
 30
0.0
 40
14.36249999999995
100
AcDbArc
 50
89.9999999941
 51
180.0
  0
LINE
  5
12E
330
1F
100
AcDbEntity
  8
0
  6
Continuous
 62
     7
370
    15
100
AcDbLine
 10
694.637327617
 20
419.1420651326
 30
0.0
 11
573.3623273428
 21
419.1420651326
 31
0.0
  0
ARC
  5
12F
330
1F
100
AcDbEntity
  8
0
  6
Continuous
 62
     7
370
    15
100
AcDbCircle
 10
573.3623269936
 20
433.5045654921
 30
0.0
 40
14.36250000000007
100
AcDbArc
 50
180.0000000029
 51
270.0
  0
ARC
  5
130
330
1F
100
AcDbEntity
  8
0
  6
Continuous
 62
     7
370
    15
100
AcDbCircle
 10
694.6373269936
 20
554.7795654921
 30
0.0
 40
14.36250000000007
100
AcDbArc
 50
0.0
 51
89.9999999974
  0
LINE
  5
131
330
1F
100
AcDbEntity
  8
0
  6
Continuous
 62
     7
370
    15
100
AcDbLine
 10
708.9998267348
 20
433.5045661131
 30
0.0
 11
708.9998267348
 21
554.7795682499
 31
0.0
  0
ARC
  5
132
330
1F
100
AcDbEntity
  8
0
  6
Continuous
 62
     7
370
    15
100
AcDbCircle
 10
694.6373269936
 20
433.5045654921
 30
0.0
 40
14.36250000000007
100
AcDbArc
 50
270.0000000143
 51
359.9999999945
  0
ARC
  5
133
330
1F
100
AcDbEntity
  8
0
  6
Continuous
 62
     7
370
    15
100
AcDbCircle
 10
494.6373269936
 20
554.7795654921
 30
0.0
 40
13.61249999999995
100
AcDbArc
 50
359.9999999534
 51
90.0000000462
  0
LINE
  5
134
330
1F
100
AcDbEntity
  8
0
  6
Continuous
 62
     7
370
    15
100
AcDbLine
 10
508.2498278226
 20
554.7795682499
 30
0.0
 11
508.2498278226
 21
433.5045661131
 31
0.0
  0
ARC
  5
135
330
1F
100
AcDbEntity
  8
0
  6
Continuous
 62
     7
370
    15
100
AcDbCircle
 10
494.6373269936
 20
433.5045654921
 30
0.0
 40
13.61250000000001
100
AcDbArc
 50
269.9999999531
 51
0.0000000521
  0
LINE
  5
136
330
1F
100
AcDbEntity
  8
0
  6
Continuous
 62
     7
370
    15
100
AcDbLine
 10
373.3623318132
 20
419.8920647899
 30
0.0
 11
494.6373264994
 21
419.8920647899
 31
0.0
  0
ARC
  5
137
330
1F
100
AcDbEntity
  8
0
  6
Continuous
 62
     7
370
    15
100
AcDbCircle
 10
373.3623269936
 20
433.5045654921
 30
0.0
 40
13.61250000000001
100
AcDbArc
 50
179.9999999391
 51
270.0000000521
  0
LINE
  5
138
330
1F
100
AcDbEntity
  8
0
  6
Continuous
 62
     7
370
    15
100
AcDbLine
 10
359.7498230393
 20
554.7795682499
 30
0.0
 11
359.7498230393
 21
433.5045661131
 31
0.0
  0
ARC
  5
139
330
1F
100
AcDbEntity
  8
0
  6
Continuous
 62
     7
370
    15
100
AcDbCircle
 10
373.3623269936
 20
554.7795654921
 30
0.0
 40
13.61250000000007
100
AcDbArc
 50
89.9999999303
 51
180.0000000521
  0
LINE
  5
13A
330
1F
100
AcDbEntity
  8
0
  6
Continuous
 62
     7
370
    15
100
AcDbLine
 10
494.6373264994
 20
568.3920621226
 30
0.0
 11
373.3623318132
 21
568.3920621226
 31
0.0
  0
LINE
  5
13B
330
1F
100
AcDbEntity
  8
0
  6
Continuous
 62
     7
370
    15
100
AcDbLine
 10
373.3623318132
 20
569.1420673678
 30
0.0
 11
494.6373264994
 21
569.1420673678
 31
0.0
  0
LINE
  5
13C
330
1F
100
AcDbEntity
  8
0
  6
Continuous
 62
     7
370
    15
100
AcDbLine
 10
358.9998326953
 20
433.5045661131
 30
0.0
 11
358.9998326953
 21
554.7795682499
 31
0.0
  0
ARC
  5
13D
330
1F
100
AcDbEntity
  8
0
  6
Continuous
 62
     7
370
    15
100
AcDbCircle
 10
373.3623269936
 20
554.7795654921
 30
0.0
 40
14.36250000000007
100
AcDbArc
 50
89.9999999941
 51
180.0
  0
LINE
  5
13E
330
1F
100
AcDbEntity
  8
0
  6
Continuous
 62
     7
370
    15
100
AcDbLine
 10
494.6373264994
 20
419.1420651326
 30
0.0
 11
373.3623318132
 21
419.1420651326
 31
0.0
  0
ARC
  5
13F
330
1F
100
AcDbEntity
  8
0
  6
Continuous
 62
     7
370
    15
100
AcDbCircle
 10
373.3623269936
 20
433.5045654921
 30
0.0
 40
14.36249999999995
100
AcDbArc
 50
180.0000000029
 51
270.0
  0
ARC
  5
140
330
1F
100
AcDbEntity
  8
0
  6
Continuous
 62
     7
370
    15
100
AcDbCircle
 10
494.6373269936
 20
554.7795654921
 30
0.0
 40
14.36250000000001
100
AcDbArc
 50
0.0
 51
89.9999999974
  0
LINE
  5
141
330
1F
100
AcDbEntity
  8
0
  6
Continuous
 62
     7
370
    15
100
AcDbLine
 10
508.9998265486
 20
433.5045661131
 30
0.0
 11
508.9998265486
 21
554.7795682499
 31
0.0
  0
ARC
  5
142
330
1F
100
AcDbEntity
  8
0
  6
Continuous
 62
     7
370
    15
100
AcDbCircle
 10
494.6373269936
 20
433.5045654921
 30
0.0
 40
14.36250000000007
100
AcDbArc
 50
270.0000000143
 51
359.9999999945
  0
ARC
  5
143
330
1F
100
AcDbEntity
  8
0
  6
Continuous
 62
     7
370
    15
100
AcDbCircle
 10
573.3623269936
 20
608.5045654921
 30
0.0
 40
13.61250000000007
100
AcDbArc
 50
179.9999999534
 51
270.0000000462
  0
LINE
  5
144
330
1F
100
AcDbEntity
  8
0
  6
Continuous
 62
     7
370
    15
100
AcDbLine
 10
559.7498260196
 20
608.5045649955
 30
0.0
 11
559.7498260196
 21
729.7795578191
 31
0.0
  0
ARC
  5
145
330
1F
100
AcDbEntity
  8
0
  6
Continuous
 62
     7
370
    15
100
AcDbCircle
 10
573.3623269936
 20
729.7795654921
 30
0.0
 40
13.61250000000007
100
AcDbArc
 50
89.9999999531
 51
180.0000000521
  0
LINE
  5
146
330
1F
100
AcDbEntity
  8
0
  6
Continuous
 62
     7
370
    15
100
AcDbLine
 10
694.637327617
 20
743.3920665929
 30
0.0
 11
573.3623273428
 21
743.3920665929
 31
0.0
  0
ARC
  5
147
330
1F
100
AcDbEntity
  8
0
  6
Continuous
 62
     7
370
    15
100
AcDbCircle
 10
694.6373269936
 20
729.7795654921
 30
0.0
 40
13.61250000000007
100
AcDbArc
 50
359.9999999391
 51
90.0000000521
  0
LINE
  5
148
330
1F
100
AcDbEntity
  8
0
  6
Continuous
 62
     7
370
    15
100
AcDbLine
 10
708.2498214896
 20
608.5045649955
 30
0.0
 11
708.2498214896
 21
729.7795578191
 31
0.0
  0
ARC
  5
149
330
1F
100
AcDbEntity
  8
0
  6
Continuous
 62
     7
370
    15
100
AcDbCircle
 10
694.6373269936
 20
608.5045654921
 30
0.0
 40
13.61250000000018
100
AcDbArc
 50
269.9999999303
 51
0.0000000521
  0
LINE
  5
14A
330
1F
100
AcDbEntity
  8
0
  6
Continuous
 62
     7
370
    15
100
AcDbLine
 10
573.3623273428
 20
594.8920711229
 30
0.0
 11
694.637327617
 21
594.8920711229
 31
0.0
  0
LINE
  5
14B
330
1F
100
AcDbEntity
  8
0
  6
Continuous
 62
     7
370
    15
100
AcDbLine
 10
573.3623273428
 20
744.1420718381
 30
0.0
 11
694.637327617
 21
744.1420718381
 31
0.0
  0
ARC
  5
14C
330
1F
100
AcDbEntity
  8
0
  6
Continuous
 62
     7
370
    15
100
AcDbCircle
 10
694.6373269936
 20
729.7795654921
 30
0.0
 40
14.36250000000007
100
AcDbArc
 50
0.0000000029
 51
90.0
  0
LINE
  5
14D
330
1F
100
AcDbEntity
  8
0
  6
Continuous
 62
     7
370
    15
100
AcDbLine
 10
708.9998267348
 20
729.7795578191
 30
0.0
 11
708.9998267348
 21
608.5045649955
 31
0.0
  0
LINE
  5
14E
330
1F
100
AcDbEntity
  8
0
  6
Continuous
 62
     7
370
    15
100
AcDbLine
 10
694.637327617
 20
594.1420658777
 30
0.0
 11
573.3623273428
 21
594.1420658777
 31
0.0
  0
ARC
  5
14F
330
1F
100
AcDbEntity
  8
0
  6
Continuous
 62
     7
370
    15
100
AcDbCircle
 10
694.6373269936
 20
608.5045654921
 30
0.0
 40
14.36249999999995
100
AcDbArc
 50
269.9999999941
 51
0.0
  0
ARC
  5
150
330
1F
100
AcDbEntity
  8
0
  6
Continuous
 62
     7
370
    15
100
AcDbCircle
 10
573.3623269936
 20
608.5045654921
 30
0.0
 40
14.36250000000007
100
AcDbArc
 50
180.0
 51
269.9999999974
  0
ARC
  5
151
330
1F
100
AcDbEntity
  8
0
  6
Continuous
 62
     7
370
    15
100
AcDbCircle
 10
573.3623269936
 20
729.7795654921
 30
0.0
 40
14.36250000000018
100
AcDbArc
 50
90.0000000143
 51
179.9999999945
  0
LINE
  5
152
330
1F
100
AcDbEntity
  8
0
  6
Continuous
 62
     7
370
    15
100
AcDbLine
 10
558.999828225
 20
729.7795578191
 30
0.0
 11
558.999828225
 21
608.5045649955
 31
0.0
  0
ARC
  5
153
330
1F
100
AcDbEntity
  8
0
  6
Continuous
 62
     7
370
    15
100
AcDbCircle
 10
373.8498269936
 20
729.2920654921
 30
0.0
 40
17.22500000000002
100
AcDbArc
 50
89.9999999971
 51
180.0000000029
  0
LINE
  5
154
330
1F
100
AcDbEntity
  8
0
  6
Continuous
 62
     7
370
    15
100
AcDbLine
 10
356.6248260196
 20
608.9920713851
 30
0.0
 11
356.6248260196
 21
729.2920514295
 31
0.0
  0
ARC
  5
155
330
1F
100
AcDbEntity
  8
0
  6
Continuous
 62
     7
370
    15
100
AcDbCircle
 10
494.1498269936
 20
608.9920654921
 30
0.0
 40
17.22500000000002
100
AcDbArc
 50
270.0000000189
 51
359.999999978
  0
LINE
  5
156
330
1F
100
AcDbEntity
  8
0
  6
Continuous
 62
     7
370
    15
100
AcDbLine
 10
373.8498233016
 20
591.767059202
 30
0.0
 11
494.1498275604
 21
591.767059202
 31
0.0
  0
ARC
  5
157
330
1F
100
AcDbEntity
  8
0
  6
Continuous
 62
     7
370
    15
100
AcDbCircle
 10
494.1498269936
 20
729.2920654921
 30
0.0
 40
17.22500000000002
100
AcDbArc
 50
359.9999999945
 51
89.999999989
  0
LINE
  5
158
330
1F
100
AcDbEntity
  8
0
  6
Continuous
 62
     7
370
    15
100
AcDbLine
 10
511.374826705
 20
608.9920713851
 30
0.0
 11
511.374826705
 21
729.2920514295
 31
0.0
  0
LINE
  5
159
330
1F
100
AcDbEntity
  8
0
  6
Continuous
 62
     7
370
    15
100
AcDbLine
 10
494.1498275604
 20
746.5170785139
 30
0.0
 11
373.8498233016
 21
746.5170785139
 31
0.0
  0
ARC
  5
15A
330
1F
100
AcDbEntity
  8
0
  6
Continuous
 62
     7
370
    15
100
AcDbCircle
 10
373.8498269936
 20
608.9920654921
 30
0.0
 40
17.22500000000002
100
AcDbArc
 50
180.0
 51
270.0000000029
  0
ARC
  5
15B
330
1F
100
AcDbEntity
  8
0
  6
Continuous
 62
     7
370
    15
100
AcDbCircle
 10
573.8498269936
 20
729.2920654921
 30
0.0
 40
17.22500000000014
100
AcDbArc
 50
89.9999999971
 51
180.0000000029
  0
LINE
  5
15C
330
1F
100
AcDbEntity
  8
0
  6
Continuous
 62
     7
370
    15
100
AcDbLine
 10
556.6248252745
 20
608.9920713851
 30
0.0
 11
556.6248252745
 21
729.2920514295
 31
0.0
  0
ARC
  5
15D
330
1F
100
AcDbEntity
  8
0
  6
Continuous
 62
     7
370
    15
100
AcDbCircle
 10
694.1498269936
 20
608.9920654921
 30
0.0
 40
17.22500000000002
100
AcDbArc
 50
270.0000000189
 51
359.999999978
  0
LINE
  5
15E
330
1F
100
AcDbEntity
  8
0
  6
Continuous
 62
     7
370
    15
100
AcDbLine
 10
573.8498262818
 20
591.767059202
 30
0.0
 11
694.1498212274
 21
591.767059202
 31
0.0
  0
ARC
  5
15F
330
1F
100
AcDbEntity
  8
0
  6
Continuous
 62
     7
370
    15
100
AcDbCircle
 10
694.1498269936
 20
729.2920654921
 30
0.0
 40
17.22500000000002
100
AcDbArc
 50
359.9999999945
 51
89.999999989
  0
LINE
  5
160
330
1F
100
AcDbEntity
  8
0
  6
Continuous
 62
     7
370
    15
100
AcDbLine
 10
711.3748334106
 20
608.9920713851
 30
0.0
 11
711.3748334106
 21
729.2920514295
 31
0.0
  0
LINE
  5
161
330
1F
100
AcDbEntity
  8
0
  6
Continuous
 62
     7
370
    15
100
AcDbLine
 10
694.1498212274
 20
746.5170785139
 30
0.0
 11
573.8498262818
 21
746.5170785139
 31
0.0
  0
ARC
  5
162
330
1F
100
AcDbEntity
  8
0
  6
Continuous
 62
     7
370
    15
100
AcDbCircle
 10
573.8498269936
 20
608.9920654921
 30
0.0
 40
17.22500000000002
100
AcDbArc
 50
180.0
 51
270.0000000029
  0
ARC
  5
163
330
1F
100
AcDbEntity
  8
0
  6
Continuous
 62
     7
370
    15
100
AcDbCircle
 10
494.1498269936
 20
433.9920654921
 30
0.0
 40
17.22500000000008
100
AcDbArc
 50
269.9999999971
 51
0.0000000029
  0
LINE
  5
164
330
1F
100
AcDbEntity
  8
0
  6
Continuous
 62
     7
370
    15
100
AcDbLine
 10
511.374826705
 20
554.2920618603
 30
0.0
 11
511.374826705
 21
433.9920650522
 31
0.0
  0
ARC
  5
165
330
1F
100
AcDbEntity
  8
0
  6
Continuous
 62
     7
370
    15
100
AcDbCircle
 10
373.8498269936
 20
554.2920654921
 30
0.0
 40
17.22500000000002
100
AcDbArc
 50
90.0000000189
 51
179.999999978
  0
LINE
  5
166
330
1F
100
AcDbEntity
  8
0
  6
Continuous
 62
     7
370
    15
100
AcDbLine
 10
494.1498275604
 20
571.5170665929
 30
0.0
 11
373.8498233016
 21
571.5170665929
 31
0.0
  0
LINE
  5
167
330
1F
100
AcDbEntity
  8
0
  6
Continuous
 62
     7
370
    15
100
AcDbLine
 10
356.6248260196
 20
554.2920618603
 30
0.0
 11
356.6248260196
 21
433.9920650522
 31
0.0
  0
ARC
  5
168
330
1F
100
AcDbEntity
  8
0
  6
Continuous
 62
     7
370
    15
100
AcDbCircle
 10
373.8498269936
 20
433.9920654921
 30
0.0
 40
17.22499999999997
100
AcDbArc
 50
179.9999999945
 51
269.999999989
  0
LINE
  5
169
330
1F
100
AcDbEntity
  8
0
  6
Continuous
 62
     7
370
    15
100
AcDbLine
 10
373.8498233016
 20
416.7670659075
 30
0.0
 11
494.1498275604
 21
416.7670659075
 31
0.0
  0
ARC
  5
16A
330
1F
100
AcDbEntity
  8
0
  6
Continuous
 62
     7
370
    15
100
AcDbCircle
 10
494.1498269936
 20
554.2920654921
 30
0.0
 40
17.22500000000008
100
AcDbArc
 50
0.0
 51
90.0000000029
  0
ARC
  5
16B
330
1F
100
AcDbEntity
  8
0
  6
Continuous
 62
     7
370
    15
100
AcDbCircle
 10
694.1498269936
 20
433.9920654921
 30
0.0
 40
17.22500000000008
100
AcDbArc
 50
269.9999999971
 51
0.0000000029
  0
LINE
  5
16C
330
1F
100
AcDbEntity
  8
0
  6
Continuous
 62
     7
370
    15
100
AcDbLine
 10
711.3748334106
 20
554.2920618603
 30
0.0
 11
711.3748334106
 21
433.9920650522
 31
0.0
  0
ARC
  5
16D
330
1F
100
AcDbEntity
  8
0
  6
Continuous
 62
     7
370
    15
100
AcDbCircle
 10
573.8498269936
 20
554.2920654921
 30
0.0
 40
17.22499999999991
100
AcDbArc
 50
90.0000000189
 51
179.999999978
  0
LINE
  5
16E
330
1F
100
AcDbEntity
  8
0
  6
Continuous
 62
     7
370
    15
100
AcDbLine
 10
694.1498212274
 20
571.5170665929
 30
0.0
 11
573.8498262818
 21
571.5170665929
 31
0.0
  0
LINE
  5
16F
330
1F
100
AcDbEntity
  8
0
  6
Continuous
 62
     7
370
    15
100
AcDbLine
 10
556.6248252745
 20
554.2920618603
 30
0.0
 11
556.6248252745
 21
433.9920650522
 31
0.0
  0
ARC
  5
170
330
1F
100
AcDbEntity
  8
0
  6
Continuous
 62
     7
370
    15
100
AcDbCircle
 10
573.8498269936
 20
433.9920654921
 30
0.0
 40
17.22500000000002
100
AcDbArc
 50
179.9999999945
 51
269.999999989
  0
LINE
  5
171
330
1F
100
AcDbEntity
  8
0
  6
Continuous
 62
     7
370
    15
100
AcDbLine
 10
573.8498262818
 20
416.7670659075
 30
0.0
 11
694.1498212274
 21
416.7670659075
 31
0.0
  0
ARC
  5
172
330
1F
100
AcDbEntity
  8
0
  6
Continuous
 62
     7
370
    15
100
AcDbCircle
 10
694.1498269936
 20
554.2920654921
 30
0.0
 40
17.22500000000002
100
AcDbArc
 50
0.0
 51
90.0000000029
  0
ARC
  5
173
330
1F
100
AcDbEntity
  8
0
  6
Continuous
 62
     7
370
    15
100
AcDbCircle
 10
385.9465560831
 20
364.0901472167
 30
0.0
 40
5.716011394446589
100
AcDbArc
 50
341.0803485896
 51
22.7591544567
  0
ARC
  5
174
330
1F
100
AcDbEntity
  8
0
  6
Continuous
 62
     7
370
    15
100
AcDbCircle
 10
407.0227890039
 20
364.0884134147
 30
0.0
 40
5.686439616332692
100
AcDbArc
 50
159.9583249097
 51
197.7084342911
  0
LWPOLYLINE
  5
175
330
1F
100
AcDbEntity
  8
0
  6
Continuous
 62
     7
370
    15
100
AcDbPolyline
 90
        9
 70
   128
 43
0.0
 10
395.7498214896
 20
360.0496887515
 10
395.8069227393
 20
359.9283932993
 10
395.9694944079
 20
359.8255603859
 10
396.2128154691
 20
359.7568511317
 10
396.4998267348
 20
359.7327261517
 10
396.7868380006
 20
359.7568511317
 10
397.0301590617
 20
359.8255603859
 10
397.1927307303
 20
359.9283932993
 10
397.24983198
 20
360.0496887515
  0
LINE
  5
176
330
1F
100
AcDbEntity
  8
0
  6
Continuous
 62
     7
370
    15
100
AcDbLine
 10
395.7498214896
 20
366.3920625398
 30
0.0
 11
395.7498214896
 21
360.0496887515
 31
0.0
  0
LINE
  5
177
330
1F
100
AcDbEntity
  8
0
  6
Continuous
 62
     7
370
    15
100
AcDbLine
 10
397.24983198
 20
360.0496887515
 30
0.0
 11
397.24983198
 21
366.3920625398
 31
0.0
  0
LINE
  5
178
330
1F
100
AcDbEntity
  8
0
  6
Continuous
 62
     7
370
    15
100
AcDbLine
 10
390.6910411771
 20
360.7130586455
 30
0.0
 11
390.6894765552
 21
360.7222303102
 31
0.0
  0
ARC
  5
179
330
1F
100
AcDbEntity
  8
0
  6
Continuous
 62
     7
370
    15
100
AcDbCircle
 10
585.9461631669
 20
364.0901143721
 30
0.0
 40
5.716382303068915
100
AcDbArc
 50
341.0819708469
 51
22.7579518242
  0
ARC
  5
17A
330
1F
100
AcDbEntity
  8
0
  6
Continuous
 62
     7
370
    15
100
AcDbCircle
 10
607.0226292477
 20
364.088405757
 30
0.0
 40
5.686289359292376
100
AcDbArc
 50
159.9576904729
 51
197.7088367211
  0
LWPOLYLINE
  5
17B
330
1F
100
AcDbEntity
  8
0
  6
Continuous
 62
     7
370
    15
100
AcDbPolyline
 90
        9
 70
   128
 43
0.0
 10
595.7498244699
 20
360.0496887515
 10
595.806918269
 20
359.9283932993
 10
595.9694973882
 20
359.8255603859
 10
596.2128109987
 20
359.7568511317
 10
596.4998297151
 20
359.7327261517
 10
596.7868409808
 20
359.7568511317
 10
597.0301545914
 20
359.8255603859
 10
597.1927337106
 20
359.9283932993
 10
597.2498275097
 20
360.0496887515
  0
LINE
  5
17C
330
1F
100
AcDbEntity
  8
0
  6
Continuous
 62
     7
370
    15
100
AcDbLine
 10
595.7498244699
 20
366.3920625398
 30
0.0
 11
595.7498244699
 21
360.0496887515
 31
0.0
  0
LINE
  5
17D
330
1F
100
AcDbEntity
  8
0
  6
Continuous
 62
     7
370
    15
100
AcDbLine
 10
597.2498275097
 20
360.0496887515
 30
0.0
 11
597.2498275097
 21
366.3920625398
 31
0.0
  0
LINE
  5
17E
330
1F
100
AcDbEntity
  8
0
  6
Continuous
 62
     7
370
    15
100
AcDbLine
 10
590.6910441573
 20
360.7130586455
 30
0.0
 11
590.6894795354
 21
360.7222303102
 31
0.0
  0
ARC
  5
17F
330
1F
100
AcDbEntity
  8
0
  6
Continuous
 62
     7
370
    15
100
AcDbCircle
 10
660.9461586965
 20
364.0901143721
 30
0.0
 40
5.716382303068915
100
AcDbArc
 50
341.0819708469
 51
22.7579518242
  0
ARC
  5
180
330
1F
100
AcDbEntity
  8
0
  6
Continuous
 62
     7
370
    15
100
AcDbCircle
 10
682.0227875138
 20
364.0884134147
 30
0.0
 40
5.686439616332692
100
AcDbArc
 50
159.9583249097
 51
197.7084342911
  0
LWPOLYLINE
  5
181
330
1F
100
AcDbEntity
  8
0
  6
Continuous
 62
     7
370
    15
100
AcDbPolyline
 90
        9
 70
   128
 43
0.0
 10
670.7498274501
 20
360.0496887515
 10
670.8069137986
 20
359.9283932993
 10
670.9695003684
 20
359.8255603859
 10
671.2128214295
 20
359.7568511317
 10
671.4998326953
 20
359.7327261517
 10
671.7868439611
 20
359.7568511317
 10
672.030150121
 20
359.8255603859
 10
672.1927366908
 20
359.9283932993
 10
672.2498230393
 20
360.0496887515
  0
LINE
  5
182
330
1F
100
AcDbEntity
  8
0
  6
Continuous
 62
     7
370
    15
100
AcDbLine
 10
670.7498274501
 20
366.3920625398
 30
0.0
 11
670.7498274501
 21
360.0496887515
 31
0.0
  0
LINE
  5
183
330
1F
100
AcDbEntity
  8
0
  6
Continuous
 62
     7
370
    15
100
AcDbLine
 10
672.2498230393
 20
360.0496887515
 30
0.0
 11
672.2498230393
 21
366.3920625398
 31
0.0
  0
LINE
  5
184
330
1F
100
AcDbEntity
  8
0
  6
Continuous
 62
     7
370
    15
100
AcDbLine
 10
665.6910471376
 20
360.7130586455
 30
0.0
 11
665.6894825156
 21
360.7222303102
 31
0.0
  0
ARC
  5
185
330
1F
100
AcDbEntity
  8
0
  6
Continuous
 62
     7
370
    15
100
AcDbCircle
 10
460.9462602899
 20
364.0901225839
 30
0.0
 40
5.716289564775771
100
AcDbArc
 50
341.0815652585
 51
22.7582525064
  0
ARC
  5
186
330
1F
100
AcDbEntity
  8
0
  6
Continuous
 62
     7
370
    15
100
AcDbCircle
 10
482.022989088
 20
364.0884038388
 30
0.0
 40
5.686631565990767
100
AcDbArc
 50
159.9589277161
 51
197.7077154813
  0
LWPOLYLINE
  5
187
330
1F
100
AcDbEntity
  8
0
  6
Continuous
 62
     7
370
    15
100
AcDbPolyline
 90
        9
 70
   128
 43
0.0
 10
470.7498281951
 20
360.0496887515
 10
470.806918269
 20
359.9283932993
 10
470.9694973882
 20
359.8255603859
 10
471.212814724
 20
359.7568511317
 10
471.4998259898
 20
359.7327261517
 10
471.7868409808
 20
359.7568511317
 10
472.0301583167
 20
359.8255603859
 10
472.1927374359
 20
359.9283932993
 10
472.2498275097
 20
360.0496887515
  0
LINE
  5
188
330
1F
100
AcDbEntity
  8
0
  6
Continuous
 62
     7
370
    15
100
AcDbLine
 10
470.7498281951
 20
366.3920625398
 30
0.0
 11
470.7498281951
 21
360.0496887515
 31
0.0
  0
LINE
  5
189
330
1F
100
AcDbEntity
  8
0
  6
Continuous
 62
     7
370
    15
100
AcDbLine
 10
472.2498275097
 20
360.0496887515
 30
0.0
 11
472.2498275097
 21
366.3920625398
 31
0.0
  0
LINE
  5
18A
330
1F
100
AcDbEntity
  8
0
  6
Continuous
 62
     7
370
    15
100
AcDbLine
 10
465.6910478826
 20
360.7130586455
 30
0.0
 11
465.6894758101
 21
360.7222303102
 31
0.0
  0
LINE
  5
18B
330
1F
100
AcDbEntity
  8
0
  6
Continuous
 62
     7
370
    15
100
AcDbLine
 10
651.0498217996
 20
804.8436506937
 30
0.0
 11
652.6748232301
 21
804.8436506937
 31
0.0
  0
LINE
  5
18C
330
1F
100
AcDbEntity
  8
0
  6
Continuous
 62
     7
370
    15
100
AcDbLine
 10
649.4248203691
 20
804.8436506937
 30
0.0
 11
651.0498217996
 21
804.8436506937
 31
0.0
  0
LINE
  5
18D
330
1F
100
AcDbEntity
  8
0
  6
Continuous
 62
     7
370
    15
100
AcDbLine
 10
651.0498217996
 20
805.1436408708
 30
0.0
 11
652.7998290713
 21
805.1436408708
 31
0.0
  0
LINE
  5
18E
330
1F
100
AcDbEntity
  8
0
  6
Continuous
 62
     7
370
    15
100
AcDbLine
 10
649.299829429
 20
805.1436408708
 30
0.0
 11
651.0498217996
 21
805.1436408708
 31
0.0
  0
LINE
  5
18F
330
1F
100
AcDbEntity
  8
0
  6
Continuous
 62
     7
370
    15
100
AcDbLine
 10
657.1443818267
 20
807.3436483095
 30
0.0
 11
655.2998266872
 21
807.3436483095
 31
0.0
  0
LINE
  5
190
330
1F
100
AcDbEntity
  8
0
  6
Continuous
 62
     7
370
    15
100
AcDbLine
 10
655.2998266872
 20
807.3765202711
 30
0.0
 11
655.2998266872
 21
807.3436483095
 31
0.0
  0
ARC
  5
191
330
1F
100
AcDbEntity
  8
0
  6
Continuous
 62
     7
370
    15
100
AcDbCircle
 10
403.9998269936
 20
794.6494727467
 30
0.0
 40
2.500000000000171
100
AcDbArc
 50
30.0
 51
90.0
  0
SPLINE
  5
192
330
1F
100
AcDbEntity
  8
0
  6
Continuous
 62
     7
370
    15
100
AcDbSpline
210
0.0
220
0.0
230
1.0
 70
    24
 71
     3
 72
     9
 73
     5
 74
     0
 42
0.00000001
 43
0.00000001
 12
1.0
 22
0.0
 32
0.0
 13
1.0
 23
0.0
 33
0.0
 40
0.0
 40
0.0
 40
0.0
 40
0.0
 40
0.7681517152990489
 40
1.0
 40
1.0
 40
1.0
 40
1.0
 10
405.4432056601595
 20
797.1494659135329
 30
0.0
 10
405.0775185782608
 20
797.1494659135329
 30
0.0
 10
404.6014575676355
 20
797.1494659135329
 30
0.0
 10
404.1130609507402
 20
797.1494659135329
 30
0.0
 10
403.9998270328593
 20
797.1494659135329
 30
0.0
  0
SPLINE
  5
193
330
1F
100
AcDbEntity
  8
0
  6
Continuous
 62
     7
370
    15
100
AcDbSpline
210
0.0
220
0.0
230
1.0
 70
     8
 71
     3
 72
     9
 73
     5
 74
     0
 42
0.00000001
 43
0.00000001
 12
1.0
 22
0.0
 32
0.0
 13
1.0
 23
0.0
 33
0.0
 40
0.0
 40
0.0
 40
0.0
 40
0.0
 40
0.0702109183934078
 40
1.0
 40
1.0
 40
1.0
 40
1.0
 10
406.1648912485194
 20
795.8994671056258
 30
0.0
 10
406.147781697176
 20
795.9291045456894
 30
0.0
 10
405.9040937959932
 20
796.351224648111
 30
0.0
 10
405.6652655529347
 20
796.7648663631724
 30
0.0
 10
405.4432056601595
 20
797.1494659135329
 30
0.0
  0
ARC
  5
194
330
1F
100
AcDbEntity
  8
0
  6
Continuous
 62
     7
370
    15
100
AcDbCircle
 10
403.9998269936
 20
794.6494727467
 30
0.0
 40
2.500000000000171
100
AcDbArc
 50
330.0
 51
30.0
  0
ARC
  5
195
330
1F
100
AcDbEntity
  8
0
  6
Continuous
 62
     7
370
    15
100
AcDbCircle
 10
403.9998269936
 20
794.6494727467
 30
0.0
 40
2.499999999999951
100
AcDbArc
 50
270.0
 51
330.0
  0
ARC
  5
196
330
1F
100
AcDbEntity
  8
0
  6
Continuous
 62
     7
370
    15
100
AcDbCircle
 10
403.9998269936
 20
794.6494727467
 30
0.0
 40
2.499999999999902
100
AcDbArc
 50
210.0
 51
270.0
  0
ARC
  5
197
330
1F
100
AcDbEntity
  8
0
  6
Continuous
 62
     7
370
    15
100
AcDbCircle
 10
403.9998269936
 20
794.6494727467
 30
0.0
 40
2.499999999999959
100
AcDbArc
 50
150.0
 51
210.0
  0
ARC
  5
198
330
1F
100
AcDbEntity
  8
0
  6
Continuous
 62
     7
370
    15
100
AcDbCircle
 10
403.9998269936
 20
794.6494727467
 30
0.0
 40
2.5
100
AcDbArc
 50
90.0
 51
150.0
  0
SPLINE
  5
199
330
1F
100
AcDbEntity
  8
0
  6
Continuous
 62
     7
370
    15
100
AcDbSpline
210
0.0
220
0.0
230
1.0
 70
    24
 71
     3
 72
     9
 73
     5
 74
     0
 42
0.00000001
 43
0.00000001
 12
1.0
 22
0.0
 32
0.0
 13
1.0
 23
0.0
 33
0.0
 40
0.0
 40
0.0
 40
0.0
 40
0.0
 40
0.788999751264703
 40
1.0
 40
1.0
 40
1.0
 40
1.0
 10
403.9998270328593
 20
797.1494659135329
 30
0.0
 10
403.6142644465629
 20
797.1494659135329
 30
0.0
 10
403.1255918130438
 20
797.149465913533
 30
0.0
 10
402.655613868713
 20
797.1494659135329
 30
0.0
 10
402.556448405559
 20
797.1494659135329
 30
0.0
  0
LINE
  5
19A
330
1F
100
AcDbEntity
  8
0
  6
Continuous
 62
     7
370
    15
100
AcDbLine
 10
402.5564484056
 20
797.1494659135
 30
0.0
 11
401.8347628172
 21
795.8994671056
 31
0.0
  0
SPLINE
  5
19B
330
1F
100
AcDbEntity
  8
0
  6
Continuous
 62
     7
370
    15
100
AcDbSpline
210
0.0
220
0.0
230
1.0
 70
     8
 71
     3
 72
     9
 73
     5
 74
     0
 42
0.00000001
 43
0.00000001
 12
1.0
 22
0.0
 32
0.0
 13
1.0
 23
0.0
 33
0.0
 40
0.0
 40
0.0
 40
0.0
 40
0.0
 40
0.0701907322371613
 40
1.0
 40
1.0
 40
1.0
 40
1.0
 10
401.8347628171992
 20
795.8994671056258
 30
0.0
 10
401.8176556623028
 20
795.8698396614711
 30
0.0
 10
401.5739318208336
 20
795.4477405721694
 30
0.0
 10
401.3351234579075
 20
795.0340871154337
 30
0.0
 10
401.1130772288393
 20
794.6494682977188
 30
0.0
  0
LINE
  5
19C
330
1F
100
AcDbEntity
  8
0
  6
Continuous
 62
     7
370
    15
100
AcDbLine
 10
401.1130772288
 20
794.6494682977
 30
0.0
 11
401.8347628172
 21
793.3994694898
 31
0.0
  0
SPLINE
  5
19D
330
1F
100
AcDbEntity
  8
0
  6
Continuous
 62
     7
370
    15
100
AcDbSpline
210
0.0
220
0.0
230
1.0
 70
     8
 71
     3
 72
     9
 73
     5
 74
     0
 42
0.00000001
 43
0.00000001
 12
1.0
 22
0.0
 32
0.0
 13
1.0
 23
0.0
 33
0.0
 40
0.0
 40
0.0
 40
0.0
 40
0.0
 40
0.0701932786598976
 40
1.0
 40
1.0
 40
1.0
 40
1.0
 10
401.8347628171992
 20
793.3994694898116
 30
0.0
 10
401.8518725265588
 20
793.3698420851648
 30
0.0
 10
402.0956239182336
 20
792.9477588713232
 30
0.0
 10
402.3344169964365
 20
792.5340966218392
 30
0.0
 10
402.556448405559
 20
792.1494706819045
 30
0.0
  0
SPLINE
  5
19E
330
1F
100
AcDbEntity
  8
0
  6
Continuous
 62
     7
370
    15
100
AcDbSpline
210
0.0
220
0.0
230
1.0
 70
    24
 71
     3
 72
     9
 73
     5
 74
     0
 42
0.00000001
 43
0.00000001
 12
1.0
 22
0.0
 32
0.0
 13
1.0
 23
0.0
 33
0.0
 40
0.0
 40
0.0
 40
0.0
 40
0.0
 40
0.2110002487352969
 40
1.0
 40
1.0
 40
1.0
 40
1.0
 10
402.556448405559
 20
792.1494706819045
 30
0.0
 10
402.6556138687129
 20
792.1494706819046
 30
0.0
 10
403.1255918130439
 20
792.1494706819043
 30
0.0
 10
403.6142644465629
 20
792.1494706819045
 30
0.0
 10
403.9998270328593
 20
792.1494706819045
 30
0.0
  0
LINE
  5
19F
330
1F
100
AcDbEntity
  8
0
  6
Continuous
 62
     7
370
    15
100
AcDbLine
 10
405.4432056602
 20
792.1494706819
 30
0.0
 11
406.1648912485
 21
793.3994694898
 31
0.0
  0
SPLINE
  5
1A0
330
1F
100
AcDbEntity
  8
0
  6
Continuous
 62
     7
370
    15
100
AcDbSpline
210
0.0
220
0.0
230
1.0
 70
    24
 71
     3
 72
     9
 73
     5
 74
     0
 42
0.00000001
 43
0.00000001
 12
1.0
 22
0.0
 32
0.0
 13
1.0
 23
0.0
 33
0.0
 40
0.0
 40
0.0
 40
0.0
 40
0.0
 40
0.2318482847009511
 40
1.0
 40
1.0
 40
1.0
 40
1.0
 10
403.9998270328592
 20
792.1494706819046
 30
0.0
 10
404.1130609507402
 20
792.1494706819046
 30
0.0
 10
404.6014575676355
 20
792.1494706819046
 30
0.0
 10
405.0775185782607
 20
792.1494706819046
 30
0.0
 10
405.4432056601595
 20
792.1494706819045
 30
0.0
  0
LINE
  5
1A1
330
1F
100
AcDbEntity
  8
0
  6
Continuous
 62
     7
370
    15
100
AcDbLine
 10
406.8865768369
 20
794.6494682977
 30
0.0
 11
406.1648912485
 21
795.8994671056
 31
0.0
  0
SPLINE
  5
1A2
330
1F
100
AcDbEntity
  8
0
  6
Continuous
 62
     7
370
    15
100
AcDbSpline
210
0.0
220
0.0
230
1.0
 70
     8
 71
     3
 72
     9
 73
     5
 74
     0
 42
0.00000001
 43
0.00000001
 12
1.0
 22
0.0
 32
0.0
 13
1.0
 23
0.0
 33
0.0
 40
0.0
 40
0.0
 40
0.0
 40
0.0
 40
0.070208372564561
 40
1.0
 40
1.0
 40
1.0
 40
1.0
 10
406.1648912485194
 20
793.3994694898116
 30
0.0
 10
406.1819982453814
 20
793.4291069693808
 30
0.0
 10
406.4256585986577
 20
793.8512429410091
 30
0.0
 10
406.6645021254243
 20
794.2648758666376
 30
0.0
 10
406.8865768368792
 20
794.6494682977188
 30
0.0
  0
ENDSEC
  0
SECTION
  2
OBJECTS
  0
DICTIONARY
  5
C
330
0
100
AcDbDictionary
281
     1
  3
ACAD_GROUP
350
D
  3
ACAD_LAYOUT
350
1A
  3
ACAD_MLINESTYLE
350
17
  3
ACAD_PLOTSETTINGS
350
19
  3
ACAD_PLOTSTYLENAME
350
E
  0
DICTIONARY
  5
D
102
{ACAD_REACTORS
330
C
102
}
330
C
100
AcDbDictionary
281
     1
  0
DICTIONARY
  5
1A
102
{ACAD_REACTORS
330
C
102
}
330
C
100
AcDbDictionary
281
     1
  3
Layout1
350
1E
  3
Layout2
350
26
  3
Model
350
22
  0
DICTIONARY
  5
17
102
{ACAD_REACTORS
330
C
102
}
330
C
100
AcDbDictionary
281
     1
  3
Standard
350
18
  0
DICTIONARY
  5
19
102
{ACAD_REACTORS
330
C
102
}
330
C
100
AcDbDictionary
281
     1
  0
ACDBDICTIONARYWDFLT
  5
E
102
{ACAD_REACTORS
330
C
102
}
330
C
100
AcDbDictionary
281
     1
  3
Normal
350
F
100
AcDbDictionaryWithDefault
340
F
  0
LAYOUT
  5
1E
102
{ACAD_REACTORS
330
1A
102
}
330
1A
100
AcDbPlotSettings
  1

  2
none_device
  4

  6

 40
0.0
 41
0.0
 42
0.0
 43
0.0
 44
0.0
 45
0.0
 46
0.0
 47
0.0
 48
0.0
 49
0.0
140
0.0
141
0.0
142
1.0
143
1.0
 70
   688
 72
     0
 73
     0
 74
     5
  7

 75
    16
147
1.0
148
0.0
149
0.0
100
AcDbLayout
  1
Layout1
 70
     1
 71
     1
 10
0.0
 20
0.0
 11
420.0
 21
297.0
 12
0.0
 22
0.0
 32
0.0
 14
1.0000000000E+20
 24
1.0000000000E+20
 34
1.0000000000E+20
 15
-1.0000000000E+20
 25
-1.0000000000E+20
 35
-1.0000000000E+20
146
0.0
 13
0.0
 23
0.0
 33
0.0
 16
1.0
 26
0.0
 36
0.0
 17
0.0
 27
1.0
 37
0.0
 76
     0
330
1B
  0
LAYOUT
  5
26
102
{ACAD_REACTORS
330
1A
102
}
330
1A
100
AcDbPlotSettings
  1

  2
none_device
  4

  6

 40
0.0
 41
0.0
 42
0.0
 43
0.0
 44
0.0
 45
0.0
 46
0.0
 47
0.0
 48
0.0
 49
0.0
140
0.0
141
0.0
142
1.0
143
1.0
 70
   688
 72
     0
 73
     0
 74
     5
  7

 75
    16
147
1.0
148
0.0
149
0.0
100
AcDbLayout
  1
Layout2
 70
     1
 71
     2
 10
0.0
 20
0.0
 11
0.0
 21
0.0
 12
0.0
 22
0.0
 32
0.0
 14
0.0
 24
0.0
 34
0.0
 15
0.0
 25
0.0
 35
0.0
146
0.0
 13
0.0
 23
0.0
 33
0.0
 16
1.0
 26
0.0
 36
0.0
 17
0.0
 27
1.0
 37
0.0
 76
     0
330
23
  0
LAYOUT
  5
22
102
{ACAD_REACTORS
330
1A
102
}
330
1A
100
AcDbPlotSettings
  1

  2
none_device
  4

  6

 40
0.0
 41
0.0
 42
0.0
 43
0.0
 44
0.0
 45
0.0
 46
0.0
 47
0.0
 48
0.0
 49
0.0
140
0.0
141
0.0
142
1.0
143
1.0
 70
  1712
 72
     0
 73
     0
 74
     0
  7

 75
     0
147
1.0
148
0.0
149
0.0
100
AcDbLayout
  1
Model
 70
     1
 71
     0
 10
0.0
 20
0.0
 11
1100.0
 21
1000.0
 12
0.0
 22
0.0
 32
0.0
 14
0.0
 24
0.0
 34
0.0
 15
1100.0
 25
1000.0
 35
0.0
146
0.0
 13
0.0
 23
0.0
 33
0.0
 16
1.0
 26
0.0
 36
0.0
 17
0.0
 27
1.0
 37
0.0
 76
     0
330
1F
331
29
  0
MLINESTYLE
  5
18
102
{ACAD_REACTORS
330
17
102
}
330
17
100
AcDbMlineStyle
  2
Standard
 70
     0
  3

 62
   256
 51
90.0
 52
90.0
 71
     2
 49
0.5
 62
   256
  6
BYLAYER
 49
-0.5
 62
   256
  6
BYLAYER
  0
ACDBPLACEHOLDER
  5
F
102
{ACAD_REACTORS
330
E
102
}
330
E
  0
ENDSEC
  0
EOF
