  0
SECTION
  2
HEADER
  9
$ACADVER
  1
AC1015
  9
$ACADMAINTVER
 70
     6
  9
$DWGCODEPAGE
  3
ANSI_1252
  9
$INSBASE
 10
0.0
 20
0.0
 30
0.0
  9
$EXTMIN
 10
0.0
 20
0.0
 30
0.0
  9
$EXTMAX
 10
1100.0
 20
1000.0
 30
0.0
  9
$LIMMIN
 10
0.0
 20
0.0
  9
$LIMMAX
 10
1100.0
 20
1000.0
  9
$ORTHOMODE
 70
     0
  9
$REGENMODE
 70
     1
  9
$FILLMODE
 70
     1
  9
$QTEXTMODE
 70
     0
  9
$MIRRTEXT
 70
     1
  9
$LTSCALE
 40
1.0
  9
$ATTMODE
 70
     1
  9
$TEXTSIZE
 40
3.5
  9
$TRACEWID
 40
1.0
  9
$TEXTSTYLE
  7
Standard
  9
$CLAYER
  8
0
  9
$CELTYPE
  6
ByLayer
  9
$CECOLOR
 62
   256
  9
$CELTSCALE
 40
1.0
  9
$DISPSILH
 70
     0
  9
$DIMSCALE
 40
1.0
  9
$DIMASZ
 40
3.302
  9
$DIMEXO
 40
1.0
  9
$DIMDLI
 40
3.75
  9
$DIMRND
 40
0.0
  9
$DIMDLE
 40
0.0
  9
$DIMEXE
 40
1.0
  9
$DIMTP
 40
0.0
  9
$DIMTM
 40
0.0
  9
$DIMTXT
 40
3.5
  9
$DIMCEN
 40
2.5
  9
$DIMTSZ
 40
0.0
  9
$DIMTOL
 70
     0
  9
$DIMLIM
 70
     0
  9
$DIMTIH
 70
     1
  9
$DIMTOH
 70
     1
  9
$DIMSE1
 70
     0
  9
$DIMSE2
 70
     0
  9
$DIMTAD
 70
     1
  9
$DIMZIN
 70
     0
  9
$DIMBLK
  1

  9
$DIMASO
 70
     1
  9
$DIMSHO
 70
     1
  9
$DIMPOST
  1

  9
$DIMAPOST
  1

  9
$DIMALT
 70
     0
  9
$DIMALTD
 70
     3
  9
$DIMALTF
 40
0.0393700787
  9
$DIMLFAC
 40
5.0
  9
$DIMTOFL
 70
     1
  9
$DIMTVP
 40
0.0
  9
$DIMTIX
 70
     0
  9
$DIMSOXD
 70
     0
  9
$DIMSAH
 70
     0
  9
$DIMBLK1
  1

  9
$DIMBLK2
  1

  9
$DIMSTYLE
  2
ISO-25
  9
$DIMCLRD
 70
     0
  9
$DIMCLRE
 70
     0
  9
$DIMCLRT
 70
     0
  9
$DIMTFAC
 40
1.0
  9
$DIMGAP
 40
1.524
  9
$DIMJUST
 70
     0
  9
$DIMSD1
 70
     0
  9
$DIMSD2
 70
     0
  9
$DIMTOLJ
 70
     0
  9
$DIMTZIN
 70
     0
  9
$DIMALTZ
 70
     0
  9
$DIMALTTZ
 70
     0
  9
$DIMUPT
 70
     0
  9
$DIMDEC
 70
     3
  9
$DIMTDEC
 70
     3
  9
$DIMALTU
 70
     2
  9
$DIMALTTD
 70
     3
  9
$DIMTXSTY
  7
Standard
  9
$DIMAUNIT
 70
     0
  9
$DIMADEC
 70
     2
  9
$DIMALTRND
 40
0.0
  9
$DIMAZIN
 70
     0
  9
$DIMDSEP
 70
    44
  9
$DIMATFIT
 70
     3
  9
$DIMFRAC
 70
     0
  9
$DIMLDRBLK
  1

  9
$DIMLUNIT
 70
     2
  9
$DIMLWD
 70
    -2
  9
$DIMLWE
 70
    -2
  9
$DIMTMOVE
 70
     0
  9
$LUNITS
 70
     2
  9
$LUPREC
 70
     8
  9
$SKETCHINC
 40
1.0
  9
$FILLETRAD
 40
10.0
  9
$AUNITS
 70
     0
  9
$AUPREC
 70
     8
  9
$MENU
  1
.
  9
$ELEVATION
 40
0.0
  9
$PELEVATION
 40
0.0
  9
$THICKNESS
 40
0.0
  9
$LIMCHECK
 70
     0
  9
$CHAMFERA
 40
10.0
  9
$CHAMFERB
 40
10.0
  9
$CHAMFERC
 40
20.0
  9
$CHAMFERD
 40
0.0
  9
$SKPOLY
 70
     0
  9
$TDCREATE
 40
2457423.46220081
  9
$TDUCREATE
 40
2457423.46220081
  9
$TDUPDATE
 40
2457423.462202616
  9
$TDUUPDATE
 40
2457423.462202616
  9
$TDINDWG
 40
0.0000000116
  9
$TDUSRTIMER
 40
0.0000000116
  9
$USRTIMER
 70
     1
  9
$ANGBASE
 50
0.0
  9
$ANGDIR
 70
     0
  9
$PDMODE
 70
     0
  9
$PDSIZE
 40
-1.0
  9
$PLINEWID
 40
0.0
  9
$SPLFRAME
 70
     0
  9
$SPLINETYPE
 70
     6
  9
$SPLINESEGS
 70
     8
  9
$HANDSEED
  5
287
  9
$SURFTAB1
 70
     6
  9
$SURFTAB2
 70
     6
  9
$SURFTYPE
 70
     6
  9
$SURFU
 70
     6
  9
$SURFV
 70
     6
  9
$UCSBASE
  2

  9
$UCSNAME
  2

  9
$UCSORG
 10
0.0
 20
0.0
 30
0.0
  9
$UCSXDIR
 10
1.0
 20
0.0
 30
0.0
  9
$UCSYDIR
 10
0.0
 20
1.0
 30
0.0
  9
$UCSORTHOREF
  2

  9
$UCSORTHOVIEW
 70
     0
  9
$UCSORGTOP
 10
0.0
 20
0.0
 30
0.0
  9
$UCSORGBOTTOM
 10
0.0
 20
0.0
 30
0.0
  9
$UCSORGLEFT
 10
0.0
 20
0.0
 30
0.0
  9
$UCSORGRIGHT
 10
0.0
 20
0.0
 30
0.0
  9
$UCSORGFRONT
 10
0.0
 20
0.0
 30
0.0
  9
$UCSORGBACK
 10
0.0
 20
0.0
 30
0.0
  9
$PUCSBASE
  2

  9
$PUCSNAME
  2

  9
$PUCSORG
 10
0.0
 20
0.0
 30
0.0
  9
$PUCSXDIR
 10
1.0
 20
0.0
 30
0.0
  9
$PUCSYDIR
 10
0.0
 20
1.0
 30
0.0
  9
$PUCSORTHOREF
  2

  9
$PUCSORTHOVIEW
 70
     0
  9
$PUCSORGTOP
 10
0.0
 20
0.0
 30
0.0
  9
$PUCSORGBOTTOM
 10
0.0
 20
0.0
 30
0.0
  9
$PUCSORGLEFT
 10
0.0
 20
0.0
 30
0.0
  9
$PUCSORGRIGHT
 10
0.0
 20
0.0
 30
0.0
  9
$PUCSORGFRONT
 10
0.0
 20
0.0
 30
0.0
  9
$PUCSORGBACK
 10
0.0
 20
0.0
 30
0.0
  9
$USERI1
 70
     0
  9
$USERI2
 70
     0
  9
$USERI3
 70
     0
  9
$USERI4
 70
     0
  9
$USERI5
 70
     0
  9
$USERR1
 40
0.0
  9
$USERR2
 40
0.0
  9
$USERR3
 40
0.0
  9
$USERR4
 40
0.0
  9
$USERR5
 40
0.0
  9
$WORLDVIEW
 70
     1
  9
$SHADEDGE
 70
     3
  9
$SHADEDIF
 70
    70
  9
$TILEMODE
 70
     1
  9
$MAXACTVP
 70
    64
  9
$PINSBASE
 10
0.0
 20
0.0
 30
0.0
  9
$PLIMCHECK
 70
     0
  9
$PEXTMIN
 10
1.0000000000E+20
 20
1.0000000000E+20
 30
1.0000000000E+20
  9
$PEXTMAX
 10
-1.0000000000E+20
 20
-1.0000000000E+20
 30
-1.0000000000E+20
  9
$PLIMMIN
 10
0.0
 20
0.0
  9
$PLIMMAX
 10
420.0
 20
297.0
  9
$UNITMODE
 70
     0
  9
$VISRETAIN
 70
     1
  9
$PLINEGEN
 70
     0
  9
$PSLTSCALE
 70
     1
  9
$TREEDEPTH
 70
  3020
  9
$CMLSTYLE
  2
Standard
  9
$CMLJUST
 70
     0
  9
$CMLSCALE
 40
20.0
  9
$PROXYGRAPHICS
 70
     1
  9
$MEASUREMENT
 70
     1
  9
$CELWEIGHT
370
    -1
  9
$ENDCAPS
280
     0
  9
$JOINSTYLE
280
     0
  9
$LWDISPLAY
290
     1
  9
$INSUNITS
 70
     4
  9
$HYPERLINKBASE
  1

  9
$STYLESHEET
  1

  9
$XEDIT
290
     1
  9
$CEPSNTYPE
380
     0
  9
$PSTYLEMODE
290
     1
  9
$FINGERPRINTGUID
  2
{5430DAC7-869C-4AC7-8180-68FF631B91F4}
  9
$VERSIONGUID
  2
{FAEB1C32-E019-11D5-929B-00C0DF256EC4}
  9
$EXTNAMES
290
     1
  9
$PSVPSCALE
 40
0.0
  9
$OLESTARTUP
290
     0
  0
ENDSEC
  0
SECTION
  2
CLASSES
  0
CLASS
  1
ACDBDICTIONARYWDFLT
  2
AcDbDictionaryWithDefault
  3
ObjectDBX Classes
 90
        0
280
     0
281
     0
  0
CLASS
  1
VISUALSTYLE
  2
AcDbVisualStyle
  3
ObjectDBX Classes
 90
     4095
280
     0
281
     0
  0
CLASS
  1
MATERIAL
  2
AcDbMaterial
  3
ObjectDBX Classes
 90
     1153
280
     0
281
     0
  0
CLASS
  1
ACDBPLACEHOLDER
  2
AcDbPlaceHolder
  3
ObjectDBX Classes
 90
        0
280
     0
281
     0
  0
CLASS
  1
LAYOUT
  2
AcDbLayout
  3
ObjectDBX Classes
 90
        0
280
     0
281
     0
  0
ENDSEC
  0
SECTION
  2
TABLES
  0
TABLE
  2
VPORT
  5
8
330
0
100
AcDbSymbolTable
 70
     1
  0
VPORT
  5
29
330
8
100
AcDbSymbolTableRecord
100
AcDbViewportTableRecord
  2
*Active
 70
     0
 10
0.0
 20
0.0
 11
1.0
 21
1.0
 12
550.0
 22
500.0
 13
0.0
 23
0.0
 14
10.0
 24
10.0
 15
10.0
 25
10.0
 16
0.0
 26
0.0
 36
1.0
 17
0.0
 27
0.0
 37
0.0
 40
1000.0
 41
1.1
 42
50.0
 43
0.0
 44
0.0
 50
0.0
 51
0.0
 71
     0
 72
  2000
 73
     1
 74
     3
 75
     0
 76
     0
 77
     0
 78
     0
281
     0
 65
     1
110
0.0
120
0.0
130
0.0
111
1.0
121
0.0
131
0.0
112
0.0
122
1.0
132
0.0
 79
     0
146
0.0
  0
ENDTAB
  0
TABLE
  2
LTYPE
  5
5
330
0
100
AcDbSymbolTable
 70
     6
  0
LTYPE
  5
14
330
5
100
AcDbSymbolTableRecord
100
AcDbLinetypeTableRecord
  2
ByBlock
 70
     0
  3

 72
    65
 73
     0
 40
0.0
  0
LTYPE
  5
15
330
5
100
AcDbSymbolTableRecord
100
AcDbLinetypeTableRecord
  2
ByLayer
 70
     0
  3

 72
    65
 73
     0
 40
0.0
  0
LTYPE
  5
16
330
5
100
AcDbSymbolTableRecord
100
AcDbLinetypeTableRecord
  2
Continuous
 70
     0
  3
Solid line
 72
    65
 73
     0
 40
0.0
  0
LTYPE
  5
3F
330
5
100
AcDbSymbolTableRecord
100
AcDbLinetypeTableRecord
  2
HIDDEN
 70
     0
  3
Hidden __ __ __ __ __ __ __ __ __ __ __ __ __ __
 72
    65
 73
     2
 40
1.905
 49
1.27
 74
     0
 49
-0.635
 74
     0
  0
LTYPE
  5
40
330
5
100
AcDbSymbolTableRecord
100
AcDbLinetypeTableRecord
  2
PHANTOM
 70
     0
  3
Phantom ______  __  __  ______  __  __  ______
 72
    65
 73
     6
 40
12.7
 49
6.35
 74
     0
 49
-1.27
 74
     0
 49
1.27
 74
     0
 49
-1.27
 74
     0
 49
1.27
 74
     0
 49
-1.27
 74
     0
  0
LTYPE
  5
41
330
5
100
AcDbSymbolTableRecord
100
AcDbLinetypeTableRecord
  2
CENTER
 70
     0
  3
Center ____ _ ____ _ ____ _ ____ _ ____ _ ____
 72
    65
 73
     4
 40
10.16
 49
6.35
 74
     0
 49
-1.27
 74
     0
 49
1.27
 74
     0
 49
-1.27
 74
     0
  0
LTYPE
  5
42
330
5
100
AcDbSymbolTableRecord
100
AcDbLinetypeTableRecord
  2
CENTERX2
 70
     0
  3
Center (2x) ________  __  ________  __  _____
 72
    65
 73
     4
 40
20.32
 49
12.7
 74
     0
 49
-2.54
 74
     0
 49
2.54
 74
     0
 49
-2.54
 74
     0
  0
LTYPE
  5
43
330
5
100
AcDbSymbolTableRecord
100
AcDbLinetypeTableRecord
  2
DOT2
 70
     0
  3
Dot (.5x) ........................................
 72
    65
 73
     2
 40
0.635
 49
0.0
 74
     0
 49
-0.635
 74
     0
  0
ENDTAB
  0
TABLE
  2
LAYER
  5
2
330
0
100
AcDbSymbolTable
 70
     1
  0
LAYER
  5
10
330
2
100
AcDbSymbolTableRecord
100
AcDbLayerTableRecord
  2
0
 70
     0
 62
     7
  6
Continuous
370
    -3
390
F
  0
ENDTAB
  0
TABLE
  2
STYLE
  5
3
330
0
100
AcDbSymbolTable
 70
     1
  0
STYLE
  5
11
330
3
100
AcDbSymbolTableRecord
100
AcDbTextStyleTableRecord
  2
Standard
 70
     0
 40
0.0
 41
1.0
 50
0.0
 71
     0
 42
3.5
  3
txt
  4

  0
ENDTAB
  0
TABLE
  2
VIEW
  5
6
330
0
100
AcDbSymbolTable
 70
     0
  0
ENDTAB
  0
TABLE
  2
UCS
  5
7
330
0
100
AcDbSymbolTable
 70
     0
  0
ENDTAB
  0
TABLE
  2
APPID
  5
9
330
0
100
AcDbSymbolTable
 70
     1
  0
APPID
  5
12
330
9
100
AcDbSymbolTableRecord
100
AcDbRegAppTableRecord
  2
ACAD
 70
     0
  0
ENDTAB
  0
TABLE
  2
DIMSTYLE
  5
A
330
0
100
AcDbSymbolTable
 70
     1
100
AcDbDimStyleTable
  0
DIMSTYLE
105
27
330
A
100
AcDbSymbolTableRecord
100
AcDbDimStyleTableRecord
  2
ISO-25
 70
     0
 41
2.5
 42
0.625
 43
3.75
 44
1.25
 73
     0
 74
     0
 77
     1
 78
     8
140
2.5
141
2.5
143
0.0393700787
147
0.625
171
     3
172
     1
178
     0
271
     2
272
     2
274
     3
278
    44
283
     0
284
     8
340
11
  0
ENDTAB
  0
TABLE
  2
BLOCK_RECORD
  5
1
330
0
100
AcDbSymbolTable
 70
     1
  0
BLOCK_RECORD
  5
1F
330
1
100
AcDbSymbolTableRecord
100
AcDbBlockTableRecord
  2
*Model_Space
340
22
  0
BLOCK_RECORD
  5
1B
330
1
100
AcDbSymbolTableRecord
100
AcDbBlockTableRecord
  2
*Paper_Space
340
1E
  0
BLOCK_RECORD
  5
23
330
1
100
AcDbSymbolTableRecord
100
AcDbBlockTableRecord
  2
*Paper_Space0
340
26
  0
ENDTAB
  0
ENDSEC
  0
SECTION
  2
BLOCKS
  0
BLOCK
  5
20
330
1F
100
AcDbEntity
  8
0
100
AcDbBlockBegin
  2
*Model_Space
 70
     0
 10
0.0
 20
0.0
 30
0.0
  3
*Model_Space
  1

  0
ENDBLK
  5
21
330
1F
100
AcDbEntity
  8
0
100
AcDbBlockEnd
  0
BLOCK
  5
1C
330
1B
100
AcDbEntity
 67
     1
  8
0
100
AcDbBlockBegin
  2
*Paper_Space
 70
     0
 10
0.0
 20
0.0
 30
0.0
  3
*Paper_Space
  1

  0
ENDBLK
  5
1D
330
1B
100
AcDbEntity
 67
     1
  8
0
100
AcDbBlockEnd
  0
BLOCK
  5
24
330
23
100
AcDbEntity
  8
0
100
AcDbBlockBegin
  2
*Paper_Space0
 70
     0
 10
0.0
 20
0.0
 30
0.0
  3
*Paper_Space0
  1

  0
ENDBLK
  5
25
330
23
100
AcDbEntity
  8
0
100
AcDbBlockEnd
  0
ENDSEC
  0
SECTION
  2
ENTITIES
  0
LINE
  5
44
330
1F
100
AcDbEntity
  8
0
  6
Continuous
 62
     7
100
AcDbLine
 10
734.5762159385
 20
608.6067921398
 30
0.0
 11
733.3141981052
 21
611.3131981171
 31
0.0
  0
LINE
  5
45
330
1F
100
AcDbEntity
  8
0
  6
CENTERX2
 62
     7
100
AcDbLine
 10
751.4392733539
 20
566.5283448535
 30
0.0
 11
752.4909548817
 21
564.2730065391
 31
0.0
  0
LINE
  5
46
330
1F
100
AcDbEntity
  8
0
  6
CENTERX2
 62
     7
100
AcDbLine
 10
730.7309785286
 20
610.9374264183
 30
0.0
 11
731.7826600564
 21
608.6820881039
 31
0.0
  0
LINE
  5
47
330
1F
100
AcDbEntity
  8
0
  6
Continuous
 62
     7
100
AcDbLine
 10
734.5762159385
 20
608.6067921398
 30
0.0
 11
733.3141981052
 21
611.3131981171
 31
0.0
  0
LINE
  5
48
330
1F
100
AcDbEntity
  8
0
  6
CENTERX2
 62
     7
100
AcDbLine
 10
751.4392733539
 20
566.5283448535
 30
0.0
 11
752.4909548817
 21
564.2730065391
 31
0.0
  0
LINE
  5
49
330
1F
100
AcDbEntity
  8
0
  6
CENTERX2
 62
     7
100
AcDbLine
 10
730.7309785286
 20
610.9374264183
 30
0.0
 11
731.7826600564
 21
608.6820881039
 31
0.0
  0
LINE
  5
4A
330
1F
100
AcDbEntity
  8
0
  6
Continuous
 62
     7
100
AcDbLine
 10
734.5762159385
 20
608.6067921398
 30
0.0
 11
733.3141981052
 21
611.3131981171
 31
0.0
  0
LINE
  5
4B
330
1F
100
AcDbEntity
  8
0
  6
CENTERX2
 62
     7
100
AcDbLine
 10
751.4392733539
 20
566.5283448535
 30
0.0
 11
752.4909548817
 21
564.2730065391
 31
0.0
  0
LINE
  5
4C
330
1F
100
AcDbEntity
  8
0
  6
CENTERX2
 62
     7
100
AcDbLine
 10
730.7309785286
 20
610.9374264183
 30
0.0
 11
731.7826600564
 21
608.6820881039
 31
0.0
  0
LINE
  5
4D
330
1F
100
AcDbEntity
  8
0
  6
Continuous
 62
     7
100
AcDbLine
 10
734.5762159385
 20
608.6067921398
 30
0.0
 11
733.3141981052
 21
611.3131981171
 31
0.0
  0
LINE
  5
4E
330
1F
100
AcDbEntity
  8
0
  6
CENTERX2
 62
     7
100
AcDbLine
 10
751.4392733539
 20
566.5283448535
 30
0.0
 11
752.4909548817
 21
564.2730065391
 31
0.0
  0
LINE
  5
4F
330
1F
100
AcDbEntity
  8
0
  6
CENTERX2
 62
     7
100
AcDbLine
 10
730.7309785286
 20
610.9374264183
 30
0.0
 11
731.7826600564
 21
608.6820881039
 31
0.0
  0
ARC
  5
50
330
1F
100
AcDbEntity
  8
0
  6
Continuous
 62
     7
370
    15
100
AcDbCircle
 10
319.1493771214
 20
670.6782956985
 30
0.0
 40
1.0
100
AcDbArc
 50
90.0
 51
180.0
  0
ARC
  5
51
330
1F
100
AcDbEntity
  8
0
  6
Continuous
 62
     7
370
    15
100
AcDbCircle
 10
326.6493771214
 20
670.6782956985
 30
0.0
 40
1.0
100
AcDbArc
 50
0.0
 51
90.0
  0
LINE
  5
52
330
1F
100
AcDbEntity
  8
0
  6
Continuous
 62
     7
370
    15
100
AcDbLine
 10
327.6493771214
 20
665.9282956985
 30
0.0
 11
327.6493771214
 21
670.6782956985
 31
0.0
  0
LINE
  5
53
330
1F
100
AcDbEntity
  8
0
  6
Continuous
 62
     7
370
    15
100
AcDbLine
 10
318.1493771214
 20
670.6782956985
 30
0.0
 11
318.1493771214
 21
665.9282956985
 31
0.0
  0
LINE
  5
54
330
1F
100
AcDbEntity
  8
0
  6
Continuous
 62
     7
370
    15
100
AcDbLine
 10
316.9965028905
 20
523.8282957027
 30
0.0
 11
316.9965028905
 21
519.2282957027
 31
0.0
  0
LINE
  5
55
330
1F
100
AcDbEntity
  8
0
  6
Continuous
 62
     7
370
    15
100
AcDbLine
 10
331.8465028905
 20
519.2282957027
 30
0.0
 11
331.8465028905
 21
523.8282957027
 31
0.0
  0
LINE
  5
56
330
1F
100
AcDbEntity
  8
0
  6
Continuous
 62
     7
370
    15
100
AcDbLine
 10
316.9965028905
 20
526.9782957027
 30
0.0
 11
316.9965028905
 21
525.7782957027
 31
0.0
  0
LINE
  5
57
330
1F
100
AcDbEntity
  8
0
  6
Continuous
 62
     7
370
    15
100
AcDbLine
 10
331.8465028905
 20
525.7782957027
 30
0.0
 11
331.8465028905
 21
526.9782957027
 31
0.0
  0
ARC
  5
58
330
1F
100
AcDbEntity
  8
0
  6
Continuous
 62
     7
370
    15
100
AcDbCircle
 10
319.4965028905
 20
519.2282957027
 30
0.0
 40
2.5
100
AcDbArc
 50
180.0
 51
270.0
  0
ARC
  5
59
330
1F
100
AcDbEntity
  8
0
  6
Continuous
 62
     7
370
    15
100
AcDbCircle
 10
329.3465028905
 20
519.2282957027
 30
0.0
 40
2.5
100
AcDbArc
 50
270.0
 51
0.0
  0
LINE
  5
5A
330
1F
100
AcDbEntity
  8
0
  6
Continuous
 62
     7
370
    15
100
AcDbLine
 10
331.4215028905
 20
526.9782957027
 30
0.0
 11
331.4215028905
 21
529.7282957027
 31
0.0
  0
LINE
  5
5B
330
1F
100
AcDbEntity
  8
0
  6
Continuous
 62
     7
370
    15
100
AcDbLine
 10
317.4215028905
 20
529.7282957027
 30
0.0
 11
317.4215028905
 21
526.9782957027
 31
0.0
  0
LINE
  5
5C
330
1F
100
AcDbEntity
  8
0
  6
Continuous
 62
     7
370
    15
100
AcDbLine
 10
330.9215028905
 20
529.7282957027
 30
0.0
 11
330.9215028905
 21
530.7282957027
 31
0.0
  0
LINE
  5
5D
330
1F
100
AcDbEntity
  8
0
  6
Continuous
 62
     7
370
    15
100
AcDbLine
 10
317.9215028905
 20
530.7282957027
 30
0.0
 11
317.9215028905
 21
529.7282957027
 31
0.0
  0
LINE
  5
5E
330
1F
100
AcDbEntity
  8
0
  6
Continuous
 62
     7
370
    15
100
AcDbLine
 10
332.7965028905
 20
530.7282957027
 30
0.0
 11
332.7965028905
 21
532.3282957027
 31
0.0
  0
LINE
  5
5F
330
1F
100
AcDbEntity
  8
0
  6
Continuous
 62
     7
370
    15
100
AcDbLine
 10
316.0465028905
 20
532.3282957027
 30
0.0
 11
316.0465028905
 21
530.7282957027
 31
0.0
  0
ARC
  5
60
330
1F
100
AcDbEntity
  8
0
  6
Continuous
 62
     7
370
    15
100
AcDbCircle
 10
737.8314111472
 20
603.9922050703
 30
0.0
 40
1.000000000000025
100
AcDbArc
 50
205.0
 51
292.0
  0
ARC
  5
61
330
1F
100
AcDbEntity
  8
0
  6
Continuous
 62
     7
370
    15
100
AcDbCircle
 10
747.9311124167
 20
582.3333258027
 30
0.0
 40
0.9999999999999208
100
AcDbArc
 50
118.0
 51
205.0
  0
LINE
  5
62
330
1F
100
AcDbEntity
  8
0
  6
Continuous
 62
     7
370
    15
100
AcDbLine
 10
747.4616408539
 20
583.2162733955
 30
0.0
 11
747.9499938278
 21
583.4759352777
 31
0.0
  0
LINE
  5
63
330
1F
100
AcDbEntity
  8
0
  6
Continuous
 62
     7
370
    15
100
AcDbLine
 10
738.7188375233
 20
603.2722138571
 30
0.0
 11
738.2060177406
 21
603.0650212158
 31
0.0
  0
LINE
  5
64
330
1F
100
AcDbEntity
  8
0
  6
Continuous
 62
     7
370
    15
100
AcDbLine
 10
753.4442780339
 20
562.2285984417
 30
0.0
 11
753.6653178595
 21
562.3461274018
 31
0.0
  0
LINE
  5
65
330
1F
100
AcDbEntity
  8
0
  6
Continuous
 62
     7
370
    15
100
AcDbLine
 10
751.0672032382
 20
566.3797711584
 30
0.0
 11
751.0566692746
 21
566.374633401
 31
0.0
  0
LINE
  5
66
330
1F
100
AcDbEntity
  8
0
  6
Continuous
 62
     7
370
    15
100
AcDbLine
 10
752.127271916
 20
564.0787186274
 30
0.0
 11
752.1379787678
 21
564.0834856249
 31
0.0
  0
LINE
  5
67
330
1F
100
AcDbEntity
  8
0
  6
Continuous
 62
     7
370
    15
100
AcDbLine
 10
730.3589084129
 20
610.7888527232
 30
0.0
 11
730.3483744493
 21
610.7837149658
 31
0.0
  0
LINE
  5
68
330
1F
100
AcDbEntity
  8
0
  6
Continuous
 62
     7
370
    15
100
AcDbLine
 10
731.4189770907
 20
608.4878001922
 30
0.0
 11
731.4296839425
 21
608.4925671897
 31
0.0
  0
LINE
  5
69
330
1F
100
AcDbEntity
  8
0
  6
Continuous
 62
     7
370
    15
100
AcDbLine
 10
741.8105496416
 20
588.3603102818
 30
0.0
 11
743.1535827684
 21
589.6210192174
 31
0.0
  0
LINE
  5
6A
330
1F
100
AcDbEntity
  8
0
  6
Continuous
 62
     7
370
    15
100
AcDbLine
 10
740.3431713279
 20
595.6479660012
 30
0.0
 11
738.5141272
 21
595.4295110207
 31
0.0
  0
LINE
  5
6B
330
1F
100
AcDbEntity
  8
0
  6
Continuous
 62
     7
370
    15
100
AcDbLine
 10
740.2230136756
 20
589.6074828075
 30
0.0
 11
740.2237293284
 21
589.6336760003
 31
0.0
  0
LINE
  5
6C
330
1F
100
AcDbEntity
  8
0
  6
Continuous
 62
     7
370
    15
100
AcDbLine
 10
738.4695934966
 20
593.3954324311
 30
0.0
 11
738.4490683341
 21
593.4117208691
 31
0.0
  0
LINE
  5
6D
330
1F
100
AcDbEntity
  8
0
  6
Continuous
 62
     7
370
    15
100
AcDbLine
 10
750.2019624288
 20
578.6465730281
 30
0.0
 11
753.8882648405
 21
582.5722799108
 31
0.0
  0
LINE
  5
6E
330
1F
100
AcDbEntity
  8
0
  6
Continuous
 62
     7
370
    15
100
AcDbLine
 10
741.8436443809
 20
608.4020518414
 30
0.0
 11
736.4668689223
 21
608.1015761067
 31
0.0
  0
LINE
  5
6F
330
1F
100
AcDbEntity
  8
0
  6
Continuous
 62
     7
370
    15
100
AcDbLine
 10
753.8882648405
 20
582.5722799108
 30
0.0
 11
760.8384328882
 21
590.6320142483
 31
0.0
  0
LINE
  5
70
330
1F
100
AcDbEntity
  8
0
  6
Continuous
 62
     7
370
    15
100
AcDbLine
 10
742.0936216729
 20
608.4054213361
 30
0.0
 11
741.8436443809
 21
608.4020518414
 31
0.0
  0
ARC
  5
71
330
1F
100
AcDbEntity
  8
0
  6
Continuous
 62
     7
370
    15
100
AcDbCircle
 10
760.4597771963
 20
590.9585412257
 30
0.0
 40
0.4999999999999277
100
AcDbArc
 50
319.227745318
 51
25.0
  0
LINE
  5
72
330
1F
100
AcDbEntity
  8
0
  6
Continuous
 62
     7
370
    15
100
AcDbLine
 10
742.3260652066
 20
585.097474245
 30
0.0
 11
742.3366856143
 21
585.1024266224
 31
0.0
  0
LINE
  5
73
330
1F
100
AcDbEntity
  8
0
  6
Continuous
 62
     7
370
    15
100
AcDbLine
 10
748.4435194965
 20
572.0062790997
 30
0.0
 11
748.4328990888
 21
572.0013267223
 31
0.0
  0
LINE
  5
74
330
1F
100
AcDbEntity
  8
0
  6
Continuous
 62
     7
370
    15
100
AcDbLine
 10
750.7784304415
 20
566.9713185043
 30
0.0
 11
750.7890508491
 21
566.9762708817
 31
0.0
  0
LINE
  5
75
330
1F
100
AcDbEntity
  8
0
  6
Continuous
 62
     7
370
    15
100
AcDbLine
 10
733.2056700401
 20
604.6839527127
 30
0.0
 11
733.1950496324
 21
604.6790003353
 31
0.0
  0
LINE
  5
76
330
1F
100
AcDbEntity
  8
0
  6
Continuous
 62
     7
370
    15
100
AcDbLine
 10
741.3468302916
 20
588.1716588456
 30
0.0
 11
741.7999841851
 21
588.3829679765
 31
0.0
  0
LINE
  5
77
330
1F
100
AcDbEntity
  8
0
  6
Continuous
 62
     7
370
    15
100
AcDbLine
 10
738.5246926566
 20
595.406853326
 30
0.0
 11
738.0715387631
 21
595.1955441952
 31
0.0
  0
LINE
  5
78
330
1F
100
AcDbEntity
  8
0
  6
Continuous
 62
     7
370
    15
100
AcDbLine
 10
746.0340147745
 20
577.1457507357
 30
0.0
 11
746.0347304273
 21
577.1719439285
 31
0.0
  0
LINE
  5
79
330
1F
100
AcDbEntity
  8
0
  6
Continuous
 62
     7
370
    15
100
AcDbLine
 10
744.2805945955
 20
580.9337003594
 30
0.0
 11
744.260069433
 21
580.9499887973
 31
0.0
  0
LINE
  5
7A
330
1F
100
AcDbEntity
  8
0
  6
Continuous
 62
     7
370
    15
100
AcDbLine
 10
321.3993771214
 20
664.9282957027
 30
0.0
 11
321.3993771214
 21
664.7782957027
 31
0.0
  0
LINE
  5
7B
330
1F
100
AcDbEntity
  8
0
  6
Continuous
 62
     7
370
    15
100
AcDbLine
 10
324.3993771214
 20
664.7782957027
 30
0.0
 11
324.3993771214
 21
664.9282957027
 31
0.0
  0
LINE
  5
7C
330
1F
100
AcDbEntity
  8
0
  6
Continuous
 62
     7
370
    15
100
AcDbLine
 10
324.4273380308
 20
664.7782957027
 30
0.0
 11
324.4273380308
 21
664.9282957027
 31
0.0
  0
ARC
  5
7D
330
1F
100
AcDbEntity
  8
0
  6
Continuous
 62
     7
370
    15
100
AcDbCircle
 10
321.6965028906
 20
526.0532957027
 30
0.0
 40
0.125
100
AcDbArc
 50
180.0
 51
209.4734267879
  0
LINE
  5
7E
330
1F
100
AcDbEntity
  8
0
  6
Continuous
 62
     7
370
    15
100
AcDbLine
 10
321.5715028906
 20
526.4032957027
 30
0.0
 11
321.5715028906
 21
526.0532957027
 31
0.0
  0
SPLINE
  5
7F
330
1F
100
AcDbEntity
  8
0
  6
Continuous
 62
     7
370
    15
100
AcDbSpline
210
0.0
220
0.0
230
1.0
 70
     8
 71
     3
 72
    13
 73
     9
 74
     0
 42
0.00000001
 43
0.00000001
 12
1.0
 22
0.0
 32
0.0
 13
1.0
 23
0.0
 33
0.0
 40
0.0
 40
0.0
 40
0.0
 40
0.0
 40
0.0546880530917203
 40
0.2134688124194069
 40
0.3745771152288606
 40
0.5445034158422349
 40
0.7475374221074113
 40
1.0
 40
1.0
 40
1.0
 40
1.0
 10
327.8986403459899
 20
526.6532496701395
 30
0.0
 10
327.8988873249333
 20
526.6484578064316
 30
0.0
 10
327.8998513801295
 20
526.6297532924256
 30
0.0
 10
327.8928342060705
 20
526.5978304260913
 30
0.0
 10
327.8790138339216
 20
526.5641349166019
 30
0.0
 10
327.8605608461348
 20
526.5403369087488
 30
0.0
 10
327.8431723947603
 20
526.5288996625105
 30
0.0
 10
327.8372573085167
 20
526.5286726924912
 30
0.0
 10
327.8339788252669
 20
526.5285468925663
 30
0.0
  0
LINE
  5
80
330
1F
100
AcDbEntity
  8
0
  6
Continuous
 62
     7
370
    15
100
AcDbLine
 10
327.8995777654
 20
529.2032957027
 30
0.0
 11
327.8995777654
 21
526.6532957027
 31
0.0
  0
ARC
  5
81
330
1F
100
AcDbEntity
  8
0
  6
Continuous
 62
     7
370
    15
100
AcDbCircle
 10
328.0245777654
 20
529.2032957027
 30
0.0
 40
0.1250000000001137
100
AcDbArc
 50
90.0
 51
180.0
  0
ARC
  5
82
330
1F
100
AcDbEntity
  8
0
  6
Continuous
 62
     7
370
    15
100
AcDbCircle
 10
330.374562965
 20
529.2032957027
 30
0.0
 40
0.1250000000001137
100
AcDbArc
 50
0.0
 51
90.0
  0
LINE
  5
83
330
1F
100
AcDbEntity
  8
0
  6
Continuous
 62
     7
370
    15
100
AcDbLine
 10
330.499562965
 20
526.6532957027
 30
0.0
 11
330.499562965
 21
529.2032957027
 31
0.0
  0
ARC
  5
84
330
1F
100
AcDbEntity
  8
0
  6
Continuous
 62
     7
370
    15
100
AcDbCircle
 10
330.1465028906
 20
526.0532957027
 30
0.0
 40
0.125
100
AcDbArc
 50
270.0
 51
0.0
  0
LINE
  5
85
330
1F
100
AcDbEntity
  8
0
  6
Continuous
 62
     7
370
    15
100
AcDbLine
 10
321.3434428161
 20
529.2032957027
 30
0.0
 11
321.3434428161
 21
526.6532957027
 31
0.0
  0
ARC
  5
86
330
1F
100
AcDbEntity
  8
0
  6
Continuous
 62
     7
370
    15
100
AcDbCircle
 10
321.4684428161
 20
529.2032957027
 30
0.0
 40
0.1250000000001137
100
AcDbArc
 50
90.0
 51
180.0
  0
SPLINE
  5
87
330
1F
100
AcDbEntity
  8
0
  6
Continuous
 62
     7
370
    15
100
AcDbSpline
210
0.0
220
0.0
230
1.0
 70
     8
 71
     3
 72
    13
 73
     9
 74
     0
 42
0.00000001
 43
0.00000001
 12
1.0
 22
0.0
 32
0.0
 13
1.0
 23
0.0
 33
0.0
 40
0.0
 40
0.0
 40
0.0
 40
0.0
 40
0.0634888169690809
 40
0.2470479163431174
 40
0.4311284030625611
 40
0.6187780680139809
 40
0.8315552681851062
 40
0.9999999999999999
 40
0.9999999999999999
 40
0.9999999999999999
 40
0.9999999999999999
 10
324.366924609907
 20
526.4033501478416
 30
0.0
 10
324.3666884439908
 20
526.4084631789182
 30
0.0
 10
324.3657694743158
 20
526.4283590241079
 30
0.0
 10
324.372441982786
 20
526.4621387458529
 30
0.0
 10
324.3854159553404
 20
526.4971885026392
 30
0.0
 10
324.4014000121722
 20
526.5204225843333
 30
0.0
 10
324.4129076542506
 20
526.5284358971012
 30
0.0
 10
324.4125364088654
 20
526.5280856081769
 30
0.0
 10
324.4123723723184
 20
526.5279308313422
 30
0.0
  0
LINE
  5
88
330
1F
100
AcDbEntity
  8
0
  6
Continuous
 62
     7
370
    15
100
AcDbLine
 10
324.3660269787
 20
523.8532957027
 30
0.0
 11
324.3660269787
 21
526.4032957027
 31
0.0
  0
ARC
  5
89
330
1F
100
AcDbEntity
  8
0
  6
Continuous
 62
     7
370
    15
100
AcDbCircle
 10
324.2410269787
 20
523.8532957027
 30
0.0
 40
0.125
100
AcDbArc
 50
270.0
 51
0.0
  0
ARC
  5
8A
330
1F
100
AcDbEntity
  8
0
  6
Continuous
 62
     7
370
    15
100
AcDbCircle
 10
321.7126798926
 20
523.8532957027
 30
0.0
 40
0.125
100
AcDbArc
 50
180.0
 51
270.0
  0
LINE
  5
8B
330
1F
100
AcDbEntity
  8
0
  6
Continuous
 62
     7
370
    15
100
AcDbLine
 10
321.5876798926
 20
526.4032957027
 30
0.0
 11
321.5876798926
 21
523.8532957027
 31
0.0
  0
ARC
  5
8C
330
1F
100
AcDbEntity
  8
0
  6
Continuous
 62
     7
370
    15
100
AcDbCircle
 10
321.6965028906
 20
526.6532957027
 30
0.0
 40
0.125
100
AcDbArc
 50
180.0
 51
232.7089330724
  0
ARC
  5
8D
330
1F
100
AcDbEntity
  8
0
  6
Continuous
 62
     7
370
    15
100
AcDbCircle
 10
321.6965028906
 20
527.0032957027
 30
0.0
 40
0.125
100
AcDbArc
 50
90.0
 51
180.0
  0
LINE
  5
8E
330
1F
100
AcDbEntity
  8
0
  6
Continuous
 62
     7
370
    15
100
AcDbLine
 10
321.5715028906
 20
527.0032957027
 30
0.0
 11
321.5715028906
 21
526.6532957027
 31
0.0
  0
ARC
  5
8F
330
1F
100
AcDbEntity
  8
0
  6
Continuous
 62
     7
370
    15
100
AcDbCircle
 10
330.1303258885
 20
523.8532957027
 30
0.0
 40
0.125
100
AcDbArc
 50
270.0
 51
0.0
  0
LINE
  5
90
330
1F
100
AcDbEntity
  8
0
  6
Continuous
 62
     7
370
    15
100
AcDbLine
 10
330.2553258885
 20
523.8532957027
 30
0.0
 11
330.2553258885
 21
525.9917932221
 31
0.0
  0
LINE
  5
91
330
1F
100
AcDbEntity
  8
0
  6
Continuous
 62
     7
370
    15
100
AcDbLine
 10
323.3768773157
 20
529.8790602904
 30
0.0
 11
323.4215028906
 21
529.8532957027
 31
0.0
  0
LINE
  5
92
330
1F
100
AcDbEntity
  8
0
  6
Continuous
 62
     7
370
    15
100
AcDbLine
 10
328.4215028906
 20
529.8532957027
 30
0.0
 11
328.4661284654
 21
529.8790602904
 31
0.0
  0
LINE
  5
93
330
1F
100
AcDbEntity
  8
0
  6
Continuous
 62
     7
370
    15
100
AcDbLine
 10
323.1906571886
 20
523.4615745308
 30
0.0
 11
323.4215028906
 21
523.3282957027
 31
0.0
  0
LINE
  5
94
330
1F
100
AcDbEntity
  8
0
  6
Continuous
 62
     7
370
    15
100
AcDbLine
 10
328.6523485925
 20
525.7950168745
 30
0.0
 11
328.4215028906
 21
525.9282957027
 31
0.0
  0
LINE
  5
95
330
1F
100
AcDbEntity
  8
0
  6
Continuous
 62
     7
370
    15
100
AcDbLine
 10
328.4215028906
 20
523.3282957027
 30
0.0
 11
328.6523485925
 21
523.4615745308
 31
0.0
  0
LINE
  5
96
330
1F
100
AcDbEntity
  8
0
  6
Continuous
 62
     7
370
    15
100
AcDbLine
 10
328.5451934173
 20
529.6568829438
 30
0.0
 11
328.4215028906
 21
529.7282957027
 31
0.0
  0
LINE
  5
97
330
1F
100
AcDbEntity
  8
0
  6
Continuous
 62
     7
370
    15
100
AcDbLine
 10
323.4215028906
 20
529.7282957027
 30
0.0
 11
323.2978123638
 21
529.6568829438
 31
0.0
  0
LINE
  5
98
330
1F
100
AcDbEntity
  8
0
  6
Continuous
 62
     7
370
    15
100
AcDbLine
 10
323.2978123638
 20
527.1997084616
 30
0.0
 11
323.4215028906
 21
527.1282957027
 31
0.0
  0
LINE
  5
99
330
1F
100
AcDbEntity
  8
0
  6
Continuous
 62
     7
370
    15
100
AcDbLine
 10
324.4215028906
 20
529.8532957027
 30
0.0
 11
324.4215028906
 21
529.7282957027
 31
0.0
  0
LINE
  5
9A
330
1F
100
AcDbEntity
  8
0
  6
Continuous
 62
     7
370
    15
100
AcDbLine
 10
327.4215028906
 20
529.7282957027
 30
0.0
 11
327.4215028906
 21
529.8532957027
 31
0.0
  0
ARC
  5
9B
330
1F
100
AcDbEntity
  8
0
  6
Continuous
 62
     7
370
    15
100
AcDbCircle
 10
676.9215028905
 20
483.4782957027
 30
0.0
 40
1.0
100
AcDbArc
 50
270.0
 51
0.0
  0
ARC
  5
9C
330
1F
100
AcDbEntity
  8
0
  6
Continuous
 62
     7
370
    15
100
AcDbCircle
 10
650.4215028905
 20
483.4782957027
 30
0.0
 40
1.0
100
AcDbArc
 50
180.0
 51
270.0
  0
LINE
  5
9D
330
1F
100
AcDbEntity
  8
0
  6
Continuous
 62
     7
370
    15
100
AcDbLine
 10
677.9215028905
 20
483.4782957027
 30
0.0
 11
677.9215028905
 21
485.4782957027
 31
0.0
  0
LINE
  5
9E
330
1F
100
AcDbEntity
  8
0
  6
Continuous
 62
     7
370
    15
100
AcDbLine
 10
649.4215028905
 20
485.4782957027
 30
0.0
 11
649.4215028905
 21
483.4782957027
 31
0.0
  0
ARC
  5
9F
330
1F
100
AcDbEntity
  8
0
  6
Continuous
 62
     7
370
    15
100
AcDbCircle
 10
387.4215028906
 20
483.4782957027
 30
0.0
 40
1.0
100
AcDbArc
 50
270.0
 51
0.0
  0
ARC
  5
A0
330
1F
100
AcDbEntity
  8
0
  6
Continuous
 62
     7
370
    15
100
AcDbCircle
 10
360.9215028906
 20
483.4782957027
 30
0.0
 40
1.0
100
AcDbArc
 50
180.0
 51
270.0
  0
LINE
  5
A1
330
1F
100
AcDbEntity
  8
0
  6
Continuous
 62
     7
370
    15
100
AcDbLine
 10
388.4215028906
 20
483.4782957027
 30
0.0
 11
388.4215028906
 21
485.4782957027
 31
0.0
  0
LINE
  5
A2
330
1F
100
AcDbEntity
  8
0
  6
Continuous
 62
     7
370
    15
100
AcDbLine
 10
359.9215028906
 20
485.4782957027
 30
0.0
 11
359.9215028906
 21
483.4782957027
 31
0.0
  0
LINE
  5
A3
330
1F
100
AcDbEntity
  8
0
  6
Continuous
 62
     7
370
    15
100
AcDbLine
 10
388.3215028905
 20
485.4782957027
 30
0.0
 11
388.3215028905
 21
499.9782957027
 31
0.0
  0
LINE
  5
A4
330
1F
100
AcDbEntity
  8
0
  6
Continuous
 62
     7
370
    15
100
AcDbLine
 10
360.0215028906
 20
499.9782957027
 30
0.0
 11
360.0215028906
 21
485.4782957027
 31
0.0
  0
LINE
  5
A5
330
1F
100
AcDbEntity
  8
0
  6
Continuous
 62
     7
370
    15
100
AcDbLine
 10
677.8215028905
 20
485.4782957027
 30
0.0
 11
677.8215028905
 21
499.9782957027
 31
0.0
  0
LINE
  5
A6
330
1F
100
AcDbEntity
  8
0
  6
Continuous
 62
     7
370
    15
100
AcDbLine
 10
649.5215028905
 20
499.9782957027
 30
0.0
 11
649.5215028905
 21
485.4782957027
 31
0.0
  0
ARC
  5
A7
330
1F
100
AcDbEntity
  8
0
  6
Continuous
 62
     7
370
    15
100
AcDbCircle
 10
680.3715028906
 20
530.7282957027
 30
0.0
 40
0.75
100
AcDbArc
 50
90.0
 51
180.0
  0
ARC
  5
A8
330
1F
100
AcDbEntity
  8
0
  6
Continuous
 62
     7
370
    15
100
AcDbCircle
 10
646.9715028906
 20
530.7282957027
 30
0.0
 40
0.75
100
AcDbArc
 50
0.0
 51
90.0
  0
ARC
  5
A9
330
1F
100
AcDbEntity
  8
0
  6
Continuous
 62
     7
370
    15
100
AcDbCircle
 10
677.2715028906
 20
502.9945786755
 30
0.0
 40
2.349999999999909
100
AcDbArc
 50
350.5402980318
 51
0.0
  0
ARC
  5
AA
330
1F
100
AcDbEntity
  8
0
  6
Continuous
 62
     7
370
    15
100
AcDbCircle
 10
650.0715028906
 20
502.9945786755
 30
0.0
 40
2.350000000000108
100
AcDbArc
 50
180.0
 51
189.4597019682
  0
LINE
  5
AB
330
1F
100
AcDbEntity
  8
0
  6
Continuous
 62
     7
370
    15
100
AcDbLine
 10
679.6215028906
 20
502.9945786755
 30
0.0
 11
679.6215028906
 21
530.7282957027
 31
0.0
  0
LINE
  5
AC
330
1F
100
AcDbEntity
  8
0
  6
Continuous
 62
     7
370
    15
100
AcDbLine
 10
647.7215028906
 20
530.7282957027
 30
0.0
 11
647.7215028906
 21
502.9945786755
 31
0.0
  0
LINE
  5
AD
330
1F
100
AcDbEntity
  8
0
  6
Continuous
 62
     7
370
    15
100
AcDbLine
 10
647.753459504
 20
502.6083470633
 30
0.0
 11
648.1916777804
 21
499.9782957027
 31
0.0
  0
LINE
  5
AE
330
1F
100
AcDbEntity
  8
0
  6
Continuous
 62
     7
370
    15
100
AcDbLine
 10
679.1513280007
 20
499.9782957027
 30
0.0
 11
679.5895462771
 21
502.6083470633
 31
0.0
  0
ARC
  5
AF
330
1F
100
AcDbEntity
  8
0
  6
Continuous
 62
     7
370
    15
100
AcDbCircle
 10
390.8715028906
 20
530.7282957027
 30
0.0
 40
0.75
100
AcDbArc
 50
90.0
 51
180.0
  0
ARC
  5
B0
330
1F
100
AcDbEntity
  8
0
  6
Continuous
 62
     7
370
    15
100
AcDbCircle
 10
357.4715028906
 20
530.7282957027
 30
0.0
 40
0.75
100
AcDbArc
 50
0.0
 51
90.0
  0
ARC
  5
B1
330
1F
100
AcDbEntity
  8
0
  6
Continuous
 62
     7
370
    15
100
AcDbCircle
 10
387.7715028906
 20
502.9945786755
 30
0.0
 40
2.349999999999996
100
AcDbArc
 50
350.5402980318
 51
0.0
  0
ARC
  5
B2
330
1F
100
AcDbEntity
  8
0
  6
Continuous
 62
     7
370
    15
100
AcDbCircle
 10
360.5715028905
 20
502.9945786755
 30
0.0
 40
2.350000000000023
100
AcDbArc
 50
180.0
 51
189.4597019682
  0
LINE
  5
B3
330
1F
100
AcDbEntity
  8
0
  6
Continuous
 62
     7
370
    15
100
AcDbLine
 10
390.1215028906
 20
502.9945786755
 30
0.0
 11
390.1215028906
 21
530.7282957027
 31
0.0
  0
LINE
  5
B4
330
1F
100
AcDbEntity
  8
0
  6
Continuous
 62
     7
370
    15
100
AcDbLine
 10
358.2215028905
 20
530.7282957027
 30
0.0
 11
358.2215028905
 21
502.9945786755
 31
0.0
  0
LINE
  5
B5
330
1F
100
AcDbEntity
  8
0
  6
Continuous
 62
     7
370
    15
100
AcDbLine
 10
358.253459504
 20
502.6083470633
 30
0.0
 11
358.6916777804
 21
499.9782957027
 31
0.0
  0
LINE
  5
B6
330
1F
100
AcDbEntity
  8
0
  6
Continuous
 62
     7
370
    15
100
AcDbLine
 10
389.6513280007
 20
499.9782957027
 30
0.0
 11
390.0895462771
 21
502.6083470633
 31
0.0
  0
LINE
  5
B7
330
1F
100
AcDbEntity
  8
0
  6
Continuous
 62
     7
370
    15
100
AcDbLine
 10
736.1717919427
 20
531.8282957027
 30
0.0
 11
710.1717919427
 21
531.8282957027
 31
0.0
  0
LINE
  5
B8
330
1F
100
AcDbEntity
  8
0
  6
Continuous
 62
     7
370
    15
100
AcDbLine
 10
736.6717919427
 20
531.8282957027
 30
0.0
 11
736.1717919427
 21
531.8282957027
 31
0.0
  0
LINE
  5
B9
330
1F
100
AcDbEntity
  8
0
  6
Continuous
 62
     7
370
    15
100
AcDbLine
 10
736.6717919427
 20
531.8907957027
 30
0.0
 11
736.6717919427
 21
531.8282957027
 31
0.0
  0
LINE
  5
BA
330
1F
100
AcDbEntity
  8
0
  6
Continuous
 62
     7
370
    15
100
AcDbLine
 10
709.6717919427
 20
531.8907957027
 30
0.0
 11
709.6717919427
 21
531.8282957027
 31
0.0
  0
LINE
  5
BB
330
1F
100
AcDbEntity
  8
0
  6
Continuous
 62
     7
370
    15
100
AcDbLine
 10
710.1717919427
 20
531.8282957027
 30
0.0
 11
709.6717919427
 21
531.8282957027
 31
0.0
  0
LINE
  5
BC
330
1F
100
AcDbEntity
  8
0
  6
Continuous
 62
     7
370
    15
100
AcDbLine
 10
337.9598570061
 20
682.7016805689
 30
0.0
 11
339.4273380308
 21
665.9282957027
 31
0.0
  0
LINE
  5
BD
330
1F
100
AcDbEntity
  8
0
  6
Continuous
 62
     7
370
    15
100
AcDbLine
 10
306.4273380308
 20
665.9282957027
 30
0.0
 11
308.5115683561
 21
689.7511573319
 31
0.0
  0
LINE
  5
BE
330
1F
100
AcDbEntity
  8
0
  6
Continuous
 62
     7
370
    15
100
AcDbLine
 10
309.7564529414
 20
690.6325847503
 30
0.0
 11
337.2123521951
 21
683.5831079873
 31
0.0
  0
ARC
  5
BF
330
1F
100
AcDbEntity
  8
0
  6
Continuous
 62
     7
370
    15
100
AcDbCircle
 10
336.963662308
 20
682.6145248262
 30
0.0
 40
1.00000000000001
100
AcDbArc
 50
5.0
 51
75.6
  0
ARC
  5
C0
330
1F
100
AcDbEntity
  8
0
  6
Continuous
 62
     7
370
    15
100
AcDbCircle
 10
309.5077630542
 20
689.6640015892
 30
0.0
 40
1.000000000000018
100
AcDbArc
 50
75.6
 51
175.0
  0
ARC
  5
C1
330
1F
100
AcDbEntity
  8
0
  6
Continuous
 62
     7
370
    15
100
AcDbCircle
 10
738.4864406386
 20
537.3282957027
 30
0.0
 40
5.400000000000091
100
AcDbArc
 50
270.0
 51
335.0
  0
ARC
  5
C2
330
1F
100
AcDbEntity
  8
0
  6
Continuous
 62
     7
370
    15
100
AcDbCircle
 10
738.4864406386
 20
537.3282957027
 30
0.0
 40
5.0
100
AcDbArc
 50
270.0
 51
335.0
  0
LINE
  5
C3
330
1F
100
AcDbEntity
  8
0
  6
Continuous
 62
     7
370
    15
100
AcDbLine
 10
726.0347730741
 20
622.4873475052
 30
0.0
 11
732.3562698887
 21
625.4351098808
 31
0.0
  0
LINE
  5
C4
330
1F
100
AcDbEntity
  8
0
  6
Continuous
 62
     7
370
    15
100
AcDbLine
 10
725.8657257694
 20
622.84987062
 30
0.0
 11
732.187222584
 21
625.7976329957
 31
0.0
  0
LINE
  5
C5
330
1F
100
AcDbEntity
  8
0
  6
Continuous
 62
     7
370
    15
100
AcDbLine
 10
709.1717919427
 20
531.9282957027
 30
0.0
 11
738.4864406386
 21
531.9282957027
 31
0.0
  0
LINE
  5
C6
330
1F
100
AcDbEntity
  8
0
  6
Continuous
 62
     7
370
    15
100
AcDbLine
 10
709.1717919427
 20
532.3282957027
 30
0.0
 11
738.4864406386
 21
532.3282957027
 31
0.0
  0
LINE
  5
C7
330
1F
100
AcDbEntity
  8
0
  6
Continuous
 62
     7
370
    15
100
AcDbLine
 10
733.093530371
 20
626.2202512574
 30
0.0
 11
733.2625776757
 21
625.8577281426
 31
0.0
  0
LINE
  5
C8
330
1F
100
AcDbEntity
  8
0
  6
Continuous
 62
     7
370
    15
100
AcDbLine
 10
733.2625776757
 20
625.8577281426
 30
0.0
 11
732.3562698887
 21
625.4351098808
 31
0.0
  0
LINE
  5
C9
330
1F
100
AcDbEntity
  8
0
  6
Continuous
 62
     7
370
    15
100
AcDbLine
 10
732.187222584
 20
625.7976329957
 30
0.0
 11
733.093530371
 21
626.2202512574
 31
0.0
  0
LINE
  5
CA
330
1F
100
AcDbEntity
  8
0
  6
Continuous
 62
     7
370
    15
100
AcDbLine
 10
709.1717919427
 20
531.9282957027
 30
0.0
 11
708.1717919427
 21
531.9282957027
 31
0.0
  0
LINE
  5
CB
330
1F
100
AcDbEntity
  8
0
  6
Continuous
 62
     7
370
    15
100
AcDbLine
 10
708.1717919427
 20
531.9282957027
 30
0.0
 11
708.1717919427
 21
532.3282957027
 31
0.0
  0
LINE
  5
CC
330
1F
100
AcDbEntity
  8
0
  6
Continuous
 62
     7
370
    15
100
AcDbLine
 10
708.1717919427
 20
532.3282957027
 30
0.0
 11
709.1717919427
 21
532.3282957027
 31
0.0
  0
LINE
  5
CD
330
1F
100
AcDbEntity
  8
0
  6
Continuous
 62
     7
370
    15
100
AcDbLine
 10
753.323378819
 20
561.5413870114
 30
0.0
 11
725.369944006
 21
621.48772142
 31
0.0
  0
LINE
  5
CE
330
1F
100
AcDbEntity
  8
0
  6
Continuous
 62
     7
370
    15
100
AcDbLine
 10
753.6859019338
 20
561.7104343161
 30
0.0
 11
725.7324671208
 21
621.6567687247
 31
0.0
  0
ARC
  5
CF
330
1F
100
AcDbEntity
  8
0
  6
Continuous
 62
     7
370
    15
100
AcDbCircle
 10
748.7918398838
 20
559.4282957027
 30
0.0
 40
5.400000000000079
100
AcDbArc
 50
335.0
 51
25.0
  0
ARC
  5
D0
330
1F
100
AcDbEntity
  8
0
  6
Continuous
 62
     7
370
    15
100
AcDbCircle
 10
748.7918398838
 20
559.4282957027
 30
0.0
 40
5.000000000000012
100
AcDbArc
 50
335.0
 51
25.0
  0
ARC
  5
D1
330
1F
100
AcDbEntity
  8
0
  6
Continuous
 62
     7
370
    15
100
AcDbCircle
 10
726.2989094877
 20
621.9209051383
 30
0.0
 40
0.6250000000000402
100
AcDbArc
 50
115.0
 51
205.0
  0
ARC
  5
D2
330
1F
100
AcDbEntity
  8
0
  6
Continuous
 62
     7
370
    15
100
AcDbCircle
 10
726.2989094877
 20
621.9209051383
 30
0.0
 40
1.025000000000052
100
AcDbArc
 50
115.0
 51
205.0
  0
LINE
  5
D3
330
1F
100
AcDbEntity
  8
0
  6
Continuous
 62
     7
370
    15
100
AcDbLine
 10
743.0179795738
 20
535.215204394
 30
0.0
 11
753.323378819
 21
557.315204394
 31
0.0
  0
LINE
  5
D4
330
1F
100
AcDbEntity
  8
0
  6
Continuous
 62
     7
370
    15
100
AcDbLine
 10
743.3805026886
 20
535.0461570893
 30
0.0
 11
753.6859019338
 21
557.1461570893
 31
0.0
  0
LINE
  5
D5
330
1F
100
AcDbEntity
  8
0
  6
Continuous
 62
     7
370
    15
100
AcDbLine
 10
733.1184387477
 20
626.2736674436
 30
0.0
 11
733.093530371
 21
626.2202512574
 31
0.0
  0
ARC
  5
D6
330
1F
100
AcDbEntity
  8
0
  6
Continuous
 62
     7
370
    15
100
AcDbCircle
 10
731.965179034
 20
626.5216258271
 30
0.0
 40
0.7500000000000976
100
AcDbArc
 50
295.0
 51
313.2887754012
  0
ARC
  5
D7
330
1F
100
AcDbEntity
  8
0
  6
Continuous
 62
     7
370
    15
100
AcDbCircle
 10
341.8023380308
 20
657.0532957027
 30
0.0
 40
1.125
100
AcDbArc
 50
180.0
 51
270.0
  0
LWPOLYLINE
  5
D8
330
1F
100
AcDbEntity
  8
0
  6
Continuous
 62
     7
370
    15
100
AcDbPolyline
 90
        3
 70
   128
 43
0.0
 10
340.6773380308
 20
662.8032957027
 10
340.6365067517
 20
663.217862637
 10
340.5523380308
 20
663.5213660335
  0
ARC
  5
D9
330
1F
100
AcDbEntity
  8
0
  6
Continuous
 62
     7
370
    15
100
AcDbCircle
 10
338.5523380308
 20
662.8032957027
 30
0.0
 40
2.124999999999953
100
AcDbArc
 50
61.9275130642
 51
90.0
  0
ARC
  5
DA
330
1F
100
AcDbEntity
  8
0
  6
Continuous
 62
     7
370
    15
100
AcDbCircle
 10
338.5523380308
 20
662.8032957027
 30
0.0
 40
1.124999999999994
100
AcDbArc
 50
27.2968497515
 51
51.5214048668
  0
LINE
  5
DB
330
1F
100
AcDbEntity
  8
0
  6
Continuous
 62
     7
370
    15
100
AcDbLine
 10
334.6773380308
 20
664.7782957027
 30
0.0
 11
334.6773380308
 21
664.9282957027
 31
0.0
  0
LINE
  5
DC
330
1F
100
AcDbEntity
  8
0
  6
Continuous
 62
     7
370
    15
100
AcDbLine
 10
340.6773380308
 20
658.0532957027
 30
0.0
 11
340.6773380308
 21
657.0532957027
 31
0.0
  0
LINE
  5
DD
330
1F
100
AcDbEntity
  8
0
  6
Continuous
 62
     7
370
    15
100
AcDbLine
 10
311.6773380308
 20
655.9282957027
 30
0.0
 11
311.6773380308
 21
656.9282957027
 31
0.0
  0
LINE
  5
DE
330
1F
100
AcDbEntity
  8
0
  6
Continuous
 62
     7
370
    15
100
AcDbLine
 10
311.6773380308
 20
655.9282957027
 30
0.0
 11
310.6773380308
 21
655.9282957027
 31
0.0
  0
LINE
  5
DF
330
1F
100
AcDbEntity
  8
0
  6
Continuous
 62
     7
370
    15
100
AcDbLine
 10
311.6773380308
 20
656.9282957027
 30
0.0
 11
310.6773380308
 21
656.9282957027
 31
0.0
  0
LINE
  5
E0
330
1F
100
AcDbEntity
  8
0
  6
Continuous
 62
     7
370
    15
100
AcDbLine
 10
342.8023380308
 20
655.9282957027
 30
0.0
 11
748.1789101452
 21
655.9282957027
 31
0.0
  0
LINE
  5
E1
330
1F
100
AcDbEntity
  8
0
  6
Continuous
 62
     7
370
    15
100
AcDbLine
 10
342.8023380308
 20
656.9282957027
 30
0.0
 11
748.1789101452
 21
656.9282957027
 31
0.0
  0
ARC
  5
E2
330
1F
100
AcDbEntity
  8
0
  6
Continuous
 62
     7
370
    15
100
AcDbCircle
 10
306.3023380308
 20
663.8032957027
 30
0.0
 40
2.125000000000057
100
AcDbArc
 50
90.0
 51
180.0
  0
ARC
  5
E3
330
1F
100
AcDbEntity
  8
0
  6
Continuous
 62
     7
370
    15
100
AcDbCircle
 10
306.3023380308
 20
663.8032957027
 30
0.0
 40
1.125000000000057
100
AcDbArc
 50
90.0
 51
180.0
  0
ARC
  5
E4
330
1F
100
AcDbEntity
  8
0
  6
Continuous
 62
     7
370
    15
100
AcDbCircle
 10
306.3023380308
 20
658.0532957027
 30
0.0
 40
2.125000000000057
100
AcDbArc
 50
180.0
 51
270.0
  0
ARC
  5
E5
330
1F
100
AcDbEntity
  8
0
  6
Continuous
 62
     7
370
    15
100
AcDbCircle
 10
306.3023380308
 20
658.0532957027
 30
0.0
 40
1.125000000000057
100
AcDbArc
 50
180.0
 51
270.0
  0
LINE
  5
E6
330
1F
100
AcDbEntity
  8
0
  6
Continuous
 62
     7
370
    15
100
AcDbLine
 10
304.1773380308
 20
658.0532957027
 30
0.0
 11
304.1773380308
 21
663.8032957027
 31
0.0
  0
LINE
  5
E7
330
1F
100
AcDbEntity
  8
0
  6
Continuous
 62
     7
370
    15
100
AcDbLine
 10
305.1773380308
 20
658.0532957027
 30
0.0
 11
305.1773380308
 21
663.8032957027
 31
0.0
  0
LINE
  5
E8
330
1F
100
AcDbEntity
  8
0
  6
Continuous
 62
     7
370
    15
100
AcDbLine
 10
306.3023380308
 20
664.9282957027
 30
0.0
 11
339.5523380308
 21
664.9282957027
 31
0.0
  0
LINE
  5
E9
330
1F
100
AcDbEntity
  8
0
  6
Continuous
 62
     7
370
    15
100
AcDbLine
 10
306.3023380308
 20
665.9282957027
 30
0.0
 11
339.5523380308
 21
665.9282957027
 31
0.0
  0
LINE
  5
EA
330
1F
100
AcDbEntity
  8
0
  6
Continuous
 62
     7
370
    15
100
AcDbLine
 10
746.3977096549
 20
632.9112894255
 30
0.0
 11
753.6167568674
 21
648.3925861322
 31
0.0
  0
LINE
  5
EB
330
1F
100
AcDbEntity
  8
0
  6
Continuous
 62
     7
370
    15
100
AcDbLine
 10
745.4914018679
 20
633.3339076873
 30
0.0
 11
752.7104490804
 21
648.815204394
 31
0.0
  0
ARC
  5
EC
330
1F
100
AcDbEntity
  8
0
  6
Continuous
 62
     7
370
    15
100
AcDbCircle
 10
748.1789101452
 20
650.9282957027
 30
0.0
 40
5.00000000000002
100
AcDbArc
 50
335.0
 51
90.0
  0
ARC
  5
ED
330
1F
100
AcDbEntity
  8
0
  6
Continuous
 62
     7
370
    15
100
AcDbCircle
 10
748.1789101452
 20
650.9282957027
 30
0.0
 40
6.000000000000232
100
AcDbArc
 50
335.0
 51
90.0
  0
LINE
  5
EE
330
1F
100
AcDbEntity
  8
0
  6
Continuous
 62
     7
370
    15
100
AcDbLine
 10
310.6773380308
 20
656.9282957027
 30
0.0
 11
306.3023380308
 21
656.9282957027
 31
0.0
  0
LINE
  5
EF
330
1F
100
AcDbEntity
  8
0
  6
Continuous
 62
     7
370
    15
100
AcDbLine
 10
310.6773380308
 20
655.9282957027
 30
0.0
 11
306.3023380308
 21
655.9282957027
 31
0.0
  0
ARC
  5
F0
330
1F
100
AcDbEntity
  8
0
  6
Continuous
 62
     7
370
    15
100
AcDbCircle
 10
342.8023380308
 20
658.0532957027
 30
0.0
 40
2.124999999999943
100
AcDbArc
 50
180.0
 51
270.0
  0
ARC
  5
F1
330
1F
100
AcDbEntity
  8
0
  6
Continuous
 62
     7
370
    15
100
AcDbCircle
 10
342.8023380308
 20
658.0532957027
 30
0.0
 40
1.124999999999943
100
AcDbArc
 50
180.0
 51
270.0
  0
ARC
  5
F2
330
1F
100
AcDbEntity
  8
0
  6
Continuous
 62
     7
370
    15
100
AcDbCircle
 10
339.5523380308
 20
663.8032957027
 30
0.0
 40
2.125
100
AcDbArc
 50
0.0
 51
90.0
  0
ARC
  5
F3
330
1F
100
AcDbEntity
  8
0
  6
Continuous
 62
     7
370
    15
100
AcDbCircle
 10
339.5523380308
 20
663.8032957027
 30
0.0
 40
1.125
100
AcDbArc
 50
0.0
 51
90.0
  0
LINE
  5
F4
330
1F
100
AcDbEntity
  8
0
  6
Continuous
 62
     7
370
    15
100
AcDbLine
 10
734.7223782401
 20
625.9181446024
 30
0.0
 11
733.816070453
 21
625.4955263407
 31
0.0
  0
LINE
  5
F5
330
1F
100
AcDbEntity
  8
0
  6
Continuous
 62
     7
370
    15
100
AcDbLine
 10
733.816070453
 20
625.4955263407
 30
0.0
 11
733.3934521913
 21
626.4018341277
 31
0.0
  0
LINE
  5
F6
330
1F
100
AcDbEntity
  8
0
  6
Continuous
 62
     7
370
    15
100
AcDbLine
 10
734.2997599783
 20
626.8244523894
 30
0.0
 11
733.3934521913
 21
626.4018341277
 31
0.0
  0
LINE
  5
F7
330
1F
100
AcDbEntity
  8
0
  6
Continuous
 62
     7
370
    15
100
AcDbLine
 10
743.4955725032
 20
630.0091522738
 30
0.0
 11
734.7223782401
 21
625.9181446024
 31
0.0
  0
LINE
  5
F8
330
1F
100
AcDbEntity
  8
0
  6
Continuous
 62
     7
370
    15
100
AcDbLine
 10
743.0729542414
 20
630.9154600608
 30
0.0
 11
734.2997599783
 21
626.8244523894
 31
0.0
  0
LINE
  5
F9
330
1F
100
AcDbEntity
  8
0
  6
Continuous
 62
     7
370
    15
100
AcDbLine
 10
340.6773380308
 20
658.0532957027
 30
0.0
 11
340.6773380308
 21
663.8032957027
 31
0.0
  0
LINE
  5
FA
330
1F
100
AcDbEntity
  8
0
  6
Continuous
 62
     7
370
    15
100
AcDbLine
 10
341.6773380308
 20
658.0532957027
 30
0.0
 11
341.6773380308
 21
663.8032957027
 31
0.0
  0
ARC
  5
FB
330
1F
100
AcDbEntity
  8
0
  6
Continuous
 62
     7
370
    15
100
AcDbCircle
 10
740.9598629327
 20
635.446998996
 30
0.0
 40
6.000000000000026
100
AcDbArc
 50
295.0
 51
335.0
  0
ARC
  5
FC
330
1F
100
AcDbEntity
  8
0
  6
Continuous
 62
     7
370
    15
100
AcDbCircle
 10
740.9598629327
 20
635.446998996
 30
0.0
 40
5.000000000000012
100
AcDbArc
 50
295.0
 51
335.0
  0
ARC
  5
FD
330
1F
100
AcDbEntity
  8
0
  6
Continuous
 62
     7
370
    15
100
AcDbCircle
 10
702.7311351954
 20
657.9282957027
 30
0.0
 40
1.0
100
AcDbArc
 50
243.8888439242
 51
270.0
  0
ARC
  5
FE
330
1F
100
AcDbEntity
  8
0
  6
Continuous
 62
     7
370
    15
100
AcDbCircle
 10
375.1235408662
 20
657.9282957027
 30
0.0
 40
1.0
100
AcDbArc
 50
270.0
 51
296.1111560753
  0
ARC
  5
FF
330
1F
100
AcDbEntity
  8
0
  6
Continuous
 62
     7
370
    15
100
AcDbCircle
 10
527.7311351954
 20
657.9282957027
 30
0.0
 40
1.0
100
AcDbArc
 50
243.8888439247
 51
270.0
  0
ARC
  5
100
330
1F
100
AcDbEntity
  8
0
  6
Continuous
 62
     7
370
    15
100
AcDbCircle
 10
550.1235408662
 20
657.9282957027
 30
0.0
 40
1.000000000000074
100
AcDbArc
 50
270.0
 51
296.1111560758
  0
LINE
  5
101
330
1F
100
AcDbEntity
  8
0
  6
Continuous
 62
     7
370
    15
100
AcDbLine
 10
319.1493775731
 20
671.6782956985
 30
0.0
 11
326.6493771214
 21
671.6782956985
 31
0.0
  0
LINE
  5
102
330
1F
100
AcDbEntity
  8
0
  6
Continuous
 62
     7
370
    15
100
AcDbLine
 10
331.399190724
 20
523.8282957027
 30
0.0
 11
331.399190724
 21
525.7782957027
 31
0.0
  0
LINE
  5
103
330
1F
100
AcDbEntity
  8
0
  6
Continuous
 62
     7
370
    15
100
AcDbLine
 10
330.2553258885
 20
525.7782957027
 30
0.0
 11
331.399190724
 21
525.7782957027
 31
0.0
  0
LINE
  5
104
330
1F
100
AcDbEntity
  8
0
  6
Continuous
 62
     7
370
    15
100
AcDbLine
 10
330.2528003756
 20
523.8282957027
 30
0.0
 11
331.399190724
 21
523.8282957027
 31
0.0
  0
LINE
  5
105
330
1F
100
AcDbEntity
  8
0
  6
Continuous
 62
     7
370
    15
100
AcDbLine
 10
317.4438150571
 20
525.7782957027
 30
0.0
 11
317.4438150571
 21
523.8282957027
 31
0.0
  0
LINE
  5
106
330
1F
100
AcDbEntity
  8
0
  6
Continuous
 62
     7
370
    15
100
AcDbLine
 10
317.4438150571
 20
525.7782957027
 30
0.0
 11
321.5876798926
 21
525.7782957027
 31
0.0
  0
LINE
  5
107
330
1F
100
AcDbEntity
  8
0
  6
Continuous
 62
     7
370
    15
100
AcDbLine
 10
317.4438150571
 20
523.8282957027
 30
0.0
 11
321.5902054055
 21
523.8282957027
 31
0.0
  0
LINE
  5
108
330
1F
100
AcDbEntity
  8
0
  6
Continuous
 62
     7
370
    15
100
AcDbLine
 10
320.6944900116
 20
530.7282957027
 30
0.0
 11
323.1962160054
 21
530.7282957027
 31
0.0
  0
LINE
  5
109
330
1F
100
AcDbEntity
  8
0
  6
Continuous
 62
     7
370
    15
100
AcDbLine
 10
320.6944900116
 20
530.7282957027
 30
0.0
 11
320.6944900116
 21
532.3282957027
 31
0.0
  0
LINE
  5
10A
330
1F
100
AcDbEntity
  8
0
  6
Continuous
 62
     7
370
    15
100
AcDbLine
 10
319.7898188017
 20
530.7282957027
 30
0.0
 11
320.6944900116
 21
530.7282957027
 31
0.0
  0
LINE
  5
10B
330
1F
100
AcDbEntity
  8
0
  6
Continuous
 62
     7
370
    15
100
AcDbLine
 10
319.7898188017
 20
532.3282957027
 30
0.0
 11
319.7898188017
 21
530.7282957027
 31
0.0
  0
LINE
  5
10C
330
1F
100
AcDbEntity
  8
0
  6
Continuous
 62
     7
370
    15
100
AcDbLine
 10
329.0531869794
 20
530.7282957027
 30
0.0
 11
329.0531869794
 21
532.3282957027
 31
0.0
  0
LINE
  5
10D
330
1F
100
AcDbEntity
  8
0
  6
Continuous
 62
     7
370
    15
100
AcDbLine
 10
328.6467897757
 20
530.7282957027
 30
0.0
 11
329.0531869794
 21
530.7282957027
 31
0.0
  0
LINE
  5
10E
330
1F
100
AcDbEntity
  8
0
  6
Continuous
 62
     7
370
    15
100
AcDbLine
 10
316.9965028905
 20
526.9782957027
 30
0.0
 11
321.3434428161
 21
526.9782957027
 31
0.0
  0
LINE
  5
10F
330
1F
100
AcDbEntity
  8
0
  6
Continuous
 62
     7
370
    15
100
AcDbLine
 10
330.499562965
 20
526.9782957027
 30
0.0
 11
331.8465028905
 21
526.9782957027
 31
0.0
  0
LINE
  5
110
330
1F
100
AcDbEntity
  8
0
  6
Continuous
 62
     7
370
    15
100
AcDbLine
 10
329.3465028905
 20
516.7282957027
 30
0.0
 11
319.4965031953
 21
516.7282957027
 31
0.0
  0
LINE
  5
111
330
1F
100
AcDbEntity
  8
0
  6
Continuous
 62
     7
370
    15
100
AcDbLine
 10
317.4215028905
 20
529.7282957027
 30
0.0
 11
323.4215028906
 21
529.7282957027
 31
0.0
  0
LINE
  5
112
330
1F
100
AcDbEntity
  8
0
  6
Continuous
 62
     7
370
    15
100
AcDbLine
 10
328.4215028906
 20
529.7282957027
 30
0.0
 11
331.4215028905
 21
529.7282957027
 31
0.0
  0
LINE
  5
113
330
1F
100
AcDbEntity
  8
0
  6
Continuous
 62
     7
370
    15
100
AcDbLine
 10
332.7801998584
 20
532.3282957027
 30
0.0
 11
332.7801998584
 21
530.7282957027
 31
0.0
  0
LINE
  5
114
330
1F
100
AcDbEntity
  8
0
  6
Continuous
 62
     7
370
    15
100
AcDbLine
 10
329.0531869794
 20
530.7282957027
 30
0.0
 11
332.7801998584
 21
530.7282957027
 31
0.0
  0
LINE
  5
115
330
1F
100
AcDbEntity
  8
0
  6
Continuous
 62
     7
370
    15
100
AcDbLine
 10
316.0628059227
 20
530.7282957027
 30
0.0
 11
316.0628059227
 21
532.3282957027
 31
0.0
  0
LINE
  5
116
330
1F
100
AcDbEntity
  8
0
  6
Continuous
 62
     7
370
    15
100
AcDbLine
 10
316.0628059227
 20
530.7282957027
 30
0.0
 11
319.7898188017
 21
530.7282957027
 31
0.0
  0
LINE
  5
117
330
1F
100
AcDbEntity
  8
0
  6
Continuous
 62
     7
370
    15
100
AcDbLine
 10
316.9215028905
 20
523.8282957027
 30
0.0
 11
316.9215028905
 21
525.7782957027
 31
0.0
  0
LINE
  5
118
330
1F
100
AcDbEntity
  8
0
  6
Continuous
 62
     7
370
    15
100
AcDbLine
 10
316.9215028905
 20
525.7782957027
 30
0.0
 11
317.4438150571
 21
525.7782957027
 31
0.0
  0
LINE
  5
119
330
1F
100
AcDbEntity
  8
0
  6
Continuous
 62
     7
370
    15
100
AcDbLine
 10
316.9215028905
 20
523.8282957027
 30
0.0
 11
317.4438150571
 21
523.8282957027
 31
0.0
  0
LINE
  5
11A
330
1F
100
AcDbEntity
  8
0
  6
Continuous
 62
     7
370
    15
100
AcDbLine
 10
331.9215028905
 20
525.7782957027
 30
0.0
 11
331.9215028905
 21
523.8282957027
 31
0.0
  0
LINE
  5
11B
330
1F
100
AcDbEntity
  8
0
  6
Continuous
 62
     7
370
    15
100
AcDbLine
 10
331.399190724
 20
525.7782957027
 30
0.0
 11
331.9215028905
 21
525.7782957027
 31
0.0
  0
LINE
  5
11C
330
1F
100
AcDbEntity
  8
0
  6
Continuous
 62
     7
370
    15
100
AcDbLine
 10
331.399190724
 20
523.8282957027
 30
0.0
 11
331.9215028905
 21
523.8282957027
 31
0.0
  0
LINE
  5
11D
330
1F
100
AcDbEntity
  8
0
  6
Continuous
 62
     7
370
    15
100
AcDbLine
 10
332.7801998584
 20
530.7282957027
 30
0.0
 11
332.7965028905
 21
530.7282957027
 31
0.0
  0
LINE
  5
11E
330
1F
100
AcDbEntity
  8
0
  6
Continuous
 62
     7
370
    15
100
AcDbLine
 10
316.0465028905
 20
530.7282957027
 30
0.0
 11
316.0628059227
 21
530.7282957027
 31
0.0
  0
LINE
  5
11F
330
1F
100
AcDbEntity
  8
0
  6
Continuous
 62
     7
370
    15
100
AcDbLine
 10
512.0664101342
 20
665.2693975956
 30
0.0
 11
525.6789101452
 21
665.2693975956
 31
0.0
  0
LINE
  5
120
330
1F
100
AcDbEntity
  8
0
  6
Continuous
 62
     7
370
    15
100
AcDbLine
 10
526.4289101452
 20
664.5193975956
 30
0.0
 11
525.6789101452
 21
665.2693975956
 31
0.0
  0
LINE
  5
121
330
1F
100
AcDbEntity
  8
0
  6
Continuous
 62
     7
370
    15
100
AcDbLine
 10
512.0664101452
 20
664.5193975956
 30
0.0
 11
526.4289101452
 21
664.5193975956
 31
0.0
  0
LINE
  5
122
330
1F
100
AcDbEntity
  8
0
  6
Continuous
 62
     7
370
    15
100
AcDbLine
 10
376.6271823466
 20
662.5193975956
 30
0.0
 11
390.7914101438
 21
662.5193975956
 31
0.0
  0
LINE
  5
123
330
1F
100
AcDbEntity
  8
0
  6
Continuous
 62
     7
370
    15
100
AcDbLine
 10
376.4289101452
 20
662.5256077147
 30
0.0
 11
376.4289101452
 21
664.5193975956
 31
0.0
  0
LINE
  5
124
330
1F
100
AcDbEntity
  8
0
  6
Continuous
 62
     7
370
    15
100
AcDbLine
 10
376.4289101452
 20
664.5193975956
 30
0.0
 11
390.7914101438
 21
664.5193975956
 31
0.0
  0
LINE
  5
125
330
1F
100
AcDbEntity
  8
0
  6
Continuous
 62
     7
370
    15
100
AcDbLine
 10
376.4289101452
 20
664.5193975956
 30
0.0
 11
377.1789101452
 21
665.2693975956
 31
0.0
  0
LINE
  5
126
330
1F
100
AcDbEntity
  8
0
  6
Continuous
 62
     7
370
    15
100
AcDbLine
 10
377.1789101452
 20
665.2693975956
 30
0.0
 11
390.7914101576
 21
665.2693975956
 31
0.0
  0
LINE
  5
127
330
1F
100
AcDbEntity
  8
0
  6
Continuous
 62
     7
370
    15
100
AcDbLine
 10
390.7914101438
 20
664.5193975956
 30
0.0
 11
512.0664101452
 21
664.5193975956
 31
0.0
  0
LINE
  5
128
330
1F
100
AcDbEntity
  8
0
  6
Continuous
 62
     7
370
    15
100
AcDbLine
 10
512.0664101342
 20
665.2693975956
 30
0.0
 11
390.7914101576
 21
665.2693975956
 31
0.0
  0
LINE
  5
129
330
1F
100
AcDbEntity
  8
0
  6
Continuous
 62
     7
370
    15
100
AcDbLine
 10
526.4289101452
 20
664.5193975956
 30
0.0
 11
526.4289101452
 21
662.5256077145
 31
0.0
  0
LINE
  5
12A
330
1F
100
AcDbEntity
  8
0
  6
Continuous
 62
     7
370
    15
100
AcDbLine
 10
512.0664101438
 20
662.5193975956
 30
0.0
 11
526.2306379549
 21
662.5193975956
 31
0.0
  0
LINE
  5
12B
330
1F
100
AcDbEntity
  8
0
  6
Continuous
 62
     7
370
    15
100
AcDbLine
 10
701.4289101452
 20
664.5193975956
 30
0.0
 11
701.4289101452
 21
662.5256077147
 31
0.0
  0
LINE
  5
12C
330
1F
100
AcDbEntity
  8
0
  6
Continuous
 62
     7
370
    15
100
AcDbLine
 10
687.0664101467
 20
662.5193975956
 30
0.0
 11
701.2306379439
 21
662.5193975956
 31
0.0
  0
LINE
  5
12D
330
1F
100
AcDbEntity
  8
0
  6
Continuous
 62
     7
370
    15
100
AcDbLine
 10
687.066410146
 20
664.5193975956
 30
0.0
 11
701.4289101452
 21
664.5193975956
 31
0.0
  0
LINE
  5
12E
330
1F
100
AcDbEntity
  8
0
  6
Continuous
 62
     7
370
    15
100
AcDbLine
 10
687.066410146
 20
664.5193975956
 30
0.0
 11
565.7914101452
 21
664.5193975956
 31
0.0
  0
LINE
  5
12F
330
1F
100
AcDbEntity
  8
0
  6
Continuous
 62
     7
370
    15
100
AcDbLine
 10
687.0664101308
 20
665.2693975956
 30
0.0
 11
700.6789101452
 21
665.2693975956
 31
0.0
  0
LINE
  5
130
330
1F
100
AcDbEntity
  8
0
  6
Continuous
 62
     7
370
    15
100
AcDbLine
 10
701.4289101452
 20
664.5193975956
 30
0.0
 11
700.6789101452
 21
665.2693975956
 31
0.0
  0
LINE
  5
131
330
1F
100
AcDbEntity
  8
0
  6
Continuous
 62
     7
370
    15
100
AcDbLine
 10
565.7914101576
 20
665.2693975956
 30
0.0
 11
687.0664101308
 21
665.2693975956
 31
0.0
  0
LINE
  5
132
330
1F
100
AcDbEntity
  8
0
  6
Continuous
 62
     7
370
    15
100
AcDbLine
 10
551.4289101452
 20
664.5193975956
 30
0.0
 11
552.1789101452
 21
665.2693975956
 31
0.0
  0
LINE
  5
133
330
1F
100
AcDbEntity
  8
0
  6
Continuous
 62
     7
370
    15
100
AcDbLine
 10
552.1789101452
 20
665.2693975956
 30
0.0
 11
565.7914101576
 21
665.2693975956
 31
0.0
  0
LINE
  5
134
330
1F
100
AcDbEntity
  8
0
  6
Continuous
 62
     7
370
    15
100
AcDbLine
 10
551.4289101452
 20
664.5193975956
 30
0.0
 11
565.7914101452
 21
664.5193975956
 31
0.0
  0
LINE
  5
135
330
1F
100
AcDbEntity
  8
0
  6
Continuous
 62
     7
370
    15
100
AcDbLine
 10
551.4289101452
 20
662.5256077147
 30
0.0
 11
551.4289101452
 21
664.5193975956
 31
0.0
  0
LINE
  5
136
330
1F
100
AcDbEntity
  8
0
  6
Continuous
 62
     7
370
    15
100
AcDbLine
 10
551.6271823466
 20
662.5193975956
 30
0.0
 11
565.791410146
 21
662.5193975956
 31
0.0
  0
LINE
  5
137
330
1F
100
AcDbEntity
  8
0
  6
Continuous
 62
     7
370
    15
100
AcDbLine
 10
528.2797440426
 20
660.8087000068
 30
0.0
 11
528.8039101452
 21
657.0790643901
 31
0.0
  0
LINE
  5
138
330
1F
100
AcDbEntity
  8
0
  6
Continuous
 62
     7
370
    15
100
AcDbLine
 10
511.5789101452
 20
657.0790643901
 30
0.0
 11
528.8039101452
 21
657.0790643901
 31
0.0
  0
LINE
  5
139
330
1F
100
AcDbEntity
  8
0
  6
Continuous
 62
     7
370
    15
100
AcDbLine
 10
511.5789101452
 20
657.0790643901
 30
0.0
 11
391.2789101461
 21
657.0790643901
 31
0.0
  0
LINE
  5
13A
330
1F
100
AcDbEntity
  8
0
  6
Continuous
 62
     7
370
    15
100
AcDbLine
 10
391.2789101461
 20
657.0303538046
 30
0.0
 11
511.5789101452
 21
657.0303538046
 31
0.0
  0
LINE
  5
13B
330
1F
100
AcDbEntity
  8
0
  6
Continuous
 62
     7
370
    15
100
AcDbLine
 10
528.8039101452
 20
657.0790643901
 30
0.0
 11
528.4573163212
 21
657.0303538046
 31
0.0
  0
LINE
  5
13C
330
1F
100
AcDbEntity
  8
0
  6
Continuous
 62
     7
370
    15
100
AcDbLine
 10
528.4573163212
 20
657.0303538046
 30
0.0
 11
511.5789101452
 21
657.0303538046
 31
0.0
  0
LINE
  5
13D
330
1F
100
AcDbEntity
  8
0
  6
Continuous
 62
     7
370
    15
100
AcDbLine
 10
391.2789101461
 20
657.0303538046
 30
0.0
 11
374.4005039692
 21
657.0303538046
 31
0.0
  0
LINE
  5
13E
330
1F
100
AcDbEntity
  8
0
  6
Continuous
 62
     7
370
    15
100
AcDbLine
 10
374.4005039692
 20
657.0303538046
 30
0.0
 11
374.0539101452
 21
657.0790643901
 31
0.0
  0
LINE
  5
13F
330
1F
100
AcDbEntity
  8
0
  6
Continuous
 62
     7
370
    15
100
AcDbLine
 10
391.2789101461
 20
657.0790643901
 30
0.0
 11
374.0539101452
 21
657.0790643901
 31
0.0
  0
LINE
  5
140
330
1F
100
AcDbEntity
  8
0
  6
Continuous
 62
     7
370
    15
100
AcDbLine
 10
374.0539101452
 20
657.0790643901
 30
0.0
 11
374.5780762481
 21
660.8087000066
 31
0.0
  0
ARC
  5
141
330
1F
100
AcDbEntity
  8
0
  6
Continuous
 62
     7
370
    15
100
AcDbCircle
 10
526.2992079053
 20
660.5303538048
 30
0.0
 40
1.999999999869992
100
AcDbArc
 50
8.000000003
 51
86.2816950912
  0
ARC
  5
142
330
1F
100
AcDbEntity
  8
0
  6
Continuous
 62
     7
370
    15
100
AcDbCircle
 10
376.5586123856
 20
660.5303538048
 30
0.0
 40
2.000000000078643
100
AcDbArc
 50
93.7183049226
 51
172.0000000024
  0
LINE
  5
143
330
1F
100
AcDbEntity
  8
0
  6
Continuous
 62
     7
370
    15
100
AcDbLine
 10
703.2797440424
 20
660.8087000073
 30
0.0
 11
703.8039101452
 21
657.0790643901
 31
0.0
  0
LINE
  5
144
330
1F
100
AcDbEntity
  8
0
  6
Continuous
 62
     7
370
    15
100
AcDbLine
 10
703.8039101452
 20
657.0790643901
 30
0.0
 11
686.5789101436
 21
657.0790643901
 31
0.0
  0
LINE
  5
145
330
1F
100
AcDbEntity
  8
0
  6
Continuous
 62
     7
370
    15
100
AcDbLine
 10
703.8039101452
 20
657.0790643901
 30
0.0
 11
703.4573163212
 21
657.0303538046
 31
0.0
  0
LINE
  5
146
330
1F
100
AcDbEntity
  8
0
  6
Continuous
 62
     7
370
    15
100
AcDbLine
 10
703.4573163212
 20
657.0303538046
 30
0.0
 11
686.5789101452
 21
657.0303538046
 31
0.0
  0
LINE
  5
147
330
1F
100
AcDbEntity
  8
0
  6
Continuous
 62
     7
370
    15
100
AcDbLine
 10
566.2789101386
 20
657.0790643901
 30
0.0
 11
686.5789101436
 21
657.0790643901
 31
0.0
  0
LINE
  5
148
330
1F
100
AcDbEntity
  8
0
  6
Continuous
 62
     7
370
    15
100
AcDbLine
 10
686.5789101452
 20
657.0303538046
 30
0.0
 11
566.2789101468
 21
657.0303538046
 31
0.0
  0
LINE
  5
149
330
1F
100
AcDbEntity
  8
0
  6
Continuous
 62
     7
370
    15
100
AcDbLine
 10
566.2789101386
 20
657.0790643901
 30
0.0
 11
549.0539101452
 21
657.0790643901
 31
0.0
  0
LINE
  5
14A
330
1F
100
AcDbEntity
  8
0
  6
Continuous
 62
     7
370
    15
100
AcDbLine
 10
549.0539101452
 20
657.0790643901
 30
0.0
 11
549.5780762479
 21
660.8087000073
 31
0.0
  0
LINE
  5
14B
330
1F
100
AcDbEntity
  8
0
  6
Continuous
 62
     7
370
    15
100
AcDbLine
 10
566.2789101468
 20
657.0303538046
 30
0.0
 11
549.4005039692
 21
657.0303538046
 31
0.0
  0
LINE
  5
14C
330
1F
100
AcDbEntity
  8
0
  6
Continuous
 62
     7
370
    15
100
AcDbLine
 10
549.4005039692
 20
657.0303538046
 30
0.0
 11
549.0539101452
 21
657.0790643901
 31
0.0
  0
ARC
  5
14D
330
1F
100
AcDbEntity
  8
0
  6
Continuous
 62
     7
370
    15
100
AcDbCircle
 10
701.2992079047
 20
660.5303538046
 30
0.0
 40
2.000000000261959
100
AcDbArc
 50
8.0000000201
 51
86.2816950747
  0
ARC
  5
14E
330
1F
100
AcDbEntity
  8
0
  6
Continuous
 62
     7
370
    15
100
AcDbCircle
 10
551.5586123852
 20
660.5303538046
 30
0.0
 40
1.999999999999989
100
AcDbArc
 50
93.718304911
 51
171.9999999772
  0
LINE
  5
14F
330
1F
100
AcDbEntity
  8
0
  6
Continuous
 62
     7
370
    15
100
AcDbLine
 10
736.5137123123
 20
604.4518177577
 30
0.0
 11
747.4361956775
 21
581.0284765918
 31
0.0
  0
SPLINE
  5
150
330
1F
100
AcDbEntity
  8
0
  6
Continuous
 62
     7
370
    15
100
AcDbSpline
210
0.0
220
0.0
230
1.0
 70
    24
 71
     3
 72
    11
 73
     7
 74
     0
 42
0.00000001
 43
0.00000001
 12
1.0
 22
0.0
 32
0.0
 13
1.0
 23
0.0
 33
0.0
 40
0.0
 40
0.0
 40
0.0
 40
0.0
 40
0.1499516226907255
 40
0.4331749578253777
 40
0.7165923401617039
 40
0.9999999999999999
 40
0.9999999999999999
 40
0.9999999999999999
 40
0.9999999999999999
 10
748.2197805881406
 20
579.3480733281727
 30
0.0
 10
748.1697189253931
 20
579.4554309103868
 30
0.0
 10
748.0251025600604
 20
579.7655617066617
 30
0.0
 10
747.7969335070376
 20
580.2548718199148
 30
0.0
 10
747.5680502642616
 20
580.7457135180367
 30
0.0
 10
747.4801467038485
 20
580.9342233116801
 30
0.0
 10
747.4361956775274
 20
581.0284765917894
 30
0.0
  0
SPLINE
  5
151
330
1F
100
AcDbEntity
  8
0
  6
Continuous
 62
     7
370
    15
100
AcDbSpline
210
0.0
220
0.0
230
1.0
 70
    24
 71
     3
 72
    11
 73
     7
 74
     0
 42
0.00000001
 43
0.00000001
 12
1.0
 22
0.0
 32
0.0
 13
1.0
 23
0.0
 33
0.0
 40
0.0
 40
0.0
 40
0.0
 40
0.0
 40
0.1499515950756834
 40
0.4331749432231969
 40
0.7165923323728025
 40
0.9999999999999999
 40
0.9999999999999999
 40
0.9999999999999999
 40
0.9999999999999999
 10
736.5137123122818
 20
604.4518177577085
 30
0.0
 10
736.492633054577
 20
604.4970223717354
 30
0.0
 10
736.4317400293655
 20
604.6276078857123
 30
0.0
 10
736.2667717749147
 20
604.9813834490465
 30
0.0
 10
736.0151077478843
 20
605.5210786966566
 30
0.0
 10
735.8251197642564
 20
605.9285092423601
 30
0.0
 10
735.7301274016687
 20
606.1322210213249
 30
0.0
  0
LINE
  5
152
330
1F
100
AcDbEntity
  8
0
  6
Continuous
 62
     7
370
    15
100
AcDbLine
 10
729.1680046909
 20
614.3511046227
 30
0.0
 11
729.3758420517
 21
614.4350763671
 31
0.0
  0
SPLINE
  5
153
330
1F
100
AcDbEntity
  8
0
  6
Continuous
 62
     7
370
    15
100
AcDbSpline
210
0.0
220
0.0
230
1.0
 70
     8
 71
     3
 72
    14
 73
    10
 74
     0
 42
0.00000001
 43
0.00000001
 12
1.0
 22
0.0
 32
0.0
 13
1.0
 23
0.0
 33
0.0
 40
0.0
 40
0.0
 40
0.0
 40
0.0
 40
0.0000064140457803
 40
0.0730558909548037
 40
0.2154935957733559
 40
0.4037789030075301
 40
0.588746870399811
 40
0.8882363243876877
 40
1.0
 40
1.0
 40
1.0
 40
1.0
 10
729.3758420517
 20
614.4350763671321
 30
0.0
 10
729.3758513216848
 20
614.4350801123829
 30
0.0
 10
729.4814363181519
 20
614.4777384675513
 30
0.0
 10
729.8069437857052
 20
614.5708095287338
 30
0.0
 10
730.4459092371052
 20
614.5737421787758
 30
0.0
 10
731.231715223724
 20
614.3367229810815
 30
0.0
 10
732.077550770275
 20
613.6833070411635
 30
0.0
 10
732.5739595264467
 20
612.8775143237707
 30
0.0
 10
732.8515232328708
 20
612.3004648063758
 30
0.0
 10
732.9269549750601
 20
612.1436436895685
 30
0.0
  0
SPLINE
  5
154
330
1F
100
AcDbEntity
  8
0
  6
Continuous
 62
     7
370
    15
100
AcDbSpline
210
0.0
220
0.0
230
1.0
 70
     8
 71
     3
 72
    15
 73
    11
 74
     0
 42
0.00000001
 43
0.00000001
 12
1.0
 22
0.0
 32
0.0
 13
1.0
 23
0.0
 33
0.0
 40
0.0
 40
0.0
 40
0.0
 40
0.0
 40
0.0125258353877583
 40
0.2274813526119537
 40
0.4424404199769092
 40
0.4999991763207149
 40
0.7148755009569704
 40
0.9297495265588362
 40
0.9874741646146631
 40
1.0
 40
1.0
 40
1.0
 40
1.0
 10
729.5900462255925
 20
613.4460398914749
 30
0.0
 10
729.5874449121594
 20
613.4520186104394
 30
0.0
 10
729.5402025303164
 20
613.5605979614221
 30
0.0
 10
729.4469571039197
 20
613.7721049953176
 30
0.0
 10
729.3545911492232
 20
613.9759639012256
 30
0.0
 10
729.2757928816454
 20
614.1459446046025
 30
0.0
 10
729.2108817055831
 20
614.281375502344
 30
0.0
 10
729.1766552574968
 20
614.3437566331496
 30
0.0
 10
729.1691587019419
 20
614.3512814576328
 30
0.0
 10
729.1681814024404
 20
614.3511322239307
 30
0.0
 10
729.168007147491
 20
614.3511056151876
 30
0.0
  0
SPLINE
  5
155
330
1F
100
AcDbEntity
  8
0
  6
Continuous
 62
     7
370
    15
100
AcDbSpline
210
0.0
220
0.0
230
1.0
 70
     8
 71
     3
 72
     9
 73
     5
 74
     0
 42
0.00000001
 43
0.00000001
 12
1.0
 22
0.0
 32
0.0
 13
1.0
 23
0.0
 33
0.0
 40
0.0
 40
0.0
 40
0.0
 40
0.0
 40
0.0000220488581722
 40
1.0
 40
1.0
 40
1.0
 40
1.0
 10
754.1925899778043
 20
566.5393422571544
 30
0.0
 10
754.192594203985
 20
566.5393331940752
 30
0.0
 10
754.384267646689
 20
566.1282879098014
 30
0.0
 10
754.5297366771632
 20
565.6977407884289
 30
0.0
 10
754.6752025002114
 20
565.2672031601287
 30
0.0
  0
LINE
  5
156
330
1F
100
AcDbEntity
  8
0
  6
Continuous
 62
     7
370
    15
100
AcDbLine
 10
729.1680046909
 20
614.3511046227
 30
0.0
 11
729.1437279838
 21
614.3412961963
 31
0.0
  0
LINE
  5
157
330
1F
100
AcDbEntity
  8
0
  6
Continuous
 62
     7
370
    15
100
AcDbLine
 10
732.9269549751
 20
612.1436436896
 30
0.0
 11
735.7301274017
 21
606.1322210213
 31
0.0
  0
LINE
  5
158
330
1F
100
AcDbEntity
  8
0
  6
Continuous
 62
     7
370
    15
100
AcDbLine
 10
748.2197805881
 20
579.3480733282
 30
0.0
 11
754.1925899778
 21
566.5393422572
 31
0.0
  0
SPLINE
  5
159
330
1F
100
AcDbEntity
  8
0
  6
Continuous
 62
     7
370
    15
100
AcDbSpline
210
0.0
220
0.0
230
1.0
 70
     8
 71
     3
 72
    20
 73
    16
 74
     0
 42
0.00000001
 43
0.00000001
 12
1.0
 22
0.0
 32
0.0
 13
1.0
 23
0.0
 33
0.0
 40
0.0
 40
0.0
 40
0.0
 40
0.0
 40
0.2070577373168163
 40
0.420377050276069
 40
0.701116302556816
 40
0.88345279884309
 40
0.9282286404935006
 40
0.952478858596898
 40
0.9675018207221378
 40
0.9773827146382371
 40
0.9840938553685407
 40
0.9887393639099332
 40
0.9919933949590793
 40
0.9977340800222685
 40
1.0
 40
1.0
 40
1.0
 40
1.0
 10
754.6752025002114
 20
565.2672031601287
 30
0.0
 10
754.727635167018
 20
565.0226459239987
 30
0.0
 10
754.8340861023752
 20
564.5261358641465
 30
0.0
 10
754.7348704480628
 20
563.6717571207263
 30
0.0
 10
754.4178270010633
 20
563.0233502099134
 30
0.0
 10
754.0824502432605
 20
562.6395066464692
 30
0.0
 10
753.8772743680097
 20
562.478743588115
 30
0.0
 10
753.8045328682938
 20
562.4286958485287
 30
0.0
 10
753.7605847980863
 20
562.4007600570545
 30
0.0
 10
753.7317474070073
 20
562.3833741904693
 30
0.0
 10
753.7121217576987
 20
562.371966323444
 30
0.0
 10
753.6985017432327
 20
562.3642490754443
 30
0.0
 10
753.6857090685987
 20
562.3571324281153
 30
0.0
 10
753.6750803676115
 20
562.3513355445438
 30
0.0
 10
753.6674712796298
 20
562.3472762171428
 30
0.0
 10
753.6653178594996
 20
562.3461274017576
 30
0.0
  0
SPLINE
  5
15A
330
1F
100
AcDbEntity
  8
0
  6
Continuous
 62
     7
370
    15
100
AcDbSpline
210
0.0
220
0.0
230
1.0
 70
     8
 71
     3
 72
    10
 73
     6
 74
     0
 42
0.00000001
 43
0.00000001
 12
1.0
 22
0.0
 32
0.0
 13
1.0
 23
0.0
 33
0.0
 40
0.0
 40
0.0
 40
0.0
 40
0.0
 40
0.4527378322262111
 40
0.9055954617470747
 40
1.0
 40
1.0
 40
1.0
 40
1.0
 10
754.7362433713038
 20
563.8687422102089
 30
0.0
 10
754.7400548947277
 20
563.8949919222284
 30
0.0
 10
754.747678950129
 20
563.9474982921075
 30
0.0
 10
754.8093594587983
 20
564.1888327215968
 30
0.0
 10
754.788349192694
 20
564.4270556118264
 30
0.0
 10
754.7847248521366
 20
564.4681498501599
 30
0.0
  0
SPLINE
  5
15B
330
1F
100
AcDbEntity
  8
0
  6
Continuous
 62
     7
370
    15
100
AcDbSpline
210
0.0
220
0.0
230
1.0
 70
     8
 71
     3
 72
    12
 73
     8
 74
     0
 42
0.00000001
 43
0.00000001
 12
1.0
 22
0.0
 32
0.0
 13
1.0
 23
0.0
 33
0.0
 40
0.0
 40
0.0
 40
0.0
 40
0.0
 40
0.4616906276044316
 40
0.7307729957151406
 40
0.9175829515523983
 40
0.971935952720411
 40
1.0
 40
1.0
 40
1.0
 40
1.0
 10
754.6646771280152
 20
565.3048960595283
 30
0.0
 10
754.6496702315694
 20
565.3591759795388
 30
0.0
 10
754.6259170210504
 20
565.445091303311
 30
0.0
 10
754.5901053307607
 20
565.557140800335
 30
0.0
 10
754.5693597163307
 20
565.6193251752904
 30
0.0
 10
754.5581161064032
 20
565.6521609767915
 30
0.0
 10
754.5546440085286
 20
565.6622049289624
 30
0.0
 10
754.5534617152924
 20
565.665625021697
 30
0.0
  0
LINE
  5
15C
330
1F
100
AcDbEntity
  8
0
  6
Continuous
 62
     7
370
    15
100
AcDbLine
 10
732.242035055
 20
613.2742158636
 30
0.0
 11
732.0192286933
 21
613.6416603725
 31
0.0
  0
LINE
  5
15D
330
1F
100
AcDbEntity
  8
0
  6
Continuous
 62
     7
370
    15
100
AcDbLine
 10
754.2156808513
 20
566.4895695268
 30
0.0
 11
754.1946638727
 21
566.5348927712
 31
0.0
  0
SPLINE
  5
15E
330
1F
100
AcDbEntity
  8
0
  6
Continuous
 62
     7
370
    15
100
AcDbSpline
210
0.0
220
0.0
230
1.0
 70
     8
 71
     3
 72
     9
 73
     5
 74
     0
 42
0.00000001
 43
0.00000001
 12
1.0
 22
0.0
 32
0.0
 13
1.0
 23
0.0
 33
0.0
 40
0.0
 40
0.0
 40
0.0
 40
0.0
 40
0.5000138394956783
 40
1.0
 40
1.0
 40
1.0
 40
1.0
 10
754.449584271391
 20
565.9457518863233
 30
0.0
 10
754.4155995651721
 20
566.0301103839731
 30
0.0
 10
754.347632034007
 20
566.1988227094859
 30
0.0
 10
754.2596637672756
 20
566.3926557094261
 30
0.0
 10
754.2156808513463
 20
566.4895695268453
 30
0.0
  0
SPLINE
  5
15F
330
1F
100
AcDbEntity
  8
0
  6
Continuous
 62
     7
370
    15
100
AcDbSpline
210
0.0
220
0.0
230
1.0
 70
     8
 71
     3
 72
    13
 73
     9
 74
     0
 42
0.00000001
 43
0.00000001
 12
1.0
 22
0.0
 32
0.0
 13
1.0
 23
0.0
 33
0.0
 40
0.0
 40
0.0
 40
0.0
 40
0.0
 40
0.1254648118065588
 40
0.2502435788816383
 40
0.3760698054095807
 40
0.5019139201694218
 40
0.7508310514861706
 40
0.9999999999999999
 40
0.9999999999999999
 40
0.9999999999999999
 40
0.9999999999999999
 10
732.0192286930771
 20
613.6416603727095
 30
0.0
 10
731.975390206932
 20
613.690296511892
 30
0.0
 10
731.8879529445816
 20
613.7873028466306
 30
0.0
 10
731.7511119284911
 20
613.9170029152552
 30
0.0
 10
731.6176116149784
 20
614.0287389994522
 30
0.0
 10
731.4551821071235
 20
614.1479758764684
 30
0.0
 10
731.2888389372525
 20
614.2467562941855
 30
0.0
 10
731.2623815922852
 20
614.2602383942924
 30
0.0
 10
731.2491462317865
 20
614.266982852416
 30
0.0
  0
SPLINE
  5
160
330
1F
100
AcDbEntity
  8
0
  6
Continuous
 62
     7
370
    15
100
AcDbSpline
210
0.0
220
0.0
230
1.0
 70
     8
 71
     3
 72
     9
 73
     5
 74
     0
 42
0.00000001
 43
0.00000001
 12
1.0
 22
0.0
 32
0.0
 13
1.0
 23
0.0
 33
0.0
 40
0.0
 40
0.0
 40
0.0
 40
0.0
 40
0.8821747881029419
 40
1.0
 40
1.0
 40
1.0
 40
1.0
 10
754.7943111202193
 20
564.3643104020726
 30
0.0
 10
754.7978178480819
 20
564.3696569032369
 30
0.0
 10
754.8017929422581
 20
564.375717494898
 30
0.0
 10
754.7919437414489
 20
564.5008890276616
 30
0.0
 10
754.7907832572764
 20
564.515637390033
 30
0.0
  0
SPLINE
  5
161
330
1F
100
AcDbEntity
  8
0
  6
Continuous
 62
     7
370
    15
100
AcDbSpline
210
0.0
220
0.0
230
1.0
 70
     8
 71
     3
 72
     9
 73
     5
 74
     0
 42
0.00000001
 43
0.00000001
 12
1.0
 22
0.0
 32
0.0
 13
1.0
 23
0.0
 33
0.0
 40
0.0
 40
0.0
 40
0.0
 40
0.0
 40
0.1164892876088787
 40
1.0
 40
1.0
 40
1.0
 40
1.0
 10
754.6807238264229
 20
565.2306243890151
 30
0.0
 10
754.6765294681632
 20
565.2524554760079
 30
0.0
 10
754.6405230821177
 20
565.4398640132289
 30
0.0
 10
754.5391491905489
 20
565.7084517466387
 30
0.0
 10
754.449584271391
 20
565.9457518863233
 30
0.0
  0
LINE
  5
162
330
1F
100
AcDbEntity
  8
0
  6
Continuous
 62
     7
370
    15
100
AcDbLine
 10
754.5534617154
 20
565.6656250214
 30
0.0
 11
754.4689096381
 21
565.8881731547
 31
0.0
  0
LINE
  5
163
330
1F
100
AcDbEntity
  8
0
  6
Continuous
 62
     7
370
    15
100
AcDbLine
 10
740.3431713279
 20
595.6479660012
 30
0.0
 11
743.1535827684
 21
589.6210192174
 31
0.0
  0
LINE
  5
164
330
1F
100
AcDbEntity
  8
0
  6
Continuous
 62
     7
370
    15
100
AcDbLine
 10
738.5141272
 20
595.4295110207
 30
0.0
 11
741.8105496416
 21
588.3603102818
 31
0.0
  0
LINE
  5
165
330
1F
100
AcDbEntity
  8
0
  6
Continuous
 62
     7
370
    15
100
AcDbLine
 10
738.4864406386
 20
531.8907957027
 30
0.0
 11
701.4864406386
 21
531.8907957027
 31
0.0
  0
LINE
  5
166
330
1F
100
AcDbEntity
  8
0
  6
Continuous
 62
     7
370
    15
100
AcDbLine
 10
701.4864406386
 20
531.9282957027
 30
0.0
 11
701.4864406386
 21
531.8907957027
 31
0.0
  0
LINE
  5
167
330
1F
100
AcDbEntity
  8
0
  6
Continuous
 62
     7
370
    15
100
AcDbLine
 10
708.1717919427
 20
531.9282957027
 30
0.0
 11
701.4864406386
 21
531.9282957027
 31
0.0
  0
LINE
  5
168
330
1F
100
AcDbEntity
  8
0
  6
Continuous
 62
     7
370
    15
100
AcDbLine
 10
738.4864406386
 20
531.9282957027
 30
0.0
 11
738.4864406386
 21
531.8907957027
 31
0.0
  0
LINE
  5
169
330
1F
100
AcDbEntity
  8
0
  6
Continuous
 62
     7
370
    15
100
AcDbLine
 10
750.2019624288
 20
578.6465730281
 30
0.0
 11
736.4668689223
 21
608.1015761067
 31
0.0
  0
LINE
  5
16A
330
1F
100
AcDbEntity
  8
0
  6
Continuous
 62
     7
370
    15
100
AcDbLine
 10
742.8579750532
 20
606.2268126949
 30
0.0
 11
741.8436443809
 21
608.4020518414
 31
0.0
  0
LINE
  5
16B
330
1F
100
AcDbEntity
  8
0
  6
Continuous
 62
     7
370
    15
100
AcDbLine
 10
753.8882648405
 20
582.5722799108
 30
0.0
 11
752.8739341682
 21
584.7475190573
 31
0.0
  0
LINE
  5
16C
330
1F
100
AcDbEntity
  8
0
  6
Continuous
 62
     7
370
    15
100
AcDbLine
 10
741.8316106941
 20
602.8521150589
 30
0.0
 11
740.5908736433
 21
603.0616592155
 31
0.0
  0
SPLINE
  5
16D
330
1F
100
AcDbEntity
  8
0
  6
Continuous
 62
     7
370
    15
100
AcDbSpline
210
0.0
220
0.0
230
1.0
 70
     8
 71
     3
 72
     9
 73
     5
 74
     0
 42
0.00000001
 43
0.00000001
 12
1.0
 22
0.0
 32
0.0
 13
1.0
 23
0.0
 33
0.0
 40
0.0
 40
0.0
 40
0.0
 40
0.0
 40
0.4986163301835032
 40
1.0
 40
1.0
 40
1.0
 40
1.0
 10
742.3856295209221
 20
602.8183130841742
 30
0.0
 10
742.2937039412311
 20
602.81150191256
 30
0.0
 10
742.109342591379
 20
602.7978417670695
 30
0.0
 10
741.9243586310093
 20
602.8339906162261
 30
0.0
 10
741.8316106941021
 20
602.8521150588758
 30
0.0
  0
SPLINE
  5
16E
330
1F
100
AcDbEntity
  8
0
  6
Continuous
 62
     7
370
    15
100
AcDbSpline
210
0.0
220
0.0
230
1.0
 70
     8
 71
     3
 72
    11
 73
     7
 74
     0
 42
0.00000001
 43
0.00000001
 12
1.0
 22
0.0
 32
0.0
 13
1.0
 23
0.0
 33
0.0
 40
0.0
 40
0.0
 40
0.0
 40
0.0
 40
0.1671876360232983
 40
0.334390716776992
 40
0.6674481169899086
 40
0.9999999999999999
 40
0.9999999999999999
 40
0.9999999999999999
 40
0.9999999999999999
 10
742.8509216986081
 20
603.2458394386254
 30
0.0
 10
742.8458140289671
 20
603.2127792554138
 30
0.0
 10
742.8355982178407
 20
603.1466558349036
 30
0.0
 10
742.7660706863381
 20
603.0263672542762
 30
0.0
 10
742.6344307660788
 20
602.8898251476788
 30
0.0
 10
742.468521267637
 20
602.8421383662838
 30
0.0
 10
742.3856295209221
 20
602.8183130841742
 30
0.0
  0
SPLINE
  5
16F
330
1F
100
AcDbEntity
  8
0
  6
Continuous
 62
     7
370
    15
100
AcDbSpline
210
0.0
220
0.0
230
1.0
 70
     8
 71
     3
 72
     9
 73
     5
 74
     0
 42
0.00000001
 43
0.00000001
 12
1.0
 22
0.0
 32
0.0
 13
1.0
 23
0.0
 33
0.0
 40
0.0
 40
0.0
 40
0.0
 40
0.0
 40
0.9825480036063068
 40
1.0
 40
1.0
 40
1.0
 40
1.0
 10
741.4836588804338
 20
603.2068169157546
 30
0.0
 10
741.4575916234852
 20
603.273047164743
 30
0.0
 10
741.4310613604824
 20
603.3404537939819
 30
0.0
 10
741.4478079561169
 20
603.4035692374954
 30
0.0
 10
741.4481002176435
 20
603.404670727988
 30
0.0
  0
LINE
  5
170
330
1F
100
AcDbEntity
  8
0
  6
Continuous
 62
     7
370
    15
100
AcDbLine
 10
746.444682201
 20
590.6133942677
 30
0.0
 11
746.0118472223
 21
591.5401884499
 31
0.0
  0
SPLINE
  5
171
330
1F
100
AcDbEntity
  8
0
  6
Continuous
 62
     7
370
    15
100
AcDbSpline
210
0.0
220
0.0
230
1.0
 70
     8
 71
     3
 72
    11
 73
     7
 74
     0
 42
0.00000001
 43
0.00000001
 12
1.0
 22
0.0
 32
0.0
 13
1.0
 23
0.0
 33
0.0
 40
0.0
 40
0.0
 40
0.0
 40
0.0
 40
0.3327148683312745
 40
0.4999172555208359
 40
0.6672668872821316
 40
1.0
 40
1.0
 40
1.0
 40
1.0
 10
747.8455218253763
 20
591.77849257103
 30
0.0
 10
747.8225651890046
 20
591.8173133708707
 30
0.0
 10
747.7880719344398
 20
591.8756431588085
 30
0.0
 10
747.7160709948503
 20
591.9235598366525
 30
0.0
 10
747.6377525227072
 20
591.9572697757355
 30
0.0
 10
747.5741848075628
 20
591.9550273610027
 30
0.0
 10
747.5318896394893
 20
591.9535353566448
 30
0.0
  0
SPLINE
  5
172
330
1F
100
AcDbEntity
  8
0
  6
Continuous
 62
     7
370
    15
100
AcDbSpline
210
0.0
220
0.0
230
1.0
 70
     8
 71
     3
 72
    11
 73
     7
 74
     0
 42
0.00000001
 43
0.00000001
 12
1.0
 22
0.0
 32
0.0
 13
1.0
 23
0.0
 33
0.0
 40
0.0
 40
0.0
 40
0.0
 40
0.0
 40
0.250217664909161
 40
0.5001638301791628
 40
0.7500323481731305
 40
1.0
 40
1.0
 40
1.0
 40
1.0
 10
747.8040120699147
 20
591.3942982427166
 30
0.0
 10
747.8213569348344
 20
591.4229539840434
 30
0.0
 10
747.8560278445615
 20
591.4802343736744
 30
0.0
 10
747.880681275686
 20
591.5804092337263
 30
0.0
 10
747.8808697691617
 20
591.6842615258794
 30
0.0
 10
747.8573060311244
 20
591.7470780697893
 30
0.0
 10
747.8455218253763
 20
591.7784925710301
 30
0.0
  0
LINE
  5
173
330
1F
100
AcDbEntity
  8
0
  6
Continuous
 62
     7
370
    15
100
AcDbLine
 10
747.9793255096
 20
591.0003493264
 30
0.0
 11
747.8040120699
 21
591.3942982427
 31
0.0
  0
SPLINE
  5
174
330
1F
100
AcDbEntity
  8
0
  6
Continuous
 62
     7
370
    15
100
AcDbSpline
210
0.0
220
0.0
230
1.0
 70
     8
 71
     3
 72
     9
 73
     5
 74
     0
 42
0.00000001
 43
0.00000001
 12
1.0
 22
0.0
 32
0.0
 13
1.0
 23
0.0
 33
0.0
 40
0.0
 40
0.0
 40
0.0
 40
0.0
 40
0.8192293707466723
 40
1.0
 40
1.0
 40
1.0
 40
1.0
 10
747.2235267823239
 20
592.2704513900759
 30
0.0
 10
747.3094955618427
 20
592.3168915981036
 30
0.0
 10
747.414434157294
 20
592.3735792727475
 30
0.0
 10
747.5261400482809
 20
592.3567657184915
 30
0.0
 10
747.5463331924859
 20
592.3537263217086
 30
0.0
  0
SPLINE
  5
175
330
1F
100
AcDbEntity
  8
0
  6
Continuous
 62
     7
370
    15
100
AcDbSpline
210
0.0
220
0.0
230
1.0
 70
     8
 71
     3
 72
    13
 73
     9
 74
     0
 42
0.00000001
 43
0.00000001
 12
1.0
 22
0.0
 32
0.0
 13
1.0
 23
0.0
 33
0.0
 40
0.0
 40
0.0
 40
0.0
 40
0.0
 40
0.2493042775567658
 40
0.3736983464972368
 40
0.4997789606171736
 40
0.625015929847903
 40
0.7502475256883223
 40
1.0
 40
1.0
 40
1.0
 40
1.0
 10
746.9226883643635
 20
591.3023828115673
 30
0.0
 10
746.8905300428563
 20
591.3913959380535
 30
0.0
 10
746.8423258496064
 20
591.5248234849468
 30
0.0
 10
746.8484742981611
 20
591.7174270552032
 30
0.0
 10
746.8787316291683
 20
591.8571547708906
 30
0.0
 10
746.9340032843568
 20
591.9877244567626
 30
0.0
 10
747.0379688761835
 20
592.1426183825051
 30
0.0
 10
747.1493458390171
 20
592.2193472723122
 30
0.0
 10
747.2235267823239
 20
592.2704513900759
 30
0.0
  0
LINE
  5
176
330
1F
100
AcDbEntity
  8
0
  6
Continuous
 62
     7
370
    15
100
AcDbLine
 10
746.9984791268
 20
591.1842754066
 30
0.0
 11
746.9226883644
 21
591.3023828116
 31
0.0
  0
LINE
  5
177
330
1F
100
AcDbEntity
  8
0
  6
Continuous
 62
     7
370
    15
100
AcDbLine
 10
746.632382676
 20
591.0763982129
 30
0.0
 11
746.9984791268
 21
591.1842754066
 31
0.0
  0
LINE
  5
178
330
1F
100
AcDbEntity
  8
0
  6
Continuous
 62
     7
370
    15
100
AcDbLine
 10
746.0118472223
 20
591.5401884499
 30
0.0
 11
746.32822959
 21
591.7218988632
 31
0.0
  0
LINE
  5
179
330
1F
100
AcDbEntity
  8
0
  6
Continuous
 62
     7
370
    15
100
AcDbLine
 10
751.5710787138
 20
582.6309988127
 30
0.0
 11
751.8466645316
 21
582.9052138328
 31
0.0
  0
LINE
  5
17A
330
1F
100
AcDbEntity
  8
0
  6
Continuous
 62
     7
370
    15
100
AcDbLine
 10
751.61353932
 20
582.5471310223
 30
0.0
 11
751.5710787138
 21
582.6309988127
 31
0.0
  0
LINE
  5
17B
330
1F
100
AcDbEntity
  8
0
  6
Continuous
 62
     7
370
    15
100
AcDbLine
 10
750.6042090376
 20
581.5439488939
 30
0.0
 11
751.61353932
 21
582.5471310223
 31
0.0
  0
LINE
  5
17C
330
1F
100
AcDbEntity
  8
0
  6
Continuous
 62
     7
370
    15
100
AcDbLine
 10
750.6892212322
 20
581.3704291139
 30
0.0
 11
750.6042090376
 21
581.5439488939
 31
0.0
  0
LINE
  5
17D
330
1F
100
AcDbEntity
  8
0
  6
Continuous
 62
     7
370
    15
100
AcDbLine
 10
751.8891847831
 20
582.8212950264
 30
0.0
 11
752.2111701146
 21
583.1412885271
 31
0.0
  0
LINE
  5
17E
330
1F
100
AcDbEntity
  8
0
  6
Continuous
 62
     7
370
    15
100
AcDbLine
 10
746.4468454918
 20
590.6131490016
 30
0.0
 11
746.0138817735
 21
591.5402192668
 31
0.0
  0
LINE
  5
17F
330
1F
100
AcDbEntity
  8
0
  6
Continuous
 62
     7
370
    15
100
AcDbLine
 10
746.0138817735
 20
591.5402192668
 30
0.0
 11
746.3302635163
 21
591.72193102
 31
0.0
  0
LINE
  5
180
330
1F
100
AcDbEntity
  8
0
  6
Continuous
 62
     7
370
    15
100
AcDbLine
 10
746.3302635163
 20
591.72193102
 30
0.0
 11
746.6345072839
 21
591.0762359025
 31
0.0
  0
LINE
  5
181
330
1F
100
AcDbEntity
  8
0
  6
Continuous
 62
     7
370
    15
100
AcDbLine
 10
746.6345072839
 20
591.0762359025
 30
0.0
 11
747.0006151439
 21
591.1840880021
 31
0.0
  0
LINE
  5
182
330
1F
100
AcDbEntity
  8
0
  6
Continuous
 62
     7
370
    15
100
AcDbLine
 10
747.0006153229
 20
591.1840881763
 30
0.0
 11
746.9248065818
 21
591.3022342057
 31
0.0
  0
SPLINE
  5
183
330
1F
100
AcDbEntity
  8
0
  6
Continuous
 62
     7
370
    15
100
AcDbSpline
210
0.0
220
0.0
230
1.0
 70
     8
 71
     3
 72
    13
 73
     9
 74
     0
 42
0.00000001
 43
0.00000001
 12
1.0
 22
0.0
 32
0.0
 13
1.0
 23
0.0
 33
0.0
 40
0.0
 40
0.0
 40
0.0
 40
0.0
 40
0.2493418571093375
 40
0.3739067550176158
 40
0.4998259552337462
 40
0.6250595944121976
 40
0.7502808147443195
 40
1.0
 40
1.0
 40
1.0
 40
1.0
 10
746.9248065817702
 20
591.3022342057114
 30
0.0
 10
746.8926252169892
 20
591.391272348965
 30
0.0
 10
746.844366854688
 20
591.5247917010815
 30
0.0
 10
746.8506000019486
 20
591.7174404691766
 30
0.0
 10
746.8807943331328
 20
591.8572013800476
 30
0.0
 10
746.9360469098772
 20
591.9877350330995
 30
0.0
 10
747.0399942226315
 20
592.1426532814345
 30
0.0
 10
747.1513736261135
 20
592.219388460796
 30
0.0
 10
747.2255549452707
 20
592.270495906633
 30
0.0
  0
SPLINE
  5
184
330
1F
100
AcDbEntity
  8
0
  6
Continuous
 62
     7
370
    15
100
AcDbSpline
210
0.0
220
0.0
230
1.0
 70
     8
 71
     3
 72
    12
 73
     8
 74
     0
 42
0.00000001
 43
0.00000001
 12
1.0
 22
0.0
 32
0.0
 13
1.0
 23
0.0
 33
0.0
 40
0.0
 40
0.0
 40
0.0
 40
0.0
 40
0.2497804431754005
 40
0.4994012335319535
 40
0.624838313812927
 40
0.7502856917678443
 40
1.0
 40
1.0
 40
1.0
 40
1.0
 10
747.2255549452707
 20
592.270495906633
 30
0.0
 10
747.311535851674
 20
592.3091758742939
 30
0.0
 10
747.4834427078398
 20
592.3865110864399
 30
0.0
 10
747.7210941102976
 20
592.3529197717806
 30
0.0
 10
747.8904973361838
 20
592.2771142102882
 30
0.0
 10
748.0464820898005
 20
592.1668563277484
 30
0.0
 10
748.1208240292628
 20
592.0386230351833
 30
0.0
 10
748.1703073498389
 20
591.953268668988
 30
0.0
  0
SPLINE
  5
185
330
1F
100
AcDbEntity
  8
0
  6
Continuous
 62
     7
370
    15
100
AcDbSpline
210
0.0
220
0.0
230
1.0
 70
     8
 71
     3
 72
    11
 73
     7
 74
     0
 42
0.00000001
 43
0.00000001
 12
1.0
 22
0.0
 32
0.0
 13
1.0
 23
0.0
 33
0.0
 40
0.0
 40
0.0
 40
0.0
 40
0.0
 40
0.2502429075565816
 40
0.5000901178351966
 40
0.7498389642497142
 40
1.0
 40
1.0
 40
1.0
 40
1.0
 10
748.1703073498389
 20
591.953268668988
 30
0.0
 10
748.2007272325307
 20
591.8718742212197
 30
0.0
 10
748.2615188963919
 20
591.709214030875
 30
0.0
 10
748.24870573262
 20
591.4394364397082
 30
0.0
 10
748.1567518244259
 20
591.1866532251846
 30
0.0
 10
748.0399812339182
 20
591.062236962376
 30
0.0
 10
747.9815477983955
 20
590.9999775386704
 30
0.0
  0
LINE
  5
186
330
1F
100
AcDbEntity
  8
0
  6
Continuous
 62
     7
370
    15
100
AcDbLine
 10
747.9815477984
 20
590.9999775387
 30
0.0
 11
747.8061779435
 21
591.3940474379
 31
0.0
  0
SPLINE
  5
187
330
1F
100
AcDbEntity
  8
0
  6
Continuous
 62
     7
370
    15
100
AcDbSpline
210
0.0
220
0.0
230
1.0
 70
     8
 71
     3
 72
    11
 73
     7
 74
     0
 42
0.00000001
 43
0.00000001
 12
1.0
 22
0.0
 32
0.0
 13
1.0
 23
0.0
 33
0.0
 40
0.0
 40
0.0
 40
0.0
 40
0.0
 40
0.2501909120879093
 40
0.5001304459399197
 40
0.750013506095573
 40
1.0
 40
1.0
 40
1.0
 40
1.0
 10
747.8061779434672
 20
591.394047437926
 30
0.0
 10
747.8235208742742
 20
591.4227082024007
 30
0.0
 10
747.8581893106533
 20
591.480000934571
 30
0.0
 10
747.8828316126791
 20
591.5801972852614
 30
0.0
 10
747.8830071473564
 20
591.6840718931018
 30
0.0
 10
747.859436070665
 20
591.7469038374728
 30
0.0
 10
747.8476480936382
 20
591.7783263102979
 30
0.0
  0
SPLINE
  5
188
330
1F
100
AcDbEntity
  8
0
  6
Continuous
 62
     7
370
    15
100
AcDbSpline
210
0.0
220
0.0
230
1.0
 70
     8
 71
     3
 72
    12
 73
     8
 74
     0
 42
0.00000001
 43
0.00000001
 12
1.0
 22
0.0
 32
0.0
 13
1.0
 23
0.0
 33
0.0
 40
0.0
 40
0.0
 40
0.0
 40
0.0
 40
0.2495329045239931
 40
0.3749246843076479
 40
0.5004192239764566
 40
0.749911293226625
 40
1.0
 40
1.0
 40
1.0
 40
1.0
 10
747.8476467094481
 20
591.7783296684647
 30
0.0
 10
747.8246959658509
 20
591.8171083957903
 30
0.0
 10
747.7902123360698
 20
591.8753736659686
 30
0.0
 10
747.7181218229222
 20
591.9236965971158
 30
0.0
 10
747.6401226167559
 20
591.9558397777098
 30
0.0
 10
747.5316640255793
 20
591.9642192608578
 30
0.0
 10
747.4538267599357
 20
591.9278069756136
 30
0.0
 10
747.41486164751
 20
591.9095790898255
 30
0.0
  0
SPLINE
  5
189
330
1F
100
AcDbEntity
  8
0
  6
Continuous
 62
     7
370
    15
100
AcDbSpline
210
0.0
220
0.0
230
1.0
 70
     8
 71
     3
 72
    14
 73
    10
 74
     0
 42
0.00000001
 43
0.00000001
 12
1.0
 22
0.0
 32
0.0
 13
1.0
 23
0.0
 33
0.0
 40
0.0
 40
0.0
 40
0.0
 40
0.0
 40
0.2497964802608378
 40
0.498973806378297
 40
0.6241985437533933
 40
0.7493921604417653
 40
0.8745742948499575
 40
0.9372820540892086
 40
1.0
 40
1.0
 40
1.0
 40
1.0
 10
747.41486164751
 20
591.9095790898255
 30
0.0
 10
747.3805248858787
 20
591.8862000103813
 30
0.0
 10
747.311936470894
 20
591.8394997996833
 30
0.0
 10
747.2555734621711
 20
591.7437197270874
 30
0.0
 10
747.2321430761194
 20
591.6593801129105
 30
0.0
 10
747.2260038200449
 20
591.5930338838772
 30
0.0
 10
747.2337396819667
 20
591.5383022727161
 30
0.0
 10
747.2456299336393
 20
591.4963722602826
 30
0.0
 10
747.2541905092802
 20
591.4765881064754
 30
0.0
 10
747.2584711447317
 20
591.4666952261692
 30
0.0
  0
SPLINE
  5
18A
330
1F
100
AcDbEntity
  8
0
  6
Continuous
 62
     7
370
    15
100
AcDbSpline
210
0.0
220
0.0
230
1.0
 70
     8
 71
     3
 72
    10
 73
     6
 74
     0
 42
0.00000001
 43
0.00000001
 12
1.0
 22
0.0
 32
0.0
 13
1.0
 23
0.0
 33
0.0
 40
0.0
 40
0.0
 40
0.0
 40
0.0
 40
0.2501216062010598
 40
0.5003940587088974
 40
1.0
 40
1.0
 40
1.0
 40
1.0
 10
747.258472698652
 20
591.4666916454299
 30
0.0
 10
747.2709621092932
 20
591.4446689510505
 30
0.0
 10
747.2959484628374
 20
591.4006102805838
 30
0.0
 10
747.369745579124
 20
591.33435924827
 30
0.0
 10
747.4365244314254
 20
591.3090634734885
 30
0.0
 10
747.4810157938093
 20
591.2922101817084
 30
0.0
  0
LINE
  5
18B
330
1F
100
AcDbEntity
  8
0
  6
Continuous
 62
     7
370
    15
100
AcDbLine
 10
747.4810160576
 20
591.2922100969
 30
0.0
 11
747.555739535
 21
590.9503520377
 31
0.0
  0
LINE
  5
18C
330
1F
100
AcDbEntity
  8
0
  6
Continuous
 62
     7
370
    15
100
AcDbLine
 10
747.555739535
 20
590.9503520377
 30
0.0
 11
746.4468454918
 21
590.6131490016
 31
0.0
  0
LINE
  5
18D
330
1F
100
AcDbEntity
  8
0
  6
Continuous
 62
     7
370
    15
100
AcDbLine
 10
746.3302635163
 20
591.72193102
 30
0.0
 11
746.32822959
 21
591.7218988632
 31
0.0
  0
LINE
  5
18E
330
1F
100
AcDbEntity
  8
0
  6
Continuous
 62
     7
370
    15
100
AcDbLine
 10
746.0138817735
 20
591.5402192668
 30
0.0
 11
746.0118472223
 21
591.5401884499
 31
0.0
  0
LINE
  5
18F
330
1F
100
AcDbEntity
  8
0
  6
Continuous
 62
     7
370
    15
100
AcDbLine
 10
746.4468454918
 20
590.6131490016
 30
0.0
 11
746.444682201
 21
590.6133942677
 31
0.0
  0
LINE
  5
190
330
1F
100
AcDbEntity
  8
0
  6
Continuous
 62
     7
370
    15
100
AcDbLine
 10
747.2255549453
 20
592.2704959066
 30
0.0
 11
747.2235267823
 21
592.2704513901
 31
0.0
  0
LINE
  5
191
330
1F
100
AcDbEntity
  8
0
  6
Continuous
 62
     7
370
    15
100
AcDbLine
 10
746.9248065818
 20
591.3022342057
 30
0.0
 11
746.9226883644
 21
591.3023828116
 31
0.0
  0
LINE
  5
192
330
1F
100
AcDbEntity
  8
0
  6
Continuous
 62
     7
370
    15
100
AcDbLine
 10
747.000615401
 20
591.1840880778
 30
0.0
 11
746.9984791268
 21
591.1842754066
 31
0.0
  0
LINE
  5
193
330
1F
100
AcDbEntity
  8
0
  6
Continuous
 62
     7
370
    15
100
AcDbLine
 10
747.8476467094
 20
591.7783296685
 30
0.0
 11
747.8455218254
 21
591.778492571
 31
0.0
  0
LINE
  5
194
330
1F
100
AcDbEntity
  8
0
  6
Continuous
 62
     7
370
    15
100
AcDbLine
 10
747.8061779435
 20
591.3940474379
 30
0.0
 11
747.8040120699
 21
591.3942982427
 31
0.0
  0
LINE
  5
195
330
1F
100
AcDbEntity
  8
0
  6
Continuous
 62
     7
370
    15
100
AcDbLine
 10
747.9815477984
 20
590.9999775387
 30
0.0
 11
747.9793255096
 21
591.0003493264
 31
0.0
  0
LINE
  5
196
330
1F
100
AcDbEntity
  8
0
  6
Continuous
 62
     7
370
    15
100
AcDbLine
 10
743.2455960987
 20
605.3955566805
 30
0.0
 11
752.4863131228
 21
585.5787750717
 31
0.0
  0
LINE
  5
197
330
1F
100
AcDbEntity
  8
0
  6
Continuous
 62
     7
370
    15
100
AcDbLine
 10
740.5913071271
 20
603.0651235326
 30
0.0
 11
740.5908736433
 21
603.0616592155
 31
0.0
  0
LINE
  5
198
330
1F
100
AcDbEntity
  8
0
  6
Continuous
 62
     7
370
    15
100
AcDbLine
 10
741.8321007409
 20
602.855454929
 30
0.0
 11
740.5913073642
 21
603.0651234939
 31
0.0
  0
LINE
  5
199
330
1F
100
AcDbEntity
  8
0
  6
Continuous
 62
     7
370
    15
100
AcDbLine
 10
740.5913071271
 20
603.0651235326
 30
0.0
 11
740.644570262
 21
603.3463076931
 31
0.0
  0
LINE
  5
19A
330
1F
100
AcDbEntity
  8
0
  6
Continuous
 62
     7
370
    15
100
AcDbLine
 10
740.644570262
 20
603.3463076931
 30
0.0
 11
741.4840951561
 21
603.210274664
 31
0.0
  0
SPLINE
  5
19B
330
1F
100
AcDbEntity
  8
0
  6
Continuous
 62
     7
370
    15
100
AcDbSpline
210
0.0
220
0.0
230
1.0
 70
     8
 71
     3
 72
    13
 73
     9
 74
     0
 42
0.00000001
 43
0.00000001
 12
1.0
 22
0.0
 32
0.0
 13
1.0
 23
0.0
 33
0.0
 40
0.0
 40
0.0
 40
0.0
 40
0.0
 40
0.2492561668020619
 40
0.3716945146304554
 40
0.4998384439452456
 40
0.62633518514957
 40
0.7503879552280248
 40
1.0
 40
1.0
 40
1.0
 40
1.0
 10
741.4840954121114
 20
603.2102747058622
 30
0.0
 10
741.4633196473286
 20
603.2757965767347
 30
0.0
 10
741.4323385169274
 20
603.3735037681116
 30
0.0
 10
741.4680633952202
 20
603.4990311462689
 30
0.0
 10
741.519367397813
 20
603.5857466737585
 30
0.0
 10
741.5937814134177
 20
603.6629170738478
 30
0.0
 10
741.7208966378272
 20
603.7482478766225
 30
0.0
 10
741.84623339787
 20
603.7802995446577
 30
0.0
 10
741.9299596779907
 20
603.8017103975897
 30
0.0
  0
SPLINE
  5
19C
330
1F
100
AcDbEntity
  8
0
  6
Continuous
 62
     7
370
    15
100
AcDbSpline
210
0.0
220
0.0
230
1.0
 70
     8
 71
     3
 72
    12
 73
     8
 74
     0
 42
0.00000001
 43
0.00000001
 12
1.0
 22
0.0
 32
0.0
 13
1.0
 23
0.0
 33
0.0
 40
0.0
 40
0.0
 40
0.0
 40
0.0
 40
0.2496763881762322
 40
0.372436122646521
 40
0.5005048710572314
 40
0.7502284668960554
 40
1.0
 40
1.0
 40
1.0
 40
1.0
 10
741.9299596779907
 20
603.8017103975897
 30
0.0
 10
742.019097890313
 20
603.8119349874596
 30
0.0
 10
742.1520631675642
 20
603.8271867564977
 30
0.0
 10
742.3332460832167
 20
603.7955384571205
 30
0.0
 10
742.5022615784225
 20
603.7408770045286
 30
0.0
 10
742.6965940585819
 20
603.6342297074697
 30
0.0
 10
742.7730084299196
 20
603.5096119450745
 30
0.0
 10
742.811219282387
 20
603.4472970840042
 30
0.0
  0
SPLINE
  5
19D
330
1F
100
AcDbEntity
  8
0
  6
Continuous
 62
     7
370
    15
100
AcDbSpline
210
0.0
220
0.0
230
1.0
 70
     8
 71
     3
 72
    12
 73
     8
 74
     0
 42
0.00000001
 43
0.00000001
 12
1.0
 22
0.0
 32
0.0
 13
1.0
 23
0.0
 33
0.0
 40
0.0
 40
0.0
 40
0.0
 40
0.0
 40
0.2497844234011037
 40
0.3752282831897921
 40
0.5006758907588077
 40
0.750538311462778
 40
1.0
 40
1.0
 40
1.0
 40
1.0
 10
742.811220877527
 20
603.4472939206115
 30
0.0
 10
742.8328074173145
 20
603.3812135621702
 30
0.0
 10
742.8652349007987
 20
603.281947086251
 30
0.0
 10
742.8344537097707
 20
603.1500373028616
 30
0.0
 10
742.7674992789161
 20
603.0297018937313
 30
0.0
 10
742.63465559245
 20
602.8931365614726
 30
0.0
 10
742.4689343994877
 20
602.8454405177649
 30
0.0
 10
742.3861403027122
 20
602.821611635122
 30
0.0
  0
SPLINE
  5
19E
330
1F
100
AcDbEntity
  8
0
  6
Continuous
 62
     7
370
    15
100
AcDbSpline
210
0.0
220
0.0
230
1.0
 70
     8
 71
     3
 72
     9
 73
     5
 74
     0
 42
0.00000001
 43
0.00000001
 12
1.0
 22
0.0
 32
0.0
 13
1.0
 23
0.0
 33
0.0
 40
0.0
 40
0.0
 40
0.0
 40
0.0
 40
0.4986050564819649
 40
1.0
 40
1.0
 40
1.0
 40
1.0
 10
742.3861403027122
 20
602.821611635122
 30
0.0
 10
742.2942121061997
 20
602.814804099655
 30
0.0
 10
742.1098413395626
 20
602.8011509379421
 30
0.0
 10
741.9248540368386
 20
602.837319776855
 30
0.0
 10
741.8321023386376
 20
602.8554546497987
 30
0.0
  0
SPLINE
  5
19F
330
1F
100
AcDbEntity
  8
0
  6
Continuous
 62
     7
370
    15
100
AcDbSpline
210
0.0
220
0.0
230
1.0
 70
     8
 71
     3
 72
    12
 73
     8
 74
     0
 42
0.00000001
 43
0.00000001
 12
1.0
 22
0.0
 32
0.0
 13
1.0
 23
0.0
 33
0.0
 40
0.0
 40
0.0
 40
0.0
 40
0.0
 40
0.2495342807944548
 40
0.4992411243681212
 40
0.7489190611584348
 40
0.8743786364303211
 40
1.0
 40
1.0
 40
1.0
 40
1.0
 10
742.4395396410339
 20
603.3719593985023
 30
0.0
 10
742.4228163658983
 20
603.3985598990224
 30
0.0
 10
742.3893582508236
 20
603.4517792953562
 30
0.0
 10
742.2885949175948
 20
603.5052056972885
 30
0.0
 10
742.1927662779046
 20
603.526775540611
 30
0.0
 10
742.1149750503075
 20
603.5269158567882
 30
0.0
 10
742.0776957194945
 20
603.5212959047108
 30
0.0
 10
742.0590440433007
 20
603.5184841180159
 30
0.0
  0
SPLINE
  5
1A0
330
1F
100
AcDbEntity
  8
0
  6
Continuous
 62
     7
370
    15
100
AcDbSpline
210
0.0
220
0.0
230
1.0
 70
     8
 71
     3
 72
    14
 73
    10
 74
     0
 42
0.00000001
 43
0.00000001
 12
1.0
 22
0.0
 32
0.0
 13
1.0
 23
0.0
 33
0.0
 40
0.0
 40
0.0
 40
0.0
 40
0.0
 40
0.2492280639566573
 40
0.3753948027361154
 40
0.4993910806604858
 40
0.6261696157544275
 40
0.7496639162294928
 40
0.8747305384645743
 40
1.0
 40
1.0
 40
1.0
 40
1.0
 10
742.0590440433007
 20
603.5184841180159
 30
0.0
 10
742.023403908723
 20
603.509352215546
 30
0.0
 10
741.9697216665354
 20
603.4955974695035
 30
0.0
 10
741.9153454478346
 20
603.4588692624236
 30
0.0
 10
741.883366382408
 20
603.4258232722136
 30
0.0
 10
741.8618356042541
 20
603.3884045826946
 30
0.0
 10
741.8517365562412
 20
603.3477791302745
 30
0.0
 10
741.8545838705326
 20
603.3057075665433
 30
0.0
 10
741.8650652044645
 20
603.2781317569478
 30
0.0
 10
741.8703101177748
 20
603.2643326802528
 30
0.0
  0
SPLINE
  5
1A1
330
1F
100
AcDbEntity
  8
0
  6
Continuous
 62
     7
370
    15
100
AcDbSpline
210
0.0
220
0.0
230
1.0
 70
     8
 71
     3
 72
    13
 73
     9
 74
     0
 42
0.00000001
 43
0.00000001
 12
1.0
 22
0.0
 32
0.0
 13
1.0
 23
0.0
 33
0.0
 40
0.0
 40
0.0
 40
0.0
 40
0.0
 40
0.249340395411313
 40
0.3715640705554096
 40
0.499944108216091
 40
0.7492984878481714
 40
0.8745707609942442
 40
0.9999999999999999
 40
0.9999999999999999
 40
0.9999999999999999
 40
0.9999999999999999
 10
741.8703101177748
 20
603.2643326802528
 30
0.0
 10
741.8863422957846
 20
603.2380257225416
 30
0.0
 10
741.9102332554157
 20
603.1988234092743
 30
0.0
 10
741.9694131771851
 20
603.1593425509923
 30
0.0
 10
742.035940282852
 20
603.1285120966668
 30
0.0
 10
742.1125616127706
 20
603.1113868397932
 30
0.0
 10
742.1884479008816
 20
603.1112715326037
 30
0.0
 10
742.2249056591513
 20
603.1168455205285
 30
0.0
 10
742.2431459515069
 20
603.1196342594459
 30
0.0
  0
SPLINE
  5
1A2
330
1F
100
AcDbEntity
  8
0
  6
Continuous
 62
     7
370
    15
100
AcDbSpline
210
0.0
220
0.0
230
1.0
 70
     8
 71
     3
 72
    11
 73
     7
 74
     0
 42
0.00000001
 43
0.00000001
 12
1.0
 22
0.0
 32
0.0
 13
1.0
 23
0.0
 33
0.0
 40
0.0
 40
0.0
 40
0.0
 40
0.0
 40
0.2503954495840171
 40
0.500379704590036
 40
0.7504390965290457
 40
1.0
 40
1.0
 40
1.0
 40
1.0
 10
742.2431459515069
 20
603.1196342594459
 30
0.0
 10
742.2785400095247
 20
603.1287010235642
 30
0.0
 10
742.349270002121
 20
603.1468196625354
 30
0.0
 10
742.4208138881517
 20
603.210259110448
 30
0.0
 10
742.4635668777626
 20
603.2881106630806
 30
0.0
 10
742.4475433908809
 20
603.3440284170548
 30
0.0
 10
742.4395396410339
 20
603.3719593985023
 30
0.0
  0
LINE
  5
1A3
330
1F
100
AcDbEntity
  8
0
  6
Continuous
 62
     7
370
    15
100
AcDbLine
 10
742.3861403027
 20
602.8216116351
 30
0.0
 11
742.3856295209
 21
602.8183130842
 31
0.0
  0
SPLINE
  5
1A4
330
1F
100
AcDbEntity
  8
0
  6
Continuous
 62
     7
370
    15
100
AcDbSpline
210
0.0
220
0.0
230
1.0
 70
     8
 71
     3
 72
    14
 73
    10
 74
     0
 42
0.00000001
 43
0.00000001
 12
1.0
 22
0.0
 32
0.0
 13
1.0
 23
0.0
 33
0.0
 40
0.0
 40
0.0
 40
0.0
 40
0.0
 40
0.2492631074119725
 40
0.3754410264839317
 40
0.499441391538122
 40
0.6262163984450527
 40
0.7497000111638853
 40
0.8747499222824475
 40
1.0
 40
1.0
 40
1.0
 40
1.0
 10
742.0586338716902
 20
603.5149698078415
 30
0.0
 10
742.0229937895731
 20
603.5058388867668
 30
0.0
 10
741.9693125643291
 20
603.4920858592264
 30
0.0
 10
741.9149319205522
 20
603.4553652250138
 30
0.0
 10
741.8829490769378
 20
603.4223271157716
 30
0.0
 10
741.8614135282222
 20
603.3849179757673
 30
0.0
 10
741.8513089689214
 20
603.3443033086928
 30
0.0
 10
741.854150468319
 20
603.3022431981049
 30
0.0
 10
741.8646280431905
 20
603.2746753495538
 30
0.0
 10
741.86987102012
 20
603.2608804021805
 30
0.0
  0
SPLINE
  5
1A5
330
1F
100
AcDbEntity
  8
0
  6
Continuous
 62
     7
370
    15
100
AcDbSpline
210
0.0
220
0.0
230
1.0
 70
     8
 71
     3
 72
    12
 73
     8
 74
     0
 42
0.00000001
 43
0.00000001
 12
1.0
 22
0.0
 32
0.0
 13
1.0
 23
0.0
 33
0.0
 40
0.0
 40
0.0
 40
0.0
 40
0.0
 40
0.2494968407337432
 40
0.4991901205401127
 40
0.7488841219042364
 40
0.8743600791987595
 40
0.9999999999999999
 40
0.9999999999999999
 40
0.9999999999999999
 40
0.9999999999999999
 10
742.4391004566663
 20
603.3685073063863
 30
0.0
 10
742.422380537965
 20
603.3950996468551
 30
0.0
 10
742.388927536286
 20
603.4483052650306
 30
0.0
 10
742.2881703373081
 20
603.5017096807883
 30
0.0
 10
742.1923508560296
 20
603.5232660284927
 30
0.0
 10
742.1145641583969
 20
603.5234020245443
 30
0.0
 10
742.0772854141821
 20
603.5177817699714
 30
0.0
 10
742.0586338716902
 20
603.5149698078415
 30
0.0
  0
LINE
  5
1A6
330
1F
100
AcDbEntity
  8
0
  6
Continuous
 62
     7
370
    15
100
AcDbLine
 10
742.4519928128
 20
603.2857439432
 30
0.0
 11
742.4391004567
 21
603.3685073064
 31
0.0
  0
LINE
  5
1A7
330
1F
100
AcDbEntity
  8
0
  6
Continuous
 62
     7
370
    15
100
AcDbLine
 10
742.4391004567
 20
603.3685073064
 30
0.0
 11
742.439539641
 21
603.3719593985
 31
0.0
  0
LINE
  5
1A8
330
1F
100
AcDbEntity
  8
0
  6
Continuous
 62
     7
370
    15
100
AcDbLine
 10
742.0586338717
 20
603.5149698078
 30
0.0
 11
742.0590440433
 21
603.518484118
 31
0.0
  0
SPLINE
  5
1A9
330
1F
100
AcDbEntity
  8
0
  6
Continuous
 62
     7
370
    15
100
AcDbSpline
210
0.0
220
0.0
230
1.0
 70
     8
 71
     3
 72
    12
 73
     8
 74
     0
 42
0.00000001
 43
0.00000001
 12
1.0
 22
0.0
 32
0.0
 13
1.0
 23
0.0
 33
0.0
 40
0.0
 40
0.0
 40
0.0
 40
0.0
 40
0.0304717459458998
 40
0.0888135668585488
 40
0.3925556175487322
 40
0.6962774394173862
 40
1.0
 40
1.0
 40
1.0
 40
1.0
 10
752.8730415151381
 20
585.289767642098
 30
0.0
 10
752.8753928402448
 20
585.2850146365912
 30
0.0
 10
752.8822460599431
 20
585.2711614306374
 30
0.0
 10
752.9096607106502
 20
585.2077890418261
 30
0.0
 10
752.9382061494018
 20
585.0887157343151
 30
0.0
 10
752.9339264532698
 20
584.9161242447211
 30
0.0
 10
752.8939662481035
 20
584.8139459878673
 30
0.0
 10
752.8739861212226
 20
584.7628567973107
 30
0.0
  0
SPLINE
  5
1AA
330
1F
100
AcDbEntity
  8
0
  6
Continuous
 62
     7
370
    15
100
AcDbSpline
210
0.0
220
0.0
230
1.0
 70
     8
 71
     3
 72
    10
 73
     6
 74
     0
 42
0.00000001
 43
0.00000001
 12
1.0
 22
0.0
 32
0.0
 13
1.0
 23
0.0
 33
0.0
 40
0.0
 40
0.0
 40
0.0
 40
0.0
 40
0.2117958997088453
 40
0.4880069094692271
 40
0.9999999999999999
 40
0.9999999999999999
 40
0.9999999999999999
 40
0.9999999999999999
 10
752.8739861212226
 20
584.7628567973107
 30
0.0
 10
752.8734286192863
 20
584.7614866879378
 30
0.0
 10
752.8721440580774
 20
584.7583297673286
 30
0.0
 10
752.8719420684
 20
584.7527464882489
 30
0.0
 10
752.8731497169363
 20
584.7495775208645
 30
0.0
 10
752.8739341682049
 20
584.7475190573214
 30
0.0
  0
SPLINE
  5
1AB
330
1F
100
AcDbEntity
  8
0
  6
Continuous
 62
     7
370
    15
100
AcDbSpline
210
0.0
220
0.0
230
1.0
 70
     8
 71
     3
 72
    12
 73
     8
 74
     0
 42
0.00000001
 43
0.00000001
 12
1.0
 22
0.0
 32
0.0
 13
1.0
 23
0.0
 33
0.0
 40
0.0
 40
0.0
 40
0.0
 40
0.0
 40
0.0304717459515221
 40
0.0888135668586218
 40
0.3925556175487903
 40
0.6962774394175782
 40
1.0
 40
1.0
 40
1.0
 40
1.0
 10
743.2727877820754
 20
605.8775782112979
 30
0.0
 10
743.270658171263
 20
605.8824346038788
 30
0.0
 10
743.2644511645306
 20
605.8965891438868
 30
0.0
 10
743.2335268960368
 20
605.9583249710499
 30
0.0
 10
743.1606601048331
 20
606.0567308924886
 30
0.0
 10
743.0256964176547
 20
606.1643921260987
 30
0.0
 10
742.9217374070228
 20
606.19945975047
 30
0.0
 10
742.8697578384943
 20
606.2169935839786
 30
0.0
  0
SPLINE
  5
1AC
330
1F
100
AcDbEntity
  8
0
  6
Continuous
 62
     7
370
    15
100
AcDbSpline
210
0.0
220
0.0
230
1.0
 70
     8
 71
     3
 72
    11
 73
     7
 74
     0
 42
0.00000001
 43
0.00000001
 12
1.0
 22
0.0
 32
0.0
 13
1.0
 23
0.0
 33
0.0
 40
0.0
 40
0.0
 40
0.0
 40
0.0
 40
0.3704320937864299
 40
0.7442498469258649
 40
0.9442480537668372
 40
1.0
 40
1.0
 40
1.0
 40
1.0
 10
742.8579750532496
 20
606.226812694884
 30
0.0
 10
742.8587198363294
 20
606.2254191631054
 30
0.0
 10
742.8602162096256
 20
606.2226193630062
 30
0.0
 10
742.8638497997862
 20
606.2192684172331
 30
0.0
 10
742.8676113372194
 20
606.2175609697557
 30
0.0
 10
742.8693736625163
 20
606.2170951334109
 30
0.0
 10
742.8697578384943
 20
606.2169935839786
 30
0.0
  0
SPLINE
  5
1AD
330
1F
100
AcDbEntity
  8
0
  6
Continuous
 62
     7
370
    15
100
AcDbSpline
210
0.0
220
0.0
230
1.0
 70
     8
 71
     3
 72
    12
 73
     8
 74
     0
 42
0.00000001
 43
0.00000001
 12
1.0
 22
0.0
 32
0.0
 13
1.0
 23
0.0
 33
0.0
 40
0.0
 40
0.0
 40
0.0
 40
0.0
 40
0.2238925571854329
 40
0.4477848984197339
 40
0.6716824862033287
 40
0.8955821585470131
 40
1.0
 40
1.0
 40
1.0
 40
1.0
 10
742.2105521724418
 20
608.4064291258363
 30
0.0
 10
742.1966182918765
 20
608.4062613789598
 30
0.0
 10
742.1687505441851
 20
608.4059258853684
 30
0.0
 10
742.1327698111714
 20
608.4056241791737
 30
0.0
 10
742.1065735773565
 20
608.4054598337715
 30
0.0
 10
742.0949059052347
 20
608.4054127395307
 30
0.0
 10
742.093931574769
 20
608.4054177656799
 30
0.0
 10
742.0936216994812
 20
608.4054193641924
 30
0.0
  0
LINE
  5
1AE
330
1F
100
AcDbEntity
  8
0
  6
Continuous
 62
     7
370
    15
100
AcDbLine
 10
742.2105521724
 20
608.4064291258
 30
0.0
 11
751.7579674354
 21
608.5104728967
 31
0.0
  0
LINE
  5
1AF
330
1F
100
AcDbEntity
  8
0
  6
Continuous
 62
     7
370
    15
100
AcDbLine
 10
751.7579674354
 20
608.5104728967
 30
0.0
 11
752.4972856137
 21
608.5196623035
 31
0.0
  0
LINE
  5
1B0
330
1F
100
AcDbEntity
  8
0
  6
Continuous
 62
     7
370
    15
100
AcDbLine
 10
751.9762223765
 20
582.6482001929
 30
0.0
 11
752.1427627713
 21
582.2744600092
 31
0.0
  0
LINE
  5
1B1
330
1F
100
AcDbEntity
  8
0
  6
Continuous
 62
     7
370
    15
100
AcDbLine
 10
752.1427627713
 20
582.2744600092
 30
0.0
 11
751.8671598557
 21
582.0002574082
 31
0.0
  0
LINE
  5
1B2
330
1F
100
AcDbEntity
  8
0
  6
Continuous
 62
     7
370
    15
100
AcDbLine
 10
751.8671598557
 20
582.0002574082
 30
0.0
 11
750.6926618794
 21
581.367444548
 31
0.0
  0
LINE
  5
1B3
330
1F
100
AcDbEntity
  8
0
  6
Continuous
 62
     7
370
    15
100
AcDbLine
 10
750.6926618451
 20
581.36744462
 30
0.0
 11
750.6076252432
 21
581.5410167434
 31
0.0
  0
LINE
  5
1B4
330
1F
100
AcDbEntity
  8
0
  6
Continuous
 62
     7
370
    15
100
AcDbLine
 10
750.6076252432
 20
581.5410167434
 30
0.0
 11
751.6169542809
 21
582.5442015411
 31
0.0
  0
LINE
  5
1B5
330
1F
100
AcDbEntity
  8
0
  6
Continuous
 62
     7
370
    15
100
AcDbLine
 10
751.6169542809
 20
582.5442015411
 30
0.0
 11
751.5744813114
 21
582.6280958447
 31
0.0
  0
LINE
  5
1B6
330
1F
100
AcDbEntity
  8
0
  6
Continuous
 62
     7
370
    15
100
AcDbLine
 10
751.5744813114
 20
582.6280958447
 30
0.0
 11
751.8500666221
 21
582.9023119521
 31
0.0
  0
LINE
  5
1B7
330
1F
100
AcDbEntity
  8
0
  6
Continuous
 62
     7
370
    15
100
AcDbLine
 10
751.8500666221
 20
582.9023119521
 30
0.0
 11
751.8925993689
 21
582.8183663496
 31
0.0
  0
LINE
  5
1B8
330
1F
100
AcDbEntity
  8
0
  6
Continuous
 62
     7
370
    15
100
AcDbLine
 10
751.8925993689
 20
582.8183663496
 30
0.0
 11
752.2145877914
 21
583.1383642437
 31
0.0
  0
LINE
  5
1B9
330
1F
100
AcDbEntity
  8
0
  6
Continuous
 62
     7
370
    15
100
AcDbLine
 10
752.2145877912
 20
583.1383642441
 30
0.0
 11
752.2982893256
 21
582.9681300428
 31
0.0
  0
LINE
  5
1BA
330
1F
100
AcDbEntity
  8
0
  6
Continuous
 62
     7
370
    15
100
AcDbLine
 10
752.2982893256
 20
582.9681300428
 30
0.0
 11
751.9762258894
 21
582.6482036825
 31
0.0
  0
LINE
  5
1BB
330
1F
100
AcDbEntity
  8
0
  6
Continuous
 62
     7
370
    15
100
AcDbLine
 10
751.7928660964
 20
582.1742810857
 30
0.0
 11
751.7005050547
 21
582.3740979583
 31
0.0
  0
LINE
  5
1BC
330
1F
100
AcDbEntity
  8
0
  6
Continuous
 62
     7
370
    15
100
AcDbLine
 10
751.7005050547
 20
582.3740979583
 30
0.0
 11
751.1748336142
 21
581.8519301652
 31
0.0
  0
LINE
  5
1BD
330
1F
100
AcDbEntity
  8
0
  6
Continuous
 62
     7
370
    15
100
AcDbLine
 10
751.1748336142
 20
581.8519301652
 30
0.0
 11
751.7928660964
 21
582.1742810857
 31
0.0
  0
LINE
  5
1BE
330
1F
100
AcDbEntity
  8
0
  6
Continuous
 62
     7
370
    15
100
AcDbLine
 10
750.6042090376
 20
581.5439488939
 30
0.0
 11
750.6076252432
 21
581.5410167434
 31
0.0
  0
LINE
  5
1BF
330
1F
100
AcDbEntity
  8
0
  6
Continuous
 62
     7
370
    15
100
AcDbLine
 10
751.61353932
 20
582.5471310223
 30
0.0
 11
751.6169542809
 21
582.5442015411
 31
0.0
  0
LINE
  5
1C0
330
1F
100
AcDbEntity
  8
0
  6
Continuous
 62
     7
370
    15
100
AcDbLine
 10
750.6892212322
 20
581.3704291139
 30
0.0
 11
750.6926618794
 21
581.367444548
 31
0.0
  0
LINE
  5
1C1
330
1F
100
AcDbEntity
  8
0
  6
Continuous
 62
     7
370
    15
100
AcDbLine
 10
751.5710787138
 20
582.6309988127
 30
0.0
 11
751.5744813114
 21
582.6280958447
 31
0.0
  0
LINE
  5
1C2
330
1F
100
AcDbEntity
  8
0
  6
Continuous
 62
     7
370
    15
100
AcDbLine
 10
751.8466645316
 20
582.9052138328
 30
0.0
 11
751.8500666221
 21
582.9023119521
 31
0.0
  0
LINE
  5
1C3
330
1F
100
AcDbEntity
  8
0
  6
Continuous
 62
     7
370
    15
100
AcDbLine
 10
752.2111736267
 20
583.1412920175
 30
0.0
 11
752.2145877912
 21
583.1383642441
 31
0.0
  0
LINE
  5
1C4
330
1F
100
AcDbEntity
  8
0
  6
Continuous
 62
     7
370
    15
100
AcDbLine
 10
751.1713936498
 20
581.8549132665
 30
0.0
 11
751.7893977105
 21
582.1773251372
 31
0.0
  0
LINE
  5
1C5
330
1F
100
AcDbEntity
  8
0
  6
Continuous
 62
     7
370
    15
100
AcDbLine
 10
751.7893977105
 20
582.1773251372
 30
0.0
 11
751.7928660964
 21
582.1742810857
 31
0.0
  0
LINE
  5
1C6
330
1F
100
AcDbEntity
  8
0
  6
Continuous
 62
     7
370
    15
100
AcDbLine
 10
751.7893977105
 20
582.1773251372
 30
0.0
 11
751.6970652695
 21
582.3770806754
 31
0.0
  0
LINE
  5
1C7
330
1F
100
AcDbEntity
  8
0
  6
Continuous
 62
     7
370
    15
100
AcDbLine
 10
753.6394427188
 20
606.7678965045
 30
0.0
 11
760.2186222434
 21
592.6588004825
 31
0.0
  0
LINE
  5
1C8
330
1F
100
AcDbEntity
  8
0
  6
Continuous
 62
     7
370
    15
100
AcDbLine
 10
752.9577628932
 20
608.2297636079
 30
0.0
 11
753.6394427188
 21
606.7678965045
 31
0.0
  0
SPLINE
  5
1C9
330
1F
100
AcDbEntity
  8
0
  6
Continuous
 62
     7
370
    15
100
AcDbSpline
210
0.0
220
0.0
230
1.0
 70
     8
 71
     3
 72
    11
 73
     7
 74
     0
 42
0.00000001
 43
0.00000001
 12
1.0
 22
0.0
 32
0.0
 13
1.0
 23
0.0
 33
0.0
 40
0.0
 40
0.0
 40
0.0
 40
0.0
 40
0.293311876092792
 40
0.5865991201420677
 40
0.8805021461503711
 40
1.0
 40
1.0
 40
1.0
 40
1.0
 10
752.4972856137484
 20
608.5196623034846
 30
0.0
 10
752.5536360480911
 20
608.5148270913035
 30
0.0
 10
752.6663321845222
 20
608.5051570729976
 30
0.0
 10
752.8167104243753
 20
608.4205548865868
 30
0.0
 10
752.9109344541735
 20
608.320254648039
 30
0.0
 10
752.9472620276481
 20
608.2500554277392
 30
0.0
 10
752.9577628932178
 20
608.2297636079186
 30
0.0
  0
LINE
  5
1CA
330
1F
100
AcDbEntity
  8
0
  6
Continuous
 62
     7
370
    15
100
AcDbLine
 10
760.2186222434
 20
592.6588004825
 30
0.0
 11
760.9129310898
 21
591.1698503566
 31
0.0
  0
LINE
  5
1CB
330
1F
100
AcDbEntity
  8
0
  6
Continuous
 62
     7
370
    15
100
AcDbLine
 10
733.9687890807
 20
603.0197107336
 30
0.0
 11
733.9794094884
 21
603.0246631111
 31
0.0
  0
LINE
  5
1CC
330
1F
100
AcDbEntity
  8
0
  6
Continuous
 62
     7
370
    15
100
AcDbLine
 10
736.0818803894
 20
598.4881717985
 30
0.0
 11
736.0925007971
 21
598.4931241759
 31
0.0
  0
LINE
  5
1CD
330
1F
100
AcDbEntity
  8
0
  6
Continuous
 62
     7
370
    15
100
AcDbLine
 10
736.1981553625
 20
598.2665472291
 30
0.0
 11
736.1875349549
 21
598.2615948517
 31
0.0
  0
LINE
  5
1CE
330
1F
100
AcDbEntity
  8
0
  6
Continuous
 62
     7
370
    15
100
AcDbLine
 10
742.1148110269
 20
585.5782382106
 30
0.0
 11
742.1041906192
 21
585.5732858332
 31
0.0
  0
LINE
  5
1CF
330
1F
100
AcDbEntity
  8
0
  6
Continuous
 62
     7
370
    15
100
AcDbLine
 10
318.4273380308
 20
664.7782957027
 30
0.0
 11
318.4273380308
 21
664.9282957027
 31
0.0
  0
LINE
  5
1D0
330
1F
100
AcDbEntity
  8
0
  6
Continuous
 62
     7
370
    15
100
AcDbLine
 10
327.4273380308
 20
664.9282957027
 30
0.0
 11
327.4273380308
 21
664.7782957027
 31
0.0
  0
LINE
  5
1D1
330
1F
100
AcDbEntity
  8
0
  6
Continuous
 62
     7
370
    15
100
AcDbLine
 10
306.6023380308
 20
664.7782957027
 30
0.0
 11
306.6023380308
 21
664.9282957027
 31
0.0
  0
LINE
  5
1D2
330
1F
100
AcDbEntity
  8
0
  6
Continuous
 62
     7
370
    15
100
AcDbLine
 10
339.2523380308
 20
664.9282957027
 30
0.0
 11
339.2523380308
 21
664.8096917254
 31
0.0
  0
ARC
  5
1D3
330
1F
100
AcDbEntity
  8
0
  6
Continuous
 62
     7
370
    15
100
AcDbCircle
 10
306.3023380308
 20
663.9282957027
 30
0.0
 40
1.0
100
AcDbArc
 50
90.0
 51
180.0
  0
LINE
  5
1D4
330
1F
100
AcDbEntity
  8
0
  6
Continuous
 62
     7
370
    15
100
AcDbLine
 10
306.3023380308
 20
664.9282957027
 30
0.0
 11
306.3023380308
 21
664.7782957027
 31
0.0
  0
ARC
  5
1D5
330
1F
100
AcDbEntity
  8
0
  6
Continuous
 62
     7
370
    15
100
AcDbCircle
 10
339.4023380308
 20
663.4782957027
 30
0.0
 40
0.1500000000000233
100
AcDbArc
 50
180.0
 51
319.9683117403
  0
LINE
  5
1D6
330
1F
100
AcDbEntity
  8
0
  6
Continuous
 62
     7
370
    15
100
AcDbLine
 10
339.5523380308
 20
664.7782957027
 30
0.0
 11
339.5523380308
 21
664.9282957027
 31
0.0
  0
ARC
  5
1D7
330
1F
100
AcDbEntity
  8
0
  6
Continuous
 62
     7
370
    15
100
AcDbCircle
 10
339.5523380308
 20
663.9282957027
 30
0.0
 40
1.0
100
AcDbArc
 50
0.0
 51
90.0
  0
ARC
  5
1D8
330
1F
100
AcDbEntity
  8
0
  6
Continuous
 62
     7
370
    15
100
AcDbCircle
 10
306.4523380308
 20
663.4782957027
 30
0.0
 40
0.1500000000000341
100
AcDbArc
 50
180.0
 51
0.0
  0
LINE
  5
1D9
330
1F
100
AcDbEntity
  8
0
  6
Continuous
 62
     7
370
    15
100
AcDbLine
 10
311.5023380302
 20
656.9532957027
 30
0.0
 11
306.3023380308
 21
656.9532957027
 31
0.0
  0
ARC
  5
1DA
330
1F
100
AcDbEntity
  8
0
  6
Continuous
 62
     7
370
    15
100
AcDbCircle
 10
306.3023380308
 20
657.9532957027
 30
0.0
 40
1.000000000000057
100
AcDbArc
 50
180.0
 51
270.0
  0
LINE
  5
1DB
330
1F
100
AcDbEntity
  8
0
  6
Continuous
 62
     7
370
    15
100
AcDbLine
 10
305.3023380308
 20
657.9532957027
 30
0.0
 11
305.3023380308
 21
663.7782957027
 31
0.0
  0
ARC
  5
1DC
330
1F
100
AcDbEntity
  8
0
  6
Continuous
 62
     7
370
    15
100
AcDbCircle
 10
306.3023380308
 20
663.7782957027
 30
0.0
 40
1.0
100
AcDbArc
 50
90.0
 51
180.0
  0
LINE
  5
1DD
330
1F
100
AcDbEntity
  8
0
  6
Continuous
 62
     7
370
    15
100
AcDbLine
 10
306.3023380308
 20
664.7782957027
 30
0.0
 11
306.3023380308
 21
663.3282957027
 31
0.0
  0
ARC
  5
1DE
330
1F
100
AcDbEntity
  8
0
  6
Continuous
 62
     7
370
    15
100
AcDbCircle
 10
306.4523380308
 20
663.3282957027
 30
0.0
 40
0.1500000000000909
100
AcDbArc
 50
180.0
 51
0.0
  0
LINE
  5
1DF
330
1F
100
AcDbEntity
  8
0
  6
Continuous
 62
     7
370
    15
100
AcDbLine
 10
306.6023380308
 20
663.3282957027
 30
0.0
 11
306.6023380308
 21
663.6282957027
 31
0.0
  0
LINE
  5
1E0
330
1F
100
AcDbEntity
  8
0
  6
Continuous
 62
     7
370
    15
100
AcDbLine
 10
339.2523380308
 20
663.6282957027
 30
0.0
 11
339.2523380308
 21
663.3282957027
 31
0.0
  0
ARC
  5
1E1
330
1F
100
AcDbEntity
  8
0
  6
Continuous
 62
     7
370
    15
100
AcDbCircle
 10
339.4023380308
 20
663.3282957027
 30
0.0
 40
0.1500000000000341
100
AcDbArc
 50
180.0
 51
0.0
  0
LINE
  5
1E2
330
1F
100
AcDbEntity
  8
0
  6
Continuous
 62
     7
370
    15
100
AcDbLine
 10
339.5523380308
 20
663.3282957027
 30
0.0
 11
339.5523380308
 21
664.7782957027
 31
0.0
  0
ARC
  5
1E3
330
1F
100
AcDbEntity
  8
0
  6
Continuous
 62
     7
370
    15
100
AcDbCircle
 10
339.5523380308
 20
663.7782957027
 30
0.0
 40
1.0
100
AcDbArc
 50
0.0
 51
90.0
  0
LINE
  5
1E4
330
1F
100
AcDbEntity
  8
0
  6
Continuous
 62
     7
370
    15
100
AcDbLine
 10
340.5523380308
 20
663.7782957027
 30
0.0
 11
340.5523380308
 21
657.0782957027
 31
0.0
  0
LINE
  5
1E5
330
1F
100
AcDbEntity
  8
0
  6
Continuous
 62
     7
370
    15
100
AcDbLine
 10
311.8023380302
 20
657.0782957027
 30
0.0
 11
311.8023380302
 21
657.3782957027
 31
0.0
  0
ARC
  5
1E6
330
1F
100
AcDbEntity
  8
0
  6
Continuous
 62
     7
370
    15
100
AcDbCircle
 10
311.6523380302
 20
657.3782957027
 30
0.0
 40
0.1500000000000341
100
AcDbArc
 50
0.0
 51
180.0
  0
LINE
  5
1E7
330
1F
100
AcDbEntity
  8
0
  6
Continuous
 62
     7
370
    15
100
AcDbLine
 10
311.5023380302
 20
657.3782957027
 30
0.0
 11
311.5023380302
 21
656.9532957027
 31
0.0
  0
LINE
  5
1E8
330
1F
100
AcDbEntity
  8
0
  6
Continuous
 62
     7
370
    15
100
AcDbLine
 10
340.5523380308
 20
657.0782957027
 30
0.0
 11
340.5523380308
 21
655.9282957027
 31
0.0
  0
LINE
  5
1E9
330
1F
100
AcDbEntity
  8
0
  6
Continuous
 62
     7
370
    15
100
AcDbLine
 10
340.5523380308
 20
655.9282957027
 30
0.0
 11
311.8023380302
 21
655.9282957027
 31
0.0
  0
LINE
  5
1EA
330
1F
100
AcDbEntity
  8
0
  6
Continuous
 62
     7
370
    15
100
AcDbLine
 10
311.8023380302
 20
655.9282957027
 30
0.0
 11
311.8023380302
 21
657.0782957027
 31
0.0
  0
LINE
  5
1EB
330
1F
100
AcDbEntity
  8
0
  6
Continuous
 62
     7
370
    15
100
AcDbLine
 10
306.6023380308
 20
664.7782957027
 30
0.0
 11
339.2523380308
 21
664.7782957027
 31
0.0
  0
LINE
  5
1EC
330
1F
100
AcDbEntity
  8
0
  6
Continuous
 62
     7
370
    15
100
AcDbLine
 10
339.2523380308
 20
664.7782957027
 30
0.0
 11
339.2523380308
 21
663.6282957027
 31
0.0
  0
LINE
  5
1ED
330
1F
100
AcDbEntity
  8
0
  6
Continuous
 62
     7
370
    15
100
AcDbLine
 10
306.6023380308
 20
663.6282957027
 30
0.0
 11
306.6023380308
 21
664.7782957027
 31
0.0
  0
LINE
  5
1EE
330
1F
100
AcDbEntity
  8
0
  6
Continuous
 62
     7
370
    15
100
AcDbLine
 10
743.0372682687
 20
630.8988936092
 30
0.0
 11
725.3406252829
 21
622.6468134613
 31
0.0
  0
SPLINE
  5
1EF
330
1F
100
AcDbEntity
  8
0
  6
Continuous
 62
     7
370
    15
100
AcDbSpline
210
0.0
220
0.0
230
1.0
 70
     8
 71
     3
 72
    14
 73
    10
 74
     0
 42
0.00000001
 43
0.00000001
 12
1.0
 22
0.0
 32
0.0
 13
1.0
 23
0.0
 33
0.0
 40
0.0
 40
0.0
 40
0.0
 40
0.0
 40
0.1424979789612807
 40
0.2891107491291701
 40
0.4316087267218909
 40
0.578221423293946
 40
0.7209671108987271
 40
0.867849816673804
 40
1.0
 40
1.0
 40
1.0
 40
1.0
 10
725.3406252829433
 20
622.6468134612577
 30
0.0
 10
725.2683167188543
 20
622.6192487259184
 30
0.0
 10
725.1216115986512
 20
622.5633232921576
 30
0.0
 10
724.8715045085778
 20
622.5464147526599
 30
0.0
 10
724.5981624044601
 20
622.5741935509936
 30
0.0
 10
724.3071845459207
 20
622.6446008055262
 30
0.0
 10
723.9978685816272
 20
622.7488656660017
 30
0.0
 10
723.6882818600205
 20
622.872080883817
 30
0.0
 10
723.480343764391
 20
622.9604575067995
 30
0.0
 10
723.3818641280068
 20
623.0023127410212
 30
0.0
  0
LINE
  5
1F0
330
1F
100
AcDbEntity
  8
0
  6
Continuous
 62
     7
370
    15
100
AcDbLine
 10
725.1099797275
 20
622.0174886992
 30
0.0
 11
753.3104490798
 21
561.5413870114
 31
0.0
  0
SPLINE
  5
1F1
330
1F
100
AcDbEntity
  8
0
  6
Continuous
 62
     7
370
    15
100
AcDbSpline
210
0.0
220
0.0
230
1.0
 70
     8
 71
     3
 72
    11
 73
     7
 74
     0
 42
0.00000001
 43
0.00000001
 12
1.0
 22
0.0
 32
0.0
 13
1.0
 23
0.0
 33
0.0
 40
0.0
 40
0.0
 40
0.0
 40
0.0
 40
0.2888077077194049
 40
0.5776153362197914
 40
0.866934541432361
 40
1.0
 40
1.0
 40
1.0
 40
1.0
 10
723.381864128007
 20
623.0023127410213
 30
0.0
 10
723.6057131403959
 20
622.9342083635931
 30
0.0
 10
724.0534111037724
 20
622.7979996274175
 30
0.0
 10
724.6269918983028
 20
622.5479949638604
 30
0.0
 10
724.9644356726684
 20
622.279869598646
 30
0.0
 10
725.0751127148933
 20
622.08034553062
 30
0.0
 10
725.1099797274518
 20
622.0174886991964
 30
0.0
  0
ARC
  5
1F2
330
1F
100
AcDbEntity
  8
0
  6
Continuous
 62
     7
370
    15
100
AcDbCircle
 10
748.7789101447
 20
559.4282957027
 30
0.0
 40
4.999999999999917
100
AcDbArc
 50
335.0
 51
25.0
  0
SPLINE
  5
1F3
330
1F
100
AcDbEntity
  8
0
  6
Continuous
 62
     7
370
    15
100
AcDbSpline
210
0.0
220
0.0
230
1.0
 70
     8
 71
     3
 72
    12
 73
     8
 74
     0
 42
0.00000001
 43
0.00000001
 12
1.0
 22
0.0
 32
0.0
 13
1.0
 23
0.0
 33
0.0
 40
0.0
 40
0.0
 40
0.0
 40
0.0
 40
0.2096821001528878
 40
0.4420453733185978
 40
0.6744332966681351
 40
0.9068208701180639
 40
1.0
 40
1.0
 40
1.0
 40
1.0
 10
305.3273380308102
 20
533.4782957026828
 30
0.0
 10
305.2011725518225
 20
533.4261530987189
 30
0.0
 10
304.935194358079
 20
533.3162276600756
 30
0.0
 10
304.5745036431715
 20
533.1482435951341
 30
0.0
 10
304.3028241761783
 20
532.9747909609257
 30
0.0
 10
304.1885132561067
 20
532.8356026298094
 30
0.0
 10
304.1798247367944
 20
532.7549223991986
 30
0.0
 10
304.1773380308102
 20
532.7318312365886
 30
0.0
  0
LINE
  5
1F4
330
1F
100
AcDbEntity
  8
0
  6
Continuous
 62
     7
370
    15
100
AcDbLine
 10
304.1773380308
 20
655.5247601688
 30
0.0
 11
304.1773380308
 21
532.7318312366
 31
0.0
  0
SPLINE
  5
1F5
330
1F
100
AcDbEntity
  8
0
  6
Continuous
 62
     7
370
    15
100
AcDbSpline
210
0.0
220
0.0
230
1.0
 70
     8
 71
     3
 72
    12
 73
     8
 74
     0
 42
0.00000001
 43
0.00000001
 12
1.0
 22
0.0
 32
0.0
 13
1.0
 23
0.0
 33
0.0
 40
0.0
 40
0.0
 40
0.0
 40
0.0
 40
0.209682100152868
 40
0.4420453733185927
 40
0.674433296668106
 40
0.9068208701180378
 40
1.0
 40
1.0
 40
1.0
 40
1.0
 10
304.1773380308101
 20
655.524760168777
 30
0.0
 10
304.1895080158944
 20
655.4726175648133
 30
0.0
 10
304.2151644052379
 20
655.3626921261699
 30
0.0
 10
304.4256296987022
 20
655.1947080612284
 30
0.0
 10
304.7515244376497
 20
655.02125542702
 30
0.0
 10
305.0762449572013
 20
654.8820670959037
 30
0.0
 10
305.2714649157544
 20
654.8013868652929
 30
0.0
 10
305.3273380308102
 20
654.778295702683
 30
0.0
  0
SPLINE
  5
1F6
330
1F
100
AcDbEntity
  8
0
  6
Continuous
 62
     7
370
    15
100
AcDbSpline
210
0.0
220
0.0
230
1.0
 70
     8
 71
     3
 72
    12
 73
     8
 74
     0
 42
0.00000001
 43
0.00000001
 12
1.0
 22
0.0
 32
0.0
 13
1.0
 23
0.0
 33
0.0
 40
0.0
 40
0.0
 40
0.0
 40
0.0
 40
0.2096821001528904
 40
0.442045373318579
 40
0.6744332966681436
 40
0.9068208701180427
 40
0.9999999999999999
 40
0.9999999999999999
 40
0.9999999999999999
 40
0.9999999999999999
 10
305.3273380308101
 20
654.778295702683
 30
0.0
 10
305.2751954268462
 20
654.9044611816706
 30
0.0
 10
305.1652699882028
 20
655.1704393754143
 30
0.0
 10
304.9972859232617
 20
655.5311300903217
 30
0.0
 10
304.823833289053
 20
655.8028095573148
 30
0.0
 10
304.6846449579367
 20
655.9171204773864
 30
0.0
 10
304.6039647273261
 20
655.9258089966986
 30
0.0
 10
304.5808735647161
 20
655.9282957026829
 30
0.0
  0
LINE
  5
1F7
330
1F
100
AcDbEntity
  8
0
  6
Continuous
 62
     7
370
    15
100
AcDbLine
 10
304.5808735647
 20
655.9282957027
 30
0.0
 11
306.3023380308
 21
655.9282957027
 31
0.0
  0
LINE
  5
1F8
330
1F
100
AcDbEntity
  8
0
  6
Continuous
 62
     7
370
    15
100
AcDbLine
 10
311.6773380308
 20
655.9282957027
 30
0.0
 11
311.8023380302
 21
655.9282957027
 31
0.0
  0
LINE
  5
1F9
330
1F
100
AcDbEntity
  8
0
  6
Continuous
 62
     7
370
    15
100
AcDbLine
 10
340.5523380308
 20
655.9282957027
 30
0.0
 11
342.8023380308
 21
655.9282957027
 31
0.0
  0
SPLINE
  5
1FA
330
1F
100
AcDbEntity
  8
0
  6
Continuous
 62
     7
370
    15
100
AcDbSpline
210
0.0
220
0.0
230
1.0
 70
     8
 71
     3
 72
    11
 73
     7
 74
     0
 42
0.00000001
 43
0.00000001
 12
1.0
 22
0.0
 32
0.0
 13
1.0
 23
0.0
 33
0.0
 40
0.0
 40
0.0
 40
0.0
 40
0.0
 40
0.2543211584721489
 40
0.5088664984542584
 40
0.7634130007197295
 40
1.0
 40
1.0
 40
1.0
 40
1.0
 10
305.3273380308102
 20
533.4782957026828
 30
0.0
 10
305.2273504357405
 20
533.41500514879
 30
0.0
 10
305.027287107555
 20
533.2883682510262
 30
0.0
 10
304.7764752305072
 20
533.0983959162835
 30
0.0
 10
304.6084426070778
 20
532.912783350448
 30
0.0
 10
304.5874503450224
 20
532.7906600281135
 30
0.0
 10
304.5773380308102
 20
532.7318312365886
 30
0.0
  0
LINE
  5
1FB
330
1F
100
AcDbEntity
  8
0
  6
Continuous
 62
     7
370
    15
100
AcDbLine
 10
304.1773380308
 20
532.7318312366
 30
0.0
 11
304.5773380308
 21
532.7318312366
 31
0.0
  0
SPLINE
  5
1FC
330
1F
100
AcDbEntity
  8
0
  6
Continuous
 62
     7
370
    15
100
AcDbSpline
210
0.0
220
0.0
230
1.0
 70
     8
 71
     3
 72
    11
 73
     7
 74
     0
 42
0.00000001
 43
0.00000001
 12
1.0
 22
0.0
 32
0.0
 13
1.0
 23
0.0
 33
0.0
 40
0.0
 40
0.0
 40
0.0
 40
0.0
 40
0.2543211584720629
 40
0.5088664984541644
 40
0.763413000719657
 40
1.0
 40
1.0
 40
1.0
 40
1.0
 10
305.3273380308102
 20
654.778295702683
 30
0.0
 10
305.2640474769174
 20
654.8782832977525
 30
0.0
 10
305.1374105791535
 20
655.0783466259381
 30
0.0
 10
304.947438244411
 20
655.3291585029859
 30
0.0
 10
304.7618256785753
 20
655.4971911264154
 30
0.0
 10
304.6397023562408
 20
655.5181833884707
 30
0.0
 10
304.5808735647161
 20
655.5282957026828
 30
0.0
  0
LINE
  5
1FD
330
1F
100
AcDbEntity
  8
0
  6
Continuous
 62
     7
370
    15
100
AcDbLine
 10
304.5808735647
 20
655.9282957027
 30
0.0
 11
304.5808735647
 21
655.5282957027
 31
0.0
  0
LINE
  5
1FE
330
1F
100
AcDbEntity
  8
0
  6
Continuous
 62
     7
370
    15
100
AcDbLine
 10
304.1773380308
 20
655.5247601688
 30
0.0
 11
304.5773380308
 21
655.5247601688
 31
0.0
  0
SPLINE
  5
1FF
330
1F
100
AcDbEntity
  8
0
  6
Continuous
 62
     7
370
    15
100
AcDbSpline
210
0.0
220
0.0
230
1.0
 70
     8
 71
     3
 72
    11
 73
     7
 74
     0
 42
0.00000001
 43
0.00000001
 12
1.0
 22
0.0
 32
0.0
 13
1.0
 23
0.0
 33
0.0
 40
0.0
 40
0.0
 40
0.0
 40
0.0
 40
0.254321158472108
 40
0.5088664984542033
 40
0.7634130007197125
 40
1.0
 40
1.0
 40
1.0
 40
1.0
 10
304.5773380308102
 20
655.524760168777
 30
0.0
 10
304.5890150618197
 20
655.4614696148844
 30
0.0
 10
304.6123794170226
 20
655.3348327171204
 30
0.0
 10
304.7918232251201
 20
655.1448603823777
 30
0.0
 10
305.041434714765
 20
654.9592478165423
 30
0.0
 10
305.2343888730625
 20
654.8371244942077
 30
0.0
 10
305.3273380308101
 20
654.778295702683
 30
0.0
  0
CIRCLE
  5
200
330
1F
100
AcDbEntity
  8
0
  6
Continuous
 62
     7
370
    15
100
AcDbCircle
 10
342.9509492358
 20
645.9282957027
 30
0.0
 40
3.173831552685783
  0
CIRCLE
  5
201
330
1F
100
AcDbEntity
  8
0
  6
Continuous
 62
     7
370
    15
100
AcDbCircle
 10
727.9509492358
 20
645.9282957027
 30
0.0
 40
3.173831552685783
  0
CIRCLE
  5
202
330
1F
100
AcDbEntity
  8
0
  6
Continuous
 62
     7
370
    15
100
AcDbCircle
 10
537.9509492358
 20
645.9282957027
 30
0.0
 40
3.173831552685783
  0
LINE
  5
203
330
1F
100
AcDbEntity
  8
0
  6
Continuous
 62
     7
370
    15
100
AcDbLine
 10
708.1717919427
 20
532.3282957027
 30
0.0
 11
304.5808735647
 21
532.3282957027
 31
0.0
  0
SPLINE
  5
204
330
1F
100
AcDbEntity
  8
0
  6
Continuous
 62
     7
370
    15
100
AcDbSpline
210
0.0
220
0.0
230
1.0
 70
     8
 71
     3
 72
    17
 73
    13
 74
     0
 42
0.00000001
 43
0.00000001
 12
1.0
 22
0.0
 32
0.0
 13
1.0
 23
0.0
 33
0.0
 40
0.0
 40
0.0
 40
0.0
 40
0.0
 40
0.1035984107083992
 40
0.2096300057675028
 40
0.3241995137044854
 40
0.442090388979564
 40
0.5566717778555489
 40
0.6745756090648056
 40
0.7891568249000419
 40
0.907060475859827
 40
0.9534246172613722
 40
1.0
 40
1.0
 40
1.0
 40
1.0
 10
304.5808735647161
 20
532.3282957026827
 30
0.0
 10
304.6066487980886
 20
532.3312380638879
 30
0.0
 10
304.6588046398973
 20
532.3371918926406
 30
0.0
 10
304.7394610401871
 20
532.3866923556814
 30
0.0
 10
304.8237012414994
 20
532.4694746078776
 30
0.0
 10
304.9100654132051
 20
532.5884715998077
 30
0.0
 10
304.9972558423977
 20
532.7380814605664
 30
0.0
 10
305.0836312017476
 20
532.9109225378388
 30
0.0
 10
305.1708124159206
 20
533.1042302483047
 30
0.0
 10
305.2402449972151
 20
533.2682116321486
 30
0.0
 10
305.2926508861917
 20
533.394357440456
 30
0.0
 10
305.3157581425183
 20
533.4502739179352
 30
0.0
 10
305.3273380308102
 20
533.4782957026827
 30
0.0
  0
LINE
  5
205
330
1F
100
AcDbEntity
  8
0
  6
Continuous
 62
     7
370
    15
100
AcDbLine
 10
743.0050498346
 20
535.215204394
 30
0.0
 11
753.3104490798
 21
557.315204394
 31
0.0
  0
ARC
  5
206
330
1F
100
AcDbEntity
  8
0
  6
Continuous
 62
     7
370
    15
100
AcDbCircle
 10
738.4735108994
 20
537.3282957027
 30
0.0
 40
4.999999999999917
100
AcDbArc
 50
270.0
 51
335.0
  0
LINE
  5
207
330
1F
100
AcDbEntity
  8
0
  6
Continuous
 62
     7
370
    15
100
AcDbLine
 10
745.4557158952
 20
633.3173412357
 30
0.0
 11
752.682488171
 21
648.815204394
 31
0.0
  0
ARC
  5
208
330
1F
100
AcDbEntity
  8
0
  6
Continuous
 62
     7
370
    15
100
AcDbCircle
 10
748.1509492358
 20
650.9282957027
 30
0.0
 40
4.999999999999886
100
AcDbArc
 50
335.0
 51
90.0
  0
ARC
  5
209
330
1F
100
AcDbEntity
  8
0
  6
Continuous
 62
     7
370
    15
100
AcDbCircle
 10
740.92417696
 20
635.4304325444
 30
0.0
 40
5.00000000000006
100
AcDbArc
 50
295.0
 51
335.0
  0
LINE
  5
20A
330
1F
100
AcDbEntity
  8
0
  6
Continuous
 62
     7
370
    15
100
AcDbLine
 10
304.5808735647
 20
532.3282957027
 30
0.0
 11
304.5808735647
 21
532.7282957027
 31
0.0
  0
SPLINE
  5
20B
330
1F
100
AcDbEntity
  8
0
  6
Continuous
 62
     7
370
    15
100
AcDbSpline
210
0.0
220
0.0
230
1.0
 70
     8
 71
     3
 72
    15
 73
    11
 74
     0
 42
0.00000001
 43
0.00000001
 12
1.0
 22
0.0
 32
0.0
 13
1.0
 23
0.0
 33
0.0
 40
0.0
 40
0.0
 40
0.0
 40
0.0
 40
0.1253607905739721
 40
0.2543493449800864
 40
0.3798182032806015
 40
0.5089245063805214
 40
0.6343939312768868
 40
0.7635008384375351
 40
0.880293052750526
 40
1.0
 40
1.0
 40
1.0
 40
1.0
 10
304.5808735647161
 20
532.7282957026828
 30
0.0
 10
304.612065350161
 20
532.7311079366335
 30
0.0
 10
304.67535156717
 20
532.7368137866047
 30
0.0
 10
304.7698705902874
 20
532.7825711387444
 30
0.0
 10
304.8653034173951
 20
532.854427604033
 30
0.0
 10
304.959880943822
 20
532.9509787821753
 30
0.0
 10
305.0553412504786
 20
533.0693483226831
 30
0.0
 10
305.1477649351945
 20
533.199885412363
 30
0.0
 10
305.2387119938788
 20
533.3384248798981
 30
0.0
 10
305.2975542846435
 20
533.431290587412
 30
0.0
 10
305.3273380308102
 20
533.4782957026827
 30
0.0
  0
CIRCLE
  5
20C
330
1F
100
AcDbEntity
  8
0
  6
Continuous
 62
     7
370
    15
100
AcDbCircle
 10
727.9509492358
 20
645.9282957027
 30
0.0
 40
1.350000000000136
  0
CIRCLE
  5
20D
330
1F
100
AcDbEntity
  8
0
  6
Continuous
 62
     7
370
    15
100
AcDbCircle
 10
342.9509492358
 20
645.9282957027
 30
0.0
 40
1.350000000000136
  0
CIRCLE
  5
20E
330
1F
100
AcDbEntity
  8
0
  6
Continuous
 62
     7
370
    15
100
AcDbCircle
 10
537.9509492358
 20
645.9282957027
 30
0.0
 40
1.350000000000136
  0
CIRCLE
  5
20F
330
1F
100
AcDbEntity
  8
0
  6
Continuous
 62
     7
370
    15
100
AcDbCircle
 10
727.9789101452
 20
645.9282957027
 30
0.0
 40
1.262500000000068
  0
CIRCLE
  5
210
330
1F
100
AcDbEntity
  8
0
  6
Continuous
 62
     7
370
    15
100
AcDbCircle
 10
727.9789101452
 20
645.9282957027
 30
0.0
 40
1.050000000000055
  0
CIRCLE
  5
211
330
1F
100
AcDbEntity
  8
0
  6
Continuous
 62
     7
370
    15
100
AcDbCircle
 10
537.9789101452
 20
645.9282957027
 30
0.0
 40
1.262499999999932
  0
CIRCLE
  5
212
330
1F
100
AcDbEntity
  8
0
  6
Continuous
 62
     7
370
    15
100
AcDbCircle
 10
537.9789101452
 20
645.9282957027
 30
0.0
 40
1.049999999999955
  0
CIRCLE
  5
213
330
1F
100
AcDbEntity
  8
0
  6
Continuous
 62
     7
370
    15
100
AcDbCircle
 10
342.9789101452
 20
645.9282957027
 30
0.0
 40
1.262499999999989
  0
CIRCLE
  5
214
330
1F
100
AcDbEntity
  8
0
  6
Continuous
 62
     7
370
    15
100
AcDbCircle
 10
342.9789101452
 20
645.9282957027
 30
0.0
 40
1.049999999999955
  0
SPLINE
  5
215
330
1F
100
AcDbEntity
  8
0
  6
Continuous
 62
     7
370
    15
100
AcDbSpline
210
0.0
220
0.0
230
1.0
 70
     8
 71
     3
 72
    13
 73
     9
 74
     0
 42
0.00000001
 43
0.00000001
 12
1.0
 22
0.0
 32
0.0
 13
1.0
 23
0.0
 33
0.0
 40
0.0
 40
0.0
 40
0.0
 40
0.0
 40
0.0075462231143406
 40
0.2722763788513092
 40
0.4815195415729172
 40
0.6613541616925157
 40
0.8304588949399286
 40
1.0
 40
1.0
 40
1.0
 40
1.0
 10
327.7188346239664
 20
525.9282957026845
 30
0.0
 10
327.718745335988
 20
525.9282972947058
 30
0.0
 10
327.7155237233944
 20
525.9283547366573
 30
0.0
 10
327.7097162441788
 20
525.9341475664635
 30
0.0
 10
327.7024674867896
 20
525.9555069560998
 30
0.0
 10
327.697374640984
 20
525.9833427576518
 30
0.0
 10
327.69397506992
 20
526.016410654342
 30
0.0
 10
327.6935256577869
 20
526.0409901290412
 30
0.0
 10
327.6933006621689
 20
526.0532957026845
 30
0.0
  0
LINE
  5
216
330
1F
100
AcDbEntity
  8
0
  6
Continuous
 62
     7
370
    15
100
AcDbLine
 10
327.718834624
 20
525.9282957027
 30
0.0
 11
324.3660269787
 21
525.9282957027
 31
0.0
  0
SPLINE
  5
217
330
1F
100
AcDbEntity
  8
0
  6
Continuous
 62
     7
370
    15
100
AcDbSpline
210
0.0
220
0.0
230
1.0
 70
     8
 71
     3
 72
    13
 73
     9
 74
     0
 42
0.00000001
 43
0.00000001
 12
1.0
 22
0.0
 32
0.0
 13
1.0
 23
0.0
 33
0.0
 40
0.0
 40
0.0
 40
0.0
 40
0.0
 40
0.169541105059955
 40
0.3386458383076421
 40
0.5184804584270298
 40
0.7277236211485746
 40
0.9924537768851383
 40
0.9999999999999999
 40
0.9999999999999999
 40
0.9999999999999999
 40
0.9999999999999999
 10
327.6933006621687
 20
526.4032957026845
 30
0.0
 10
327.6935256577869
 20
526.415601276328
 30
0.0
 10
327.6939750699203
 20
526.4401807510271
 30
0.0
 10
327.697374640984
 20
526.4732486477174
 30
0.0
 10
327.7024674867899
 20
526.5010844492695
 30
0.0
 10
327.7097162441779
 20
526.5224438389057
 30
0.0
 10
327.7155237233967
 20
526.5282366687119
 30
0.0
 10
327.7187453359879
 20
526.5282941106633
 30
0.0
 10
327.7188346239662
 20
526.5282957026845
 30
0.0
  0
LINE
  5
218
330
1F
100
AcDbEntity
  8
0
  6
Continuous
 62
     7
370
    15
100
AcDbLine
 10
324.509882157
 20
526.5282957027
 30
0.0
 11
327.718834624
 21
526.5282957027
 31
0.0
  0
LINE
  5
219
330
1F
100
AcDbEntity
  8
0
  6
Continuous
 62
     7
370
    15
100
AcDbLine
 10
327.6933006622
 20
526.4032957027
 30
0.0
 11
327.6933006622
 21
526.0532957027
 31
0.0
  0
SPLINE
  5
21A
330
1F
100
AcDbEntity
  8
0
  6
Continuous
 62
     7
370
    15
100
AcDbSpline
210
0.0
220
0.0
230
1.0
 70
     8
 71
     3
 72
    12
 73
     8
 74
     0
 42
0.00000001
 43
0.00000001
 12
1.0
 22
0.0
 32
0.0
 13
1.0
 23
0.0
 33
0.0
 40
0.0
 40
0.0
 40
0.0
 40
0.0
 40
0.2289440738516124
 40
0.4594214300242018
 40
0.6825355698157437
 40
0.8947175231628339
 40
1.0
 40
1.0
 40
1.0
 40
1.0
 10
329.9189638640072
 20
525.9282957026844
 30
0.0
 10
329.986009872317
 20
525.9369629449733
 30
0.0
 10
330.1205509088979
 20
525.9543554757328
 30
0.0
 10
330.296854436619
 20
526.091290398639
 30
0.0
 10
330.4233592209525
 20
526.2898086658805
 30
0.0
 10
330.4800306433855
 20
526.4902466605569
 30
0.0
 10
330.4848504706755
 20
526.6126893571004
 30
0.0
 10
330.4864488965362
 20
526.6532957026844
 30
0.0
  0
LINE
  5
21B
330
1F
100
AcDbEntity
  8
0
  6
Continuous
 62
     7
370
    15
100
AcDbLine
 10
329.918963864
 20
525.9282957027
 30
0.0
 11
327.8339153117
 21
525.9282957027
 31
0.0
  0
LINE
  5
21C
330
1F
100
AcDbEntity
  8
0
  6
Continuous
 62
     7
370
    15
100
AcDbLine
 10
328.2895144127
 20
529.3282957027
 30
0.0
 11
330.374562965
 21
529.3282957027
 31
0.0
  0
LINE
  5
21D
330
1F
100
AcDbEntity
  8
0
  6
Continuous
 62
     7
370
    15
100
AcDbLine
 10
328.0245777654
 20
529.3282957027
 30
0.0
 11
328.2895144127
 21
529.3282957027
 31
0.0
  0
LINE
  5
21E
330
1F
100
AcDbEntity
  8
0
  6
Continuous
 62
     7
370
    15
100
AcDbLine
 10
327.718834624
 20
526.5282957027
 30
0.0
 11
327.8339153117
 21
526.5282957027
 31
0.0
  0
LINE
  5
21F
330
1F
100
AcDbEntity
  8
0
  6
Continuous
 62
     7
370
    15
100
AcDbLine
 10
327.8339153117
 20
525.9282957027
 30
0.0
 11
327.718834624
 21
525.9282957027
 31
0.0
  0
LINE
  5
220
330
1F
100
AcDbEntity
  8
0
  6
Continuous
 62
     7
370
    15
100
AcDbLine
 10
330.4864488965
 20
526.6532957027
 30
0.0
 11
330.499562965
 21
526.6532957027
 31
0.0
  0
LINE
  5
221
330
1F
100
AcDbEntity
  8
0
  6
Continuous
 62
     7
370
    15
100
AcDbLine
 10
330.1465028906
 20
525.9282957027
 30
0.0
 11
329.918963864
 21
525.9282957027
 31
0.0
  0
SPLINE
  5
222
330
1F
100
AcDbEntity
  8
0
  6
Continuous
 62
     7
370
    15
100
AcDbSpline
210
0.0
220
0.0
230
1.0
 70
     8
 71
     3
 72
    11
 73
     7
 74
     0
 42
0.00000001
 43
0.00000001
 12
1.0
 22
0.0
 32
0.0
 13
1.0
 23
0.0
 33
0.0
 40
0.0
 40
0.0
 40
0.0
 40
0.0
 40
0.0796332959751635
 40
0.4594981978903685
 40
0.8207504115405925
 40
1.0
 40
1.0
 40
1.0
 40
1.0
 10
321.5876798926168
 20
526.0775410176713
 30
0.0
 10
321.5756483103368
 20
526.0860223828818
 30
0.0
 10
321.5062239532543
 20
526.1349613597524
 30
0.0
 10
321.4216013055639
 20
526.2941318982733
 30
0.0
 10
321.3627646954171
 20
526.4897812337282
 30
0.0
 10
321.3581029010851
 20
526.6125734454556
 30
0.0
 10
321.3565568845644
 20
526.6532957026844
 30
0.0
  0
ARC
  5
223
330
1F
100
AcDbEntity
  8
0
  6
Continuous
 62
     7
370
    15
100
AcDbCircle
 10
321.7271678071
 20
529.2089206072
 30
0.0
 40
0.1195365972842881
100
AcDbArc
 50
357.3028984186
 51
87.0213133888
  0
LINE
  5
224
330
1F
100
AcDbEntity
  8
0
  6
Continuous
 62
     7
370
    15
100
AcDbLine
 10
321.4684428161
 20
529.3282957027
 30
0.0
 11
321.7333794634
 21
529.3282957027
 31
0.0
  0
LINE
  5
225
330
1F
100
AcDbEntity
  8
0
  6
Continuous
 62
     7
370
    15
100
AcDbLine
 10
321.7333794634
 20
529.3282957027
 30
0.0
 11
323.1014102618
 21
529.3282957027
 31
0.0
  0
SPLINE
  5
226
330
1F
100
AcDbEntity
  8
0
  6
Continuous
 62
     7
370
    15
100
AcDbSpline
210
0.0
220
0.0
230
1.0
 70
     8
 71
     3
 72
    13
 73
     9
 74
     0
 42
0.00000001
 43
0.00000001
 12
1.0
 22
0.0
 32
0.0
 13
1.0
 23
0.0
 33
0.0
 40
0.0
 40
0.0
 40
0.0
 40
0.0
 40
0.1695411050601303
 40
0.3386458383075667
 40
0.5184804584263861
 40
0.7277236211485486
 40
0.9924537768852988
 40
1.0
 40
1.0
 40
1.0
 40
1.0
 10
324.5560002632404
 20
527.0032957026845
 30
0.0
 10
324.5556488615427
 20
527.0156012763277
 30
0.0
 10
324.5549469625994
 20
527.040180751027
 30
0.0
 10
324.5496279997535
 20
527.0732486477173
 30
0.0
 10
324.5416316675891
 20
527.1010844492694
 30
0.0
 10
324.5301935450487
 20
527.1224438389055
 30
0.0
 10
324.5209612454586
 20
527.1282366687117
 30
0.0
 10
324.5158150741366
 20
527.1282941106632
 30
0.0
 10
324.5156724464245
 20
527.1282957026845
 30
0.0
  0
LINE
  5
227
330
1F
100
AcDbEntity
  8
0
  6
Continuous
 62
     7
370
    15
100
AcDbLine
 10
324.5156724464
 20
527.1282957027
 30
0.0
 11
327.8995777654
 21
527.1282957027
 31
0.0
  0
SPLINE
  5
228
330
1F
100
AcDbEntity
  8
0
  6
Continuous
 62
     7
370
    15
100
AcDbSpline
210
0.0
220
0.0
230
1.0
 70
     8
 71
     3
 72
    13
 73
     9
 74
     0
 42
0.00000001
 43
0.00000001
 12
1.0
 22
0.0
 32
0.0
 13
1.0
 23
0.0
 33
0.0
 40
0.0
 40
0.0
 40
0.0
 40
0.0
 40
0.0075462231148192
 40
0.2722763788516849
 40
0.4815195415736623
 40
0.661354161692475
 40
0.8304588949399229
 40
0.9999999999999999
 40
0.9999999999999999
 40
0.9999999999999999
 40
0.9999999999999999
 10
324.5156724464246
 20
526.5282957026844
 30
0.0
 10
324.5158150741366
 20
526.5282972947058
 30
0.0
 10
324.5209612454568
 20
526.5283547366573
 30
0.0
 10
324.5301935450496
 20
526.5341475664634
 30
0.0
 10
324.5416316675888
 20
526.5555069560995
 30
0.0
 10
324.5496279997536
 20
526.5833427576516
 30
0.0
 10
324.5549469625995
 20
526.616410654342
 30
0.0
 10
324.5556488615426
 20
526.6409901290411
 30
0.0
 10
324.5560002632404
 20
526.6532957026844
 30
0.0
  0
LINE
  5
229
330
1F
100
AcDbEntity
  8
0
  6
Continuous
 62
     7
370
    15
100
AcDbLine
 10
327.7269325904
 20
526.5282957027
 30
0.0
 11
324.5156724464
 21
526.5282957027
 31
0.0
  0
LINE
  5
22A
330
1F
100
AcDbEntity
  8
0
  6
Continuous
 62
     7
370
    15
100
AcDbLine
 10
324.5560002632
 20
526.6532957027
 30
0.0
 11
324.5560002632
 21
527.0032957027
 31
0.0
  0
SPLINE
  5
22B
330
1F
100
AcDbEntity
  8
0
  6
Continuous
 62
     7
370
    15
100
AcDbSpline
210
0.0
220
0.0
230
1.0
 70
     8
 71
     3
 72
    12
 73
     8
 74
     0
 42
0.00000001
 43
0.00000001
 12
1.0
 22
0.0
 32
0.0
 13
1.0
 23
0.0
 33
0.0
 40
0.0
 40
0.0
 40
0.0
 40
0.0
 40
0.2289440738515979
 40
0.4594214300241546
 40
0.6825355698157588
 40
0.8947175231628854
 40
1.0
 40
1.0
 40
1.0
 40
1.0
 10
322.1219392061622
 20
527.1282957026845
 30
0.0
 10
322.0610337489801
 20
527.1196284603956
 30
0.0
 10
321.9388149391016
 20
527.102235929636
 30
0.0
 10
321.7788450584051
 20
526.96530100673
 30
0.0
 10
321.6641218131583
 20
526.7667827394883
 30
0.0
 10
321.6127487084719
 20
526.5663447448121
 30
0.0
 10
321.6083795418445
 20
526.4439020482686
 30
0.0
 10
321.6069305710607
 20
526.4032957026845
 30
0.0
  0
LINE
  5
22C
330
1F
100
AcDbEntity
  8
0
  6
Continuous
 62
     7
370
    15
100
AcDbLine
 10
322.1219392062
 20
527.1282957027
 30
0.0
 11
324.4122968183
 21
527.1282957027
 31
0.0
  0
LINE
  5
22D
330
1F
100
AcDbEntity
  8
0
  6
Continuous
 62
     7
370
    15
100
AcDbLine
 10
324.0030375047
 20
523.7282957027
 30
0.0
 11
321.7126798926
 21
523.7282957027
 31
0.0
  0
LINE
  5
22E
330
1F
100
AcDbEntity
  8
0
  6
Continuous
 62
     7
370
    15
100
AcDbLine
 10
324.2410269787
 20
523.7282957027
 30
0.0
 11
324.0030375047
 21
523.7282957027
 31
0.0
  0
LINE
  5
22F
330
1F
100
AcDbEntity
  8
0
  6
Continuous
 62
     7
370
    15
100
AcDbLine
 10
324.4122968183
 20
527.1282957027
 30
0.0
 11
324.5156724464
 21
527.1282957027
 31
0.0
  0
LINE
  5
230
330
1F
100
AcDbEntity
  8
0
  6
Continuous
 62
     7
370
    15
100
AcDbLine
 10
324.5156724464
 20
526.5282957027
 30
0.0
 11
324.4122968183
 21
526.5282957027
 31
0.0
  0
LINE
  5
231
330
1F
100
AcDbEntity
  8
0
  6
Continuous
 62
     7
370
    15
100
AcDbLine
 10
321.6069305711
 20
526.4032957027
 30
0.0
 11
321.5876798926
 21
526.4032957027
 31
0.0
  0
LINE
  5
232
330
1F
100
AcDbEntity
  8
0
  6
Continuous
 62
     7
370
    15
100
AcDbLine
 10
321.6965028906
 20
527.1282957027
 30
0.0
 11
322.1219392062
 21
527.1282957027
 31
0.0
  0
ARC
  5
233
330
1F
100
AcDbEntity
  8
0
  6
Continuous
 62
     7
370
    15
100
AcDbCircle
 10
329.9019046726
 20
523.8450807923
 30
0.0
 40
0.1171764000646922
100
AcDbArc
 50
175.9798550466
 51
265.316190911
  0
LINE
  5
234
330
1F
100
AcDbEntity
  8
0
  6
Continuous
 62
     7
370
    15
100
AcDbLine
 10
329.8923364145
 20
523.7282957027
 30
0.0
 11
328.7863969088
 21
523.7282957027
 31
0.0
  0
LINE
  5
235
330
1F
100
AcDbEntity
  8
0
  6
Continuous
 62
     7
370
    15
100
AcDbLine
 10
330.1303258885
 20
523.7282957027
 30
0.0
 11
329.8923364145
 21
523.7282957027
 31
0.0
  0
LINE
  5
236
330
1F
100
AcDbEntity
  8
0
  6
Continuous
 62
     7
370
    15
100
AcDbLine
 10
325.3832431845
 20
532.230004709
 30
0.0
 11
325.983068443
 21
532.3282957027
 31
0.0
  0
LINE
  5
237
330
1F
100
AcDbEntity
  8
0
  6
Continuous
 62
     7
370
    15
100
AcDbLine
 10
327.5482944719
 20
532.3282957027
 30
0.0
 11
328.1085300697
 21
532.230004709
 31
0.0
  0
LINE
  5
238
330
1F
100
AcDbEntity
  8
0
  6
Continuous
 62
     7
370
    15
100
AcDbLine
 10
328.1085300697
 20
532.230004709
 30
0.0
 11
328.1085300697
 21
530.0765866964
 31
0.0
  0
SPLINE
  5
239
330
1F
100
AcDbEntity
  8
0
  6
Continuous
 62
     7
370
    15
100
AcDbSpline
210
0.0
220
0.0
230
1.0
 70
     8
 71
     3
 72
     9
 73
     5
 74
     0
 42
0.00000001
 43
0.00000001
 12
1.0
 22
0.0
 32
0.0
 13
1.0
 23
0.0
 33
0.0
 40
0.0
 40
0.0
 40
0.0
 40
0.0
 40
0.0702005767034165
 40
1.0
 40
1.0
 40
1.0
 40
1.0
 10
326.7458866271085
 20
529.8532957026845
 30
0.0
 10
326.7781893393746
 20
529.8535187608182
 30
0.0
 10
327.2383381555671
 20
529.8566962010085
 30
0.0
 10
327.6892616575777
 20
529.9706409419563
 30
0.0
 10
328.1085300696982
 20
530.076586696377
 30
0.0
  0
LINE
  5
23A
330
1F
100
AcDbEntity
  8
0
  6
Continuous
 62
     7
370
    15
100
AcDbLine
 10
325.3832431845
 20
530.0765866964
 30
0.0
 11
326.7458866271
 21
529.8532957027
 31
0.0
  0
LINE
  5
23B
330
1F
100
AcDbEntity
  8
0
  6
Continuous
 62
     7
370
    15
100
AcDbLine
 10
325.3832431845
 20
532.230004709
 30
0.0
 11
325.3832431845
 21
530.0765866964
 31
0.0
  0
LINE
  5
23C
330
1F
100
AcDbEntity
  8
0
  6
Continuous
 62
     7
370
    15
100
AcDbLine
 10
324.9336573131
 20
532.3282957027
 30
0.0
 11
325.3832431845
 21
532.230004709
 31
0.0
  0
SPLINE
  5
23D
330
1F
100
AcDbEntity
  8
0
  6
Continuous
 62
     7
370
    15
100
AcDbSpline
210
0.0
220
0.0
230
1.0
 70
     8
 71
     3
 72
     9
 73
     5
 74
     0
 42
0.00000001
 43
0.00000001
 12
1.0
 22
0.0
 32
0.0
 13
1.0
 23
0.0
 33
0.0
 40
0.0
 40
0.0
 40
0.0
 40
0.0
 40
0.0702005767034561
 40
0.9999999999999999
 40
0.9999999999999999
 40
0.9999999999999999
 40
0.9999999999999999
 10
324.2897295949447
 20
529.8532957026845
 30
0.0
 10
324.3156523372697
 20
529.8535187608182
 30
0.0
 10
324.6849191373776
 20
529.8566962010085
 30
0.0
 10
325.0467826754797
 20
529.9706409419563
 30
0.0
 10
325.3832431845187
 20
530.076586696377
 30
0.0
  0
LINE
  5
23E
330
1F
100
AcDbEntity
  8
0
  6
Continuous
 62
     7
370
    15
100
AcDbLine
 10
326.7458866271
 20
529.8532957027
 30
0.0
 11
324.2897295949
 21
529.8532957027
 31
0.0
  0
LINE
  5
23F
330
1F
100
AcDbEntity
  8
0
  6
Continuous
 62
     7
370
    15
100
AcDbLine
 10
323.1962160054
 20
532.230004709
 30
0.0
 11
323.6775723537
 21
532.3282957027
 31
0.0
  0
LINE
  5
240
330
1F
100
AcDbEntity
  8
0
  6
Continuous
 62
     7
370
    15
100
AcDbLine
 10
323.1962160054
 20
530.0765866964
 30
0.0
 11
324.2897295949
 21
529.8532957027
 31
0.0
  0
LINE
  5
241
330
1F
100
AcDbEntity
  8
0
  6
Continuous
 62
     7
370
    15
100
AcDbLine
 10
323.1962160054
 20
532.230004709
 30
0.0
 11
323.1962160054
 21
530.0765866964
 31
0.0
  0
SPLINE
  5
242
330
1F
100
AcDbEntity
  8
0
  6
Continuous
 62
     7
370
    15
100
AcDbSpline
210
0.0
220
0.0
230
1.0
 70
     8
 71
     3
 72
     9
 73
     5
 74
     0
 42
0.00000001
 43
0.00000001
 12
1.0
 22
0.0
 32
0.0
 13
1.0
 23
0.0
 33
0.0
 40
0.0
 40
0.0
 40
0.0
 40
0.0
 40
0.2575513451038384
 40
1.0
 40
1.0
 40
1.0
 40
1.0
 10
328.1085300696982
 20
530.076586696377
 30
0.0
 10
328.1311239884525
 20
530.0428790849896
 30
0.0
 10
328.2188498698498
 20
529.9120018365177
 30
0.0
 10
328.3099917536682
 20
529.8783100926213
 30
0.0
 10
328.377659922714
 20
529.8532957026845
 30
0.0
  0
LINE
  5
243
330
1F
100
AcDbEntity
  8
0
  6
Continuous
 62
     7
370
    15
100
AcDbLine
 10
328.3776599227
 20
529.8532957027
 30
0.0
 11
326.7458866271
 21
529.8532957027
 31
0.0
  0
SPLINE
  5
244
330
1F
100
AcDbEntity
  8
0
  6
Continuous
 62
     7
370
    15
100
AcDbSpline
210
0.0
220
0.0
230
1.0
 70
     8
 71
     3
 72
     9
 73
     5
 74
     0
 42
0.00000001
 43
0.00000001
 12
1.0
 22
0.0
 32
0.0
 13
1.0
 23
0.0
 33
0.0
 40
0.0
 40
0.0
 40
0.0
 40
0.0
 40
0.9250528693709867
 40
0.9999999999999999
 40
0.9999999999999999
 40
0.9999999999999999
 40
0.9999999999999999
 10
328.1085300696981
 20
532.2300047089918
 30
0.0
 10
328.1309282333914
 20
532.2692815653745
 30
0.0
 10
328.1551410804998
 20
532.3117406049422
 30
0.0
 10
328.1803050040789
 20
532.3271414532899
 30
0.0
 10
328.1821909679466
 20
532.3282957026827
 30
0.0
  0
SPLINE
  5
245
330
1F
100
AcDbEntity
  8
0
  6
Continuous
 62
     7
370
    15
100
AcDbSpline
210
0.0
220
0.0
230
1.0
 70
     8
 71
     3
 72
     9
 73
     5
 74
     0
 42
0.00000001
 43
0.00000001
 12
1.0
 22
0.0
 32
0.0
 13
1.0
 23
0.0
 33
0.0
 40
0.0
 40
0.0
 40
0.0
 40
0.0
 40
0.9250528693721108
 40
1.0
 40
1.0
 40
1.0
 40
1.0
 10
323.1962160053708
 20
532.2300047089919
 30
0.0
 10
323.2186141690641
 20
532.2692815653746
 30
0.0
 10
323.2428270161724
 20
532.3117406049422
 30
0.0
 10
323.2679909397515
 20
532.3271414532899
 30
0.0
 10
323.2698769036191
 20
532.3282957026827
 30
0.0
  0
SPLINE
  5
246
330
1F
100
AcDbEntity
  8
0
  6
Continuous
 62
     7
370
    15
100
AcDbSpline
210
0.0
220
0.0
230
1.0
 70
     8
 71
     3
 72
     9
 73
     5
 74
     0
 42
0.00000001
 43
0.00000001
 12
1.0
 22
0.0
 32
0.0
 13
1.0
 23
0.0
 33
0.0
 40
0.0
 40
0.0
 40
0.0
 40
0.0
 40
0.2575513451038554
 40
1.0
 40
1.0
 40
1.0
 40
1.0
 10
323.1962160053708
 20
530.0765866963773
 30
0.0
 10
323.2188099241252
 20
530.0428790849899
 30
0.0
 10
323.3065358055225
 20
529.9120018365178
 30
0.0
 10
323.397677689341
 20
529.8783100926214
 30
0.0
 10
323.4653458583867
 20
529.8532957026845
 30
0.0
  0
LINE
  5
247
330
1F
100
AcDbEntity
  8
0
  6
Continuous
 62
     7
370
    15
100
AcDbLine
 10
324.2897295949
 20
529.8532957027
 30
0.0
 11
323.4255142843
 21
529.8532957027
 31
0.0
  0
LINE
  5
248
330
1F
100
AcDbEntity
  8
0
  6
Continuous
 62
     7
370
    15
100
AcDbLine
 10
328.5531338641
 20
532.3282957027
 30
0.0
 11
328.6467897757
 21
532.230004709
 31
0.0
  0
LINE
  5
249
330
1F
100
AcDbEntity
  8
0
  6
Continuous
 62
     7
370
    15
100
AcDbLine
 10
328.6467897757
 20
532.230004709
 30
0.0
 11
328.6467897757
 21
530.0765866964
 31
0.0
  0
SPLINE
  5
24A
330
1F
100
AcDbEntity
  8
0
  6
Continuous
 62
     7
370
    15
100
AcDbSpline
210
0.0
220
0.0
230
1.0
 70
     8
 71
     3
 72
     9
 73
     5
 74
     0
 42
0.00000001
 43
0.00000001
 12
1.0
 22
0.0
 32
0.0
 13
1.0
 23
0.0
 33
0.0
 40
0.0
 40
0.0
 40
0.0
 40
0.0
 40
0.2686336050555794
 40
1.0
 40
1.0
 40
1.0
 40
1.0
 10
328.377659922714
 20
529.8532957026845
 30
0.0
 10
328.4021313571016
 20
529.8566101789767
 30
0.0
 10
328.493227310575
 20
529.8689484576948
 30
0.0
 10
328.5819216883817
 20
529.9888758394949
 30
0.0
 10
328.6467897757298
 20
530.076586696377
 30
0.0
  0
LINE
  5
24B
330
1F
100
AcDbEntity
  8
0
  6
Continuous
 62
     7
370
    15
100
AcDbLine
 10
328.6467897757
 20
532.230004709
 30
0.0
 11
328.1654334274
 21
532.3282957027
 31
0.0
  0
LINE
  5
24C
330
1F
100
AcDbEntity
  8
0
  6
Continuous
 62
     7
370
    15
100
AcDbLine
 10
328.6467897757
 20
530.0765866964
 30
0.0
 11
327.5532761862
 21
529.8532957027
 31
0.0
  0
LINE
  5
24D
330
1F
100
AcDbEntity
  8
0
  6
Continuous
 62
     7
370
    15
100
AcDbLine
 10
324.7961172733
 20
525.705004709
 30
0.0
 11
326.2285642824
 21
525.9282957027
 31
0.0
  0
SPLINE
  5
24E
330
1F
100
AcDbEntity
  8
0
  6
Continuous
 62
     7
370
    15
100
AcDbSpline
210
0.0
220
0.0
230
1.0
 70
     8
 71
     3
 72
     9
 73
     5
 74
     0
 42
0.00000001
 43
0.00000001
 12
1.0
 22
0.0
 32
0.0
 13
1.0
 23
0.0
 33
0.0
 40
0.0
 40
0.0
 40
0.0
 40
0.0
 40
0.0702005767034416
 40
1.0
 40
1.0
 40
1.0
 40
1.0
 10
326.2285642823635
 20
525.9282957026845
 30
0.0
 10
326.2625217521793
 20
525.9280726445506
 30
0.0
 10
326.7462424195933
 20
525.9248952043605
 30
0.0
 10
327.220265191509
 20
525.8109504634127
 30
0.0
 10
327.6610112914658
 20
525.7050047089919
 30
0.0
  0
LINE
  5
24F
330
1F
100
AcDbEntity
  8
0
  6
Continuous
 62
     7
370
    15
100
AcDbLine
 10
327.6610112915
 20
525.705004709
 30
0.0
 11
327.6610112915
 21
523.5515866964
 31
0.0
  0
SPLINE
  5
250
330
1F
100
AcDbEntity
  8
0
  6
Continuous
 62
     7
370
    15
100
AcDbSpline
210
0.0
220
0.0
230
1.0
 70
     8
 71
     3
 72
     9
 73
     5
 74
     0
 42
0.00000001
 43
0.00000001
 12
1.0
 22
0.0
 32
0.0
 13
1.0
 23
0.0
 33
0.0
 40
0.0
 40
0.0
 40
0.0
 40
0.0
 40
0.0702005767034425
 40
1.0
 40
1.0
 40
1.0
 40
1.0
 10
326.2285642823634
 20
523.3282957026845
 30
0.0
 10
326.2625217521793
 20
523.3285187608182
 30
0.0
 10
326.7462424195932
 20
523.3316962010085
 30
0.0
 10
327.2202651915089
 20
523.4456409419562
 30
0.0
 10
327.6610112914657
 20
523.5515866963771
 30
0.0
  0
LINE
  5
251
330
1F
100
AcDbEntity
  8
0
  6
Continuous
 62
     7
370
    15
100
AcDbLine
 10
324.7961172733
 20
523.5515866964
 30
0.0
 11
326.2285642824
 21
523.3282957027
 31
0.0
  0
LINE
  5
252
330
1F
100
AcDbEntity
  8
0
  6
Continuous
 62
     7
370
    15
100
AcDbLine
 10
324.7961172733
 20
525.705004709
 30
0.0
 11
324.7961172733
 21
523.5515866964
 31
0.0
  0
SPLINE
  5
253
330
1F
100
AcDbEntity
  8
0
  6
Continuous
 62
     7
370
    15
100
AcDbSpline
210
0.0
220
0.0
230
1.0
 70
     8
 71
     3
 72
     9
 73
     5
 74
     0
 42
0.00000001
 43
0.00000001
 12
1.0
 22
0.0
 32
0.0
 13
1.0
 23
0.0
 33
0.0
 40
0.0
 40
0.0
 40
0.0
 40
0.0
 40
0.2575513451038576
 40
1.0
 40
1.0
 40
1.0
 40
1.0
 10
324.7961172732612
 20
523.5515866963773
 30
0.0
 10
324.7230998969981
 20
523.5178790849897
 30
0.0
 10
324.4395938014124
 20
523.3870018365179
 30
0.0
 10
324.1450481187222
 20
523.3533100926214
 30
0.0
 10
323.9263630728036
 20
523.3282957026845
 30
0.0
  0
LINE
  5
254
330
1F
100
AcDbEntity
  8
0
  6
Continuous
 62
     7
370
    15
100
AcDbLine
 10
326.2285642824
 20
523.3282957027
 30
0.0
 11
323.9263630728
 21
523.3282957027
 31
0.0
  0
SPLINE
  5
255
330
1F
100
AcDbEntity
  8
0
  6
Continuous
 62
     7
370
    15
100
AcDbSpline
210
0.0
220
0.0
230
1.0
 70
     8
 71
     3
 72
     9
 73
     5
 74
     0
 42
0.00000001
 43
0.00000001
 12
1.0
 22
0.0
 32
0.0
 13
1.0
 23
0.0
 33
0.0
 40
0.0
 40
0.0
 40
0.0
 40
0.0
 40
0.5174000252719249
 40
0.9999999999999999
 40
0.9999999999999999
 40
0.9999999999999999
 40
0.9999999999999999
 10
324.7961172732612
 20
525.705004708992
 30
0.0
 10
324.7233461694949
 20
525.7408803468317
 30
0.0
 10
324.5826985077015
 20
525.8102186461888
 30
0.0
 10
324.4365555610814
 20
525.8311799524934
 30
0.0
 10
324.3660269787358
 20
525.8412958783863
 30
0.0
  0
LINE
  5
256
330
1F
100
AcDbEntity
  8
0
  6
Continuous
 62
     7
370
    15
100
AcDbLine
 10
327.6610112915
 20
525.705004709
 30
0.0
 11
328.2237041001
 21
525.9282957027
 31
0.0
  0
LINE
  5
257
330
1F
100
AcDbEntity
  8
0
  6
Continuous
 62
     7
370
    15
100
AcDbLine
 10
327.6610112915
 20
523.5515866964
 30
0.0
 11
328.2237041001
 21
523.3282957027
 31
0.0
  0
LINE
  5
258
330
1F
100
AcDbEntity
  8
0
  6
Continuous
 62
     7
370
    15
100
AcDbLine
 10
328.2237041001
 20
523.3282957027
 30
0.0
 11
326.2285642824
 21
523.3282957027
 31
0.0
  0
SPLINE
  5
259
330
1F
100
AcDbEntity
  8
0
  6
Continuous
 62
     7
370
    15
100
AcDbSpline
210
0.0
220
0.0
230
1.0
 70
     8
 71
     3
 72
     9
 73
     5
 74
     0
 42
0.00000001
 43
0.00000001
 12
1.0
 22
0.0
 32
0.0
 13
1.0
 23
0.0
 33
0.0
 40
0.0
 40
0.0
 40
0.0
 40
0.0
 40
0.2686336050555911
 40
1.0
 40
1.0
 40
1.0
 40
1.0
 10
323.9263630728036
 20
523.3282957026845
 30
0.0
 10
323.8472780786595
 20
523.3316101789767
 30
0.0
 10
323.5528808303043
 20
523.3439484576949
 30
0.0
 10
323.2662448187659
 20
523.4638758394948
 30
0.0
 10
323.0566088723458
 20
523.5515866963771
 30
0.0
  0
LINE
  5
25A
330
1F
100
AcDbEntity
  8
0
  6
Continuous
 62
     7
370
    15
100
AcDbLine
 10
323.0566088723
 20
523.7282957027
 30
0.0
 11
323.0566088723
 21
523.5515866964
 31
0.0
  0
LINE
  5
25B
330
1F
100
AcDbEntity
  8
0
  6
Continuous
 62
     7
370
    15
100
AcDbLine
 10
328.7863969088
 20
525.705004709
 30
0.0
 11
328.7863969088
 21
523.5515866964
 31
0.0
  0
SPLINE
  5
25C
330
1F
100
AcDbEntity
  8
0
  6
Continuous
 62
     7
370
    15
100
AcDbSpline
210
0.0
220
0.0
230
1.0
 70
     8
 71
     3
 72
     9
 73
     5
 74
     0
 42
0.00000001
 43
0.00000001
 12
1.0
 22
0.0
 32
0.0
 13
1.0
 23
0.0
 33
0.0
 40
0.0
 40
0.0
 40
0.0
 40
0.0
 40
0.0702005767034195
 40
1.0
 40
1.0
 40
1.0
 40
1.0
 10
328.2237041001104
 20
523.3282957026845
 30
0.0
 10
328.2370432490937
 20
523.3285187608183
 30
0.0
 10
328.4270580553772
 20
523.3316962010084
 30
0.0
 10
328.6132633412944
 20
523.4456409419561
 30
0.0
 10
328.786396908755
 20
523.5515866963771
 30
0.0
  0
LINE
  5
25D
330
1F
100
AcDbEntity
  8
0
  6
Continuous
 62
     7
370
    15
100
AcDbLine
 10
323.2059843046
 20
523.4881218745
 30
0.0
 11
323.0566088723
 21
523.5515866964
 31
0.0
  0
LINE
  5
25E
330
1F
100
AcDbEntity
  8
0
  6
Continuous
 62
     7
370
    15
100
AcDbLine
 10
323.9263630728
 20
523.3282957027
 30
0.0
 11
323.4215028906
 21
523.3282957027
 31
0.0
  0
LINE
  5
25F
330
1F
100
AcDbEntity
  8
0
  6
Continuous
 62
     7
370
    15
100
AcDbLine
 10
328.4215028906
 20
523.3282957027
 30
0.0
 11
328.2237041001
 21
523.3282957027
 31
0.0
  0
LINE
  5
260
330
1F
100
AcDbEntity
  8
0
  6
Continuous
 62
     7
370
    15
100
AcDbLine
 10
323.9773141101
 20
529.505004709
 30
0.0
 11
325.3873604244
 21
529.7282957027
 31
0.0
  0
SPLINE
  5
261
330
1F
100
AcDbEntity
  8
0
  6
Continuous
 62
     7
370
    15
100
AcDbSpline
210
0.0
220
0.0
230
1.0
 70
     8
 71
     3
 72
     9
 73
     5
 74
     0
 42
0.00000001
 43
0.00000001
 12
1.0
 22
0.0
 32
0.0
 13
1.0
 23
0.0
 33
0.0
 40
0.0
 40
0.0
 40
0.0
 40
0.0
 40
0.0702005767034334
 40
0.9999999999999999
 40
0.9999999999999999
 40
0.9999999999999999
 40
0.9999999999999999
 10
325.3873604244436
 20
529.7282957026845
 30
0.0
 10
325.4207868652504
 20
529.7280726445507
 30
0.0
 10
325.8969430790109
 20
529.7248952043605
 30
0.0
 10
326.3635530535607
 20
529.6109504634128
 30
0.0
 10
326.7974067388014
 20
529.5050047089919
 30
0.0
  0
LINE
  5
262
330
1F
100
AcDbEntity
  8
0
  6
Continuous
 62
     7
370
    15
100
AcDbLine
 10
326.7974067388
 20
529.505004709
 30
0.0
 11
326.7974067388
 21
527.3515866964
 31
0.0
  0
SPLINE
  5
263
330
1F
100
AcDbEntity
  8
0
  6
Continuous
 62
     7
370
    15
100
AcDbSpline
210
0.0
220
0.0
230
1.0
 70
     8
 71
     3
 72
     9
 73
     5
 74
     0
 42
0.00000001
 43
0.00000001
 12
1.0
 22
0.0
 32
0.0
 13
1.0
 23
0.0
 33
0.0
 40
0.0
 40
0.0
 40
0.0
 40
0.0
 40
0.070200576703469
 40
1.0
 40
1.0
 40
1.0
 40
1.0
 10
325.3873604244436
 20
527.1282957026845
 30
0.0
 10
325.4207868652504
 20
527.1285187608182
 30
0.0
 10
325.8969430790106
 20
527.1316962010084
 30
0.0
 10
326.3635530535605
 20
527.2456409419561
 30
0.0
 10
326.7974067388014
 20
527.351586696377
 30
0.0
  0
LINE
  5
264
330
1F
100
AcDbEntity
  8
0
  6
Continuous
 62
     7
370
    15
100
AcDbLine
 10
323.9773141101
 20
527.3515866964
 30
0.0
 11
325.3873604244
 21
527.1282957027
 31
0.0
  0
LINE
  5
265
330
1F
100
AcDbEntity
  8
0
  6
Continuous
 62
     7
370
    15
100
AcDbLine
 10
323.9773141101
 20
529.505004709
 30
0.0
 11
323.9773141101
 21
527.3515866964
 31
0.0
  0
LINE
  5
266
330
1F
100
AcDbEntity
  8
0
  6
Continuous
 62
     7
370
    15
100
AcDbLine
 10
326.7974067388
 20
529.505004709
 30
0.0
 11
327.769501129
 21
529.7282957027
 31
0.0
  0
LINE
  5
267
330
1F
100
AcDbEntity
  8
0
  6
Continuous
 62
     7
370
    15
100
AcDbLine
 10
325.3873604244
 20
529.7282957027
 30
0.0
 11
327.769501129
 21
529.7282957027
 31
0.0
  0
LINE
  5
268
330
1F
100
AcDbEntity
  8
0
  6
Continuous
 62
     7
370
    15
100
AcDbLine
 10
326.7974067388
 20
527.3515866964
 30
0.0
 11
327.769501129
 21
527.1282957027
 31
0.0
  0
SPLINE
  5
269
330
1F
100
AcDbEntity
  8
0
  6
Continuous
 62
     7
370
    15
100
AcDbSpline
210
0.0
220
0.0
230
1.0
 70
     8
 71
     3
 72
     9
 73
     5
 74
     0
 42
0.00000001
 43
0.00000001
 12
1.0
 22
0.0
 32
0.0
 13
1.0
 23
0.0
 33
0.0
 40
0.0
 40
0.0
 40
0.0
 40
0.0
 40
0.2575513451037356
 40
1.0
 40
1.0
 40
1.0
 40
1.0
 10
323.9773141100858
 20
529.505004708992
 30
0.0
 10
323.9405472851458
 20
529.5387123203793
 30
0.0
 10
323.7977919641625
 20
529.6695895688512
 30
0.0
 10
323.6494778216046
 20
529.7032813127475
 30
0.0
 10
323.5393621859603
 20
529.7282957026847
 30
0.0
  0
LINE
  5
26A
330
1F
100
AcDbEntity
  8
0
  6
Continuous
 62
     7
370
    15
100
AcDbLine
 10
323.539362186
 20
529.7282957027
 30
0.0
 11
325.3873604244
 21
529.7282957027
 31
0.0
  0
SPLINE
  5
26B
330
1F
100
AcDbEntity
  8
0
  6
Continuous
 62
     7
370
    15
100
AcDbSpline
210
0.0
220
0.0
230
1.0
 70
     8
 71
     3
 72
     9
 73
     5
 74
     0
 42
0.00000001
 43
0.00000001
 12
1.0
 22
0.0
 32
0.0
 13
1.0
 23
0.0
 33
0.0
 40
0.0
 40
0.0
 40
0.0
 40
0.0
 40
0.2575513451038604
 40
1.0
 40
1.0
 40
1.0
 40
1.0
 10
323.9773141100858
 20
527.3515866963771
 30
0.0
 10
323.9405472851459
 20
527.3178790849897
 30
0.0
 10
323.7977919641625
 20
527.1870018365178
 30
0.0
 10
323.6494778216046
 20
527.1533100926215
 30
0.0
 10
323.5393621859604
 20
527.1282957026845
 30
0.0
  0
SPLINE
  5
26C
330
1F
100
AcDbEntity
  8
0
  6
Continuous
 62
     7
370
    15
100
AcDbSpline
210
0.0
220
0.0
230
1.0
 70
     8
 71
     3
 72
     9
 73
     5
 74
     0
 42
0.00000001
 43
0.00000001
 12
1.0
 22
0.0
 32
0.0
 13
1.0
 23
0.0
 33
0.0
 40
0.0
 40
0.0
 40
0.0
 40
0.0
 40
0.0702005767034197
 40
1.0
 40
1.0
 40
1.0
 40
1.0
 10
327.7695011290336
 20
529.7282957026845
 30
0.0
 10
327.7925455179043
 20
529.7280726445506
 30
0.0
 10
328.12081046889
 20
529.7248952043601
 30
0.0
 10
328.4424941852812
 20
529.6109504634125
 30
0.0
 10
328.7415955192658
 20
529.5050047089919
 30
0.0
  0
LINE
  5
26D
330
1F
100
AcDbEntity
  8
0
  6
Continuous
 62
     7
370
    15
100
AcDbLine
 10
328.7415955193
 20
529.505004709
 30
0.0
 11
328.7415955193
 21
529.3282957027
 31
0.0
  0
SPLINE
  5
26E
330
1F
100
AcDbEntity
  8
0
  6
Continuous
 62
     7
370
    15
100
AcDbSpline
210
0.0
220
0.0
230
1.0
 70
     8
 71
     3
 72
     9
 73
     5
 74
     0
 42
0.00000001
 43
0.00000001
 12
1.0
 22
0.0
 32
0.0
 13
1.0
 23
0.0
 33
0.0
 40
0.0
 40
0.0
 40
0.0
 40
0.0
 40
0.5278771639358422
 40
1.0
 40
1.0
 40
1.0
 40
1.0
 10
327.7695011290336
 20
527.1282957026845
 30
0.0
 10
327.7926160010849
 20
527.1273324740284
 30
0.0
 10
327.8364043549491
 20
527.1255077528209
 30
0.0
 10
327.8793174929573
 20
527.1384135956996
 30
0.0
 10
327.8995777653781
 20
527.1445067388412
 30
0.0
  0
LINE
  5
26F
330
1F
100
AcDbEntity
  8
0
  6
Continuous
 62
     7
370
    15
100
AcDbLine
 10
323.3033719534
 20
527.221335127
 30
0.0
 11
323.1014102618
 21
527.3515866964
 31
0.0
  0
LINE
  5
270
330
1F
100
AcDbEntity
  8
0
  6
Continuous
 62
     7
370
    15
100
AcDbLine
 10
323.1014102618
 20
529.505004709
 30
0.0
 11
323.1014102618
 21
527.3515866964
 31
0.0
  0
SPLINE
  5
271
330
1F
100
AcDbEntity
  8
0
  6
Continuous
 62
     7
370
    15
100
AcDbSpline
210
0.0
220
0.0
230
1.0
 70
     8
 71
     3
 72
     9
 73
     5
 74
     0
 42
0.00000001
 43
0.00000001
 12
1.0
 22
0.0
 32
0.0
 13
1.0
 23
0.0
 33
0.0
 40
0.0
 40
0.0
 40
0.0
 40
0.0
 40
0.2686336050555576
 40
0.9999999999999999
 40
0.9999999999999999
 40
0.9999999999999999
 40
0.9999999999999999
 10
323.5393621859603
 20
529.7282957026847
 30
0.0
 10
323.499540101357
 20
529.7249812263923
 30
0.0
 10
323.3513007007235
 20
529.7126429476741
 30
0.0
 10
323.206969356637
 20
529.5927155658741
 30
0.0
 10
323.101410261835
 20
529.5050047089919
 30
0.0
  0
SPLINE
  5
272
330
1F
100
AcDbEntity
  8
0
  6
Continuous
 62
     7
370
    15
100
AcDbSpline
210
0.0
220
0.0
230
1.0
 70
     8
 71
     3
 72
     9
 73
     5
 74
     0
 42
0.00000001
 43
0.00000001
 12
1.0
 22
0.0
 32
0.0
 13
1.0
 23
0.0
 33
0.0
 40
0.0
 40
0.0
 40
0.0
 40
0.0
 40
0.5569342110491795
 40
0.9999999999999999
 40
0.9999999999999999
 40
0.9999999999999999
 40
0.9999999999999999
 10
328.7415955192658
 20
529.5050047089919
 30
0.0
 10
328.70497156801
 20
529.541210197114
 30
0.0
 10
328.6392116442538
 20
529.6062187518119
 30
0.0
 10
328.5708810722139
 20
529.6262843726203
 30
0.0
 10
328.5406061334035
 20
529.6351747627344
 30
0.0
  0
LINE
  5
273
330
1F
100
AcDbEntity
  8
0
  6
Continuous
 62
     7
370
    15
100
AcDbLine
 10
327.769501129
 20
529.7282957027
 30
0.0
 11
328.4215028906
 21
529.7282957027
 31
0.0
  0
LINE
  5
274
330
1F
100
AcDbEntity
  8
0
  6
Continuous
 62
     7
370
    15
100
AcDbLine
 10
323.539362186
 20
529.7282957027
 30
0.0
 11
323.4215028906
 21
529.7282957027
 31
0.0
  0
LINE
  5
275
330
1F
100
AcDbEntity
  8
0
  6
Continuous
 62
     7
370
    15
100
AcDbLine
 10
663.6715028905
 20
482.4782957027
 30
0.0
 11
650.4215028905
 21
482.4782957027
 31
0.0
  0
LINE
  5
276
330
1F
100
AcDbEntity
  8
0
  6
Continuous
 62
     7
370
    15
100
AcDbLine
 10
676.9215028905
 20
482.4782957027
 30
0.0
 11
663.6715028905
 21
482.4782957027
 31
0.0
  0
LINE
  5
277
330
1F
100
AcDbEntity
  8
0
  6
Continuous
 62
     7
370
    15
100
AcDbLine
 10
663.6715028905
 20
485.4782957027
 30
0.0
 11
649.4215028905
 21
485.4782957027
 31
0.0
  0
LINE
  5
278
330
1F
100
AcDbEntity
  8
0
  6
Continuous
 62
     7
370
    15
100
AcDbLine
 10
677.9215028906
 20
485.4782957027
 30
0.0
 11
663.6715028905
 21
485.4782957027
 31
0.0
  0
LINE
  5
279
330
1F
100
AcDbEntity
  8
0
  6
Continuous
 62
     7
370
    15
100
AcDbLine
 10
374.1715028906
 20
482.4782957027
 30
0.0
 11
360.9215028906
 21
482.4782957027
 31
0.0
  0
LINE
  5
27A
330
1F
100
AcDbEntity
  8
0
  6
Continuous
 62
     7
370
    15
100
AcDbLine
 10
387.4215028906
 20
482.4782957027
 30
0.0
 11
374.1715028906
 21
482.4782957027
 31
0.0
  0
LINE
  5
27B
330
1F
100
AcDbEntity
  8
0
  6
Continuous
 62
     7
370
    15
100
AcDbLine
 10
374.1715028906
 20
485.4782957027
 30
0.0
 11
359.9215028905
 21
485.4782957027
 31
0.0
  0
LINE
  5
27C
330
1F
100
AcDbEntity
  8
0
  6
Continuous
 62
     7
370
    15
100
AcDbLine
 10
388.4215028906
 20
485.4782957027
 30
0.0
 11
374.1715028906
 21
485.4782957027
 31
0.0
  0
LINE
  5
27D
330
1F
100
AcDbEntity
  8
0
  6
Continuous
 62
     7
370
    15
100
AcDbLine
 10
686.1715028905
 20
531.4782957027
 30
0.0
 11
686.1715028905
 21
532.3282957027
 31
0.0
  0
LINE
  5
27E
330
1F
100
AcDbEntity
  8
0
  6
Continuous
 62
     7
370
    15
100
AcDbLine
 10
641.1715028905
 20
531.4782957027
 30
0.0
 11
641.1715028905
 21
532.3282957027
 31
0.0
  0
LINE
  5
27F
330
1F
100
AcDbEntity
  8
0
  6
Continuous
 62
     7
370
    15
100
AcDbLine
 10
641.1715028905
 20
531.4782957027
 30
0.0
 11
686.1715028905
 21
531.4782957027
 31
0.0
  0
LINE
  5
280
330
1F
100
AcDbEntity
  8
0
  6
Continuous
 62
     7
370
    15
100
AcDbLine
 10
663.6715028905
 20
499.9782957027
 30
0.0
 11
648.1916777804
 21
499.9782957027
 31
0.0
  0
LINE
  5
281
330
1F
100
AcDbEntity
  8
0
  6
Continuous
 62
     7
370
    15
100
AcDbLine
 10
679.1513280007
 20
499.9782957027
 30
0.0
 11
663.6715028905
 21
499.9782957027
 31
0.0
  0
LINE
  5
282
330
1F
100
AcDbEntity
  8
0
  6
Continuous
 62
     7
370
    15
100
AcDbLine
 10
396.6715028905
 20
531.4782957027
 30
0.0
 11
396.6715028905
 21
532.3282957027
 31
0.0
  0
LINE
  5
283
330
1F
100
AcDbEntity
  8
0
  6
Continuous
 62
     7
370
    15
100
AcDbLine
 10
351.6715028905
 20
531.4782957027
 30
0.0
 11
396.6715028905
 21
531.4782957027
 31
0.0
  0
LINE
  5
284
330
1F
100
AcDbEntity
  8
0
  6
Continuous
 62
     7
370
    15
100
AcDbLine
 10
351.6715028905
 20
531.4782957027
 30
0.0
 11
351.6715028905
 21
532.3282957027
 31
0.0
  0
LINE
  5
285
330
1F
100
AcDbEntity
  8
0
  6
Continuous
 62
     7
370
    15
100
AcDbLine
 10
374.1715028906
 20
499.9782957027
 30
0.0
 11
358.6916777804
 21
499.9782957027
 31
0.0
  0
LINE
  5
286
330
1F
100
AcDbEntity
  8
0
  6
Continuous
 62
     7
370
    15
100
AcDbLine
 10
389.6513280007
 20
499.9782957027
 30
0.0
 11
374.1715028906
 21
499.9782957027
 31
0.0
  0
ENDSEC
  0
SECTION
  2
OBJECTS
  0
DICTIONARY
  5
C
330
0
100
AcDbDictionary
281
     1
  3
ACAD_GROUP
350
D
  3
ACAD_LAYOUT
350
1A
  3
ACAD_MLINESTYLE
350
17
  3
ACAD_PLOTSETTINGS
350
19
  3
ACAD_PLOTSTYLENAME
350
E
  0
DICTIONARY
  5
D
102
{ACAD_REACTORS
330
C
102
}
330
C
100
AcDbDictionary
281
     1
  0
DICTIONARY
  5
1A
102
{ACAD_REACTORS
330
C
102
}
330
C
100
AcDbDictionary
281
     1
  3
Layout1
350
1E
  3
Layout2
350
26
  3
Model
350
22
  0
DICTIONARY
  5
17
102
{ACAD_REACTORS
330
C
102
}
330
C
100
AcDbDictionary
281
     1
  3
Standard
350
18
  0
DICTIONARY
  5
19
102
{ACAD_REACTORS
330
C
102
}
330
C
100
AcDbDictionary
281
     1
  0
ACDBDICTIONARYWDFLT
  5
E
102
{ACAD_REACTORS
330
C
102
}
330
C
100
AcDbDictionary
281
     1
  3
Normal
350
F
100
AcDbDictionaryWithDefault
340
F
  0
LAYOUT
  5
1E
102
{ACAD_REACTORS
330
1A
102
}
330
1A
100
AcDbPlotSettings
  1

  2
none_device
  4

  6

 40
0.0
 41
0.0
 42
0.0
 43
0.0
 44
0.0
 45
0.0
 46
0.0
 47
0.0
 48
0.0
 49
0.0
140
0.0
141
0.0
142
1.0
143
1.0
 70
   688
 72
     0
 73
     0
 74
     5
  7

 75
    16
147
1.0
148
0.0
149
0.0
100
AcDbLayout
  1
Layout1
 70
     1
 71
     1
 10
0.0
 20
0.0
 11
420.0
 21
297.0
 12
0.0
 22
0.0
 32
0.0
 14
1.0000000000E+20
 24
1.0000000000E+20
 34
1.0000000000E+20
 15
-1.0000000000E+20
 25
-1.0000000000E+20
 35
-1.0000000000E+20
146
0.0
 13
0.0
 23
0.0
 33
0.0
 16
1.0
 26
0.0
 36
0.0
 17
0.0
 27
1.0
 37
0.0
 76
     0
330
1B
  0
LAYOUT
  5
26
102
{ACAD_REACTORS
330
1A
102
}
330
1A
100
AcDbPlotSettings
  1

  2
none_device
  4

  6

 40
0.0
 41
0.0
 42
0.0
 43
0.0
 44
0.0
 45
0.0
 46
0.0
 47
0.0
 48
0.0
 49
0.0
140
0.0
141
0.0
142
1.0
143
1.0
 70
   688
 72
     0
 73
     0
 74
     5
  7

 75
    16
147
1.0
148
0.0
149
0.0
100
AcDbLayout
  1
Layout2
 70
     1
 71
     2
 10
0.0
 20
0.0
 11
0.0
 21
0.0
 12
0.0
 22
0.0
 32
0.0
 14
0.0
 24
0.0
 34
0.0
 15
0.0
 25
0.0
 35
0.0
146
0.0
 13
0.0
 23
0.0
 33
0.0
 16
1.0
 26
0.0
 36
0.0
 17
0.0
 27
1.0
 37
0.0
 76
     0
330
23
  0
LAYOUT
  5
22
102
{ACAD_REACTORS
330
1A
102
}
330
1A
100
AcDbPlotSettings
  1

  2
none_device
  4

  6

 40
0.0
 41
0.0
 42
0.0
 43
0.0
 44
0.0
 45
0.0
 46
0.0
 47
0.0
 48
0.0
 49
0.0
140
0.0
141
0.0
142
1.0
143
1.0
 70
  1712
 72
     0
 73
     0
 74
     0
  7

 75
     0
147
1.0
148
0.0
149
0.0
100
AcDbLayout
  1
Model
 70
     1
 71
     0
 10
0.0
 20
0.0
 11
1100.0
 21
1000.0
 12
0.0
 22
0.0
 32
0.0
 14
0.0
 24
0.0
 34
0.0
 15
1100.0
 25
1000.0
 35
0.0
146
0.0
 13
0.0
 23
0.0
 33
0.0
 16
1.0
 26
0.0
 36
0.0
 17
0.0
 27
1.0
 37
0.0
 76
     0
330
1F
331
29
  0
MLINESTYLE
  5
18
102
{ACAD_REACTORS
330
17
102
}
330
17
100
AcDbMlineStyle
  2
Standard
 70
     0
  3

 62
   256
 51
90.0
 52
90.0
 71
     2
 49
0.5
 62
   256
  6
BYLAYER
 49
-0.5
 62
   256
  6
BYLAYER
  0
ACDBPLACEHOLDER
  5
F
102
{ACAD_REACTORS
330
E
102
}
330
E
  0
ENDSEC
  0
EOF
