  0
SECTION
  2
HEADER
  9
$ACADVER
  1
AC1015
  9
$ACADMAINTVER
 70
     6
  9
$DWGCODEPAGE
  3
ANSI_1252
  9
$INSBASE
 10
0.0
 20
0.0
 30
0.0
  9
$EXTMIN
 10
0.0
 20
0.0
 30
0.0
  9
$EXTMAX
 10
1100.0
 20
1000.0
 30
0.0
  9
$LIMMIN
 10
0.0
 20
0.0
  9
$LIMMAX
 10
1100.0
 20
1000.0
  9
$ORTHOMODE
 70
     0
  9
$REGENMODE
 70
     1
  9
$FILLMODE
 70
     1
  9
$QTEXTMODE
 70
     0
  9
$MIRRTEXT
 70
     1
  9
$LTSCALE
 40
1.0
  9
$ATTMODE
 70
     1
  9
$TEXTSIZE
 40
3.5
  9
$TRACEWID
 40
1.0
  9
$TEXTSTYLE
  7
Standard
  9
$CLAYER
  8
0
  9
$CELTYPE
  6
ByLayer
  9
$CECOLOR
 62
   256
  9
$CELTSCALE
 40
1.0
  9
$DISPSILH
 70
     0
  9
$DIMSCALE
 40
1.0
  9
$DIMASZ
 40
3.302
  9
$DIMEXO
 40
1.0
  9
$DIMDLI
 40
3.75
  9
$DIMRND
 40
0.0
  9
$DIMDLE
 40
0.0
  9
$DIMEXE
 40
1.0
  9
$DIMTP
 40
0.0
  9
$DIMTM
 40
0.0
  9
$DIMTXT
 40
3.5
  9
$DIMCEN
 40
2.5
  9
$DIMTSZ
 40
0.0
  9
$DIMTOL
 70
     0
  9
$DIMLIM
 70
     0
  9
$DIMTIH
 70
     1
  9
$DIMTOH
 70
     1
  9
$DIMSE1
 70
     0
  9
$DIMSE2
 70
     0
  9
$DIMTAD
 70
     1
  9
$DIMZIN
 70
     0
  9
$DIMBLK
  1

  9
$DIMASO
 70
     1
  9
$DIMSHO
 70
     1
  9
$DIMPOST
  1

  9
$DIMAPOST
  1

  9
$DIMALT
 70
     0
  9
$DIMALTD
 70
     3
  9
$DIMALTF
 40
0.0393700787
  9
$DIMLFAC
 40
5.0
  9
$DIMTOFL
 70
     1
  9
$DIMTVP
 40
0.0
  9
$DIMTIX
 70
     0
  9
$DIMSOXD
 70
     0
  9
$DIMSAH
 70
     0
  9
$DIMBLK1
  1

  9
$DIMBLK2
  1

  9
$DIMSTYLE
  2
ISO-25
  9
$DIMCLRD
 70
     0
  9
$DIMCLRE
 70
     0
  9
$DIMCLRT
 70
     0
  9
$DIMTFAC
 40
1.0
  9
$DIMGAP
 40
1.524
  9
$DIMJUST
 70
     0
  9
$DIMSD1
 70
     0
  9
$DIMSD2
 70
     0
  9
$DIMTOLJ
 70
     0
  9
$DIMTZIN
 70
     0
  9
$DIMALTZ
 70
     0
  9
$DIMALTTZ
 70
     0
  9
$DIMUPT
 70
     0
  9
$DIMDEC
 70
     3
  9
$DIMTDEC
 70
     3
  9
$DIMALTU
 70
     2
  9
$DIMALTTD
 70
     3
  9
$DIMTXSTY
  7
Standard
  9
$DIMAUNIT
 70
     0
  9
$DIMADEC
 70
     2
  9
$DIMALTRND
 40
0.0
  9
$DIMAZIN
 70
     0
  9
$DIMDSEP
 70
    44
  9
$DIMATFIT
 70
     3
  9
$DIMFRAC
 70
     0
  9
$DIMLDRBLK
  1

  9
$DIMLUNIT
 70
     2
  9
$DIMLWD
 70
    -2
  9
$DIMLWE
 70
    -2
  9
$DIMTMOVE
 70
     0
  9
$LUNITS
 70
     2
  9
$LUPREC
 70
     8
  9
$SKETCHINC
 40
1.0
  9
$FILLETRAD
 40
10.0
  9
$AUNITS
 70
     0
  9
$AUPREC
 70
     8
  9
$MENU
  1
.
  9
$ELEVATION
 40
0.0
  9
$PELEVATION
 40
0.0
  9
$THICKNESS
 40
0.0
  9
$LIMCHECK
 70
     0
  9
$CHAMFERA
 40
10.0
  9
$CHAMFERB
 40
10.0
  9
$CHAMFERC
 40
20.0
  9
$CHAMFERD
 40
0.0
  9
$SKPOLY
 70
     0
  9
$TDCREATE
 40
2457423.413934421
  9
$TDUCREATE
 40
2457423.413934421
  9
$TDUPDATE
 40
2457423.413935683
  9
$TDUUPDATE
 40
2457423.413935683
  9
$TDINDWG
 40
0.0000000116
  9
$TDUSRTIMER
 40
0.0000000116
  9
$USRTIMER
 70
     1
  9
$ANGBASE
 50
0.0
  9
$ANGDIR
 70
     0
  9
$PDMODE
 70
     0
  9
$PDSIZE
 40
-1.0
  9
$PLINEWID
 40
0.0
  9
$SPLFRAME
 70
     0
  9
$SPLINETYPE
 70
     6
  9
$SPLINESEGS
 70
     8
  9
$HANDSEED
  5
26E
  9
$SURFTAB1
 70
     6
  9
$SURFTAB2
 70
     6
  9
$SURFTYPE
 70
     6
  9
$SURFU
 70
     6
  9
$SURFV
 70
     6
  9
$UCSBASE
  2

  9
$UCSNAME
  2

  9
$UCSORG
 10
0.0
 20
0.0
 30
0.0
  9
$UCSXDIR
 10
1.0
 20
0.0
 30
0.0
  9
$UCSYDIR
 10
0.0
 20
1.0
 30
0.0
  9
$UCSORTHOREF
  2

  9
$UCSORTHOVIEW
 70
     0
  9
$UCSORGTOP
 10
0.0
 20
0.0
 30
0.0
  9
$UCSORGBOTTOM
 10
0.0
 20
0.0
 30
0.0
  9
$UCSORGLEFT
 10
0.0
 20
0.0
 30
0.0
  9
$UCSORGRIGHT
 10
0.0
 20
0.0
 30
0.0
  9
$UCSORGFRONT
 10
0.0
 20
0.0
 30
0.0
  9
$UCSORGBACK
 10
0.0
 20
0.0
 30
0.0
  9
$PUCSBASE
  2

  9
$PUCSNAME
  2

  9
$PUCSORG
 10
0.0
 20
0.0
 30
0.0
  9
$PUCSXDIR
 10
1.0
 20
0.0
 30
0.0
  9
$PUCSYDIR
 10
0.0
 20
1.0
 30
0.0
  9
$PUCSORTHOREF
  2

  9
$PUCSORTHOVIEW
 70
     0
  9
$PUCSORGTOP
 10
0.0
 20
0.0
 30
0.0
  9
$PUCSORGBOTTOM
 10
0.0
 20
0.0
 30
0.0
  9
$PUCSORGLEFT
 10
0.0
 20
0.0
 30
0.0
  9
$PUCSORGRIGHT
 10
0.0
 20
0.0
 30
0.0
  9
$PUCSORGFRONT
 10
0.0
 20
0.0
 30
0.0
  9
$PUCSORGBACK
 10
0.0
 20
0.0
 30
0.0
  9
$USERI1
 70
     0
  9
$USERI2
 70
     0
  9
$USERI3
 70
     0
  9
$USERI4
 70
     0
  9
$USERI5
 70
     0
  9
$USERR1
 40
0.0
  9
$USERR2
 40
0.0
  9
$USERR3
 40
0.0
  9
$USERR4
 40
0.0
  9
$USERR5
 40
0.0
  9
$WORLDVIEW
 70
     1
  9
$SHADEDGE
 70
     3
  9
$SHADEDIF
 70
    70
  9
$TILEMODE
 70
     1
  9
$MAXACTVP
 70
    64
  9
$PINSBASE
 10
0.0
 20
0.0
 30
0.0
  9
$PLIMCHECK
 70
     0
  9
$PEXTMIN
 10
1.0000000000E+20
 20
1.0000000000E+20
 30
1.0000000000E+20
  9
$PEXTMAX
 10
-1.0000000000E+20
 20
-1.0000000000E+20
 30
-1.0000000000E+20
  9
$PLIMMIN
 10
0.0
 20
0.0
  9
$PLIMMAX
 10
420.0
 20
297.0
  9
$UNITMODE
 70
     0
  9
$VISRETAIN
 70
     1
  9
$PLINEGEN
 70
     0
  9
$PSLTSCALE
 70
     1
  9
$TREEDEPTH
 70
  3020
  9
$CMLSTYLE
  2
Standard
  9
$CMLJUST
 70
     0
  9
$CMLSCALE
 40
20.0
  9
$PROXYGRAPHICS
 70
     1
  9
$MEASUREMENT
 70
     1
  9
$CELWEIGHT
370
    -1
  9
$ENDCAPS
280
     0
  9
$JOINSTYLE
280
     0
  9
$LWDISPLAY
290
     1
  9
$INSUNITS
 70
     4
  9
$HYPERLINKBASE
  1

  9
$STYLESHEET
  1

  9
$XEDIT
290
     1
  9
$CEPSNTYPE
380
     0
  9
$PSTYLEMODE
290
     1
  9
$FINGERPRINTGUID
  2
{F600C97F-C64F-4CA7-A4E9-65895BB391A7}
  9
$VERSIONGUID
  2
{FAEB1C32-E019-11D5-929B-00C0DF256EC4}
  9
$EXTNAMES
290
     1
  9
$PSVPSCALE
 40
0.0
  9
$OLESTARTUP
290
     0
  0
ENDSEC
  0
SECTION
  2
CLASSES
  0
CLASS
  1
ACDBDICTIONARYWDFLT
  2
AcDbDictionaryWithDefault
  3
ObjectDBX Classes
 90
        0
280
     0
281
     0
  0
CLASS
  1
VISUALSTYLE
  2
AcDbVisualStyle
  3
ObjectDBX Classes
 90
     4095
280
     0
281
     0
  0
CLASS
  1
MATERIAL
  2
AcDbMaterial
  3
ObjectDBX Classes
 90
     1153
280
     0
281
     0
  0
CLASS
  1
ACDBPLACEHOLDER
  2
AcDbPlaceHolder
  3
ObjectDBX Classes
 90
        0
280
     0
281
     0
  0
CLASS
  1
LAYOUT
  2
AcDbLayout
  3
ObjectDBX Classes
 90
        0
280
     0
281
     0
  0
ENDSEC
  0
SECTION
  2
TABLES
  0
TABLE
  2
VPORT
  5
8
330
0
100
AcDbSymbolTable
 70
     1
  0
VPORT
  5
29
330
8
100
AcDbSymbolTableRecord
100
AcDbViewportTableRecord
  2
*Active
 70
     0
 10
0.0
 20
0.0
 11
1.0
 21
1.0
 12
550.0
 22
500.0
 13
0.0
 23
0.0
 14
10.0
 24
10.0
 15
10.0
 25
10.0
 16
0.0
 26
0.0
 36
1.0
 17
0.0
 27
0.0
 37
0.0
 40
1000.0
 41
1.1
 42
50.0
 43
0.0
 44
0.0
 50
0.0
 51
0.0
 71
     0
 72
  2000
 73
     1
 74
     3
 75
     0
 76
     0
 77
     0
 78
     0
281
     0
 65
     1
110
0.0
120
0.0
130
0.0
111
1.0
121
0.0
131
0.0
112
0.0
122
1.0
132
0.0
 79
     0
146
0.0
  0
ENDTAB
  0
TABLE
  2
LTYPE
  5
5
330
0
100
AcDbSymbolTable
 70
     6
  0
LTYPE
  5
14
330
5
100
AcDbSymbolTableRecord
100
AcDbLinetypeTableRecord
  2
ByBlock
 70
     0
  3

 72
    65
 73
     0
 40
0.0
  0
LTYPE
  5
15
330
5
100
AcDbSymbolTableRecord
100
AcDbLinetypeTableRecord
  2
ByLayer
 70
     0
  3

 72
    65
 73
     0
 40
0.0
  0
LTYPE
  5
16
330
5
100
AcDbSymbolTableRecord
100
AcDbLinetypeTableRecord
  2
Continuous
 70
     0
  3
Solid line
 72
    65
 73
     0
 40
0.0
  0
LTYPE
  5
3F
330
5
100
AcDbSymbolTableRecord
100
AcDbLinetypeTableRecord
  2
HIDDEN
 70
     0
  3
Hidden __ __ __ __ __ __ __ __ __ __ __ __ __ __
 72
    65
 73
     2
 40
1.905
 49
1.27
 74
     0
 49
-0.635
 74
     0
  0
LTYPE
  5
40
330
5
100
AcDbSymbolTableRecord
100
AcDbLinetypeTableRecord
  2
PHANTOM
 70
     0
  3
Phantom ______  __  __  ______  __  __  ______
 72
    65
 73
     6
 40
12.7
 49
6.35
 74
     0
 49
-1.27
 74
     0
 49
1.27
 74
     0
 49
-1.27
 74
     0
 49
1.27
 74
     0
 49
-1.27
 74
     0
  0
LTYPE
  5
41
330
5
100
AcDbSymbolTableRecord
100
AcDbLinetypeTableRecord
  2
CENTER
 70
     0
  3
Center ____ _ ____ _ ____ _ ____ _ ____ _ ____
 72
    65
 73
     4
 40
10.16
 49
6.35
 74
     0
 49
-1.27
 74
     0
 49
1.27
 74
     0
 49
-1.27
 74
     0
  0
LTYPE
  5
42
330
5
100
AcDbSymbolTableRecord
100
AcDbLinetypeTableRecord
  2
CENTERX2
 70
     0
  3
Center (2x) ________  __  ________  __  _____
 72
    65
 73
     4
 40
20.32
 49
12.7
 74
     0
 49
-2.54
 74
     0
 49
2.54
 74
     0
 49
-2.54
 74
     0
  0
LTYPE
  5
43
330
5
100
AcDbSymbolTableRecord
100
AcDbLinetypeTableRecord
  2
DOT2
 70
     0
  3
Dot (.5x) ........................................
 72
    65
 73
     2
 40
0.635
 49
0.0
 74
     0
 49
-0.635
 74
     0
  0
ENDTAB
  0
TABLE
  2
LAYER
  5
2
330
0
100
AcDbSymbolTable
 70
     1
  0
LAYER
  5
10
330
2
100
AcDbSymbolTableRecord
100
AcDbLayerTableRecord
  2
0
 70
     0
 62
     7
  6
Continuous
370
    -3
390
F
  0
ENDTAB
  0
TABLE
  2
STYLE
  5
3
330
0
100
AcDbSymbolTable
 70
     1
  0
STYLE
  5
11
330
3
100
AcDbSymbolTableRecord
100
AcDbTextStyleTableRecord
  2
Standard
 70
     0
 40
0.0
 41
1.0
 50
0.0
 71
     0
 42
3.5
  3
txt
  4

  0
ENDTAB
  0
TABLE
  2
VIEW
  5
6
330
0
100
AcDbSymbolTable
 70
     0
  0
ENDTAB
  0
TABLE
  2
UCS
  5
7
330
0
100
AcDbSymbolTable
 70
     0
  0
ENDTAB
  0
TABLE
  2
APPID
  5
9
330
0
100
AcDbSymbolTable
 70
     1
  0
APPID
  5
12
330
9
100
AcDbSymbolTableRecord
100
AcDbRegAppTableRecord
  2
ACAD
 70
     0
  0
ENDTAB
  0
TABLE
  2
DIMSTYLE
  5
A
330
0
100
AcDbSymbolTable
 70
     1
100
AcDbDimStyleTable
  0
DIMSTYLE
105
27
330
A
100
AcDbSymbolTableRecord
100
AcDbDimStyleTableRecord
  2
ISO-25
 70
     0
 41
2.5
 42
0.625
 43
3.75
 44
1.25
 73
     0
 74
     0
 77
     1
 78
     8
140
2.5
141
2.5
143
0.0393700787
147
0.625
171
     3
172
     1
178
     0
271
     2
272
     2
274
     3
278
    44
283
     0
284
     8
340
11
  0
ENDTAB
  0
TABLE
  2
BLOCK_RECORD
  5
1
330
0
100
AcDbSymbolTable
 70
     1
  0
BLOCK_RECORD
  5
1F
330
1
100
AcDbSymbolTableRecord
100
AcDbBlockTableRecord
  2
*Model_Space
340
22
  0
BLOCK_RECORD
  5
1B
330
1
100
AcDbSymbolTableRecord
100
AcDbBlockTableRecord
  2
*Paper_Space
340
1E
  0
BLOCK_RECORD
  5
23
330
1
100
AcDbSymbolTableRecord
100
AcDbBlockTableRecord
  2
*Paper_Space0
340
26
  0
ENDTAB
  0
ENDSEC
  0
SECTION
  2
BLOCKS
  0
BLOCK
  5
20
330
1F
100
AcDbEntity
  8
0
100
AcDbBlockBegin
  2
*Model_Space
 70
     0
 10
0.0
 20
0.0
 30
0.0
  3
*Model_Space
  1

  0
ENDBLK
  5
21
330
1F
100
AcDbEntity
  8
0
100
AcDbBlockEnd
  0
BLOCK
  5
1C
330
1B
100
AcDbEntity
 67
     1
  8
0
100
AcDbBlockBegin
  2
*Paper_Space
 70
     0
 10
0.0
 20
0.0
 30
0.0
  3
*Paper_Space
  1

  0
ENDBLK
  5
1D
330
1B
100
AcDbEntity
 67
     1
  8
0
100
AcDbBlockEnd
  0
BLOCK
  5
24
330
23
100
AcDbEntity
  8
0
100
AcDbBlockBegin
  2
*Paper_Space0
 70
     0
 10
0.0
 20
0.0
 30
0.0
  3
*Paper_Space0
  1

  0
ENDBLK
  5
25
330
23
100
AcDbEntity
  8
0
100
AcDbBlockEnd
  0
ENDSEC
  0
SECTION
  2
ENTITIES
  0
LINE
  5
44
330
1F
100
AcDbEntity
  8
0
  6
Continuous
 62
     7
370
    15
100
AcDbLine
 10
403.8751238105
 20
262.3182080705
 30
0.0
 11
403.8751238105
 21
264.3182080705
 31
0.0
  0
LINE
  5
45
330
1F
100
AcDbEntity
  8
0
  6
Continuous
 62
     7
370
    15
100
AcDbLine
 10
375.3751238105
 20
264.3182080705
 30
0.0
 11
375.3751238105
 21
262.3182080705
 31
0.0
  0
ARC
  5
46
330
1F
100
AcDbEntity
  8
0
  6
Continuous
 62
     7
370
    15
100
AcDbCircle
 10
402.8751238105
 20
262.3182080705
 30
0.0
 40
1.0
100
AcDbArc
 50
270.0
 51
0.0
  0
ARC
  5
47
330
1F
100
AcDbEntity
  8
0
  6
Continuous
 62
     7
370
    15
100
AcDbCircle
 10
376.3751238105
 20
262.3182080705
 30
0.0
 40
1.0
100
AcDbArc
 50
180.0
 51
270.0
  0
LINE
  5
48
330
1F
100
AcDbEntity
  8
0
  6
Continuous
 62
     7
370
    15
100
AcDbLine
 10
693.3751238105
 20
262.3182080705
 30
0.0
 11
693.3751238105
 21
264.3182080705
 31
0.0
  0
LINE
  5
49
330
1F
100
AcDbEntity
  8
0
  6
Continuous
 62
     7
370
    15
100
AcDbLine
 10
664.8751238105
 20
264.3182080705
 30
0.0
 11
664.8751238105
 21
262.3182080705
 31
0.0
  0
ARC
  5
4A
330
1F
100
AcDbEntity
  8
0
  6
Continuous
 62
     7
370
    15
100
AcDbCircle
 10
692.3751238105
 20
262.3182080705
 30
0.0
 40
1.0
100
AcDbArc
 50
270.0
 51
0.0
  0
ARC
  5
4B
330
1F
100
AcDbEntity
  8
0
  6
Continuous
 62
     7
370
    15
100
AcDbCircle
 10
665.8751238105
 20
262.3182080705
 30
0.0
 40
1.0
100
AcDbArc
 50
180.0
 51
270.0
  0
LINE
  5
4C
330
1F
100
AcDbEntity
  8
0
  6
Continuous
 62
     7
370
    15
100
AcDbLine
 10
693.2751238105
 20
264.3182080705
 30
0.0
 11
693.2751238105
 21
298.3182080705
 31
0.0
  0
LINE
  5
4D
330
1F
100
AcDbEntity
  8
0
  6
Continuous
 62
     7
370
    15
100
AcDbLine
 10
664.9751238105
 20
298.3182080705
 30
0.0
 11
664.9751238105
 21
264.3182080705
 31
0.0
  0
LINE
  5
4E
330
1F
100
AcDbEntity
  8
0
  6
Continuous
 62
     7
370
    15
100
AcDbLine
 10
403.7751238105
 20
264.3182080705
 30
0.0
 11
403.7751238105
 21
298.3182080705
 31
0.0
  0
LINE
  5
4F
330
1F
100
AcDbEntity
  8
0
  6
Continuous
 62
     7
370
    15
100
AcDbLine
 10
375.4751238105
 20
298.3182080705
 30
0.0
 11
375.4751238105
 21
264.3182080705
 31
0.0
  0
ARC
  5
50
330
1F
100
AcDbEntity
  8
0
  6
Continuous
 62
     7
370
    15
100
AcDbCircle
 10
695.8251238105
 20
344.5682080705
 30
0.0
 40
0.75
100
AcDbArc
 50
90.0
 51
180.0
  0
ARC
  5
51
330
1F
100
AcDbEntity
  8
0
  6
Continuous
 62
     7
370
    15
100
AcDbCircle
 10
662.4251238105
 20
344.5682080705
 30
0.0
 40
0.75
100
AcDbArc
 50
0.0
 51
90.0
  0
ARC
  5
52
330
1F
100
AcDbEntity
  8
0
  6
Continuous
 62
     7
370
    15
100
AcDbCircle
 10
692.7251238105
 20
301.3344910434
 30
0.0
 40
2.350000000000023
100
AcDbArc
 50
350.5402980318
 51
0.0
  0
ARC
  5
53
330
1F
100
AcDbEntity
  8
0
  6
Continuous
 62
     7
370
    15
100
AcDbCircle
 10
665.5251238105
 20
301.3344910434
 30
0.0
 40
2.350000000000023
100
AcDbArc
 50
180.0
 51
189.4597019682
  0
LINE
  5
54
330
1F
100
AcDbEntity
  8
0
  6
Continuous
 62
     7
370
    15
100
AcDbLine
 10
695.0751238105
 20
301.3344910434
 30
0.0
 11
695.0751238105
 21
344.5682080705
 31
0.0
  0
LINE
  5
55
330
1F
100
AcDbEntity
  8
0
  6
Continuous
 62
     7
370
    15
100
AcDbLine
 10
663.1751238105
 20
344.5682080705
 30
0.0
 11
663.1751238105
 21
301.3344910434
 31
0.0
  0
LINE
  5
56
330
1F
100
AcDbEntity
  8
0
  6
Continuous
 62
     7
370
    15
100
AcDbLine
 10
663.207080424
 20
300.9482594311
 30
0.0
 11
663.6452987003
 21
298.3182080705
 31
0.0
  0
LINE
  5
57
330
1F
100
AcDbEntity
  8
0
  6
Continuous
 62
     7
370
    15
100
AcDbLine
 10
694.6049489207
 20
298.3182080705
 30
0.0
 11
695.043167197
 21
300.9482594311
 31
0.0
  0
ARC
  5
58
330
1F
100
AcDbEntity
  8
0
  6
Continuous
 62
     7
370
    15
100
AcDbCircle
 10
406.3251238105
 20
344.5682080705
 30
0.0
 40
0.75
100
AcDbArc
 50
90.0
 51
180.0
  0
ARC
  5
59
330
1F
100
AcDbEntity
  8
0
  6
Continuous
 62
     7
370
    15
100
AcDbCircle
 10
372.9251238105
 20
344.5682080705
 30
0.0
 40
0.7500000000000568
100
AcDbArc
 50
0.0
 51
90.0
  0
LINE
  5
5A
330
1F
100
AcDbEntity
  8
0
  6
Continuous
 62
     7
370
    15
100
AcDbLine
 10
405.5751238105
 20
301.3344910434
 30
0.0
 11
405.5751238105
 21
344.5682080705
 31
0.0
  0
LINE
  5
5B
330
1F
100
AcDbEntity
  8
0
  6
Continuous
 62
     7
370
    15
100
AcDbLine
 10
373.6751238105
 20
344.5682080705
 30
0.0
 11
373.6751238105
 21
301.3344910434
 31
0.0
  0
ARC
  5
5C
330
1F
100
AcDbEntity
  8
0
  6
Continuous
 62
     7
370
    15
100
AcDbCircle
 10
403.2251238105
 20
301.3344910434
 30
0.0
 40
2.350000000000023
100
AcDbArc
 50
350.5402980318
 51
0.0
  0
ARC
  5
5D
330
1F
100
AcDbEntity
  8
0
  6
Continuous
 62
     7
370
    15
100
AcDbCircle
 10
376.0251238105
 20
301.3344910434
 30
0.0
 40
2.350000000000005
100
AcDbArc
 50
180.0
 51
189.4597019682
  0
LINE
  5
5E
330
1F
100
AcDbEntity
  8
0
  6
Continuous
 62
     7
370
    15
100
AcDbLine
 10
373.707080424
 20
300.9482594311
 30
0.0
 11
374.1452987003
 21
298.3182080705
 31
0.0
  0
LINE
  5
5F
330
1F
100
AcDbEntity
  8
0
  6
Continuous
 62
     7
370
    15
100
AcDbLine
 10
405.1049489207
 20
298.3182080705
 30
0.0
 11
405.543167197
 21
300.9482594311
 31
0.0
  0
ARC
  5
60
330
1F
100
AcDbEntity
  8
0
  6
Continuous
 62
     7
370
    15
100
AcDbCircle
 10
334.9501238105
 20
573.2682080705
 30
0.0
 40
2.5
100
AcDbArc
 50
180.0
 51
270.0
  0
ARC
  5
61
330
1F
100
AcDbEntity
  8
0
  6
Continuous
 62
     7
370
    15
100
AcDbCircle
 10
344.8001238105
 20
573.2682080705
 30
0.0
 40
2.500000000000057
100
AcDbArc
 50
270.0
 51
0.0
  0
LINE
  5
62
330
1F
100
AcDbEntity
  8
0
  6
Continuous
 62
     7
370
    15
100
AcDbLine
 10
332.4501238105
 20
577.8682080705
 30
0.0
 11
332.4501238105
 21
573.2682080705
 31
0.0
  0
LINE
  5
63
330
1F
100
AcDbEntity
  8
0
  6
Continuous
 62
     7
370
    15
100
AcDbLine
 10
347.3001238105
 20
573.2682080705
 30
0.0
 11
347.3001238105
 21
577.8682080705
 31
0.0
  0
LINE
  5
64
330
1F
100
AcDbEntity
  8
0
  6
Continuous
 62
     7
370
    15
100
AcDbLine
 10
332.4501238105
 20
581.0182080705
 30
0.0
 11
332.4501238105
 21
579.8182080705
 31
0.0
  0
LINE
  5
65
330
1F
100
AcDbEntity
  8
0
  6
Continuous
 62
     7
370
    15
100
AcDbLine
 10
347.3001238105
 20
579.8182080705
 30
0.0
 11
347.3001238105
 21
581.0182080705
 31
0.0
  0
LINE
  5
66
330
1F
100
AcDbEntity
  8
0
  6
Continuous
 62
     7
370
    15
100
AcDbLine
 10
346.8751238105
 20
581.0182080705
 30
0.0
 11
346.8751238105
 21
583.7682080705
 31
0.0
  0
LINE
  5
67
330
1F
100
AcDbEntity
  8
0
  6
Continuous
 62
     7
370
    15
100
AcDbLine
 10
332.8751238105
 20
583.7682080705
 30
0.0
 11
332.8751238105
 21
581.0182080705
 31
0.0
  0
LINE
  5
68
330
1F
100
AcDbEntity
  8
0
  6
Continuous
 62
     7
370
    15
100
AcDbLine
 10
346.3751238105
 20
583.7682080705
 30
0.0
 11
346.3751238105
 21
584.7682080705
 31
0.0
  0
LINE
  5
69
330
1F
100
AcDbEntity
  8
0
  6
Continuous
 62
     7
370
    15
100
AcDbLine
 10
333.3751238105
 20
584.7682080705
 30
0.0
 11
333.3751238105
 21
583.7682080705
 31
0.0
  0
ARC
  5
6A
330
1F
100
AcDbEntity
  8
0
  6
Continuous
 62
     7
370
    15
100
AcDbCircle
 10
753.4013516802
 20
657.7549413078
 30
0.0
 40
1.000000000000062
100
AcDbArc
 50
205.0
 51
292.0
  0
ARC
  5
6B
330
1F
100
AcDbEntity
  8
0
  6
Continuous
 62
     7
370
    15
100
AcDbCircle
 10
763.5010529498
 20
636.0960620401
 30
0.0
 40
1.000000000000013
100
AcDbArc
 50
118.0
 51
205.0
  0
LINE
  5
6C
330
1F
100
AcDbEntity
  8
0
  6
Continuous
 62
     7
370
    15
100
AcDbLine
 10
763.031581387
 20
636.9790096329
 30
0.0
 11
763.5199343608
 21
637.2386715151
 31
0.0
  0
LINE
  5
6D
330
1F
100
AcDbEntity
  8
0
  6
Continuous
 62
     7
370
    15
100
AcDbLine
 10
754.2887780562
 20
657.0349500945
 30
0.0
 11
753.7759582736
 21
656.8277574532
 31
0.0
  0
LINE
  5
6E
330
1F
100
AcDbEntity
  8
0
  6
Continuous
 62
     7
370
    15
100
AcDbLine
 10
769.0142185669
 20
615.9913346791
 30
0.0
 11
769.2352583925
 21
616.1088636392
 31
0.0
  0
LINE
  5
6F
330
1F
100
AcDbEntity
  8
0
  6
Continuous
 62
     7
370
    15
100
AcDbLine
 10
757.3804901747
 20
642.1230465192
 30
0.0
 11
758.7235233015
 21
643.3837554548
 31
0.0
  0
LINE
  5
70
330
1F
100
AcDbEntity
  8
0
  6
Continuous
 62
     7
370
    15
100
AcDbLine
 10
755.9131118609
 20
649.4107022386
 30
0.0
 11
754.0840677331
 21
649.1922472581
 31
0.0
  0
LINE
  5
71
330
1F
100
AcDbEntity
  8
0
  6
Continuous
 62
     7
370
    15
100
AcDbLine
 10
765.7719029618
 20
632.4093092654
 30
0.0
 11
769.4582053735
 21
636.3350161482
 31
0.0
  0
LINE
  5
72
330
1F
100
AcDbEntity
  8
0
  6
Continuous
 62
     7
370
    15
100
AcDbLine
 10
757.4135849139
 20
662.1647880788
 30
0.0
 11
752.0368094552
 21
661.8643123441
 31
0.0
  0
LINE
  5
73
330
1F
100
AcDbEntity
  8
0
  6
Continuous
 62
     7
370
    15
100
AcDbLine
 10
769.4582053735
 20
636.3350161482
 30
0.0
 11
776.4083734212
 21
644.3947504857
 31
0.0
  0
LINE
  5
74
330
1F
100
AcDbEntity
  8
0
  6
Continuous
 62
     7
370
    15
100
AcDbLine
 10
757.6635622059
 20
662.1681575734
 30
0.0
 11
757.4135849139
 21
662.1647880788
 31
0.0
  0
ARC
  5
75
330
1F
100
AcDbEntity
  8
0
  6
Continuous
 62
     7
370
    15
100
AcDbCircle
 10
776.0297177292
 20
644.7212774631
 30
0.0
 40
0.5000000000001494
100
AcDbArc
 50
319.227745318
 51
25.0
  0
LINE
  5
76
330
1F
100
AcDbEntity
  8
0
  6
Continuous
 62
     7
370
    15
100
AcDbLine
 10
756.9167708246
 20
641.934395083
 30
0.0
 11
757.3699247181
 21
642.1457042139
 31
0.0
  0
LINE
  5
77
330
1F
100
AcDbEntity
  8
0
  6
Continuous
 62
     7
370
    15
100
AcDbLine
 10
754.0946331896
 20
649.1695895635
 30
0.0
 11
753.6414792961
 21
648.9582804326
 31
0.0
  0
LINE
  5
78
330
1F
100
AcDbEntity
  8
0
  6
Continuous
 62
     7
370
    15
100
AcDbLine
 10
741.7600364296
 20
674.6747370437
 30
0.0
 11
741.7147210403
 21
674.6536061306
 31
0.0
  0
ARC
  5
79
330
1F
100
AcDbEntity
  8
0
  6
Continuous
 62
     7
370
    15
100
AcDbCircle
 10
351.9501238105
 20
339.2932080705
 30
0.0
 40
0.1249999999999486
100
AcDbArc
 50
180.0
 51
209.473426788
  0
LINE
  5
7A
330
1F
100
AcDbEntity
  8
0
  6
Continuous
 62
     7
370
    15
100
AcDbLine
 10
351.8251238105
 20
339.6432080705
 30
0.0
 11
351.8251238105
 21
339.2932080705
 31
0.0
  0
SPLINE
  5
7B
330
1F
100
AcDbEntity
  8
0
  6
Continuous
 62
     7
370
    15
100
AcDbSpline
210
0.0
220
0.0
230
1.0
 70
     8
 71
     3
 72
    13
 73
     9
 74
     0
 42
0.00000001
 43
0.00000001
 12
1.0
 22
0.0
 32
0.0
 13
1.0
 23
0.0
 33
0.0
 40
0.0
 40
0.0
 40
0.0
 40
0.0
 40
0.054688053091265
 40
0.2134688124185865
 40
0.3745771152281064
 40
0.5445034158410569
 40
0.747537422106577
 40
1.0
 40
1.0
 40
1.0
 40
1.0
 10
358.1522612659425
 20
339.8931620380023
 30
0.0
 10
358.152508244886
 20
339.8883701742944
 30
0.0
 10
358.1534723000821
 20
339.8696656602884
 30
0.0
 10
358.1464551260232
 20
339.8377427939544
 30
0.0
 10
358.1326347538741
 20
339.8040472844648
 30
0.0
 10
358.1141817660875
 20
339.7802492766118
 30
0.0
 10
358.0967933147129
 20
339.7688120303732
 30
0.0
 10
358.0908782284693
 20
339.768585060354
 30
0.0
 10
358.0875997452194
 20
339.768459260429
 30
0.0
  0
LINE
  5
7C
330
1F
100
AcDbEntity
  8
0
  6
Continuous
 62
     7
370
    15
100
AcDbLine
 10
358.1531986853
 20
342.4432080705
 30
0.0
 11
358.1531986853
 21
339.8932080705
 31
0.0
  0
ARC
  5
7D
330
1F
100
AcDbEntity
  8
0
  6
Continuous
 62
     7
370
    15
100
AcDbCircle
 10
358.2781986853
 20
342.4432080705
 30
0.0
 40
0.1250000000000568
100
AcDbArc
 50
90.0
 51
180.0
  0
ARC
  5
7E
330
1F
100
AcDbEntity
  8
0
  6
Continuous
 62
     7
370
    15
100
AcDbCircle
 10
360.628183885
 20
342.4432080705
 30
0.0
 40
0.125
100
AcDbArc
 50
0.0
 51
90.0
  0
LINE
  5
7F
330
1F
100
AcDbEntity
  8
0
  6
Continuous
 62
     7
370
    15
100
AcDbLine
 10
360.753183885
 20
339.8932080705
 30
0.0
 11
360.753183885
 21
342.4432080705
 31
0.0
  0
ARC
  5
80
330
1F
100
AcDbEntity
  8
0
  6
Continuous
 62
     7
370
    15
100
AcDbCircle
 10
360.4001238105
 20
339.2932080705
 30
0.0
 40
0.125
100
AcDbArc
 50
270.0
 51
0.0
  0
LINE
  5
81
330
1F
100
AcDbEntity
  8
0
  6
Continuous
 62
     7
370
    15
100
AcDbLine
 10
351.597063736
 20
342.4432080705
 30
0.0
 11
351.597063736
 21
339.8932080705
 31
0.0
  0
ARC
  5
82
330
1F
100
AcDbEntity
  8
0
  6
Continuous
 62
     7
370
    15
100
AcDbCircle
 10
351.722063736
 20
342.4432080705
 30
0.0
 40
0.1250000000000568
100
AcDbArc
 50
90.0
 51
180.0
  0
SPLINE
  5
83
330
1F
100
AcDbEntity
  8
0
  6
Continuous
 62
     7
370
    15
100
AcDbSpline
210
0.0
220
0.0
230
1.0
 70
     8
 71
     3
 72
    13
 73
     9
 74
     0
 42
0.00000001
 43
0.00000001
 12
1.0
 22
0.0
 32
0.0
 13
1.0
 23
0.0
 33
0.0
 40
0.0
 40
0.0
 40
0.0
 40
0.0
 40
0.0634888169689247
 40
0.2470479163430755
 40
0.4311284030626915
 40
0.6187780680141773
 40
0.8315552681847486
 40
1.0
 40
1.0
 40
1.0
 40
1.0
 10
354.6205455298596
 20
339.6432625157044
 30
0.0
 10
354.6203093639434
 20
339.648375546781
 30
0.0
 10
354.6193903942682
 20
339.6682713919707
 30
0.0
 10
354.6260629027387
 20
339.7020511137158
 30
0.0
 10
354.639036875293
 20
339.7371008705021
 30
0.0
 10
354.6550209321248
 20
339.7603349521962
 30
0.0
 10
354.6665285742034
 20
339.7683482649642
 30
0.0
 10
354.666157328818
 20
339.7679979760397
 30
0.0
 10
354.6659932922709
 20
339.7678431992051
 30
0.0
  0
ARC
  5
84
330
1F
100
AcDbEntity
  8
0
  6
Continuous
 62
     7
370
    15
100
AcDbCircle
 10
354.4946478987
 20
337.0932080705
 30
0.0
 40
0.1250000000000568
100
AcDbArc
 50
270.0
 51
0.0
  0
LINE
  5
85
330
1F
100
AcDbEntity
  8
0
  6
Continuous
 62
     7
370
    15
100
AcDbLine
 10
354.6196478987
 20
337.0932080705
 30
0.0
 11
354.6196478987
 21
339.6432080705
 31
0.0
  0
ARC
  5
86
330
1F
100
AcDbEntity
  8
0
  6
Continuous
 62
     7
370
    15
100
AcDbCircle
 10
351.9663008126
 20
337.0932080705
 30
0.0
 40
0.125
100
AcDbArc
 50
180.0
 51
270.0
  0
LINE
  5
87
330
1F
100
AcDbEntity
  8
0
  6
Continuous
 62
     7
370
    15
100
AcDbLine
 10
351.8413008126
 20
339.6432080705
 30
0.0
 11
351.8413008126
 21
337.0932080705
 31
0.0
  0
ARC
  5
88
330
1F
100
AcDbEntity
  8
0
  6
Continuous
 62
     7
370
    15
100
AcDbCircle
 10
351.9501238105
 20
339.8932080705
 30
0.0
 40
0.1250000000000009
100
AcDbArc
 50
180.0
 51
232.7089330724
  0
ARC
  5
89
330
1F
100
AcDbEntity
  8
0
  6
Continuous
 62
     7
370
    15
100
AcDbCircle
 10
351.9501238105
 20
340.2432080705
 30
0.0
 40
0.125
100
AcDbArc
 50
90.0
 51
180.0
  0
LINE
  5
8A
330
1F
100
AcDbEntity
  8
0
  6
Continuous
 62
     7
370
    15
100
AcDbLine
 10
351.8251238105
 20
340.2432080705
 30
0.0
 11
351.8251238105
 21
339.8932080705
 31
0.0
  0
ARC
  5
8B
330
1F
100
AcDbEntity
  8
0
  6
Continuous
 62
     7
370
    15
100
AcDbCircle
 10
360.3839468084
 20
337.0932080705
 30
0.0
 40
0.125
100
AcDbArc
 50
270.0
 51
0.0
  0
LINE
  5
8C
330
1F
100
AcDbEntity
  8
0
  6
Continuous
 62
     7
370
    15
100
AcDbLine
 10
360.5089468084
 20
337.0932080705
 30
0.0
 11
360.5089468084
 21
339.2317055899
 31
0.0
  0
LINE
  5
8D
330
1F
100
AcDbEntity
  8
0
  6
Continuous
 62
     7
370
    15
100
AcDbLine
 10
358.7988143372
 20
342.8967953116
 30
0.0
 11
358.6751238105
 21
342.9682080705
 31
0.0
  0
LINE
  5
8E
330
1F
100
AcDbEntity
  8
0
  6
Continuous
 62
     7
370
    15
100
AcDbLine
 10
353.6751238105
 20
342.9682080705
 30
0.0
 11
353.5514332838
 21
342.8967953116
 31
0.0
  0
LINE
  5
8F
330
1F
100
AcDbEntity
  8
0
  6
Continuous
 62
     7
370
    15
100
AcDbLine
 10
353.5514332838
 20
340.4396208295
 30
0.0
 11
353.6751238105
 21
340.3682080705
 31
0.0
  0
LINE
  5
90
330
1F
100
AcDbEntity
  8
0
  6
Continuous
 62
     7
370
    15
100
AcDbLine
 10
353.4442781086
 20
336.7014868987
 30
0.0
 11
353.6751238105
 21
336.5682080705
 31
0.0
  0
LINE
  5
91
330
1F
100
AcDbEntity
  8
0
  6
Continuous
 62
     7
370
    15
100
AcDbLine
 10
358.9059695124
 20
339.0349292424
 30
0.0
 11
358.6751238105
 21
339.1682080705
 31
0.0
  0
LINE
  5
92
330
1F
100
AcDbEntity
  8
0
  6
Continuous
 62
     7
370
    15
100
AcDbLine
 10
358.6751238105
 20
336.5682080705
 30
0.0
 11
358.9059695124
 21
336.7014868987
 31
0.0
  0
LINE
  5
93
330
1F
100
AcDbEntity
  8
0
  6
Continuous
 62
     7
370
    15
100
AcDbLine
 10
358.6751238105
 20
343.0932080705
 30
0.0
 11
358.7197493854
 21
343.1189726582
 31
0.0
  0
LINE
  5
94
330
1F
100
AcDbEntity
  8
0
  6
Continuous
 62
     7
370
    15
100
AcDbLine
 10
354.6751238105
 20
343.0932080705
 30
0.0
 11
354.6751238105
 21
342.9682080705
 31
0.0
  0
LINE
  5
95
330
1F
100
AcDbEntity
  8
0
  6
Continuous
 62
     7
370
    15
100
AcDbLine
 10
357.6751238105
 20
342.9682080705
 30
0.0
 11
357.6751238105
 21
343.0932080705
 31
0.0
  0
LINE
  5
96
330
1F
100
AcDbEntity
  8
0
  6
Continuous
 62
     7
370
    15
100
AcDbLine
 10
403.8751238105
 20
264.3182080705
 30
0.0
 11
375.3751238105
 21
264.3182080705
 31
0.0
  0
LINE
  5
97
330
1F
100
AcDbEntity
  8
0
  6
Continuous
 62
     7
370
    15
100
AcDbLine
 10
402.8751238105
 20
261.3182080705
 30
0.0
 11
376.3751238105
 21
261.3182080705
 31
0.0
  0
LINE
  5
98
330
1F
100
AcDbEntity
  8
0
  6
Continuous
 62
     7
370
    15
100
AcDbLine
 10
693.3751238105
 20
264.3182080705
 30
0.0
 11
664.8751238105
 21
264.3182080705
 31
0.0
  0
LINE
  5
99
330
1F
100
AcDbEntity
  8
0
  6
Continuous
 62
     7
370
    15
100
AcDbLine
 10
692.3751238105
 20
261.3182080705
 30
0.0
 11
665.8751238105
 21
261.3182080705
 31
0.0
  0
LINE
  5
9A
330
1F
100
AcDbEntity
  8
0
  6
Continuous
 62
     7
370
    15
100
AcDbLine
 10
656.6251238105
 20
345.3182080705
 30
0.0
 11
701.6251238105
 21
345.3182080705
 31
0.0
  0
LINE
  5
9B
330
1F
100
AcDbEntity
  8
0
  6
Continuous
 62
     7
370
    15
100
AcDbLine
 10
701.6251238105
 20
345.3182080705
 30
0.0
 11
701.6251238105
 21
345.5682080705
 31
0.0
  0
LINE
  5
9C
330
1F
100
AcDbEntity
  8
0
  6
Continuous
 62
     7
370
    15
100
AcDbLine
 10
656.6251238105
 20
345.3182080705
 30
0.0
 11
656.6251238105
 21
345.5682080705
 31
0.0
  0
LINE
  5
9D
330
1F
100
AcDbEntity
  8
0
  6
Continuous
 62
     7
370
    15
100
AcDbLine
 10
694.6049489207
 20
298.3182080705
 30
0.0
 11
663.6452987003
 21
298.3182080705
 31
0.0
  0
LINE
  5
9E
330
1F
100
AcDbEntity
  8
0
  6
Continuous
 62
     7
370
    15
100
AcDbLine
 10
412.1251238105
 20
345.3182080705
 30
0.0
 11
412.1251238105
 21
345.5682080705
 31
0.0
  0
LINE
  5
9F
330
1F
100
AcDbEntity
  8
0
  6
Continuous
 62
     7
370
    15
100
AcDbLine
 10
367.1251238105
 20
345.3182080705
 30
0.0
 11
412.1251238105
 21
345.3182080705
 31
0.0
  0
LINE
  5
A0
330
1F
100
AcDbEntity
  8
0
  6
Continuous
 62
     7
370
    15
100
AcDbLine
 10
367.1251238105
 20
345.3182080705
 30
0.0
 11
367.1251238105
 21
345.5682080705
 31
0.0
  0
LINE
  5
A1
330
1F
100
AcDbEntity
  8
0
  6
Continuous
 62
     7
370
    15
100
AcDbLine
 10
405.1049489207
 20
298.3182080705
 30
0.0
 11
374.1452987003
 21
298.3182080705
 31
0.0
  0
LINE
  5
A2
330
1F
100
AcDbEntity
  8
0
  6
Continuous
 62
     7
370
    15
100
AcDbLine
 10
352.0251238105
 20
585.9682080705
 30
0.0
 11
352.5001238105
 21
585.9682080705
 31
0.0
  0
LINE
  5
A3
330
1F
100
AcDbEntity
  8
0
  6
Continuous
 62
     7
370
    15
100
AcDbLine
 10
352.5001238105
 20
585.2182080705
 30
0.0
 11
352.5001238105
 21
585.9682080705
 31
0.0
  0
ARC
  5
A4
330
1F
100
AcDbEntity
  8
0
  6
Continuous
 62
     7
370
    15
100
AcDbCircle
 10
352.5626238105
 20
585.2182080705
 30
0.0
 40
0.0625
100
AcDbArc
 50
180.0
 51
0.0
  0
SPLINE
  5
A5
330
1F
100
AcDbEntity
  8
0
  6
Continuous
 62
     7
370
    15
100
AcDbSpline
210
0.0
220
0.0
230
1.0
 70
     8
 71
     3
 72
    12
 73
     8
 74
     0
 42
0.00000001
 43
0.00000001
 12
1.0
 22
0.0
 32
0.0
 13
1.0
 23
0.0
 33
0.0
 40
0.0
 40
0.0
 40
0.0
 40
0.0
 40
0.2096821001528671
 40
0.4420453733186139
 40
0.6744332966681512
 40
0.9068208701180742
 40
0.9999999999999999
 40
0.9999999999999999
 40
0.9999999999999999
 40
0.9999999999999999
 10
722.0251238105018
 20
585.2182080705484
 30
0.0
 10
722.1512892894893
 20
585.2703506745121
 30
0.0
 10
722.417267483233
 20
585.3802761131554
 30
0.0
 10
722.7779581981405
 20
585.548260178097
 30
0.0
 10
723.0496376651337
 20
585.7217128123053
 30
0.0
 10
723.1639485852053
 20
585.8609011434218
 30
0.0
 10
723.1726371045174
 20
585.9415813740325
 30
0.0
 10
723.1751238105018
 20
585.9646725366424
 30
0.0
  0
LINE
  5
A6
330
1F
100
AcDbEntity
  8
0
  6
Continuous
 62
     7
370
    15
100
AcDbLine
 10
723.1751238105
 20
345.9717436045
 30
0.0
 11
723.1751238105
 21
585.9646725366
 31
0.0
  0
SPLINE
  5
A7
330
1F
100
AcDbEntity
  8
0
  6
Continuous
 62
     7
370
    15
100
AcDbSpline
210
0.0
220
0.0
230
1.0
 70
     8
 71
     3
 72
    12
 73
     8
 74
     0
 42
0.00000001
 43
0.00000001
 12
1.0
 22
0.0
 32
0.0
 13
1.0
 23
0.0
 33
0.0
 40
0.0
 40
0.0
 40
0.0
 40
0.0
 40
0.2096821001528676
 40
0.4420453733185991
 40
0.6744332966681232
 40
0.9068208701180498
 40
1.0
 40
1.0
 40
1.0
 40
1.0
 10
723.1751238105018
 20
345.9717436044543
 30
0.0
 10
723.1629538254175
 20
346.0238862084179
 30
0.0
 10
723.1372974360742
 20
346.1338116470613
 30
0.0
 10
722.9268321426097
 20
346.3017957120028
 30
0.0
 10
722.6009374036621
 20
346.4752483462112
 30
0.0
 10
722.2762168841106
 20
346.6144366773277
 30
0.0
 10
722.0809969255575
 20
346.6951169079385
 30
0.0
 10
722.0251238105018
 20
346.7182080705483
 30
0.0
  0
SPLINE
  5
A8
330
1F
100
AcDbEntity
  8
0
  6
Continuous
 62
     7
370
    15
100
AcDbSpline
210
0.0
220
0.0
230
1.0
 70
     8
 71
     3
 72
    12
 73
     8
 74
     0
 42
0.00000001
 43
0.00000001
 12
1.0
 22
0.0
 32
0.0
 13
1.0
 23
0.0
 33
0.0
 40
0.0
 40
0.0
 40
0.0
 40
0.0
 40
0.2096821001528724
 40
0.4420453733186285
 40
0.6744332966681282
 40
0.9068208701180476
 40
1.0
 40
1.0
 40
1.0
 40
1.0
 10
722.7715882765958
 20
586.3682080705483
 30
0.0
 10
722.719445672632
 20
586.3560380854641
 30
0.0
 10
722.6095202339887
 20
586.3303816961208
 30
0.0
 10
722.4415361690471
 20
586.1199164026561
 30
0.0
 10
722.268083534839
 20
585.7940216637086
 30
0.0
 10
722.1288952037223
 20
585.4693011441572
 30
0.0
 10
722.0482149731116
 20
585.2740811856041
 30
0.0
 10
722.0251238105018
 20
585.2182080705484
 30
0.0
  0
LINE
  5
A9
330
1F
100
AcDbEntity
  8
0
  6
Continuous
 62
     7
370
    15
100
AcDbLine
 10
722.7715882766
 20
586.3682080705
 30
0.0
 11
722.7715882766
 21
585.9682080705
 31
0.0
  0
SPLINE
  5
AA
330
1F
100
AcDbEntity
  8
0
  6
Continuous
 62
     7
370
    15
100
AcDbSpline
210
0.0
220
0.0
230
1.0
 70
     8
 71
     3
 72
    11
 73
     7
 74
     0
 42
0.00000001
 43
0.00000001
 12
1.0
 22
0.0
 32
0.0
 13
1.0
 23
0.0
 33
0.0
 40
0.0
 40
0.0
 40
0.0
 40
0.0
 40
0.2543211584721383
 40
0.5088664984542217
 40
0.7634130007197432
 40
1.0
 40
1.0
 40
1.0
 40
1.0
 10
722.7715882765958
 20
585.9682080705484
 30
0.0
 10
722.708297722703
 20
585.9565310395388
 30
0.0
 10
722.5816608249393
 20
585.9331666843358
 30
0.0
 10
722.3916884901967
 20
585.7537228762383
 30
0.0
 10
722.2060759243611
 20
585.5041113865935
 30
0.0
 10
722.0839526020266
 20
585.3111572282959
 30
0.0
 10
722.0251238105018
 20
585.2182080705484
 30
0.0
  0
SPLINE
  5
AB
330
1F
100
AcDbEntity
  8
0
  6
Continuous
 62
     7
370
    15
100
AcDbSpline
210
0.0
220
0.0
230
1.0
 70
     8
 71
     3
 72
    11
 73
     7
 74
     0
 42
0.00000001
 43
0.00000001
 12
1.0
 22
0.0
 32
0.0
 13
1.0
 23
0.0
 33
0.0
 40
0.0
 40
0.0
 40
0.0
 40
0.0
 40
0.2543211584721155
 40
0.5088664984542232
 40
0.7634130007197135
 40
1.0
 40
1.0
 40
1.0
 40
1.0
 10
722.0251238105018
 20
585.2182080705484
 30
0.0
 10
722.1251114055714
 20
585.281498624441
 30
0.0
 10
722.325174733757
 20
585.4081355222049
 30
0.0
 10
722.5759866108048
 20
585.5981078569475
 30
0.0
 10
722.7440192342341
 20
585.7837204227831
 30
0.0
 10
722.7650114962895
 20
585.9058437451176
 30
0.0
 10
722.7751238105018
 20
585.9646725366424
 30
0.0
  0
LINE
  5
AC
330
1F
100
AcDbEntity
  8
0
  6
Continuous
 62
     7
370
    15
100
AcDbLine
 10
723.1751238105
 20
585.9646725366
 30
0.0
 11
722.7751238105
 21
585.9646725366
 31
0.0
  0
LINE
  5
AD
330
1F
100
AcDbEntity
  8
0
  6
Continuous
 62
     7
370
    15
100
AcDbLine
 10
352.6251238105
 20
585.2182080705
 30
0.0
 11
352.6251238105
 21
586.3682080705
 31
0.0
  0
LINE
  5
AE
330
1F
100
AcDbEntity
  8
0
  6
Continuous
 62
     7
370
    15
100
AcDbLine
 10
352.6251238105
 20
586.3682080705
 30
0.0
 11
722.7715882766
 21
586.3682080705
 31
0.0
  0
SPLINE
  5
AF
330
1F
100
AcDbEntity
  8
0
  6
Continuous
 62
     7
370
    15
100
AcDbSpline
210
0.0
220
0.0
230
1.0
 70
     8
 71
     3
 72
    12
 73
     8
 74
     0
 42
0.00000001
 43
0.00000001
 12
1.0
 22
0.0
 32
0.0
 13
1.0
 23
0.0
 33
0.0
 40
0.0
 40
0.0
 40
0.0
 40
0.0
 40
0.2096821001528701
 40
0.4420453733186155
 40
0.674433296668143
 40
0.9068208701180619
 40
1.0
 40
1.0
 40
1.0
 40
1.0
 10
722.0251238105018
 20
346.7182080705483
 30
0.0
 10
722.0772664144655
 20
346.5920425915607
 30
0.0
 10
722.1871918531089
 20
346.326064397817
 30
0.0
 10
722.3551759180505
 20
345.9653736829097
 30
0.0
 10
722.5286285522587
 20
345.6936942159165
 30
0.0
 10
722.6678168833753
 20
345.5793832958447
 30
0.0
 10
722.7484971139859
 20
345.5706947765327
 30
0.0
 10
722.7715882765958
 20
345.5682080705483
 30
0.0
  0
SPLINE
  5
B0
330
1F
100
AcDbEntity
  8
0
  6
Continuous
 62
     7
370
    15
100
AcDbSpline
210
0.0
220
0.0
230
1.0
 70
     8
 71
     3
 72
    11
 73
     7
 74
     0
 42
0.00000001
 43
0.00000001
 12
1.0
 22
0.0
 32
0.0
 13
1.0
 23
0.0
 33
0.0
 40
0.0
 40
0.0
 40
0.0
 40
0.0
 40
0.2543211584721503
 40
0.5088664984542688
 40
0.7634130007197738
 40
0.9999999999999999
 40
0.9999999999999999
 40
0.9999999999999999
 40
0.9999999999999999
 10
722.0251238105018
 20
346.7182080705483
 30
0.0
 10
722.0884143643945
 20
346.6182204754786
 30
0.0
 10
722.2150512621583
 20
346.4181571472931
 30
0.0
 10
722.4050235969011
 20
346.1673452702453
 30
0.0
 10
722.5906361627364
 20
345.999312646816
 30
0.0
 10
722.712759485071
 20
345.9783203847605
 30
0.0
 10
722.7715882765958
 20
345.9682080705483
 30
0.0
  0
LINE
  5
B1
330
1F
100
AcDbEntity
  8
0
  6
Continuous
 62
     7
370
    15
100
AcDbLine
 10
722.7715882766
 20
345.5682080705
 30
0.0
 11
722.7715882766
 21
345.9682080705
 31
0.0
  0
LINE
  5
B2
330
1F
100
AcDbEntity
  8
0
  6
Continuous
 62
     7
370
    15
100
AcDbLine
 10
722.7715882766
 20
345.5682080705
 30
0.0
 11
351.2786593444
 21
345.5682080705
 31
0.0
  0
SPLINE
  5
B3
330
1F
100
AcDbEntity
  8
0
  6
Continuous
 62
     7
370
    15
100
AcDbSpline
210
0.0
220
0.0
230
1.0
 70
     8
 71
     3
 72
    12
 73
     8
 74
     0
 42
0.00000001
 43
0.00000001
 12
1.0
 22
0.0
 32
0.0
 13
1.0
 23
0.0
 33
0.0
 40
0.0
 40
0.0
 40
0.0
 40
0.0
 40
0.2096821001528586
 40
0.4420453733185702
 40
0.6744332966681258
 40
0.9068208701180576
 40
1.0
 40
1.0
 40
1.0
 40
1.0
 10
351.2786593444076
 20
345.5682080705483
 30
0.0
 10
351.3308019483713
 20
345.5803780556327
 30
0.0
 10
351.4407273870146
 20
345.606034444976
 30
0.0
 10
351.6087114519563
 20
345.8164997384403
 30
0.0
 10
351.7821640861645
 20
346.1423944773881
 30
0.0
 10
351.921352417281
 20
346.4671149969394
 30
0.0
 10
352.0020326478919
 20
346.6623349554927
 30
0.0
 10
352.0251238105017
 20
346.7182080705483
 30
0.0
  0
LINE
  5
B4
330
1F
100
AcDbEntity
  8
0
  6
Continuous
 62
     7
370
    15
100
AcDbLine
 10
723.1751238105
 20
345.9717436045
 30
0.0
 11
722.7751238105
 21
345.9717436045
 31
0.0
  0
SPLINE
  5
B5
330
1F
100
AcDbEntity
  8
0
  6
Continuous
 62
     7
370
    15
100
AcDbSpline
210
0.0
220
0.0
230
1.0
 70
     8
 71
     3
 72
    11
 73
     7
 74
     0
 42
0.00000001
 43
0.00000001
 12
1.0
 22
0.0
 32
0.0
 13
1.0
 23
0.0
 33
0.0
 40
0.0
 40
0.0
 40
0.0
 40
0.0
 40
0.2543211584721417
 40
0.508866498454238
 40
0.7634130007197248
 40
1.0
 40
1.0
 40
1.0
 40
1.0
 10
722.7751238105018
 20
345.9717436044543
 30
0.0
 10
722.7634467794923
 20
346.035034158347
 30
0.0
 10
722.7400824242892
 20
346.1616710561108
 30
0.0
 10
722.5606386161918
 20
346.3516433908534
 30
0.0
 10
722.3110271265468
 20
346.537255956689
 30
0.0
 10
722.1180729682493
 20
346.6593792790236
 30
0.0
 10
722.0251238105018
 20
346.7182080705483
 30
0.0
  0
LINE
  5
B6
330
1F
100
AcDbEntity
  8
0
  6
Continuous
 62
     7
370
    15
100
AcDbLine
 10
351.2786593444
 20
345.5682080705
 30
0.0
 11
351.2786593444
 21
345.9682080705
 31
0.0
  0
SPLINE
  5
B7
330
1F
100
AcDbEntity
  8
0
  6
Continuous
 62
     7
370
    15
100
AcDbSpline
210
0.0
220
0.0
230
1.0
 70
     8
 71
     3
 72
    11
 73
     7
 74
     0
 42
0.00000001
 43
0.00000001
 12
1.0
 22
0.0
 32
0.0
 13
1.0
 23
0.0
 33
0.0
 40
0.0
 40
0.0
 40
0.0
 40
0.0
 40
0.2543211584720757
 40
0.5088664984541962
 40
0.7634130007197739
 40
1.0
 40
1.0
 40
1.0
 40
1.0
 10
351.2786593444076
 20
345.9682080705484
 30
0.0
 10
351.3419498983002
 20
345.9798851015578
 30
0.0
 10
351.468586796064
 20
346.0032494567608
 30
0.0
 10
351.6585591308068
 20
346.1826932648583
 30
0.0
 10
351.8441716966423
 20
346.4323047545033
 30
0.0
 10
351.9662950189769
 20
346.6252589128008
 30
0.0
 10
352.0251238105017
 20
346.7182080705483
 30
0.0
  0
SPLINE
  5
B8
330
1F
100
AcDbEntity
  8
0
  6
Continuous
 62
     7
370
    15
100
AcDbSpline
210
0.0
220
0.0
230
1.0
 70
     8
 71
     3
 72
    12
 73
     8
 74
     0
 42
0.00000001
 43
0.00000001
 12
1.0
 22
0.0
 32
0.0
 13
1.0
 23
0.0
 33
0.0
 40
0.0
 40
0.0
 40
0.0
 40
0.0
 40
0.2096821001529056
 40
0.4420453733186402
 40
0.6744332966681188
 40
0.9068208701180605
 40
1.0
 40
1.0
 40
1.0
 40
1.0
 10
352.0251238105017
 20
346.7182080705483
 30
0.0
 10
351.8989583315141
 20
346.6660654665846
 30
0.0
 10
351.6329801377705
 20
346.5561400279412
 30
0.0
 10
351.2722894228629
 20
346.3881559629997
 30
0.0
 10
351.00060995587
 20
346.2147033287914
 30
0.0
 10
350.8862990357982
 20
346.0755149976749
 30
0.0
 10
350.877610516486
 20
345.994834767064
 30
0.0
 10
350.8751238105017
 20
345.9717436044542
 30
0.0
  0
LINE
  5
B9
330
1F
100
AcDbEntity
  8
0
  6
Continuous
 62
     7
370
    15
100
AcDbLine
 10
350.8751238105
 20
585.0932080705
 30
0.0
 11
350.8751238105
 21
345.9717436045
 31
0.0
  0
SPLINE
  5
BA
330
1F
100
AcDbEntity
  8
0
  6
Continuous
 62
     7
370
    15
100
AcDbSpline
210
0.0
220
0.0
230
1.0
 70
     8
 71
     3
 72
    12
 73
     8
 74
     0
 42
0.00000001
 43
0.00000001
 12
1.0
 22
0.0
 32
0.0
 13
1.0
 23
0.0
 33
0.0
 40
0.0
 40
0.0
 40
0.0
 40
0.0
 40
0.2039309378942017
 40
0.4425616402550611
 40
0.6812426816310142
 40
0.9199234516442947
 40
1.0
 40
1.0
 40
1.0
 40
1.0
 10
350.8751238105017
 20
585.0932080705484
 30
0.0
 10
350.8866561223518
 20
585.1526257399935
 30
0.0
 10
350.9116830206783
 20
585.2815712620476
 30
0.0
 10
351.12291512821
 20
585.4805120996035
 30
0.0
 10
351.459513089378
 20
585.6893181055082
 30
0.0
 10
351.7860021458654
 20
585.8523682289
 30
0.0
 10
351.97711375133
 20
585.9449501291967
 30
0.0
 10
352.0251238105017
 20
585.9682080705484
 30
0.0
  0
SPLINE
  5
BB
330
1F
100
AcDbEntity
  8
0
  6
Continuous
 62
     7
370
    15
100
AcDbSpline
210
0.0
220
0.0
230
1.0
 70
     8
 71
     3
 72
    11
 73
     7
 74
     0
 42
0.00000001
 43
0.00000001
 12
1.0
 22
0.0
 32
0.0
 13
1.0
 23
0.0
 33
0.0
 40
0.0
 40
0.0
 40
0.0
 40
0.0
 40
0.2543211584722296
 40
0.5088664984543239
 40
0.7634130007197942
 40
1.0
 40
1.0
 40
1.0
 40
1.0
 10
352.0251238105017
 20
346.7182080705483
 30
0.0
 10
351.925136215432
 20
346.6549175166556
 30
0.0
 10
351.7250728872464
 20
346.5282806188918
 30
0.0
 10
351.4742610101986
 20
346.338308284149
 30
0.0
 10
351.3062283867693
 20
346.1526957183136
 30
0.0
 10
351.2852361247139
 20
346.030572395979
 30
0.0
 10
351.2751238105017
 20
345.9717436044542
 30
0.0
  0
LINE
  5
BC
330
1F
100
AcDbEntity
  8
0
  6
Continuous
 62
     7
370
    15
100
AcDbLine
 10
350.8751238105
 20
345.9717436045
 30
0.0
 11
351.2751238105
 21
345.9717436045
 31
0.0
  0
LINE
  5
BD
330
1F
100
AcDbEntity
  8
0
  6
Continuous
 62
     7
370
    15
100
AcDbLine
 10
351.2786593444
 20
345.9682080705
 30
0.0
 11
351.2751238105
 21
345.9682080705
 31
0.0
  0
LINE
  5
BE
330
1F
100
AcDbEntity
  8
0
  6
Continuous
 62
     7
370
    15
100
AcDbLine
 10
351.2751238105
 20
345.9682080705
 30
0.0
 11
351.2751238105
 21
345.9717436045
 31
0.0
  0
LINE
  5
BF
330
1F
100
AcDbEntity
  8
0
  6
Continuous
 62
     7
370
    15
100
AcDbLine
 10
351.6751238105
 20
346.2052869644
 30
0.0
 11
351.6751238105
 21
346.4735480473
 31
0.0
  0
LINE
  5
C0
330
1F
100
AcDbEntity
  8
0
  6
Continuous
 62
     7
370
    15
100
AcDbLine
 10
352.5001238105
 20
585.5682080705
 30
0.0
 11
352.6251238105
 21
585.5682080705
 31
0.0
  0
LINE
  5
C1
330
1F
100
AcDbEntity
  8
0
  6
Continuous
 62
     7
370
    15
100
AcDbLine
 10
352.5001238105
 20
585.9682080705
 30
0.0
 11
352.6251238105
 21
585.9682080705
 31
0.0
  0
LINE
  5
C2
330
1F
100
AcDbEntity
  8
0
  6
Continuous
 62
     7
370
    15
100
AcDbLine
 10
351.80974604
 20
346.578293278
 30
0.0
 11
351.8642213973
 21
346.4864117804
 31
0.0
  0
LWPOLYLINE
  5
C3
330
1F
100
AcDbEntity
  8
0
  6
Continuous
 62
     7
370
    15
100
AcDbPolyline
 90
        3
 70
   128
 43
0.0
 10
722.2329913039
 20
346.4123209589
 10
722.2813138647
 20
346.4793023026
 10
722.3140830109
 20
346.5313011785
  0
LINE
  5
C4
330
1F
100
AcDbEntity
  8
0
  6
Continuous
 62
     7
370
    15
100
AcDbLine
 10
353.2355170166
 20
736.7415929367
 30
0.0
 11
354.7029980414
 21
719.9682080705
 31
0.0
  0
LINE
  5
C5
330
1F
100
AcDbEntity
  8
0
  6
Continuous
 62
     7
370
    15
100
AcDbLine
 10
321.7029980414
 20
719.9682080705
 30
0.0
 11
323.7872283667
 21
743.7910696997
 31
0.0
  0
LINE
  5
C6
330
1F
100
AcDbEntity
  8
0
  6
Continuous
 62
     7
370
    15
100
AcDbLine
 10
321.7279980414
 20
719.9682080705
 30
0.0
 11
321.7029980414
 21
719.9682080705
 31
0.0
  0
ARC
  5
C7
330
1F
100
AcDbEntity
  8
0
  6
Continuous
 62
     7
370
    15
100
AcDbCircle
 10
352.2393223185
 20
736.654437194
 30
0.0
 40
1.000000000000032
100
AcDbArc
 50
5.0
 51
75.6
  0
LINE
  5
C8
330
1F
100
AcDbEntity
  8
0
  6
Continuous
 62
     7
370
    15
100
AcDbLine
 10
325.0321129519
 20
744.6724971181
 30
0.0
 11
352.4880122057
 21
737.6230203551
 31
0.0
  0
ARC
  5
C9
330
1F
100
AcDbEntity
  8
0
  6
Continuous
 62
     7
370
    15
100
AcDbCircle
 10
324.7834230648
 20
743.703913957
 30
0.0
 40
1.000000000000046
100
AcDbArc
 50
75.6
 51
175.0
  0
LINE
  5
CA
330
1F
100
AcDbEntity
  8
0
  6
Continuous
 62
     7
370
    15
100
AcDbLine
 10
336.8580264981
 20
579.8182080705
 30
0.0
 11
336.8580264981
 21
577.8682080705
 31
0.0
  0
LINE
  5
CB
330
1F
100
AcDbEntity
  8
0
  6
Continuous
 62
     7
370
    15
100
AcDbLine
 10
344.2800780176
 20
577.8682080705
 30
0.0
 11
344.2800780176
 21
579.8182080705
 31
0.0
  0
LINE
  5
CC
330
1F
100
AcDbEntity
  8
0
  6
Continuous
 62
     7
370
    15
100
AcDbLine
 10
336.8580264981
 20
579.8182080705
 30
0.0
 11
344.2800780176
 21
579.8182080705
 31
0.0
  0
LINE
  5
CD
330
1F
100
AcDbEntity
  8
0
  6
Continuous
 62
     7
370
    15
100
AcDbLine
 10
336.8580264981
 20
577.8682080705
 30
0.0
 11
344.2800780176
 21
577.8682080705
 31
0.0
  0
LINE
  5
CE
330
1F
100
AcDbEntity
  8
0
  6
Continuous
 62
     7
370
    15
100
AcDbLine
 10
340.1284304635
 20
586.3682080705
 30
0.0
 11
340.1284304635
 21
584.7682080705
 31
0.0
  0
LINE
  5
CF
330
1F
100
AcDbEntity
  8
0
  6
Continuous
 62
     7
370
    15
100
AcDbLine
 10
333.3559079313
 20
584.7682080705
 30
0.0
 11
333.3559079313
 21
586.3682080706
 31
0.0
  0
LINE
  5
D0
330
1F
100
AcDbEntity
  8
0
  6
Continuous
 62
     7
370
    15
100
AcDbLine
 10
333.3559079313
 20
584.7682080705
 30
0.0
 11
340.1284304635
 21
584.7682080705
 31
0.0
  0
LINE
  5
D1
330
1F
100
AcDbEntity
  8
0
  6
Continuous
 62
     7
370
    15
100
AcDbLine
 10
344.8001238105
 20
570.7682080705
 30
0.0
 11
334.9501238105
 21
570.7682080705
 31
0.0
  0
LINE
  5
D2
330
1F
100
AcDbEntity
  8
0
  6
Continuous
 62
     7
370
    15
100
AcDbLine
 10
332.4501238105
 20
581.0182080705
 30
0.0
 11
347.3001238105
 21
581.0182080705
 31
0.0
  0
LINE
  5
D3
330
1F
100
AcDbEntity
  8
0
  6
Continuous
 62
     7
370
    15
100
AcDbLine
 10
332.8751238105
 20
583.7682080705
 30
0.0
 11
346.8751238105
 21
583.7682080705
 31
0.0
  0
LINE
  5
D4
330
1F
100
AcDbEntity
  8
0
  6
Continuous
 62
     7
370
    15
100
AcDbLine
 10
341.1685738532
 20
584.7682080705
 30
0.0
 11
341.1685738532
 21
586.3682080705
 31
0.0
  0
LINE
  5
D5
330
1F
100
AcDbEntity
  8
0
  6
Continuous
 62
     7
370
    15
100
AcDbLine
 10
340.1284304635
 20
584.7682080705
 30
0.0
 11
341.1685738532
 21
584.7682080705
 31
0.0
  0
LINE
  5
D6
330
1F
100
AcDbEntity
  8
0
  6
Continuous
 62
     7
370
    15
100
AcDbLine
 10
347.2514216493
 20
586.3682080705
 30
0.0
 11
347.2514216493
 21
584.7682080705
 31
0.0
  0
LINE
  5
D7
330
1F
100
AcDbEntity
  8
0
  6
Continuous
 62
     7
370
    15
100
AcDbLine
 10
341.1685738532
 20
584.7682080705
 30
0.0
 11
347.2514216493
 21
584.7682080705
 31
0.0
  0
LINE
  5
D8
330
1F
100
AcDbEntity
  8
0
  6
Continuous
 62
     7
370
    15
100
AcDbLine
 10
335.9089095962
 20
577.8682080705
 30
0.0
 11
335.9089095962
 21
579.8182080705
 31
0.0
  0
LINE
  5
D9
330
1F
100
AcDbEntity
  8
0
  6
Continuous
 62
     7
370
    15
100
AcDbLine
 10
335.9089095962
 20
579.8182080705
 30
0.0
 11
336.8580264981
 21
579.8182080705
 31
0.0
  0
LINE
  5
DA
330
1F
100
AcDbEntity
  8
0
  6
Continuous
 62
     7
370
    15
100
AcDbLine
 10
335.9089095962
 20
577.8682080705
 30
0.0
 11
336.8580264981
 21
577.8682080705
 31
0.0
  0
LINE
  5
DB
330
1F
100
AcDbEntity
  8
0
  6
Continuous
 62
     7
370
    15
100
AcDbLine
 10
331.6006079946
 20
579.8182080705
 30
0.0
 11
331.6006079946
 21
577.8682080705
 31
0.0
  0
LINE
  5
DC
330
1F
100
AcDbEntity
  8
0
  6
Continuous
 62
     7
370
    15
100
AcDbLine
 10
331.6006079946
 20
579.8182080705
 30
0.0
 11
335.9089095962
 21
579.8182080705
 31
0.0
  0
LINE
  5
DD
330
1F
100
AcDbEntity
  8
0
  6
Continuous
 62
     7
370
    15
100
AcDbLine
 10
331.6006079946
 20
577.8682080705
 30
0.0
 11
335.9089095962
 21
577.8682080705
 31
0.0
  0
LINE
  5
DE
330
1F
100
AcDbEntity
  8
0
  6
Continuous
 62
     7
370
    15
100
AcDbLine
 10
345.132542314
 20
579.8182080705
 30
0.0
 11
345.132542314
 21
577.8682080705
 31
0.0
  0
LINE
  5
DF
330
1F
100
AcDbEntity
  8
0
  6
Continuous
 62
     7
370
    15
100
AcDbLine
 10
344.2800780176
 20
579.8182080705
 30
0.0
 11
345.132542314
 21
579.8182080705
 31
0.0
  0
LINE
  5
E0
330
1F
100
AcDbEntity
  8
0
  6
Continuous
 62
     7
370
    15
100
AcDbLine
 10
344.2800780176
 20
577.8682080705
 30
0.0
 11
345.132542314
 21
577.8682080705
 31
0.0
  0
LINE
  5
E1
330
1F
100
AcDbEntity
  8
0
  6
Continuous
 62
     7
370
    15
100
AcDbLine
 10
348.2462922319
 20
577.8682080705
 30
0.0
 11
348.2462922319
 21
579.8182080705
 31
0.0
  0
LINE
  5
E2
330
1F
100
AcDbEntity
  8
0
  6
Continuous
 62
     7
370
    15
100
AcDbLine
 10
345.132542314
 20
579.8182080705
 30
0.0
 11
348.2462922319
 21
579.8182080705
 31
0.0
  0
LINE
  5
E3
330
1F
100
AcDbEntity
  8
0
  6
Continuous
 62
     7
370
    15
100
AcDbLine
 10
345.132542314
 20
577.8682080705
 30
0.0
 11
348.2462922319
 21
577.8682080705
 31
0.0
  0
LINE
  5
E4
330
1F
100
AcDbEntity
  8
0
  6
Continuous
 62
     7
370
    15
100
AcDbLine
 10
332.7521326247
 20
586.3682080706
 30
0.0
 11
332.7521326247
 21
584.7682080705
 31
0.0
  0
LINE
  5
E5
330
1F
100
AcDbEntity
  8
0
  6
Continuous
 62
     7
370
    15
100
AcDbLine
 10
332.7521326247
 20
584.7682080705
 30
0.0
 11
333.3559079313
 21
584.7682080705
 31
0.0
  0
LINE
  5
E6
330
1F
100
AcDbEntity
  8
0
  6
Continuous
 62
     7
370
    15
100
AcDbLine
 10
332.0624578886
 20
584.7682080705
 30
0.0
 11
332.0624578886
 21
586.3682080706
 31
0.0
  0
LINE
  5
E7
330
1F
100
AcDbEntity
  8
0
  6
Continuous
 62
     7
370
    15
100
AcDbLine
 10
332.0624578886
 20
584.7682080705
 30
0.0
 11
332.7521326247
 21
584.7682080705
 31
0.0
  0
LINE
  5
E8
330
1F
100
AcDbEntity
  8
0
  6
Continuous
 62
     7
370
    15
100
AcDbLine
 10
347.6877897324
 20
584.7682080705
 30
0.0
 11
347.6877897324
 21
586.3682080705
 31
0.0
  0
LINE
  5
E9
330
1F
100
AcDbEntity
  8
0
  6
Continuous
 62
     7
370
    15
100
AcDbLine
 10
347.2514216493
 20
584.7682080705
 30
0.0
 11
347.6877897324
 21
584.7682080705
 31
0.0
  0
LINE
  5
EA
330
1F
100
AcDbEntity
  8
0
  6
Continuous
 62
     7
370
    15
100
AcDbLine
 10
331.5039553891
 20
577.8682080705
 30
0.0
 11
331.5039553891
 21
579.8182080705
 31
0.0
  0
LINE
  5
EB
330
1F
100
AcDbEntity
  8
0
  6
Continuous
 62
     7
370
    15
100
AcDbLine
 10
331.5039553891
 20
579.8182080705
 30
0.0
 11
331.6006079946
 21
579.8182080705
 31
0.0
  0
LINE
  5
EC
330
1F
100
AcDbEntity
  8
0
  6
Continuous
 62
     7
370
    15
100
AcDbLine
 10
331.5039553891
 20
577.8682080705
 30
0.0
 11
331.6006079946
 21
577.8682080705
 31
0.0
  0
LINE
  5
ED
330
1F
100
AcDbEntity
  8
0
  6
Continuous
 62
     7
370
    15
100
AcDbLine
 10
527.4905017308
 20
719.2072518615
 30
0.0
 11
541.1030017419
 21
719.2072518615
 31
0.0
  0
LINE
  5
EE
330
1F
100
AcDbEntity
  8
0
  6
Continuous
 62
     7
370
    15
100
AcDbLine
 10
541.8530017419
 20
718.4572518615
 30
0.0
 11
541.1030017419
 21
719.2072518615
 31
0.0
  0
LINE
  5
EF
330
1F
100
AcDbEntity
  8
0
  6
Continuous
 62
     7
370
    15
100
AcDbLine
 10
527.4905017419
 20
718.4572518615
 30
0.0
 11
541.8530017419
 21
718.4572518615
 31
0.0
  0
LINE
  5
F0
330
1F
100
AcDbEntity
  8
0
  6
Continuous
 62
     7
370
    15
100
AcDbLine
 10
541.8530017419
 20
718.4572518615
 30
0.0
 11
541.8530017419
 21
716.4634619804
 31
0.0
  0
LINE
  5
F1
330
1F
100
AcDbEntity
  8
0
  6
Continuous
 62
     7
370
    15
100
AcDbLine
 10
527.4905017405
 20
716.4572518615
 30
0.0
 11
541.6547295516
 21
716.4572518615
 31
0.0
  0
LINE
  5
F2
330
1F
100
AcDbEntity
  8
0
  6
Continuous
 62
     7
370
    15
100
AcDbLine
 10
527.4905017308
 20
719.2072518615
 30
0.0
 11
406.2155017542
 21
719.2072518615
 31
0.0
  0
LINE
  5
F3
330
1F
100
AcDbEntity
  8
0
  6
Continuous
 62
     7
370
    15
100
AcDbLine
 10
406.2155017405
 20
718.4572518615
 30
0.0
 11
527.4905017419
 21
718.4572518615
 31
0.0
  0
LINE
  5
F4
330
1F
100
AcDbEntity
  8
0
  6
Continuous
 62
     7
370
    15
100
AcDbLine
 10
391.8530017419
 20
716.4634619806
 30
0.0
 11
391.8530017419
 21
718.4572518615
 31
0.0
  0
LINE
  5
F5
330
1F
100
AcDbEntity
  8
0
  6
Continuous
 62
     7
370
    15
100
AcDbLine
 10
391.8530017419
 20
718.4572518615
 30
0.0
 11
406.2155017405
 21
718.4572518615
 31
0.0
  0
LINE
  5
F6
330
1F
100
AcDbEntity
  8
0
  6
Continuous
 62
     7
370
    15
100
AcDbLine
 10
392.0512739432
 20
716.4572518615
 30
0.0
 11
406.2155017405
 21
716.4572518615
 31
0.0
  0
LINE
  5
F7
330
1F
100
AcDbEntity
  8
0
  6
Continuous
 62
     7
370
    15
100
AcDbLine
 10
391.8530017419
 20
718.4572518615
 30
0.0
 11
392.6030017419
 21
719.2072518615
 31
0.0
  0
LINE
  5
F8
330
1F
100
AcDbEntity
  8
0
  6
Continuous
 62
     7
370
    15
100
AcDbLine
 10
392.6030017419
 20
719.2072518615
 30
0.0
 11
406.2155017542
 21
719.2072518615
 31
0.0
  0
LINE
  5
F9
330
1F
100
AcDbEntity
  8
0
  6
Continuous
 62
     7
370
    15
100
AcDbLine
 10
566.8529943409
 20
718.4572518615
 30
0.0
 11
567.6029943409
 21
719.2072518615
 31
0.0
  0
LINE
  5
FA
330
1F
100
AcDbEntity
  8
0
  6
Continuous
 62
     7
370
    15
100
AcDbLine
 10
567.6029943409
 20
719.2072518615
 30
0.0
 11
581.2154943532
 21
719.2072518615
 31
0.0
  0
LINE
  5
FB
330
1F
100
AcDbEntity
  8
0
  6
Continuous
 62
     7
370
    15
100
AcDbLine
 10
566.8529943409
 20
718.4572518615
 30
0.0
 11
581.2154943409
 21
718.4572518615
 31
0.0
  0
LINE
  5
FC
330
1F
100
AcDbEntity
  8
0
  6
Continuous
 62
     7
370
    15
100
AcDbLine
 10
566.8529943409
 20
716.4634619806
 30
0.0
 11
566.8529943409
 21
718.4572518615
 31
0.0
  0
LINE
  5
FD
330
1F
100
AcDbEntity
  8
0
  6
Continuous
 62
     7
370
    15
100
AcDbLine
 10
567.0512665422
 20
716.4572518615
 30
0.0
 11
581.2154943416
 21
716.4572518615
 31
0.0
  0
LINE
  5
FE
330
1F
100
AcDbEntity
  8
0
  6
Continuous
 62
     7
370
    15
100
AcDbLine
 10
581.2154943532
 20
719.2072518615
 30
0.0
 11
702.4904943264
 21
719.2072518615
 31
0.0
  0
LINE
  5
FF
330
1F
100
AcDbEntity
  8
0
  6
Continuous
 62
     7
370
    15
100
AcDbLine
 10
702.4904943416
 20
718.4572518615
 30
0.0
 11
581.2154943409
 21
718.4572518615
 31
0.0
  0
LINE
  5
100
330
1F
100
AcDbEntity
  8
0
  6
Continuous
 62
     7
370
    15
100
AcDbLine
 10
702.4904943264
 20
719.2072518615
 30
0.0
 11
716.1029943409
 21
719.2072518615
 31
0.0
  0
LINE
  5
101
330
1F
100
AcDbEntity
  8
0
  6
Continuous
 62
     7
370
    15
100
AcDbLine
 10
716.8529943409
 20
718.4572518615
 30
0.0
 11
716.1029943409
 21
719.2072518615
 31
0.0
  0
LINE
  5
102
330
1F
100
AcDbEntity
  8
0
  6
Continuous
 62
     7
370
    15
100
AcDbLine
 10
702.4904943416
 20
718.4572518615
 30
0.0
 11
716.8529943409
 21
718.4572518615
 31
0.0
  0
LINE
  5
103
330
1F
100
AcDbEntity
  8
0
  6
Continuous
 62
     7
370
    15
100
AcDbLine
 10
716.8529943409
 20
718.4572518615
 30
0.0
 11
716.8529943409
 21
716.4634619806
 31
0.0
  0
LINE
  5
104
330
1F
100
AcDbEntity
  8
0
  6
Continuous
 62
     7
370
    15
100
AcDbLine
 10
702.4904943423
 20
716.4572518615
 30
0.0
 11
716.6547221395
 21
716.4572518615
 31
0.0
  0
LINE
  5
105
330
1F
100
AcDbEntity
  8
0
  6
Continuous
 62
     7
370
    15
100
AcDbLine
 10
544.2280017419
 20
711.016918656
 30
0.0
 11
543.8814079179
 21
710.9682080705
 31
0.0
  0
LINE
  5
106
330
1F
100
AcDbEntity
  8
0
  6
Continuous
 62
     7
370
    15
100
AcDbLine
 10
527.0030017419
 20
711.016918656
 30
0.0
 11
544.2280017419
 21
711.016918656
 31
0.0
  0
LINE
  5
107
330
1F
100
AcDbEntity
  8
0
  6
Continuous
 62
     7
370
    15
100
AcDbLine
 10
543.7038356393
 20
714.7465542727
 30
0.0
 11
544.2280017419
 21
711.016918656
 31
0.0
  0
LINE
  5
108
330
1F
100
AcDbEntity
  8
0
  6
Continuous
 62
     7
370
    15
100
AcDbLine
 10
527.0030017419
 20
711.016918656
 30
0.0
 11
406.7030017427
 21
711.016918656
 31
0.0
  0
LINE
  5
109
330
1F
100
AcDbEntity
  8
0
  6
Continuous
 62
     7
370
    15
100
AcDbLine
 10
406.7030017427
 20
711.016918656
 30
0.0
 11
389.4780017419
 21
711.016918656
 31
0.0
  0
LINE
  5
10A
330
1F
100
AcDbEntity
  8
0
  6
Continuous
 62
     7
370
    15
100
AcDbLine
 10
389.4780017419
 20
711.016918656
 30
0.0
 11
390.0021678448
 21
714.7465542725
 31
0.0
  0
LINE
  5
10B
330
1F
100
AcDbEntity
  8
0
  6
Continuous
 62
     7
370
    15
100
AcDbLine
 10
389.8245955659
 20
710.9682080705
 30
0.0
 11
389.4780017419
 21
711.016918656
 31
0.0
  0
ARC
  5
10C
330
1F
100
AcDbEntity
  8
0
  6
Continuous
 62
     7
370
    15
100
AcDbCircle
 10
541.7232995019
 20
714.4682080707
 30
0.0
 40
1.999999999870008
100
AcDbArc
 50
8.000000003
 51
86.2816950912
  0
ARC
  5
10D
330
1F
100
AcDbEntity
  8
0
  6
Continuous
 62
     7
370
    15
100
AcDbCircle
 10
391.9827039823
 20
714.4682080707
 30
0.0
 40
2.000000000078639
100
AcDbArc
 50
93.7183049226
 51
172.0000000024
  0
LINE
  5
10E
330
1F
100
AcDbEntity
  8
0
  6
Continuous
 62
     7
370
    15
100
AcDbLine
 10
564.8245881649
 20
710.9682080705
 30
0.0
 11
564.4779943409
 21
711.016918656
 31
0.0
  0
LINE
  5
10F
330
1F
100
AcDbEntity
  8
0
  6
Continuous
 62
     7
370
    15
100
AcDbLine
 10
581.7029943342
 20
711.016918656
 30
0.0
 11
564.4779943409
 21
711.016918656
 31
0.0
  0
LINE
  5
110
330
1F
100
AcDbEntity
  8
0
  6
Continuous
 62
     7
370
    15
100
AcDbLine
 10
564.4779943409
 20
711.016918656
 30
0.0
 11
565.0021604435
 21
714.7465542732
 31
0.0
  0
LINE
  5
111
330
1F
100
AcDbEntity
  8
0
  6
Continuous
 62
     7
370
    15
100
AcDbLine
 10
581.7029943342
 20
711.016918656
 30
0.0
 11
702.0029943392
 21
711.016918656
 31
0.0
  0
LINE
  5
112
330
1F
100
AcDbEntity
  8
0
  6
Continuous
 62
     7
370
    15
100
AcDbLine
 10
719.2279943409
 20
711.016918656
 30
0.0
 11
718.8814005169
 21
710.9682080705
 31
0.0
  0
LINE
  5
113
330
1F
100
AcDbEntity
  8
0
  6
Continuous
 62
     7
370
    15
100
AcDbLine
 10
719.2279943409
 20
711.016918656
 30
0.0
 11
702.0029943392
 21
711.016918656
 31
0.0
  0
LINE
  5
114
330
1F
100
AcDbEntity
  8
0
  6
Continuous
 62
     7
370
    15
100
AcDbLine
 10
718.703828238
 20
714.7465542732
 30
0.0
 11
719.2279943409
 21
711.016918656
 31
0.0
  0
ARC
  5
115
330
1F
100
AcDbEntity
  8
0
  6
Continuous
 62
     7
370
    15
100
AcDbCircle
 10
566.9826965809
 20
714.4682080705
 30
0.0
 40
2.000000000000102
100
AcDbArc
 50
93.718304911
 51
171.9999999772
  0
ARC
  5
116
330
1F
100
AcDbEntity
  8
0
  6
Continuous
 62
     7
370
    15
100
AcDbCircle
 10
716.7232921004
 20
714.4682080705
 30
0.0
 40
2.000000000262103
100
AcDbArc
 50
8.0000000202
 51
86.2816950747
  0
LINE
  5
117
330
1F
100
AcDbEntity
  8
0
  6
Continuous
 62
     7
370
    15
100
AcDbLine
 10
752.0836528453
 20
658.2145539951
 30
0.0
 11
763.0061362106
 21
634.7912128292
 31
0.0
  0
SPLINE
  5
118
330
1F
100
AcDbEntity
  8
0
  6
Continuous
 62
     7
370
    15
100
AcDbSpline
210
0.0
220
0.0
230
1.0
 70
    24
 71
     3
 72
    11
 73
     7
 74
     0
 42
0.00000001
 43
0.00000001
 12
1.0
 22
0.0
 32
0.0
 13
1.0
 23
0.0
 33
0.0
 40
0.0
 40
0.0
 40
0.0
 40
0.0
 40
0.1499516226907215
 40
0.4331749578253749
 40
0.7165923401616975
 40
1.0
 40
1.0
 40
1.0
 40
1.0
 10
763.7897211211856
 20
633.1108095655994
 30
0.0
 10
763.7396594584382
 20
633.2181671478135
 30
0.0
 10
763.5950430931055
 20
633.5282979440884
 30
0.0
 10
763.3668740400827
 20
634.0176080573415
 30
0.0
 10
763.1379907973068
 20
634.5084497554634
 30
0.0
 10
763.0500872368937
 20
634.6969595491066
 30
0.0
 10
763.0061362105724
 20
634.791212829216
 30
0.0
  0
SPLINE
  5
119
330
1F
100
AcDbEntity
  8
0
  6
Continuous
 62
     7
370
    15
100
AcDbSpline
210
0.0
220
0.0
230
1.0
 70
    24
 71
     3
 72
    11
 73
     7
 74
     0
 42
0.00000001
 43
0.00000001
 12
1.0
 22
0.0
 32
0.0
 13
1.0
 23
0.0
 33
0.0
 40
0.0
 40
0.0
 40
0.0
 40
0.0
 40
0.1499515950756894
 40
0.4331749432232073
 40
0.7165923323728118
 40
1.0
 40
1.0
 40
1.0
 40
1.0
 10
752.0836528453259
 20
658.2145539951346
 30
0.0
 10
752.0625735876212
 20
658.2597586091616
 30
0.0
 10
752.0016805624095
 20
658.3903441231384
 30
0.0
 10
751.8367123079588
 20
658.7441196864727
 30
0.0
 10
751.5850482809283
 20
659.2838149340828
 30
0.0
 10
751.3950602973006
 20
659.6912454797862
 30
0.0
 10
751.3000679347127
 20
659.8949572587511
 30
0.0
  0
LINE
  5
11A
330
1F
100
AcDbEntity
  8
0
  6
Continuous
 62
     7
370
    15
100
AcDbLine
 10
744.737945224
 20
668.1138408601
 30
0.0
 11
744.9457825847
 21
668.1978126046
 31
0.0
  0
SPLINE
  5
11B
330
1F
100
AcDbEntity
  8
0
  6
Continuous
 62
     7
370
    15
100
AcDbSpline
210
0.0
220
0.0
230
1.0
 70
     8
 71
     3
 72
    14
 73
    10
 74
     0
 42
0.00000001
 43
0.00000001
 12
1.0
 22
0.0
 32
0.0
 13
1.0
 23
0.0
 33
0.0
 40
0.0
 40
0.0
 40
0.0
 40
0.0
 40
0.0000064140457867
 40
0.0730558909548042
 40
0.215493595773359
 40
0.4037789030075327
 40
0.5887468703998122
 40
0.8882363243876867
 40
1.0
 40
1.0
 40
1.0
 40
1.0
 10
744.9457825847436
 20
668.197812604558
 30
0.0
 10
744.9457918547286
 20
668.1978163498088
 30
0.0
 10
745.0513768511494
 20
668.2404747049828
 30
0.0
 10
745.3768843187916
 20
668.3335457661543
 30
0.0
 10
746.0158497701294
 20
668.3364784162042
 30
0.0
 10
746.8016557567732
 20
668.0994592185067
 30
0.0
 10
747.6474913033163
 20
667.4460432785899
 30
0.0
 10
748.1439000594908
 20
666.6402505611967
 30
0.0
 10
748.4214637659147
 20
666.0632010438018
 30
0.0
 10
748.496895508104
 20
665.9063799269945
 30
0.0
  0
SPLINE
  5
11C
330
1F
100
AcDbEntity
  8
0
  6
Continuous
 62
     7
370
    15
100
AcDbSpline
210
0.0
220
0.0
230
1.0
 70
     8
 71
     3
 72
    15
 73
    11
 74
     0
 42
0.00000001
 43
0.00000001
 12
1.0
 22
0.0
 32
0.0
 13
1.0
 23
0.0
 33
0.0
 40
0.0
 40
0.0
 40
0.0
 40
0.0
 40
0.0125258353877714
 40
0.2274813526119528
 40
0.4424404199769135
 40
0.4999991763207165
 40
0.7148755009569818
 40
0.9297495265588449
 40
0.9874741646146634
 40
1.0
 40
1.0
 40
1.0
 40
1.0
 10
745.1599867586361
 20
667.2087761289009
 30
0.0
 10
745.1573854452032
 20
667.2147548478653
 30
0.0
 10
745.1101430633602
 20
667.3233341988481
 30
0.0
 10
745.0168976369631
 20
667.5348412327434
 30
0.0
 10
744.924531682267
 20
667.7387001386514
 30
0.0
 10
744.8457334146891
 20
667.9086808420283
 30
0.0
 10
744.7808222386268
 20
668.0441117397698
 30
0.0
 10
744.7465957905406
 20
668.1064928705756
 30
0.0
 10
744.7390992349856
 20
668.1140176950587
 30
0.0
 10
744.7381219354841
 20
668.1138684613566
 30
0.0
 10
744.737947680535
 20
668.1138418526136
 30
0.0
  0
SPLINE
  5
11D
330
1F
100
AcDbEntity
  8
0
  6
Continuous
 62
     7
370
    15
100
AcDbSpline
210
0.0
220
0.0
230
1.0
 70
     8
 71
     3
 72
     9
 73
     5
 74
     0
 42
0.00000001
 43
0.00000001
 12
1.0
 22
0.0
 32
0.0
 13
1.0
 23
0.0
 33
0.0
 40
0.0
 40
0.0
 40
0.0
 40
0.0
 40
0.0000220488581669
 40
1.0
 40
1.0
 40
1.0
 40
1.0
 10
769.7625305108501
 20
620.3020784945812
 30
0.0
 10
769.7625347370307
 20
620.302069431502
 30
0.0
 10
769.9542081795405
 20
619.8910241473297
 30
0.0
 10
770.0996772101118
 20
619.4604770259065
 30
0.0
 10
770.2451430332571
 20
619.0299393975556
 30
0.0
  0
LINE
  5
11E
330
1F
100
AcDbEntity
  8
0
  6
Continuous
 62
     7
370
    15
100
AcDbLine
 10
744.737945224
 20
668.1138408601
 30
0.0
 11
744.7136685168
 21
668.1040324337
 31
0.0
  0
LINE
  5
11F
330
1F
100
AcDbEntity
  8
0
  6
Continuous
 62
     7
370
    15
100
AcDbLine
 10
763.7897211212
 20
633.1108095656
 30
0.0
 11
769.7625305108
 21
620.3020784946
 31
0.0
  0
LINE
  5
120
330
1F
100
AcDbEntity
  8
0
  6
Continuous
 62
     7
370
    15
100
AcDbLine
 10
748.4968955081
 20
665.906379927
 30
0.0
 11
751.3000679347
 21
659.8949572588
 31
0.0
  0
SPLINE
  5
121
330
1F
100
AcDbEntity
  8
0
  6
Continuous
 62
     7
370
    15
100
AcDbSpline
210
0.0
220
0.0
230
1.0
 70
     8
 71
     3
 72
    20
 73
    16
 74
     0
 42
0.00000001
 43
0.00000001
 12
1.0
 22
0.0
 32
0.0
 13
1.0
 23
0.0
 33
0.0
 40
0.0
 40
0.0
 40
0.0
 40
0.0
 40
0.2070577373168121
 40
0.4203770502760612
 40
0.7011163025568181
 40
0.8834527988430996
 40
0.9282286404934982
 40
0.9524788585968967
 40
0.9675018207221378
 40
0.9773827146382336
 40
0.984093855368541
 40
0.9887393639099425
 40
0.9919933949590781
 40
0.9977340800222636
 40
0.9999999999999999
 40
0.9999999999999999
 40
0.9999999999999999
 40
0.9999999999999999
 10
770.245143033257
 20
619.0299393975556
 30
0.0
 10
770.2975757000637
 20
618.7853821614256
 30
0.0
 10
770.4040266354208
 20
618.2888721015734
 30
0.0
 10
770.3048109811086
 20
617.4344933581532
 30
0.0
 10
769.9877675341091
 20
616.7860864473403
 30
0.0
 10
769.6523907763061
 20
616.402242883896
 30
0.0
 10
769.4472149010555
 20
616.2414798255419
 30
0.0
 10
769.3744734013395
 20
616.1914320859555
 30
0.0
 10
769.3305253311321
 20
616.1634962944814
 30
0.0
 10
769.301687940053
 20
616.1461104278962
 30
0.0
 10
769.2820622907446
 20
616.1347025608709
 30
0.0
 10
769.2684422762784
 20
616.126985312871
 30
0.0
 10
769.2556496016446
 20
616.1198686655422
 30
0.0
 10
769.2450209006573
 20
616.1140717819707
 30
0.0
 10
769.2374118126756
 20
616.1100124545696
 30
0.0
 10
769.2352583925455
 20
616.1088636391845
 30
0.0
  0
SPLINE
  5
122
330
1F
100
AcDbEntity
  8
0
  6
Continuous
 62
     7
370
    15
100
AcDbSpline
210
0.0
220
0.0
230
1.0
 70
     8
 71
     3
 72
    10
 73
     6
 74
     0
 42
0.00000001
 43
0.00000001
 12
1.0
 22
0.0
 32
0.0
 13
1.0
 23
0.0
 33
0.0
 40
0.0
 40
0.0
 40
0.0
 40
0.0
 40
0.4527378322259019
 40
0.9055954617464345
 40
0.9999999999999999
 40
0.9999999999999999
 40
0.9999999999999999
 40
0.9999999999999999
 10
770.3061839043495
 20
617.6314784476358
 30
0.0
 10
770.3099954277734
 20
617.6577281596553
 30
0.0
 10
770.3176194831748
 20
617.7102345295344
 30
0.0
 10
770.379299991844
 20
617.951568959024
 30
0.0
 10
770.3582897257397
 20
618.1897918492539
 30
0.0
 10
770.3546653851822
 20
618.2308860875877
 30
0.0
  0
SPLINE
  5
123
330
1F
100
AcDbEntity
  8
0
  6
Continuous
 62
     7
370
    15
100
AcDbSpline
210
0.0
220
0.0
230
1.0
 70
     8
 71
     3
 72
    12
 73
     8
 74
     0
 42
0.00000001
 43
0.00000001
 12
1.0
 22
0.0
 32
0.0
 13
1.0
 23
0.0
 33
0.0
 40
0.0
 40
0.0
 40
0.0
 40
0.0
 40
0.4616906276046412
 40
0.730772995715253
 40
0.9175829515524329
 40
0.9719359527204142
 40
1.0
 40
1.0
 40
1.0
 40
1.0
 10
770.234617661061
 20
619.0676322969551
 30
0.0
 10
770.2196107646151
 20
619.1219122169656
 30
0.0
 10
770.1958575540963
 20
619.2078275407378
 30
0.0
 10
770.1600458638064
 20
619.3198770377619
 30
0.0
 10
770.1393002493763
 20
619.3820614127173
 30
0.0
 10
770.1280566394489
 20
619.4148972142184
 30
0.0
 10
770.1245845415743
 20
619.4249411663893
 30
0.0
 10
770.1234022483382
 20
619.4283612591239
 30
0.0
  0
LINE
  5
124
330
1F
100
AcDbEntity
  8
0
  6
Continuous
 62
     7
370
    15
100
AcDbLine
 10
747.811975588
 20
667.036952101
 30
0.0
 11
747.5891692263
 21
667.4043966099
 31
0.0
  0
LINE
  5
125
330
1F
100
AcDbEntity
  8
0
  6
Continuous
 62
     7
370
    15
100
AcDbLine
 10
769.7856213844
 20
620.2523057643
 30
0.0
 11
769.7646044057
 21
620.2976290086
 31
0.0
  0
SPLINE
  5
126
330
1F
100
AcDbEntity
  8
0
  6
Continuous
 62
     7
370
    15
100
AcDbSpline
210
0.0
220
0.0
230
1.0
 70
     8
 71
     3
 72
     9
 73
     5
 74
     0
 42
0.00000001
 43
0.00000001
 12
1.0
 22
0.0
 32
0.0
 13
1.0
 23
0.0
 33
0.0
 40
0.0
 40
0.0
 40
0.0
 40
0.0
 40
0.5000138394956724
 40
1.0
 40
1.0
 40
1.0
 40
1.0
 10
770.0195248044367
 20
619.7084881237502
 30
0.0
 10
769.9855400982177
 20
619.7928466214
 30
0.0
 10
769.9175725670526
 20
619.9615589469128
 30
0.0
 10
769.8296043003212
 20
620.155391946853
 30
0.0
 10
769.7856213843919
 20
620.2523057642721
 30
0.0
  0
SPLINE
  5
127
330
1F
100
AcDbEntity
  8
0
  6
Continuous
 62
     7
370
    15
100
AcDbSpline
210
0.0
220
0.0
230
1.0
 70
     8
 71
     3
 72
    13
 73
     9
 74
     0
 42
0.00000001
 43
0.00000001
 12
1.0
 22
0.0
 32
0.0
 13
1.0
 23
0.0
 33
0.0
 40
0.0
 40
0.0
 40
0.0
 40
0.0
 40
0.1254648118065611
 40
0.2502435788816504
 40
0.3760698054095863
 40
0.5019139201694272
 40
0.7508310514861745
 40
1.0
 40
1.0
 40
1.0
 40
1.0
 10
747.5891692261208
 20
667.4043966101354
 30
0.0
 10
747.5453307399758
 20
667.453032749318
 30
0.0
 10
747.4578934776252
 20
667.5500390840566
 30
0.0
 10
747.3210524615348
 20
667.6797391526811
 30
0.0
 10
747.1875521480222
 20
667.7914752368782
 30
0.0
 10
747.0251226401672
 20
667.9107121138943
 30
0.0
 10
746.8587794702963
 20
668.0094925316115
 30
0.0
 10
746.832322125329
 20
668.0229746317184
 30
0.0
 10
746.8190867648302
 20
668.029719089842
 30
0.0
  0
SPLINE
  5
128
330
1F
100
AcDbEntity
  8
0
  6
Continuous
 62
     7
370
    15
100
AcDbSpline
210
0.0
220
0.0
230
1.0
 70
     8
 71
     3
 72
     9
 73
     5
 74
     0
 42
0.00000001
 43
0.00000001
 12
1.0
 22
0.0
 32
0.0
 13
1.0
 23
0.0
 33
0.0
 40
0.0
 40
0.0
 40
0.0
 40
0.0
 40
0.7838918077677265
 40
1.0
 40
1.0
 40
1.0
 40
1.0
 10
770.364251653265
 20
618.1270466394996
 30
0.0
 10
770.3673588462505
 20
618.1358355567356
 30
0.0
 10
770.3713226496152
 20
618.1470474575989
 30
0.0
 10
770.3597288921295
 20
618.2923042205039
 30
0.0
 10
770.3572233861582
 20
618.3236953969448
 30
0.0
  0
SPLINE
  5
129
330
1F
100
AcDbEntity
  8
0
  6
Continuous
 62
     7
370
    15
100
AcDbSpline
210
0.0
220
0.0
230
1.0
 70
     8
 71
     3
 72
     9
 73
     5
 74
     0
 42
0.00000001
 43
0.00000001
 12
1.0
 22
0.0
 32
0.0
 13
1.0
 23
0.0
 33
0.0
 40
0.0
 40
0.0
 40
0.0
 40
0.0
 40
0.0370163330249289
 40
0.9999999999999999
 40
0.9999999999999999
 40
0.9999999999999999
 40
0.9999999999999999
 10
770.2411213549001
 20
619.0405403124428
 30
0.0
 10
770.2398397162895
 20
619.0469780137846
 30
0.0
 10
770.205216118922
 20
619.2208931700354
 30
0.0
 10
770.1106196545655
 20
619.4692879793851
 30
0.0
 10
770.0195248044367
 20
619.7084881237502
 30
0.0
  0
LINE
  5
12A
330
1F
100
AcDbEntity
  8
0
  6
Continuous
 62
     7
370
    15
100
AcDbLine
 10
770.1234022484
 20
619.4283612588
 30
0.0
 11
770.0388501712
 21
619.6509093921
 31
0.0
  0
LINE
  5
12B
330
1F
100
AcDbEntity
  8
0
  6
Continuous
 62
     7
370
    15
100
AcDbLine
 10
755.9131118609
 20
649.4107022386
 30
0.0
 11
758.7235233015
 21
643.3837554548
 31
0.0
  0
LINE
  5
12C
330
1F
100
AcDbEntity
  8
0
  6
Continuous
 62
     7
370
    15
100
AcDbLine
 10
754.0840677331
 20
649.1922472581
 30
0.0
 11
757.3804901747
 21
642.1230465192
 31
0.0
  0
LINE
  5
12D
330
1F
100
AcDbEntity
  8
0
  6
Continuous
 62
     7
370
    15
100
AcDbLine
 10
723.7417324757
 20
585.6910319401
 30
0.0
 11
723.1751238105
 21
585.6910319401
 31
0.0
  0
LINE
  5
12E
330
1F
100
AcDbEntity
  8
0
  6
Continuous
 62
     7
370
    15
100
AcDbLine
 10
722.6416298175
 20
585.6910319401
 30
0.0
 11
722.3537608315
 21
585.6910319401
 31
0.0
  0
LINE
  5
12F
330
1F
100
AcDbEntity
  8
0
  6
Continuous
 62
     7
370
    15
100
AcDbLine
 10
754.0563811717
 20
585.6535319401
 30
0.0
 11
723.1751238105
 21
585.6535319401
 31
0.0
  0
LINE
  5
130
330
1F
100
AcDbEntity
  8
0
  6
Continuous
 62
     7
370
    15
100
AcDbLine
 10
722.6098355715
 20
585.6535319401
 30
0.0
 11
722.3253236957
 21
585.6535319401
 31
0.0
  0
LINE
  5
131
330
1F
100
AcDbEntity
  8
0
  6
Continuous
 62
     7
370
    15
100
AcDbLine
 10
754.0563811717
 20
585.6910319401
 30
0.0
 11
754.0563811717
 21
585.6535319401
 31
0.0
  0
LINE
  5
132
330
1F
100
AcDbEntity
  8
0
  6
Continuous
 62
     7
370
    15
100
AcDbLine
 10
751.7563811717
 20
585.5910319401
 30
0.0
 11
751.7563811717
 21
585.6535319401
 31
0.0
  0
LINE
  5
133
330
1F
100
AcDbEntity
  8
0
  6
Continuous
 62
     7
370
    15
100
AcDbLine
 10
751.2563811717
 20
585.5910319401
 30
0.0
 11
751.7563811717
 21
585.5910319401
 31
0.0
  0
LINE
  5
134
330
1F
100
AcDbEntity
  8
0
  6
Continuous
 62
     7
370
    15
100
AcDbLine
 10
725.2563811717
 20
585.5910319401
 30
0.0
 11
751.2563811717
 21
585.5910319401
 31
0.0
  0
LINE
  5
135
330
1F
100
AcDbEntity
  8
0
  6
Continuous
 62
     7
370
    15
100
AcDbLine
 10
724.7563811717
 20
585.5910319401
 30
0.0
 11
724.7563811717
 21
585.6535319401
 31
0.0
  0
LINE
  5
136
330
1F
100
AcDbEntity
  8
0
  6
Continuous
 62
     7
370
    15
100
AcDbLine
 10
724.7563811717
 20
585.5910319401
 30
0.0
 11
725.2563811717
 21
585.5910319401
 31
0.0
  0
LINE
  5
137
330
1F
100
AcDbEntity
  8
0
  6
Continuous
 62
     7
370
    15
100
AcDbLine
 10
758.4279155862
 20
659.9895489323
 30
0.0
 11
757.4135849139
 21
662.1647880788
 31
0.0
  0
LINE
  5
138
330
1F
100
AcDbEntity
  8
0
  6
Continuous
 62
     7
370
    15
100
AcDbLine
 10
769.4582053735
 20
636.3350161482
 30
0.0
 11
768.4438747012
 21
638.5102552947
 31
0.0
  0
LINE
  5
139
330
1F
100
AcDbEntity
  8
0
  6
Continuous
 62
     7
370
    15
100
AcDbLine
 10
757.4015512271
 20
656.6148512963
 30
0.0
 11
756.1608141763
 21
656.8243954529
 31
0.0
  0
SPLINE
  5
13A
330
1F
100
AcDbEntity
  8
0
  6
Continuous
 62
     7
370
    15
100
AcDbSpline
210
0.0
220
0.0
230
1.0
 70
     8
 71
     3
 72
     9
 73
     5
 74
     0
 42
0.00000001
 43
0.00000001
 12
1.0
 22
0.0
 32
0.0
 13
1.0
 23
0.0
 33
0.0
 40
0.0
 40
0.0
 40
0.0
 40
0.0
 40
0.4986163301834891
 40
1.0
 40
1.0
 40
1.0
 40
1.0
 10
757.9555700538841
 20
656.5810493215539
 30
0.0
 10
757.8636444741933
 20
656.5742381499398
 30
0.0
 10
757.679283124341
 20
656.5605780044492
 30
0.0
 10
757.4942991639715
 20
656.5967268536058
 30
0.0
 10
757.4015512270643
 20
656.6148512962556
 30
0.0
  0
SPLINE
  5
13B
330
1F
100
AcDbEntity
  8
0
  6
Continuous
 62
     7
370
    15
100
AcDbSpline
210
0.0
220
0.0
230
1.0
 70
     8
 71
     3
 72
    11
 73
     7
 74
     0
 42
0.00000001
 43
0.00000001
 12
1.0
 22
0.0
 32
0.0
 13
1.0
 23
0.0
 33
0.0
 40
0.0
 40
0.0
 40
0.0
 40
0.0
 40
0.1671876360232862
 40
0.3343907167769871
 40
0.6674481169899074
 40
0.9999999999999999
 40
0.9999999999999999
 40
0.9999999999999999
 40
0.9999999999999999
 10
758.4208622315703
 20
657.0085756760051
 30
0.0
 10
758.4157545619294
 20
656.9755154927936
 30
0.0
 10
758.4055387508029
 20
656.9093920722835
 30
0.0
 10
758.3360112193003
 20
656.789103491656
 30
0.0
 10
758.2043712990411
 20
656.6525613850587
 30
0.0
 10
758.0384618005992
 20
656.6048746036637
 30
0.0
 10
757.9555700538841
 20
656.5810493215539
 30
0.0
  0
SPLINE
  5
13C
330
1F
100
AcDbEntity
  8
0
  6
Continuous
 62
     7
370
    15
100
AcDbSpline
210
0.0
220
0.0
230
1.0
 70
     8
 71
     3
 72
     9
 73
     5
 74
     0
 42
0.00000001
 43
0.00000001
 12
1.0
 22
0.0
 32
0.0
 13
1.0
 23
0.0
 33
0.0
 40
0.0
 40
0.0
 40
0.0
 40
0.0
 40
0.9825480036234828
 40
1.0
 40
1.0
 40
1.0
 40
1.0
 10
757.053599413396
 20
656.9695531531345
 30
0.0
 10
757.0275321564474
 20
657.035783402123
 30
0.0
 10
757.0010018934449
 20
657.1031900313608
 30
0.0
 10
757.0177484890786
 20
657.1663054748728
 30
0.0
 10
757.0180407506049
 20
657.1674069653643
 30
0.0
  0
LINE
  5
13D
330
1F
100
AcDbEntity
  8
0
  6
Continuous
 62
     7
370
    15
100
AcDbLine
 10
762.0146227339
 20
644.3761305051
 30
0.0
 11
761.5817877552
 21
645.3029246873
 31
0.0
  0
SPLINE
  5
13E
330
1F
100
AcDbEntity
  8
0
  6
Continuous
 62
     7
370
    15
100
AcDbSpline
210
0.0
220
0.0
230
1.0
 70
     8
 71
     3
 72
    11
 73
     7
 74
     0
 42
0.00000001
 43
0.00000001
 12
1.0
 22
0.0
 32
0.0
 13
1.0
 23
0.0
 33
0.0
 40
0.0
 40
0.0
 40
0.0
 40
0.0
 40
0.3327148683312799
 40
0.499917255520852
 40
0.6672668872821399
 40
0.9999999999999999
 40
0.9999999999999999
 40
0.9999999999999999
 40
0.9999999999999999
 10
763.4154623583385
 20
645.5412288084098
 30
0.0
 10
763.3925057219669
 20
645.5800496082505
 30
0.0
 10
763.3580124674021
 20
645.6383793961883
 30
0.0
 10
763.2860115278124
 20
645.6862960740323
 30
0.0
 10
763.2076930556694
 20
645.7200060131154
 30
0.0
 10
763.1441253405249
 20
645.7177635983825
 30
0.0
 10
763.1018301724515
 20
645.7162715940245
 30
0.0
  0
SPLINE
  5
13F
330
1F
100
AcDbEntity
  8
0
  6
Continuous
 62
     7
370
    15
100
AcDbSpline
210
0.0
220
0.0
230
1.0
 70
     8
 71
     3
 72
    11
 73
     7
 74
     0
 42
0.00000001
 43
0.00000001
 12
1.0
 22
0.0
 32
0.0
 13
1.0
 23
0.0
 33
0.0
 40
0.0
 40
0.0
 40
0.0
 40
0.0
 40
0.250217664909167
 40
0.500163830179163
 40
0.7500323481731389
 40
0.9999999999999999
 40
0.9999999999999999
 40
0.9999999999999999
 40
0.9999999999999999
 10
763.3739526028769
 20
645.1570344800963
 30
0.0
 10
763.3912974677966
 20
645.185690221423
 30
0.0
 10
763.4259683775236
 20
645.2429706110543
 30
0.0
 10
763.4506218086482
 20
645.343145471106
 30
0.0
 10
763.4508103021238
 20
645.4469977632591
 30
0.0
 10
763.4272465640864
 20
645.509814307169
 30
0.0
 10
763.4154623583385
 20
645.5412288084098
 30
0.0
  0
LINE
  5
140
330
1F
100
AcDbEntity
  8
0
  6
Continuous
 62
     7
370
    15
100
AcDbLine
 10
763.5492660425
 20
644.7630855638
 30
0.0
 11
763.3739526029
 21
645.1570344801
 31
0.0
  0
SPLINE
  5
141
330
1F
100
AcDbEntity
  8
0
  6
Continuous
 62
     7
370
    15
100
AcDbSpline
210
0.0
220
0.0
230
1.0
 70
     8
 71
     3
 72
     9
 73
     5
 74
     0
 42
0.00000001
 43
0.00000001
 12
1.0
 22
0.0
 32
0.0
 13
1.0
 23
0.0
 33
0.0
 40
0.0
 40
0.0
 40
0.0
 40
0.0
 40
0.8192293707524606
 40
1.0
 40
1.0
 40
1.0
 40
1.0
 10
762.7934673152862
 20
646.0331876274556
 30
0.0
 10
762.8794360948048
 20
646.0796278354835
 30
0.0
 10
762.9843746902553
 20
646.136315510127
 30
0.0
 10
763.0960805812414
 20
646.1195019558713
 30
0.0
 10
763.1162737254456
 20
646.1164625590886
 30
0.0
  0
SPLINE
  5
142
330
1F
100
AcDbEntity
  8
0
  6
Continuous
 62
     7
370
    15
100
AcDbSpline
210
0.0
220
0.0
230
1.0
 70
     8
 71
     3
 72
    13
 73
     9
 74
     0
 42
0.00000001
 43
0.00000001
 12
1.0
 22
0.0
 32
0.0
 13
1.0
 23
0.0
 33
0.0
 40
0.0
 40
0.0
 40
0.0
 40
0.0
 40
0.2493042775567594
 40
0.3736983464972324
 40
0.4997789606171659
 40
0.6250159298479008
 40
0.7502475256883154
 40
1.0
 40
1.0
 40
1.0
 40
1.0
 10
762.4926288973257
 20
645.0651190489472
 30
0.0
 10
762.4604705758185
 20
645.1541321754331
 30
0.0
 10
762.4122663825685
 20
645.2875597223266
 30
0.0
 10
762.4184148311234
 20
645.4801632925828
 30
0.0
 10
762.4486721621305
 20
645.6198910082704
 30
0.0
 10
762.5039438173189
 20
645.7504606941424
 30
0.0
 10
762.6079094091458
 20
645.9053546198849
 30
0.0
 10
762.7192863719791
 20
645.9820835096921
 30
0.0
 10
762.7934673152862
 20
646.0331876274557
 30
0.0
  0
LINE
  5
143
330
1F
100
AcDbEntity
  8
0
  6
Continuous
 62
     7
370
    15
100
AcDbLine
 10
762.5684196598
 20
644.947011644
 30
0.0
 11
762.4926288973
 21
645.0651190489
 31
0.0
  0
LINE
  5
144
330
1F
100
AcDbEntity
  8
0
  6
Continuous
 62
     7
370
    15
100
AcDbLine
 10
762.2023232089
 20
644.8391344503
 30
0.0
 11
762.5684196598
 21
644.947011644
 31
0.0
  0
LINE
  5
145
330
1F
100
AcDbEntity
  8
0
  6
Continuous
 62
     7
370
    15
100
AcDbLine
 10
761.5817877552
 20
645.3029246873
 30
0.0
 11
761.8981701229
 21
645.4846351006
 31
0.0
  0
LINE
  5
146
330
1F
100
AcDbEntity
  8
0
  6
Continuous
 62
     7
370
    15
100
AcDbLine
 10
767.1410192468
 20
636.3937350501
 30
0.0
 11
767.4166050645
 21
636.6679500702
 31
0.0
  0
LINE
  5
147
330
1F
100
AcDbEntity
  8
0
  6
Continuous
 62
     7
370
    15
100
AcDbLine
 10
767.183479853
 20
636.3098672597
 30
0.0
 11
767.1410192468
 21
636.3937350501
 31
0.0
  0
LINE
  5
148
330
1F
100
AcDbEntity
  8
0
  6
Continuous
 62
     7
370
    15
100
AcDbLine
 10
766.1741495706
 20
635.3066851313
 30
0.0
 11
767.183479853
 21
636.3098672597
 31
0.0
  0
LINE
  5
149
330
1F
100
AcDbEntity
  8
0
  6
Continuous
 62
     7
370
    15
100
AcDbLine
 10
766.2591617651
 20
635.1331653512
 30
0.0
 11
766.1741495706
 21
635.3066851313
 31
0.0
  0
LINE
  5
14A
330
1F
100
AcDbEntity
  8
0
  6
Continuous
 62
     7
370
    15
100
AcDbLine
 10
767.4591253161
 20
636.5840312638
 30
0.0
 11
767.7811106476
 21
636.9040247645
 31
0.0
  0
LINE
  5
14B
330
1F
100
AcDbEntity
  8
0
  6
Continuous
 62
     7
370
    15
100
AcDbLine
 10
765.7719029618
 20
632.4093092654
 30
0.0
 11
752.0368094552
 21
661.8643123441
 31
0.0
  0
LINE
  5
14C
330
1F
100
AcDbEntity
  8
0
  6
Continuous
 62
     7
370
    15
100
AcDbLine
 10
762.0167860247
 20
644.375885239
 30
0.0
 11
762.0146227339
 21
644.3761305051
 31
0.0
  0
LINE
  5
14D
330
1F
100
AcDbEntity
  8
0
  6
Continuous
 62
     7
370
    15
100
AcDbLine
 10
761.5838223065
 20
645.3029555041
 30
0.0
 11
761.5817877552
 21
645.3029246873
 31
0.0
  0
LINE
  5
14E
330
1F
100
AcDbEntity
  8
0
  6
Continuous
 62
     7
370
    15
100
AcDbLine
 10
762.0167860247
 20
644.375885239
 30
0.0
 11
761.5838223065
 21
645.3029555041
 31
0.0
  0
LINE
  5
14F
330
1F
100
AcDbEntity
  8
0
  6
Continuous
 62
     7
370
    15
100
AcDbLine
 10
761.5838223065
 20
645.3029555041
 30
0.0
 11
761.9002040493
 21
645.4846672574
 31
0.0
  0
LINE
  5
150
330
1F
100
AcDbEntity
  8
0
  6
Continuous
 62
     7
370
    15
100
AcDbLine
 10
761.9002040493
 20
645.4846672574
 30
0.0
 11
762.2044478169
 21
644.8389721399
 31
0.0
  0
LINE
  5
151
330
1F
100
AcDbEntity
  8
0
  6
Continuous
 62
     7
370
    15
100
AcDbLine
 10
762.2044478169
 20
644.8389721399
 30
0.0
 11
762.5705556769
 21
644.9468242394
 31
0.0
  0
LINE
  5
152
330
1F
100
AcDbEntity
  8
0
  6
Continuous
 62
     7
370
    15
100
AcDbLine
 10
762.5705558559
 20
644.9468244137
 30
0.0
 11
762.4947471147
 21
645.0649704431
 31
0.0
  0
SPLINE
  5
153
330
1F
100
AcDbEntity
  8
0
  6
Continuous
 62
     7
370
    15
100
AcDbSpline
210
0.0
220
0.0
230
1.0
 70
     8
 71
     3
 72
    13
 73
     9
 74
     0
 42
0.00000001
 43
0.00000001
 12
1.0
 22
0.0
 32
0.0
 13
1.0
 23
0.0
 33
0.0
 40
0.0
 40
0.0
 40
0.0
 40
0.0
 40
0.2493418571093305
 40
0.3739067550176119
 40
0.4998259552337354
 40
0.6250595944121936
 40
0.7502808147443092
 40
1.0
 40
1.0
 40
1.0
 40
1.0
 10
762.4947471147321
 20
645.0649704430912
 30
0.0
 10
762.4625657499513
 20
645.1540085863448
 30
0.0
 10
762.4143073876502
 20
645.2875279384614
 30
0.0
 10
762.4205405349107
 20
645.4801767065564
 30
0.0
 10
762.450734866095
 20
645.6199376174274
 30
0.0
 10
762.5059874428392
 20
645.7504712704794
 30
0.0
 10
762.6099347555937
 20
645.9053895188141
 30
0.0
 10
762.7213141590756
 20
645.9821246981759
 30
0.0
 10
762.7954954782326
 20
646.0332321440128
 30
0.0
  0
SPLINE
  5
154
330
1F
100
AcDbEntity
  8
0
  6
Continuous
 62
     7
370
    15
100
AcDbSpline
210
0.0
220
0.0
230
1.0
 70
     8
 71
     3
 72
    12
 73
     8
 74
     0
 42
0.00000001
 43
0.00000001
 12
1.0
 22
0.0
 32
0.0
 13
1.0
 23
0.0
 33
0.0
 40
0.0
 40
0.0
 40
0.0
 40
0.0
 40
0.2497804431754052
 40
0.4994012335319521
 40
0.6248383138129427
 40
0.75028569176785
 40
1.0
 40
1.0
 40
1.0
 40
1.0
 10
762.7954954782327
 20
646.0332321440128
 30
0.0
 10
762.8814763846361
 20
646.0719121116737
 30
0.0
 10
763.0533832408021
 20
646.1492473238196
 30
0.0
 10
763.2910346432595
 20
646.1156560091604
 30
0.0
 10
763.4604378691458
 20
646.039850447668
 30
0.0
 10
763.6164226227627
 20
645.9295925651281
 30
0.0
 10
763.6907645622249
 20
645.801359272563
 30
0.0
 10
763.740247882801
 20
645.7160049063679
 30
0.0
  0
SPLINE
  5
155
330
1F
100
AcDbEntity
  8
0
  6
Continuous
 62
     7
370
    15
100
AcDbSpline
210
0.0
220
0.0
230
1.0
 70
     8
 71
     3
 72
    11
 73
     7
 74
     0
 42
0.00000001
 43
0.00000001
 12
1.0
 22
0.0
 32
0.0
 13
1.0
 23
0.0
 33
0.0
 40
0.0
 40
0.0
 40
0.0
 40
0.0
 40
0.2502429075565882
 40
0.5000901178351973
 40
0.7498389642497046
 40
1.0
 40
1.0
 40
1.0
 40
1.0
 10
763.740247882801
 20
645.7160049063679
 30
0.0
 10
763.7706677654927
 20
645.6346104585995
 30
0.0
 10
763.8314594293539
 20
645.4719502682548
 30
0.0
 10
763.8186462655822
 20
645.202172677088
 30
0.0
 10
763.7266923573881
 20
644.9493894625645
 30
0.0
 10
763.6099217668801
 20
644.8249731997558
 30
0.0
 10
763.5514883313575
 20
644.7627137760501
 30
0.0
  0
LINE
  5
156
330
1F
100
AcDbEntity
  8
0
  6
Continuous
 62
     7
370
    15
100
AcDbLine
 10
763.5514883314
 20
644.7627137761
 30
0.0
 11
763.3761184764
 21
645.1567836753
 31
0.0
  0
SPLINE
  5
157
330
1F
100
AcDbEntity
  8
0
  6
Continuous
 62
     7
370
    15
100
AcDbSpline
210
0.0
220
0.0
230
1.0
 70
     8
 71
     3
 72
    11
 73
     7
 74
     0
 42
0.00000001
 43
0.00000001
 12
1.0
 22
0.0
 32
0.0
 13
1.0
 23
0.0
 33
0.0
 40
0.0
 40
0.0
 40
0.0
 40
0.0
 40
0.2501909120879066
 40
0.5001304459399298
 40
0.7500135060955821
 40
1.0
 40
1.0
 40
1.0
 40
1.0
 10
763.3761184764294
 20
645.1567836753059
 30
0.0
 10
763.3934614072363
 20
645.1854444397804
 30
0.0
 10
763.4281298436154
 20
645.2427371719507
 30
0.0
 10
763.4527721456412
 20
645.3429335226413
 30
0.0
 10
763.4529476803184
 20
645.4468081304815
 30
0.0
 10
763.4293766036271
 20
645.5096400748527
 30
0.0
 10
763.4175886266003
 20
645.5410625476777
 30
0.0
  0
SPLINE
  5
158
330
1F
100
AcDbEntity
  8
0
  6
Continuous
 62
     7
370
    15
100
AcDbSpline
210
0.0
220
0.0
230
1.0
 70
     8
 71
     3
 72
    12
 73
     8
 74
     0
 42
0.00000001
 43
0.00000001
 12
1.0
 22
0.0
 32
0.0
 13
1.0
 23
0.0
 33
0.0
 40
0.0
 40
0.0
 40
0.0
 40
0.0
 40
0.2495329045239966
 40
0.3749246843076576
 40
0.5004192239764671
 40
0.749911293226619
 40
0.9999999999999999
 40
0.9999999999999999
 40
0.9999999999999999
 40
0.9999999999999999
 10
763.4175872424101
 20
645.5410659058443
 30
0.0
 10
763.3946364988132
 20
645.5798446331702
 30
0.0
 10
763.3601528690319
 20
645.6381099033483
 30
0.0
 10
763.2880623558843
 20
645.6864328344956
 30
0.0
 10
763.2100631497182
 20
645.7185760150895
 30
0.0
 10
763.1016045585413
 20
645.7269554982375
 30
0.0
 10
763.0237672928979
 20
645.6905432129935
 30
0.0
 10
762.984802180472
 20
645.6723153272052
 30
0.0
  0
SPLINE
  5
159
330
1F
100
AcDbEntity
  8
0
  6
Continuous
 62
     7
370
    15
100
AcDbSpline
210
0.0
220
0.0
230
1.0
 70
     8
 71
     3
 72
    14
 73
    10
 74
     0
 42
0.00000001
 43
0.00000001
 12
1.0
 22
0.0
 32
0.0
 13
1.0
 23
0.0
 33
0.0
 40
0.0
 40
0.0
 40
0.0
 40
0.0
 40
0.2497964802608353
 40
0.498973806378311
 40
0.624198543753407
 40
0.7493921604417715
 40
0.8745742948499625
 40
0.9372820540892152
 40
1.0
 40
1.0
 40
1.0
 40
1.0
 10
762.984802180472
 20
645.6723153272052
 30
0.0
 10
762.9504654188408
 20
645.6489362477611
 30
0.0
 10
762.8818770038563
 20
645.6022360370631
 30
0.0
 10
762.825513995133
 20
645.5064559644671
 30
0.0
 10
762.8020836090815
 20
645.4221163502903
 30
0.0
 10
762.795944353007
 20
645.3557701212569
 30
0.0
 10
762.8036802149287
 20
645.3010385100959
 30
0.0
 10
762.8155704666015
 20
645.2591084976622
 30
0.0
 10
762.8241310422424
 20
645.2393243438551
 30
0.0
 10
762.8284116776939
 20
645.229431463549
 30
0.0
  0
SPLINE
  5
15A
330
1F
100
AcDbEntity
  8
0
  6
Continuous
 62
     7
370
    15
100
AcDbSpline
210
0.0
220
0.0
230
1.0
 70
     8
 71
     3
 72
    10
 73
     6
 74
     0
 42
0.00000001
 43
0.00000001
 12
1.0
 22
0.0
 32
0.0
 13
1.0
 23
0.0
 33
0.0
 40
0.0
 40
0.0
 40
0.0
 40
0.0
 40
0.2501216062010992
 40
0.5003940587088906
 40
1.0
 40
1.0
 40
1.0
 40
1.0
 10
762.8284132316141
 20
645.2294278828097
 30
0.0
 10
762.8409026422554
 20
645.2074051884302
 30
0.0
 10
762.8658889957994
 20
645.1633465179635
 30
0.0
 10
762.9396861120862
 20
645.0970954856498
 30
0.0
 10
763.0064649643875
 20
645.0717997108683
 30
0.0
 10
763.0509563267715
 20
645.0549464190881
 30
0.0
  0
LINE
  5
15B
330
1F
100
AcDbEntity
  8
0
  6
Continuous
 62
     7
370
    15
100
AcDbLine
 10
763.0509565905
 20
645.0549463343
 30
0.0
 11
763.125680068
 21
644.7130882751
 31
0.0
  0
LINE
  5
15C
330
1F
100
AcDbEntity
  8
0
  6
Continuous
 62
     7
370
    15
100
AcDbLine
 10
763.125680068
 20
644.7130882751
 30
0.0
 11
762.0167860247
 21
644.375885239
 31
0.0
  0
LINE
  5
15D
330
1F
100
AcDbEntity
  8
0
  6
Continuous
 62
     7
370
    15
100
AcDbLine
 10
761.9002040493
 20
645.4846672574
 30
0.0
 11
761.8981701229
 21
645.4846351006
 31
0.0
  0
LINE
  5
15E
330
1F
100
AcDbEntity
  8
0
  6
Continuous
 62
     7
370
    15
100
AcDbLine
 10
762.7954954782
 20
646.033232144
 30
0.0
 11
762.7934673153
 21
646.0331876275
 31
0.0
  0
LINE
  5
15F
330
1F
100
AcDbEntity
  8
0
  6
Continuous
 62
     7
370
    15
100
AcDbLine
 10
762.4947471147
 20
645.0649704431
 30
0.0
 11
762.4926288973
 21
645.0651190489
 31
0.0
  0
LINE
  5
160
330
1F
100
AcDbEntity
  8
0
  6
Continuous
 62
     7
370
    15
100
AcDbLine
 10
762.570555934
 20
644.9468243152
 30
0.0
 11
762.5684196598
 21
644.947011644
 31
0.0
  0
LINE
  5
161
330
1F
100
AcDbEntity
  8
0
  6
Continuous
 62
     7
370
    15
100
AcDbLine
 10
763.4175872424
 20
645.5410659058
 30
0.0
 11
763.4154623583
 21
645.5412288084
 31
0.0
  0
LINE
  5
162
330
1F
100
AcDbEntity
  8
0
  6
Continuous
 62
     7
370
    15
100
AcDbLine
 10
763.3761184764
 20
645.1567836753
 30
0.0
 11
763.3739526029
 21
645.1570344801
 31
0.0
  0
LINE
  5
163
330
1F
100
AcDbEntity
  8
0
  6
Continuous
 62
     7
370
    15
100
AcDbLine
 10
763.5514883314
 20
644.7627137761
 30
0.0
 11
763.5492660425
 21
644.7630855638
 31
0.0
  0
LINE
  5
164
330
1F
100
AcDbEntity
  8
0
  6
Continuous
 62
     7
370
    15
100
AcDbLine
 10
758.8155366316
 20
659.1582929178
 30
0.0
 11
768.0562536558
 21
639.3415113091
 31
0.0
  0
LINE
  5
165
330
1F
100
AcDbEntity
  8
0
  6
Continuous
 62
     7
370
    15
100
AcDbLine
 10
756.16124766
 20
656.82785977
 30
0.0
 11
756.2145107949
 21
657.1090439304
 31
0.0
  0
LINE
  5
166
330
1F
100
AcDbEntity
  8
0
  6
Continuous
 62
     7
370
    15
100
AcDbLine
 10
756.2145107949
 20
657.1090439304
 30
0.0
 11
757.054035689
 21
656.9730109014
 31
0.0
  0
SPLINE
  5
167
330
1F
100
AcDbEntity
  8
0
  6
Continuous
 62
     7
370
    15
100
AcDbSpline
210
0.0
220
0.0
230
1.0
 70
     8
 71
     3
 72
    13
 73
     9
 74
     0
 42
0.00000001
 43
0.00000001
 12
1.0
 22
0.0
 32
0.0
 13
1.0
 23
0.0
 33
0.0
 40
0.0
 40
0.0
 40
0.0
 40
0.0
 40
0.2492561668020692
 40
0.3716945146304551
 40
0.4998384439452459
 40
0.6263351851495786
 40
0.750387955228038
 40
1.0
 40
1.0
 40
1.0
 40
1.0
 10
757.0540359450735
 20
656.9730109432419
 30
0.0
 10
757.0332601802908
 20
657.0385328141144
 30
0.0
 10
757.0022790498896
 20
657.1362400054915
 30
0.0
 10
757.0380039281822
 20
657.2617673836487
 30
0.0
 10
757.089307930775
 20
657.3484829111383
 30
0.0
 10
757.1637219463798
 20
657.4256533112275
 30
0.0
 10
757.2908371707894
 20
657.5109841140022
 30
0.0
 10
757.4161739308322
 20
657.5430357820375
 30
0.0
 10
757.4999002109528
 20
657.5644466349695
 30
0.0
  0
SPLINE
  5
168
330
1F
100
AcDbEntity
  8
0
  6
Continuous
 62
     7
370
    15
100
AcDbSpline
210
0.0
220
0.0
230
1.0
 70
     8
 71
     3
 72
    12
 73
     8
 74
     0
 42
0.00000001
 43
0.00000001
 12
1.0
 22
0.0
 32
0.0
 13
1.0
 23
0.0
 33
0.0
 40
0.0
 40
0.0
 40
0.0
 40
0.0
 40
0.2496763881762347
 40
0.372436122646535
 40
0.5005048710572395
 40
0.7502284668960638
 40
1.0
 40
1.0
 40
1.0
 40
1.0
 10
757.4999002109528
 20
657.5644466349695
 30
0.0
 10
757.589038423275
 20
657.5746712248392
 30
0.0
 10
757.7220037005264
 20
657.5899229938775
 30
0.0
 10
757.9031866161787
 20
657.5582746945003
 30
0.0
 10
758.0722021113846
 20
657.5036132419083
 30
0.0
 10
758.266534591544
 20
657.3969659448495
 30
0.0
 10
758.3429489628818
 20
657.2723481824544
 30
0.0
 10
758.3811598153492
 20
657.2100333213839
 30
0.0
  0
SPLINE
  5
169
330
1F
100
AcDbEntity
  8
0
  6
Continuous
 62
     7
370
    15
100
AcDbSpline
210
0.0
220
0.0
230
1.0
 70
     8
 71
     3
 72
    12
 73
     8
 74
     0
 42
0.00000001
 43
0.00000001
 12
1.0
 22
0.0
 32
0.0
 13
1.0
 23
0.0
 33
0.0
 40
0.0
 40
0.0
 40
0.0
 40
0.0
 40
0.2497844234011067
 40
0.3752282831897911
 40
0.500675890758802
 40
0.7505383114627688
 40
0.9999999999999999
 40
0.9999999999999999
 40
0.9999999999999999
 40
0.9999999999999999
 10
758.3811614104892
 20
657.2100301579912
 30
0.0
 10
758.4027479502766
 20
657.1439497995498
 30
0.0
 10
758.4351754337608
 20
657.0446833236308
 30
0.0
 10
758.4043942427329
 20
656.9127735402413
 30
0.0
 10
758.3374398118783
 20
656.7924381311111
 30
0.0
 10
758.2045961254121
 20
656.6558727988523
 30
0.0
 10
758.0388749324496
 20
656.6081767551447
 30
0.0
 10
757.9560808356744
 20
656.5843478725019
 30
0.0
  0
SPLINE
  5
16A
330
1F
100
AcDbEntity
  8
0
  6
Continuous
 62
     7
370
    15
100
AcDbSpline
210
0.0
220
0.0
230
1.0
 70
     8
 71
     3
 72
     9
 73
     5
 74
     0
 42
0.00000001
 43
0.00000001
 12
1.0
 22
0.0
 32
0.0
 13
1.0
 23
0.0
 33
0.0
 40
0.0
 40
0.0
 40
0.0
 40
0.0
 40
0.4986050564819417
 40
1.0
 40
1.0
 40
1.0
 40
1.0
 10
757.9560808356744
 20
656.5843478725019
 30
0.0
 10
757.8641526391617
 20
656.5775403370349
 30
0.0
 10
757.6797818725248
 20
656.5638871753218
 30
0.0
 10
757.4947945698008
 20
656.6000560142346
 30
0.0
 10
757.4020428715997
 20
656.6181908871786
 30
0.0
  0
LINE
  5
16B
330
1F
100
AcDbEntity
  8
0
  6
Continuous
 62
     7
370
    15
100
AcDbLine
 10
757.4020412739
 20
656.6181911664
 30
0.0
 11
756.1612478972
 21
656.8278597313
 31
0.0
  0
SPLINE
  5
16C
330
1F
100
AcDbEntity
  8
0
  6
Continuous
 62
     7
370
    15
100
AcDbSpline
210
0.0
220
0.0
230
1.0
 70
     8
 71
     3
 72
    12
 73
     8
 74
     0
 42
0.00000001
 43
0.00000001
 12
1.0
 22
0.0
 32
0.0
 13
1.0
 23
0.0
 33
0.0
 40
0.0
 40
0.0
 40
0.0
 40
0.0
 40
0.2495342807944548
 40
0.4992411243681382
 40
0.7489190611584384
 40
0.8743786364303211
 40
1.0
 40
1.0
 40
1.0
 40
1.0
 10
758.009480173996
 20
657.1346956358822
 30
0.0
 10
757.9927568988603
 20
657.1612961364021
 30
0.0
 10
757.9592987837859
 20
657.214515532736
 30
0.0
 10
757.8585354505569
 20
657.2679419346683
 30
0.0
 10
757.7627068108667
 20
657.2895117779908
 30
0.0
 10
757.6849155832696
 20
657.2896520941679
 30
0.0
 10
757.6476362524566
 20
657.2840321420905
 30
0.0
 10
757.6289845762627
 20
657.2812203553957
 30
0.0
  0
SPLINE
  5
16D
330
1F
100
AcDbEntity
  8
0
  6
Continuous
 62
     7
370
    15
100
AcDbSpline
210
0.0
220
0.0
230
1.0
 70
     8
 71
     3
 72
    14
 73
    10
 74
     0
 42
0.00000001
 43
0.00000001
 12
1.0
 22
0.0
 32
0.0
 13
1.0
 23
0.0
 33
0.0
 40
0.0
 40
0.0
 40
0.0
 40
0.0
 40
0.2492280639566524
 40
0.375394802736079
 40
0.4993910806605083
 40
0.6261696157544252
 40
0.7496639162295222
 40
0.8747305384645777
 40
1.0
 40
1.0
 40
1.0
 40
1.0
 10
757.6289845762627
 20
657.2812203553957
 30
0.0
 10
757.5933444416851
 20
657.2720884529256
 30
0.0
 10
757.5396621994975
 20
657.2583337068833
 30
0.0
 10
757.4852859807968
 20
657.2216054998034
 30
0.0
 10
757.45330691537
 20
657.1885595095935
 30
0.0
 10
757.4317761372162
 20
657.1511408200744
 30
0.0
 10
757.4216770892034
 20
657.1105153676542
 30
0.0
 10
757.4245244034947
 20
657.0684438039232
 30
0.0
 10
757.4350057374266
 20
657.0408679943275
 30
0.0
 10
757.440250650737
 20
657.0270689176326
 30
0.0
  0
SPLINE
  5
16E
330
1F
100
AcDbEntity
  8
0
  6
Continuous
 62
     7
370
    15
100
AcDbSpline
210
0.0
220
0.0
230
1.0
 70
     8
 71
     3
 72
    13
 73
     9
 74
     0
 42
0.00000001
 43
0.00000001
 12
1.0
 22
0.0
 32
0.0
 13
1.0
 23
0.0
 33
0.0
 40
0.0
 40
0.0
 40
0.0
 40
0.0
 40
0.2493403954113277
 40
0.3715640705554429
 40
0.4999441082160981
 40
0.7492984878481475
 40
0.874570760994251
 40
1.0
 40
1.0
 40
1.0
 40
1.0
 10
757.440250650737
 20
657.0270689176326
 30
0.0
 10
757.4562828287467
 20
657.0007619599213
 30
0.0
 10
757.4801737883779
 20
656.9615596466539
 30
0.0
 10
757.5393537101471
 20
656.922078788372
 30
0.0
 10
757.6058808158142
 20
656.8912483340465
 30
0.0
 10
757.6825021457328
 20
656.8741230771731
 30
0.0
 10
757.7583884338437
 20
656.8740077699833
 30
0.0
 10
757.7948461921135
 20
656.8795817579082
 30
0.0
 10
757.813086484469
 20
656.8823704968257
 30
0.0
  0
SPLINE
  5
16F
330
1F
100
AcDbEntity
  8
0
  6
Continuous
 62
     7
370
    15
100
AcDbSpline
210
0.0
220
0.0
230
1.0
 70
     8
 71
     3
 72
    11
 73
     7
 74
     0
 42
0.00000001
 43
0.00000001
 12
1.0
 22
0.0
 32
0.0
 13
1.0
 23
0.0
 33
0.0
 40
0.0
 40
0.0
 40
0.0
 40
0.0
 40
0.2503954495840397
 40
0.500379704590064
 40
0.7504390965290798
 40
1.0
 40
1.0
 40
1.0
 40
1.0
 10
757.813086484469
 20
656.8823704968257
 30
0.0
 10
757.8484805424869
 20
656.8914372609439
 30
0.0
 10
757.919210535083
 20
656.9095558999152
 30
0.0
 10
757.9907544211137
 20
656.9729953478278
 30
0.0
 10
758.0335074107247
 20
657.0508469004604
 30
0.0
 10
758.0174839238431
 20
657.1067646544346
 30
0.0
 10
758.009480173996
 20
657.1346956358822
 30
0.0
  0
LINE
  5
170
330
1F
100
AcDbEntity
  8
0
  6
Continuous
 62
     7
370
    15
100
AcDbLine
 10
756.16124766
 20
656.82785977
 30
0.0
 11
756.1608141763
 21
656.8243954529
 31
0.0
  0
LINE
  5
171
330
1F
100
AcDbEntity
  8
0
  6
Continuous
 62
     7
370
    15
100
AcDbLine
 10
757.9560808357
 20
656.5843478725
 30
0.0
 11
757.9555700539
 21
656.5810493216
 31
0.0
  0
SPLINE
  5
172
330
1F
100
AcDbEntity
  8
0
  6
Continuous
 62
     7
370
    15
100
AcDbSpline
210
0.0
220
0.0
230
1.0
 70
     8
 71
     3
 72
    14
 73
    10
 74
     0
 42
0.00000001
 43
0.00000001
 12
1.0
 22
0.0
 32
0.0
 13
1.0
 23
0.0
 33
0.0
 40
0.0
 40
0.0
 40
0.0
 40
0.0
 40
0.2492631074119869
 40
0.3754410264838894
 40
0.4994413915381367
 40
0.626216398445059
 40
0.7497000111638743
 40
0.8747499222824707
 40
1.0
 40
1.0
 40
1.0
 40
1.0
 10
757.6285744046522
 20
657.2777060452213
 30
0.0
 10
757.5929343225353
 20
657.2685751241465
 30
0.0
 10
757.5392530972914
 20
657.2548220966062
 30
0.0
 10
757.4848724535145
 20
657.2181014623934
 30
0.0
 10
757.4528896099001
 20
657.1850633531515
 30
0.0
 10
757.4313540611845
 20
657.1476542131471
 30
0.0
 10
757.4212495018837
 20
657.1070395460725
 30
0.0
 10
757.424091001281
 20
657.0649794354846
 30
0.0
 10
757.4345685761525
 20
657.0374115869336
 30
0.0
 10
757.4398115530821
 20
657.0236166395603
 30
0.0
  0
SPLINE
  5
173
330
1F
100
AcDbEntity
  8
0
  6
Continuous
 62
     7
370
    15
100
AcDbSpline
210
0.0
220
0.0
230
1.0
 70
     8
 71
     3
 72
    12
 73
     8
 74
     0
 42
0.00000001
 43
0.00000001
 12
1.0
 22
0.0
 32
0.0
 13
1.0
 23
0.0
 33
0.0
 40
0.0
 40
0.0
 40
0.0
 40
0.0
 40
0.2494968407337486
 40
0.4991901205401282
 40
0.7488841219042578
 40
0.8743600791987493
 40
1.0
 40
1.0
 40
1.0
 40
1.0
 10
758.0090409896284
 20
657.1312435437661
 30
0.0
 10
757.9923210709271
 20
657.1578358842348
 30
0.0
 10
757.9588680692482
 20
657.2110415024104
 30
0.0
 10
757.8581108702701
 20
657.264445918168
 30
0.0
 10
757.7622913889919
 20
657.2860022658724
 30
0.0
 10
757.6845046913592
 20
657.2861382619241
 30
0.0
 10
757.6472259471443
 20
657.2805180073511
 30
0.0
 10
757.6285744046522
 20
657.2777060452213
 30
0.0
  0
LINE
  5
174
330
1F
100
AcDbEntity
  8
0
  6
Continuous
 62
     7
370
    15
100
AcDbLine
 10
758.0219333458
 20
657.0484801806
 30
0.0
 11
758.0090409896
 21
657.1312435438
 31
0.0
  0
LINE
  5
175
330
1F
100
AcDbEntity
  8
0
  6
Continuous
 62
     7
370
    15
100
AcDbLine
 10
758.0090409896
 20
657.1312435438
 30
0.0
 11
758.009480174
 21
657.1346956359
 31
0.0
  0
LINE
  5
176
330
1F
100
AcDbEntity
  8
0
  6
Continuous
 62
     7
370
    15
100
AcDbLine
 10
757.6285744047
 20
657.2777060452
 30
0.0
 11
757.6289845763
 21
657.2812203554
 31
0.0
  0
SPLINE
  5
177
330
1F
100
AcDbEntity
  8
0
  6
Continuous
 62
     7
370
    15
100
AcDbSpline
210
0.0
220
0.0
230
1.0
 70
     8
 71
     3
 72
    12
 73
     8
 74
     0
 42
0.00000001
 43
0.00000001
 12
1.0
 22
0.0
 32
0.0
 13
1.0
 23
0.0
 33
0.0
 40
0.0
 40
0.0
 40
0.0
 40
0.0
 40
0.0304717459459233
 40
0.0888135668585941
 40
0.3925556175487326
 40
0.6962774394173983
 40
1.0
 40
1.0
 40
1.0
 40
1.0
 10
768.4429820481001
 20
639.0525038794777
 30
0.0
 10
768.4453333732067
 20
639.0477508739709
 30
0.0
 10
768.4521865929054
 20
639.0338976680172
 30
0.0
 10
768.4796012436124
 20
638.970525279206
 30
0.0
 10
768.5081466823639
 20
638.8514519716949
 30
0.0
 10
768.5038669862321
 20
638.678860482101
 30
0.0
 10
768.4639067810658
 20
638.5766822252469
 30
0.0
 10
768.4439266541848
 20
638.5255930346905
 30
0.0
  0
SPLINE
  5
178
330
1F
100
AcDbEntity
  8
0
  6
Continuous
 62
     7
370
    15
100
AcDbSpline
210
0.0
220
0.0
230
1.0
 70
     8
 71
     3
 72
    10
 73
     6
 74
     0
 42
0.00000001
 43
0.00000001
 12
1.0
 22
0.0
 32
0.0
 13
1.0
 23
0.0
 33
0.0
 40
0.0
 40
0.0
 40
0.0
 40
0.0
 40
0.2117958997110864
 40
0.4880069094700925
 40
1.0
 40
1.0
 40
1.0
 40
1.0
 10
768.4439266541848
 20
638.5255930346905
 30
0.0
 10
768.4433691522486
 20
638.5242229253175
 30
0.0
 10
768.4420845910396
 20
638.5210660047084
 30
0.0
 10
768.4418826013623
 20
638.5154827256288
 30
0.0
 10
768.4430902498984
 20
638.5123137582441
 30
0.0
 10
768.443874701167
 20
638.5102552947011
 30
0.0
  0
SPLINE
  5
179
330
1F
100
AcDbEntity
  8
0
  6
Continuous
 62
     7
370
    15
100
AcDbSpline
210
0.0
220
0.0
230
1.0
 70
     8
 71
     3
 72
    12
 73
     8
 74
     0
 42
0.00000001
 43
0.00000001
 12
1.0
 22
0.0
 32
0.0
 13
1.0
 23
0.0
 33
0.0
 40
0.0
 40
0.0
 40
0.0
 40
0.0
 40
0.0304717459515825
 40
0.0888135668586094
 40
0.392555617548788
 40
0.6962774394174454
 40
0.9999999999999999
 40
0.9999999999999999
 40
0.9999999999999999
 40
0.9999999999999999
 10
758.8427283150377
 20
659.6403144486776
 30
0.0
 10
758.8405987042252
 20
659.6451708412585
 30
0.0
 10
758.8343916974927
 20
659.6593253812666
 30
0.0
 10
758.8034674289987
 20
659.7210612084297
 30
0.0
 10
758.7306006377953
 20
659.8194671298685
 30
0.0
 10
758.595636950617
 20
659.9271283634785
 30
0.0
 10
758.4916779399848
 20
659.9621959878499
 30
0.0
 10
758.4396983714564
 20
659.9797298213584
 30
0.0
  0
SPLINE
  5
17A
330
1F
100
AcDbEntity
  8
0
  6
Continuous
 62
     7
370
    15
100
AcDbSpline
210
0.0
220
0.0
230
1.0
 70
     8
 71
     3
 72
    11
 73
     7
 74
     0
 42
0.00000001
 43
0.00000001
 12
1.0
 22
0.0
 32
0.0
 13
1.0
 23
0.0
 33
0.0
 40
0.0
 40
0.0
 40
0.0
 40
0.0
 40
0.3704320937883698
 40
0.7442498469288324
 40
0.9442480537683006
 40
1.0
 40
1.0
 40
1.0
 40
1.0
 10
758.4279155862117
 20
659.9895489322637
 30
0.0
 10
758.4286603692916
 20
659.9881554004851
 30
0.0
 10
758.4301567425878
 20
659.9853556003859
 30
0.0
 10
758.4337903327483
 20
659.9820046546131
 30
0.0
 10
758.4375518701814
 20
659.9802972071354
 30
0.0
 10
758.4393141954783
 20
659.9798313707907
 30
0.0
 10
758.4396983714564
 20
659.9797298213584
 30
0.0
  0
SPLINE
  5
17B
330
1F
100
AcDbEntity
  8
0
  6
Continuous
 62
     7
370
    15
100
AcDbSpline
210
0.0
220
0.0
230
1.0
 70
     8
 71
     3
 72
    12
 73
     8
 74
     0
 42
0.00000001
 43
0.00000001
 12
1.0
 22
0.0
 32
0.0
 13
1.0
 23
0.0
 33
0.0
 40
0.0
 40
0.0
 40
0.0
 40
0.0
 40
0.2238925571851577
 40
0.4477848984197631
 40
0.6716824862031708
 40
0.895582158546891
 40
0.9999999999999999
 40
0.9999999999999999
 40
0.9999999999999999
 40
0.9999999999999999
 10
757.7804927054041
 20
662.1691653632162
 30
0.0
 10
757.7665588248385
 20
662.1689976163395
 30
0.0
 10
757.7386910771472
 20
662.1686621227483
 30
0.0
 10
757.7027103441337
 20
662.1683604165535
 30
0.0
 10
757.6765141103185
 20
662.1681960711513
 30
0.0
 10
757.6648464381968
 20
662.1681489769104
 30
0.0
 10
757.6638721077311
 20
662.1681540030596
 30
0.0
 10
757.6635622324434
 20
662.1681556015722
 30
0.0
  0
LINE
  5
17C
330
1F
100
AcDbEntity
  8
0
  6
Continuous
 62
     7
370
    15
100
AcDbLine
 10
757.7804927054
 20
662.1691653632
 30
0.0
 11
767.3279079683
 21
662.2732091341
 31
0.0
  0
LINE
  5
17D
330
1F
100
AcDbEntity
  8
0
  6
Continuous
 62
     7
370
    15
100
AcDbLine
 10
767.3279079683
 20
662.2732091341
 30
0.0
 11
768.0672261467
 21
662.2823985409
 31
0.0
  0
LINE
  5
17E
330
1F
100
AcDbEntity
  8
0
  6
Continuous
 62
     7
370
    15
100
AcDbLine
 10
767.5461629094
 20
636.4109364302
 30
0.0
 11
767.7127033042
 21
636.0371962466
 31
0.0
  0
LINE
  5
17F
330
1F
100
AcDbEntity
  8
0
  6
Continuous
 62
     7
370
    15
100
AcDbLine
 10
767.7127033042
 20
636.0371962466
 30
0.0
 11
767.4371003886
 21
635.7629936455
 31
0.0
  0
LINE
  5
180
330
1F
100
AcDbEntity
  8
0
  6
Continuous
 62
     7
370
    15
100
AcDbLine
 10
767.4371003886
 20
635.7629936455
 30
0.0
 11
766.2626024124
 21
635.1301807854
 31
0.0
  0
LINE
  5
181
330
1F
100
AcDbEntity
  8
0
  6
Continuous
 62
     7
370
    15
100
AcDbLine
 10
766.2626023781
 20
635.1301808573
 30
0.0
 11
766.1775657762
 21
635.3037529808
 31
0.0
  0
LINE
  5
182
330
1F
100
AcDbEntity
  8
0
  6
Continuous
 62
     7
370
    15
100
AcDbLine
 10
766.1775657762
 20
635.3037529808
 30
0.0
 11
767.1868948139
 21
636.3069377784
 31
0.0
  0
LINE
  5
183
330
1F
100
AcDbEntity
  8
0
  6
Continuous
 62
     7
370
    15
100
AcDbLine
 10
767.1868948139
 20
636.3069377784
 30
0.0
 11
767.1444218444
 21
636.390832082
 31
0.0
  0
LINE
  5
184
330
1F
100
AcDbEntity
  8
0
  6
Continuous
 62
     7
370
    15
100
AcDbLine
 10
767.1444218444
 20
636.390832082
 30
0.0
 11
767.4200071551
 21
636.6650481895
 31
0.0
  0
LINE
  5
185
330
1F
100
AcDbEntity
  8
0
  6
Continuous
 62
     7
370
    15
100
AcDbLine
 10
767.4200071551
 20
636.6650481895
 30
0.0
 11
767.4625399019
 21
636.5811025869
 31
0.0
  0
LINE
  5
186
330
1F
100
AcDbEntity
  8
0
  6
Continuous
 62
     7
370
    15
100
AcDbLine
 10
767.4625399019
 20
636.5811025869
 30
0.0
 11
767.7845283243
 21
636.9011004811
 31
0.0
  0
LINE
  5
187
330
1F
100
AcDbEntity
  8
0
  6
Continuous
 62
     7
370
    15
100
AcDbLine
 10
767.7845283242
 20
636.9011004815
 30
0.0
 11
767.8682298585
 21
636.7308662802
 31
0.0
  0
LINE
  5
188
330
1F
100
AcDbEntity
  8
0
  6
Continuous
 62
     7
370
    15
100
AcDbLine
 10
767.8682298585
 20
636.7308662802
 30
0.0
 11
767.5461664224
 21
636.4109399199
 31
0.0
  0
LINE
  5
189
330
1F
100
AcDbEntity
  8
0
  6
Continuous
 62
     7
370
    15
100
AcDbLine
 10
767.3628066293
 20
635.9370173231
 30
0.0
 11
767.2704455876
 21
636.1368341956
 31
0.0
  0
LINE
  5
18A
330
1F
100
AcDbEntity
  8
0
  6
Continuous
 62
     7
370
    15
100
AcDbLine
 10
767.2704455876
 20
636.1368341956
 30
0.0
 11
766.7447741471
 21
635.6146664026
 31
0.0
  0
LINE
  5
18B
330
1F
100
AcDbEntity
  8
0
  6
Continuous
 62
     7
370
    15
100
AcDbLine
 10
766.7447741471
 20
635.6146664026
 30
0.0
 11
767.3628066293
 21
635.9370173231
 31
0.0
  0
LINE
  5
18C
330
1F
100
AcDbEntity
  8
0
  6
Continuous
 62
     7
370
    15
100
AcDbLine
 10
766.1741495706
 20
635.3066851313
 30
0.0
 11
766.1775657762
 21
635.3037529808
 31
0.0
  0
LINE
  5
18D
330
1F
100
AcDbEntity
  8
0
  6
Continuous
 62
     7
370
    15
100
AcDbLine
 10
767.183479853
 20
636.3098672597
 30
0.0
 11
767.1868948139
 21
636.3069377784
 31
0.0
  0
LINE
  5
18E
330
1F
100
AcDbEntity
  8
0
  6
Continuous
 62
     7
370
    15
100
AcDbLine
 10
766.2591617651
 20
635.1331653512
 30
0.0
 11
766.2626024124
 21
635.1301807854
 31
0.0
  0
LINE
  5
18F
330
1F
100
AcDbEntity
  8
0
  6
Continuous
 62
     7
370
    15
100
AcDbLine
 10
767.1410192468
 20
636.3937350501
 30
0.0
 11
767.1444218444
 21
636.390832082
 31
0.0
  0
LINE
  5
190
330
1F
100
AcDbEntity
  8
0
  6
Continuous
 62
     7
370
    15
100
AcDbLine
 10
767.4166050645
 20
636.6679500702
 30
0.0
 11
767.4200071551
 21
636.6650481895
 31
0.0
  0
LINE
  5
191
330
1F
100
AcDbEntity
  8
0
  6
Continuous
 62
     7
370
    15
100
AcDbLine
 10
767.7811141597
 20
636.9040282549
 30
0.0
 11
767.7845283242
 21
636.9011004815
 31
0.0
  0
LINE
  5
192
330
1F
100
AcDbEntity
  8
0
  6
Continuous
 62
     7
370
    15
100
AcDbLine
 10
766.7413341828
 20
635.6176495039
 30
0.0
 11
767.3593382434
 21
635.9400613746
 31
0.0
  0
LINE
  5
193
330
1F
100
AcDbEntity
  8
0
  6
Continuous
 62
     7
370
    15
100
AcDbLine
 10
767.3593382434
 20
635.9400613746
 30
0.0
 11
767.3628066293
 21
635.9370173231
 31
0.0
  0
LINE
  5
194
330
1F
100
AcDbEntity
  8
0
  6
Continuous
 62
     7
370
    15
100
AcDbLine
 10
767.3593382434
 20
635.9400613746
 30
0.0
 11
767.2670058024
 21
636.1398169128
 31
0.0
  0
LINE
  5
195
330
1F
100
AcDbEntity
  8
0
  6
Continuous
 62
     7
370
    15
100
AcDbLine
 10
769.2093832517
 20
660.5306327419
 30
0.0
 11
775.7885627764
 21
646.4215367199
 31
0.0
  0
LINE
  5
196
330
1F
100
AcDbEntity
  8
0
  6
Continuous
 62
     7
370
    15
100
AcDbLine
 10
775.7885627764
 20
646.4215367199
 30
0.0
 11
776.4828716228
 21
644.9325865939
 31
0.0
  0
LINE
  5
197
330
1F
100
AcDbEntity
  8
0
  6
Continuous
 62
     7
370
    15
100
AcDbLine
 10
768.5277034262
 20
661.9924998453
 30
0.0
 11
769.2093832517
 21
660.5306327419
 31
0.0
  0
SPLINE
  5
198
330
1F
100
AcDbEntity
  8
0
  6
Continuous
 62
     7
370
    15
100
AcDbSpline
210
0.0
220
0.0
230
1.0
 70
     8
 71
     3
 72
    11
 73
     7
 74
     0
 42
0.00000001
 43
0.00000001
 12
1.0
 22
0.0
 32
0.0
 13
1.0
 23
0.0
 33
0.0
 40
0.0
 40
0.0
 40
0.0
 40
0.0
 40
0.2933118760927628
 40
0.586599120141971
 40
0.8805021461502925
 40
1.0
 40
1.0
 40
1.0
 40
1.0
 10
768.0672261467106
 20
662.2823985408643
 30
0.0
 10
768.1235765810533
 20
662.2775633286832
 30
0.0
 10
768.2362727174842
 20
662.2678933103774
 30
0.0
 10
768.3866509573375
 20
662.1832911239667
 30
0.0
 10
768.4808749871356
 20
662.0829908854189
 30
0.0
 10
768.5172025606101
 20
662.0127916651189
 30
0.0
 10
768.52770342618
 20
661.9924998452984
 30
0.0
  0
LINE
  5
199
330
1F
100
AcDbEntity
  8
0
  6
Continuous
 62
     7
370
    15
100
AcDbLine
 10
732.4917324757
 20
586.3682080705
 30
0.0
 11
732.4917324757
 21
586.0910319401
 31
0.0
  0
LINE
  5
19A
330
1F
100
AcDbEntity
  8
0
  6
Continuous
 62
     7
370
    15
100
AcDbLine
 10
732.5022979323
 20
586.3682080705
 30
0.0
 11
732.5022979323
 21
586.0910319401
 31
0.0
  0
LINE
  5
19B
330
1F
100
AcDbEntity
  8
0
  6
Continuous
 62
     7
370
    15
100
AcDbLine
 10
747.8024842021
 20
679.5815028021
 30
0.0
 11
747.6595333855
 21
679.8880618178
 31
0.0
  0
LINE
  5
19C
330
1F
100
AcDbEntity
  8
0
  6
Continuous
 62
     7
370
    15
100
AcDbLine
 10
748.6634709041
 20
679.9829874948
 30
0.0
 11
748.8325182088
 21
679.62046438
 31
0.0
  0
LINE
  5
19D
330
1F
100
AcDbEntity
  8
0
  6
Continuous
 62
     7
370
    15
100
AcDbLine
 10
748.8325182088
 20
679.62046438
 30
0.0
 11
747.9262104217
 21
679.1978461183
 31
0.0
  0
LINE
  5
19E
330
1F
100
AcDbEntity
  8
0
  6
Continuous
 62
     7
370
    15
100
AcDbLine
 10
747.757163117
 20
679.5603692331
 30
0.0
 11
748.6634709041
 21
679.9829874948
 31
0.0
  0
LINE
  5
19F
330
1F
100
AcDbEntity
  8
0
  6
Continuous
 62
     7
370
    15
100
AcDbLine
 10
724.7417324757
 20
585.6910319401
 30
0.0
 11
754.0563811717
 21
585.6910319401
 31
0.0
  0
LINE
  5
1A0
330
1F
100
AcDbEntity
  8
0
  6
Continuous
 62
     7
370
    15
100
AcDbLine
 10
724.7417324757
 20
586.0910319401
 30
0.0
 11
754.0563811717
 21
586.0910319401
 31
0.0
  0
ARC
  5
1A1
330
1F
100
AcDbEntity
  8
0
  6
Continuous
 62
     7
370
    15
100
AcDbCircle
 10
754.0563811717
 20
591.0910319401
 30
0.0
 40
5.399999999999977
100
AcDbArc
 50
270.0
 51
335.0
  0
ARC
  5
1A2
330
1F
100
AcDbEntity
  8
0
  6
Continuous
 62
     7
370
    15
100
AcDbCircle
 10
754.0563811717
 20
591.0910319401
 30
0.0
 40
5.00000000000002
100
AcDbArc
 50
270.0
 51
335.0
  0
LINE
  5
1A3
330
1F
100
AcDbEntity
  8
0
  6
Continuous
 62
     7
370
    15
100
AcDbLine
 10
758.9504432217
 20
588.8088933267
 30
0.0
 11
769.2558424669
 21
610.9088933267
 31
0.0
  0
LINE
  5
1A4
330
1F
100
AcDbEntity
  8
0
  6
Continuous
 62
     7
370
    15
100
AcDbLine
 10
758.5879201069
 20
588.9779406314
 30
0.0
 11
768.8933193521
 21
611.0779406314
 31
0.0
  0
ARC
  5
1A5
330
1F
100
AcDbEntity
  8
0
  6
Continuous
 62
     7
370
    15
100
AcDbCircle
 10
741.8688500207
 20
675.6836413757
 30
0.0
 40
0.6249999999999921
100
AcDbArc
 50
115.0
 51
205.0
  0
ARC
  5
1A6
330
1F
100
AcDbEntity
  8
0
  6
Continuous
 62
     7
370
    15
100
AcDbCircle
 10
741.8688500207
 20
675.6836413757
 30
0.0
 40
1.025000000000004
100
AcDbArc
 50
115.0
 51
205.0
  0
ARC
  5
1A7
330
1F
100
AcDbEntity
  8
0
  6
Continuous
 62
     7
370
    15
100
AcDbCircle
 10
764.3617804169
 20
613.1910319401
 30
0.0
 40
5.400000000000031
100
AcDbArc
 50
335.0
 51
25.0
  0
ARC
  5
1A8
330
1F
100
AcDbEntity
  8
0
  6
Continuous
 62
     7
370
    15
100
AcDbCircle
 10
764.3617804169
 20
613.1910319401
 30
0.0
 40
4.999999999999964
100
AcDbArc
 50
335.0
 51
25.0
  0
LINE
  5
1A9
330
1F
100
AcDbEntity
  8
0
  6
Continuous
 62
     7
370
    15
100
AcDbLine
 10
769.2558424669
 20
615.4731705535
 30
0.0
 11
741.3024076538
 21
675.4195049621
 31
0.0
  0
LINE
  5
1AA
330
1F
100
AcDbEntity
  8
0
  6
Continuous
 62
     7
370
    15
100
AcDbLine
 10
768.8933193521
 20
615.3041232488
 30
0.0
 11
740.939884539
 21
675.2504576574
 31
0.0
  0
LINE
  5
1AB
330
1F
100
AcDbEntity
  8
0
  6
Continuous
 62
     7
370
    15
100
AcDbLine
 10
723.7417324757
 20
585.6910319401
 30
0.0
 11
723.7417324757
 21
586.0910319401
 31
0.0
  0
LINE
  5
1AC
330
1F
100
AcDbEntity
  8
0
  6
Continuous
 62
     7
370
    15
100
AcDbLine
 10
724.7417324757
 20
585.6910319401
 30
0.0
 11
723.7417324757
 21
585.6910319401
 31
0.0
  0
LINE
  5
1AD
330
1F
100
AcDbEntity
  8
0
  6
Continuous
 62
     7
370
    15
100
AcDbLine
 10
723.7417324757
 20
586.0910319401
 30
0.0
 11
724.7417324757
 21
586.0910319401
 31
0.0
  0
LINE
  5
1AE
330
1F
100
AcDbEntity
  8
0
  6
Continuous
 62
     7
370
    15
100
AcDbLine
 10
741.6047136071
 20
676.2500837426
 30
0.0
 11
747.9262104217
 21
679.1978461183
 31
0.0
  0
LINE
  5
1AF
330
1F
100
AcDbEntity
  8
0
  6
Continuous
 62
     7
370
    15
100
AcDbLine
 10
741.4356663024
 20
676.6126068574
 30
0.0
 11
747.757163117
 21
679.5603692331
 31
0.0
  0
ARC
  5
1B0
330
1F
100
AcDbEntity
  8
0
  6
Continuous
 62
     7
370
    15
100
AcDbCircle
 10
747.5351195671
 20
680.2843620645
 30
0.0
 40
0.7500000000002557
100
AcDbArc
 50
295.0
 51
335.0
  0
LINE
  5
1B1
330
1F
100
AcDbEntity
  8
0
  6
Continuous
 62
     7
370
    15
100
AcDbLine
 10
748.3218770481
 20
680.19691774
 30
0.0
 11
748.2148504074
 21
679.9673983682
 31
0.0
  0
LINE
  5
1B2
330
1F
100
AcDbEntity
  8
0
  6
Continuous
 62
     7
370
    15
100
AcDbLine
 10
748.8482529706
 20
680.3792539153
 30
0.0
 11
748.6634709041
 21
679.9829874948
 31
0.0
  0
LINE
  5
1B3
330
1F
100
AcDbEntity
  8
0
  6
Continuous
 62
     7
370
    15
100
AcDbLine
 10
358.2279980414
 20
709.9682080705
 30
0.0
 11
763.6045701558
 21
709.9682080705
 31
0.0
  0
LINE
  5
1B4
330
1F
100
AcDbEntity
  8
0
  6
Continuous
 62
     7
370
    15
100
AcDbLine
 10
358.2279980414
 20
710.9682080705
 30
0.0
 11
763.6045701558
 21
710.9682080705
 31
0.0
  0
LINE
  5
1B5
330
1F
100
AcDbEntity
  8
0
  6
Continuous
 62
     7
370
    15
100
AcDbLine
 10
327.1029980414
 20
709.9682080705
 30
0.0
 11
327.1029980414
 21
710.1280326454
 31
0.0
  0
LINE
  5
1B6
330
1F
100
AcDbEntity
  8
0
  6
Continuous
 62
     7
370
    15
100
AcDbLine
 10
327.1029980414
 20
709.9682080705
 30
0.0
 11
326.1029980414
 21
709.9682080705
 31
0.0
  0
LINE
  5
1B7
330
1F
100
AcDbEntity
  8
0
  6
Continuous
 62
     7
370
    15
100
AcDbLine
 10
327.0779980408
 20
710.9682080705
 30
0.0
 11
326.1029980414
 21
710.9682080705
 31
0.0
  0
LINE
  5
1B8
330
1F
100
AcDbEntity
  8
0
  6
Continuous
 62
     7
370
    15
100
AcDbLine
 10
326.1029980414
 20
710.9682080705
 30
0.0
 11
321.7279980414
 21
710.9682080705
 31
0.0
  0
LINE
  5
1B9
330
1F
100
AcDbEntity
  8
0
  6
Continuous
 62
     7
370
    15
100
AcDbLine
 10
326.1029980414
 20
709.9682080705
 30
0.0
 11
321.7279980414
 21
709.9682080705
 31
0.0
  0
ARC
  5
1BA
330
1F
100
AcDbEntity
  8
0
  6
Continuous
 62
     7
370
    15
100
AcDbCircle
 10
354.9779980414
 20
717.8432080705
 30
0.0
 40
2.125
100
AcDbArc
 50
0.0
 51
90.0
  0
ARC
  5
1BB
330
1F
100
AcDbEntity
  8
0
  6
Continuous
 62
     7
370
    15
100
AcDbCircle
 10
354.9779980414
 20
717.8432080705
 30
0.0
 40
1.125
100
AcDbArc
 50
0.0
 51
90.0
  0
LINE
  5
1BC
330
1F
100
AcDbEntity
  8
0
  6
Continuous
 62
     7
370
    15
100
AcDbLine
 10
321.7279980414
 20
719.9682080705
 30
0.0
 11
354.9779980414
 21
719.9682080705
 31
0.0
  0
LINE
  5
1BD
330
1F
100
AcDbEntity
  8
0
  6
Continuous
 62
     7
370
    15
100
AcDbLine
 10
321.7279980414
 20
718.9682080705
 30
0.0
 11
354.9779980414
 21
718.9682080705
 31
0.0
  0
ARC
  5
1BE
330
1F
100
AcDbEntity
  8
0
  6
Continuous
 62
     7
370
    15
100
AcDbCircle
 10
321.7279980414
 20
712.0932080705
 30
0.0
 40
2.125
100
AcDbArc
 50
180.0
 51
270.0
  0
ARC
  5
1BF
330
1F
100
AcDbEntity
  8
0
  6
Continuous
 62
     7
370
    15
100
AcDbCircle
 10
321.7279980414
 20
712.0932080705
 30
0.0
 40
1.125
100
AcDbArc
 50
180.0
 51
270.0
  0
LINE
  5
1C0
330
1F
100
AcDbEntity
  8
0
  6
Continuous
 62
     7
370
    15
100
AcDbLine
 10
319.6029980414
 20
712.0932080705
 30
0.0
 11
319.6029980414
 21
717.8432080705
 31
0.0
  0
LINE
  5
1C1
330
1F
100
AcDbEntity
  8
0
  6
Continuous
 62
     7
370
    15
100
AcDbLine
 10
320.6029980414
 20
712.0932080705
 30
0.0
 11
320.6029980414
 21
717.8432080705
 31
0.0
  0
LINE
  5
1C2
330
1F
100
AcDbEntity
  8
0
  6
Continuous
 62
     7
370
    15
100
AcDbLine
 10
356.1029980414
 20
712.0932080705
 30
0.0
 11
356.1029980414
 21
717.8432080705
 31
0.0
  0
LINE
  5
1C3
330
1F
100
AcDbEntity
  8
0
  6
Continuous
 62
     7
370
    15
100
AcDbLine
 10
357.1029980414
 20
712.0932080705
 30
0.0
 11
357.1029980414
 21
717.8432080705
 31
0.0
  0
ARC
  5
1C4
330
1F
100
AcDbEntity
  8
0
  6
Continuous
 62
     7
370
    15
100
AcDbCircle
 10
321.7279980414
 20
717.8432080705
 30
0.0
 40
1.125
100
AcDbArc
 50
90.0
 51
180.0
  0
ARC
  5
1C5
330
1F
100
AcDbEntity
  8
0
  6
Continuous
 62
     7
370
    15
100
AcDbCircle
 10
321.7279980414
 20
717.8432080705
 30
0.0
 40
2.125
100
AcDbArc
 50
90.0
 51
180.0
  0
ARC
  5
1C6
330
1F
100
AcDbEntity
  8
0
  6
Continuous
 62
     7
370
    15
100
AcDbCircle
 10
358.2279980414
 20
712.0932080705
 30
0.0
 40
1.125
100
AcDbArc
 50
180.0
 51
270.0
  0
ARC
  5
1C7
330
1F
100
AcDbEntity
  8
0
  6
Continuous
 62
     7
370
    15
100
AcDbCircle
 10
358.2279980414
 20
712.0932080705
 30
0.0
 40
2.125
100
AcDbArc
 50
180.0
 51
270.0
  0
ARC
  5
1C8
330
1F
100
AcDbEntity
  8
0
  6
Continuous
 62
     7
370
    15
100
AcDbCircle
 10
763.6045701558
 20
704.9682080705
 30
0.0
 40
6.000000000000129
100
AcDbArc
 50
335.0
 51
90.0
  0
ARC
  5
1C9
330
1F
100
AcDbEntity
  8
0
  6
Continuous
 62
     7
370
    15
100
AcDbCircle
 10
763.6045701558
 20
704.9682080705
 30
0.0
 40
5.000000000000012
100
AcDbArc
 50
335.0
 51
90.0
  0
LINE
  5
1CA
330
1F
100
AcDbEntity
  8
0
  6
Continuous
 62
     7
370
    15
100
AcDbLine
 10
761.8233696655
 20
686.9512017934
 30
0.0
 11
769.042416878
 21
702.4324985001
 31
0.0
  0
LINE
  5
1CB
330
1F
100
AcDbEntity
  8
0
  6
Continuous
 62
     7
370
    15
100
AcDbLine
 10
760.9170618784
 20
687.3738200551
 30
0.0
 11
768.136109091
 21
702.8551167618
 31
0.0
  0
ARC
  5
1CC
330
1F
100
AcDbEntity
  8
0
  6
Continuous
 62
     7
370
    15
100
AcDbCircle
 10
756.3855229433
 20
689.4869113638
 30
0.0
 40
5.000000000000068
100
AcDbArc
 50
295.0
 51
335.0
  0
ARC
  5
1CD
330
1F
100
AcDbEntity
  8
0
  6
Continuous
 62
     7
370
    15
100
AcDbCircle
 10
756.3855229433
 20
689.4869113638
 30
0.0
 40
6.000000000000026
100
AcDbArc
 50
295.0
 51
335.0
  0
LINE
  5
1CE
330
1F
100
AcDbEntity
  8
0
  6
Continuous
 62
     7
370
    15
100
AcDbLine
 10
758.9212325137
 20
684.0490646416
 30
0.0
 11
750.1480382506
 21
679.9580569702
 31
0.0
  0
LINE
  5
1CF
330
1F
100
AcDbEntity
  8
0
  6
Continuous
 62
     7
370
    15
100
AcDbLine
 10
758.498614252
 20
684.9553724286
 30
0.0
 11
749.7254199889
 21
680.8643647573
 31
0.0
  0
LINE
  5
1D0
330
1F
100
AcDbEntity
  8
0
  6
Continuous
 62
     7
370
    15
100
AcDbLine
 10
749.2417304636
 20
679.5354387085
 30
0.0
 11
748.8191122018
 21
680.4417464955
 31
0.0
  0
LINE
  5
1D1
330
1F
100
AcDbEntity
  8
0
  6
Continuous
 62
     7
370
    15
100
AcDbLine
 10
750.1480382506
 20
679.9580569702
 30
0.0
 11
749.2417304636
 21
679.5354387085
 31
0.0
  0
LINE
  5
1D2
330
1F
100
AcDbEntity
  8
0
  6
Continuous
 62
     7
370
    15
100
AcDbLine
 10
749.7254199889
 20
680.8643647573
 30
0.0
 11
748.8191122018
 21
680.4417464955
 31
0.0
  0
LINE
  5
1D3
330
1F
100
AcDbEntity
  8
0
  6
Continuous
 62
     7
370
    15
100
AcDbLine
 10
321.8779980414
 20
717.8182080705
 30
0.0
 11
321.8779980414
 21
718.9682080705
 31
0.0
  0
LINE
  5
1D4
330
1F
100
AcDbEntity
  8
0
  6
Continuous
 62
     7
370
    15
100
AcDbLine
 10
354.5279980414
 20
718.9682080705
 30
0.0
 11
354.5279980414
 21
717.8182080705
 31
0.0
  0
LINE
  5
1D5
330
1F
100
AcDbEntity
  8
0
  6
Continuous
 62
     7
370
    15
100
AcDbLine
 10
326.7779980408
 20
711.1432080705
 30
0.0
 11
321.5779980414
 21
711.1432080705
 31
0.0
  0
ARC
  5
1D6
330
1F
100
AcDbEntity
  8
0
  6
Continuous
 62
     7
370
    15
100
AcDbCircle
 10
321.5779980414
 20
712.1432080705
 30
0.0
 40
1.0
100
AcDbArc
 50
180.0
 51
270.0
  0
LINE
  5
1D7
330
1F
100
AcDbEntity
  8
0
  6
Continuous
 62
     7
370
    15
100
AcDbLine
 10
320.5779980414
 20
712.1432080705
 30
0.0
 11
320.5779980414
 21
717.9682080705
 31
0.0
  0
ARC
  5
1D8
330
1F
100
AcDbEntity
  8
0
  6
Continuous
 62
     7
370
    15
100
AcDbCircle
 10
321.5779980414
 20
717.9682080705
 30
0.0
 40
1.000000000000114
100
AcDbArc
 50
90.0
 51
180.0
  0
LINE
  5
1D9
330
1F
100
AcDbEntity
  8
0
  6
Continuous
 62
     7
370
    15
100
AcDbLine
 10
321.5779980414
 20
718.9682080705
 30
0.0
 11
321.5779980414
 21
717.5182080705
 31
0.0
  0
ARC
  5
1DA
330
1F
100
AcDbEntity
  8
0
  6
Continuous
 62
     7
370
    15
100
AcDbCircle
 10
321.7279980414
 20
717.5182080705
 30
0.0
 40
0.1499999999999773
100
AcDbArc
 50
180.0
 51
0.0
  0
LINE
  5
1DB
330
1F
100
AcDbEntity
  8
0
  6
Continuous
 62
     7
370
    15
100
AcDbLine
 10
321.8779980414
 20
717.5182080705
 30
0.0
 11
321.8779980414
 21
717.8182080705
 31
0.0
  0
LINE
  5
1DC
330
1F
100
AcDbEntity
  8
0
  6
Continuous
 62
     7
370
    15
100
AcDbLine
 10
354.5279980414
 20
717.8182080705
 30
0.0
 11
354.5279980414
 21
717.5182080705
 31
0.0
  0
ARC
  5
1DD
330
1F
100
AcDbEntity
  8
0
  6
Continuous
 62
     7
370
    15
100
AcDbCircle
 10
354.6779980414
 20
717.5182080705
 30
0.0
 40
0.1499999999999773
100
AcDbArc
 50
180.0
 51
0.0
  0
LINE
  5
1DE
330
1F
100
AcDbEntity
  8
0
  6
Continuous
 62
     7
370
    15
100
AcDbLine
 10
354.8279980414
 20
717.5182080705
 30
0.0
 11
354.8279980414
 21
718.9682080705
 31
0.0
  0
ARC
  5
1DF
330
1F
100
AcDbEntity
  8
0
  6
Continuous
 62
     7
370
    15
100
AcDbCircle
 10
354.8279980414
 20
717.9682080705
 30
0.0
 40
1.0
100
AcDbArc
 50
0.0
 51
90.0
  0
LINE
  5
1E0
330
1F
100
AcDbEntity
  8
0
  6
Continuous
 62
     7
370
    15
100
AcDbLine
 10
355.8279980414
 20
717.9682080705
 30
0.0
 11
355.8279980414
 21
711.2682080705
 31
0.0
  0
LINE
  5
1E1
330
1F
100
AcDbEntity
  8
0
  6
Continuous
 62
     7
370
    15
100
AcDbLine
 10
327.0779980408
 20
711.2682080705
 30
0.0
 11
327.0779980408
 21
711.5682080705
 31
0.0
  0
ARC
  5
1E2
330
1F
100
AcDbEntity
  8
0
  6
Continuous
 62
     7
370
    15
100
AcDbCircle
 10
326.9279980408
 20
711.5682080705
 30
0.0
 40
0.1500000000000341
100
AcDbArc
 50
0.0
 51
180.0
  0
LINE
  5
1E3
330
1F
100
AcDbEntity
  8
0
  6
Continuous
 62
     7
370
    15
100
AcDbLine
 10
326.7779980408
 20
711.5682080705
 30
0.0
 11
326.7779980408
 21
711.1432080705
 31
0.0
  0
LINE
  5
1E4
330
1F
100
AcDbEntity
  8
0
  6
Continuous
 62
     7
370
    15
100
AcDbLine
 10
355.8279980414
 20
711.2682080705
 30
0.0
 11
355.8279980414
 21
710.1182080705
 31
0.0
  0
LINE
  5
1E5
330
1F
100
AcDbEntity
  8
0
  6
Continuous
 62
     7
370
    15
100
AcDbLine
 10
355.8279980414
 20
710.1182080705
 30
0.0
 11
327.1029980414
 21
710.1182080705
 31
0.0
  0
LINE
  5
1E6
330
1F
100
AcDbEntity
  8
0
  6
Continuous
 62
     7
370
    15
100
AcDbLine
 10
327.0779980408
 20
710.1801071836
 30
0.0
 11
327.0779980408
 21
711.2682080705
 31
0.0
  0
LINE
  5
1E7
330
1F
100
AcDbEntity
  8
0
  6
Continuous
 62
     7
370
    15
100
AcDbLine
 10
748.8240777768
 20
680.4310977857
 30
0.0
 11
740.7942462029
 21
676.6867258291
 31
0.0
  0
SPLINE
  5
1E8
330
1F
100
AcDbEntity
  8
0
  6
Continuous
 62
     7
370
    15
100
AcDbSpline
210
0.0
220
0.0
230
1.0
 70
     8
 71
     3
 72
    14
 73
    10
 74
     0
 42
0.00000001
 43
0.00000001
 12
1.0
 22
0.0
 32
0.0
 13
1.0
 23
0.0
 33
0.0
 40
0.0
 40
0.0
 40
0.0
 40
0.0
 40
0.1424979789612885
 40
0.2891107491291732
 40
0.4316087267218896
 40
0.57822142329395
 40
0.7209671108987281
 40
0.8678498166738041
 40
1.0
 40
1.0
 40
1.0
 40
1.0
 10
740.7942462028967
 20
676.6867258291225
 30
0.0
 10
740.7219376388077
 20
676.6591610937833
 30
0.0
 10
740.5752325186047
 20
676.6032356600224
 30
0.0
 10
740.3251254285312
 20
676.5863271205247
 30
0.0
 10
740.0517833244136
 20
676.6141059188585
 30
0.0
 10
739.7608054658742
 20
676.684513173391
 30
0.0
 10
739.4514895015807
 20
676.7887780338665
 30
0.0
 10
739.1419027799741
 20
676.9119932516818
 30
0.0
 10
738.9339646843445
 20
677.0003698746643
 30
0.0
 10
738.8354850479602
 20
677.042225108886
 30
0.0
  0
LINE
  5
1E9
330
1F
100
AcDbEntity
  8
0
  6
Continuous
 62
     7
370
    15
100
AcDbLine
 10
740.5636006474
 20
676.0574010671
 30
0.0
 11
740.939884539
 21
675.2504576574
 31
0.0
  0
SPLINE
  5
1EA
330
1F
100
AcDbEntity
  8
0
  6
Continuous
 62
     7
370
    15
100
AcDbSpline
210
0.0
220
0.0
230
1.0
 70
     8
 71
     3
 72
    11
 73
     7
 74
     0
 42
0.00000001
 43
0.00000001
 12
1.0
 22
0.0
 32
0.0
 13
1.0
 23
0.0
 33
0.0
 40
0.0
 40
0.0
 40
0.0
 40
0.0
 40
0.2888077077194043
 40
0.5776153362197912
 40
0.866934541432365
 40
1.0
 40
1.0
 40
1.0
 40
1.0
 10
738.8354850479604
 20
677.0422251088861
 30
0.0
 10
739.0593340603493
 20
676.9741207314579
 30
0.0
 10
739.5070320237261
 20
676.8379119952824
 30
0.0
 10
740.0806128182563
 20
676.5879073317252
 30
0.0
 10
740.4180565926218
 20
676.3197819665107
 30
0.0
 10
740.5287336348468
 20
676.1202578984849
 30
0.0
 10
740.5636006474053
 20
676.0574010670612
 30
0.0
  0
ARC
  5
1EB
330
1F
100
AcDbEntity
  8
0
  6
Continuous
 62
     7
370
    15
100
AcDbCircle
 10
764.2325310646
 20
613.4682080705
 30
0.0
 40
4.999999999999813
100
AcDbArc
 50
335.0
 51
25.0
  0
SPLINE
  5
1EC
330
1F
100
AcDbEntity
  8
0
  6
Continuous
 62
     7
370
    15
100
AcDbSpline
210
0.0
220
0.0
230
1.0
 70
     8
 71
     3
 72
    12
 73
     8
 74
     0
 42
0.00000001
 43
0.00000001
 12
1.0
 22
0.0
 32
0.0
 13
1.0
 23
0.0
 33
0.0
 40
0.0
 40
0.0
 40
0.0
 40
0.0
 40
0.2096821001528857
 40
0.4420453733185738
 40
0.6744332966681329
 40
0.906820870118055
 40
1.0
 40
1.0
 40
1.0
 40
1.0
 10
320.7809589507636
 20
708.8182080705477
 30
0.0
 10
320.7288163467998
 20
708.9443735495354
 30
0.0
 10
320.6188909081565
 20
709.210351743279
 30
0.0
 10
320.450906843215
 20
709.5710424581865
 30
0.0
 10
320.2774542090066
 20
709.8427219251797
 30
0.0
 10
320.1382658778902
 20
709.9570328452513
 30
0.0
 10
320.0575856472794
 20
709.9657213645635
 30
0.0
 10
320.0344944846696
 20
709.9682080705478
 30
0.0
  0
SPLINE
  5
1ED
330
1F
100
AcDbEntity
  8
0
  6
Continuous
 62
     7
370
    15
100
AcDbSpline
210
0.0
220
0.0
230
1.0
 70
     8
 71
     3
 72
    11
 73
     7
 74
     0
 42
0.00000001
 43
0.00000001
 12
1.0
 22
0.0
 32
0.0
 13
1.0
 23
0.0
 33
0.0
 40
0.0
 40
0.0
 40
0.0
 40
0.0
 40
0.2543211584720604
 40
0.5088664984541659
 40
0.7634130007196578
 40
1.0
 40
1.0
 40
1.0
 40
1.0
 10
320.7809589507636
 20
708.8182080705477
 30
0.0
 10
320.717668396871
 20
708.9181956656174
 30
0.0
 10
320.5910314991071
 20
709.118258993803
 30
0.0
 10
320.4010591643644
 20
709.3690708708508
 30
0.0
 10
320.215446598529
 20
709.5371034942801
 30
0.0
 10
320.0933232761943
 20
709.5580957563355
 30
0.0
 10
320.0344944846696
 20
709.5682080705477
 30
0.0
  0
LINE
  5
1EE
330
1F
100
AcDbEntity
  8
0
  6
Continuous
 62
     7
370
    15
100
AcDbLine
 10
320.0344944847
 20
709.9682080705
 30
0.0
 11
320.0344944847
 21
709.5682080705
 31
0.0
  0
LINE
  5
1EF
330
1F
100
AcDbEntity
  8
0
  6
Continuous
 62
     7
370
    15
100
AcDbLine
 10
320.0344944847
 20
709.9682080705
 30
0.0
 11
321.7279980414
 21
709.9682080705
 31
0.0
  0
LINE
  5
1F0
330
1F
100
AcDbEntity
  8
0
  6
Continuous
 62
     7
370
    15
100
AcDbLine
 10
327.1029980414
 20
709.9682080705
 30
0.0
 11
358.2279980414
 21
709.9682080705
 31
0.0
  0
SPLINE
  5
1F1
330
1F
100
AcDbEntity
  8
0
  6
Continuous
 62
     7
370
    15
100
AcDbSpline
210
0.0
220
0.0
230
1.0
 70
     8
 71
     3
 72
    12
 73
     8
 74
     0
 42
0.00000001
 43
0.00000001
 12
1.0
 22
0.0
 32
0.0
 13
1.0
 23
0.0
 33
0.0
 40
0.0
 40
0.0
 40
0.0
 40
0.0
 40
0.2096821001528651
 40
0.4420453733186043
 40
0.674433296668131
 40
0.9068208701180629
 40
1.0
 40
1.0
 40
1.0
 40
1.0
 10
320.7809589507636
 20
587.5182080705475
 30
0.0
 10
320.654793471776
 20
587.4660654665837
 30
0.0
 10
320.3888152780324
 20
587.3561400279405
 30
0.0
 10
320.0281245631249
 20
587.1881559629988
 30
0.0
 10
319.7564450961318
 20
587.0147033287906
 30
0.0
 10
319.6421341760602
 20
586.8755149976741
 30
0.0
 10
319.6334456567479
 20
586.7948347670633
 30
0.0
 10
319.6309589507637
 20
586.7717436044535
 30
0.0
  0
LINE
  5
1F2
330
1F
100
AcDbEntity
  8
0
  6
Continuous
 62
     7
370
    15
100
AcDbLine
 10
319.6309589508
 20
709.5646725366
 30
0.0
 11
319.6309589508
 21
586.7717436045
 31
0.0
  0
SPLINE
  5
1F3
330
1F
100
AcDbEntity
  8
0
  6
Continuous
 62
     7
370
    15
100
AcDbSpline
210
0.0
220
0.0
230
1.0
 70
     8
 71
     3
 72
    12
 73
     8
 74
     0
 42
0.00000001
 43
0.00000001
 12
1.0
 22
0.0
 32
0.0
 13
1.0
 23
0.0
 33
0.0
 40
0.0
 40
0.0
 40
0.0
 40
0.0
 40
0.2096821001528653
 40
0.4420453733185926
 40
0.6744332966681136
 40
0.9068208701180244
 40
1.0
 40
1.0
 40
1.0
 40
1.0
 10
319.6309589507636
 20
709.5646725366418
 30
0.0
 10
319.6431289358479
 20
709.5125299326781
 30
0.0
 10
319.6687853251914
 20
709.4026044940347
 30
0.0
 10
319.8792506186556
 20
709.2346204290933
 30
0.0
 10
320.2051453576035
 20
709.0611677948849
 30
0.0
 10
320.5298658771547
 20
708.9219794637685
 30
0.0
 10
320.7250858357078
 20
708.8412992331577
 30
0.0
 10
320.7809589507636
 20
708.8182080705477
 30
0.0
  0
SPLINE
  5
1F4
330
1F
100
AcDbEntity
  8
0
  6
Continuous
 62
     7
370
    15
100
AcDbSpline
210
0.0
220
0.0
230
1.0
 70
     8
 71
     3
 72
    11
 73
     7
 74
     0
 42
0.00000001
 43
0.00000001
 12
1.0
 22
0.0
 32
0.0
 13
1.0
 23
0.0
 33
0.0
 40
0.0
 40
0.0
 40
0.0
 40
0.0
 40
0.2543211584721397
 40
0.5088664984542343
 40
0.7634130007197366
 40
1.0
 40
1.0
 40
1.0
 40
1.0
 10
320.7809589507636
 20
587.5182080705475
 30
0.0
 10
320.6809713556939
 20
587.4549175166547
 30
0.0
 10
320.4809080275084
 20
587.328280618891
 30
0.0
 10
320.2300961504606
 20
587.1383082841483
 30
0.0
 10
320.0620635270313
 20
586.9526957183128
 30
0.0
 10
320.0410712649758
 20
586.8305723959783
 30
0.0
 10
320.0309589507636
 20
586.7717436044535
 30
0.0
  0
LINE
  5
1F5
330
1F
100
AcDbEntity
  8
0
  6
Continuous
 62
     7
370
    15
100
AcDbLine
 10
319.6309589508
 20
586.7717436045
 30
0.0
 11
320.0309589508
 21
586.7717436045
 31
0.0
  0
CIRCLE
  5
1F6
330
1F
100
AcDbEntity
  8
0
  6
Continuous
 62
     7
370
    15
100
AcDbCircle
 10
358.4045701558
 20
699.9682080705
 30
0.0
 40
3.17383155268567
  0
CIRCLE
  5
1F7
330
1F
100
AcDbEntity
  8
0
  6
Continuous
 62
     7
370
    15
100
AcDbCircle
 10
743.4045701558
 20
699.9682080705
 30
0.0
 40
3.17383155268567
  0
CIRCLE
  5
1F8
330
1F
100
AcDbEntity
  8
0
  6
Continuous
 62
     7
370
    15
100
AcDbCircle
 10
553.4045701558
 20
699.9682080705
 30
0.0
 40
3.17383155268567
  0
LINE
  5
1F9
330
1F
100
AcDbEntity
  8
0
  6
Continuous
 62
     7
370
    15
100
AcDbLine
 10
319.6309589508
 20
709.5646725366
 30
0.0
 11
320.0309589508
 21
709.5646725366
 31
0.0
  0
SPLINE
  5
1FA
330
1F
100
AcDbEntity
  8
0
  6
Continuous
 62
     7
370
    15
100
AcDbSpline
210
0.0
220
0.0
230
1.0
 70
     8
 71
     3
 72
    11
 73
     7
 74
     0
 42
0.00000001
 43
0.00000001
 12
1.0
 22
0.0
 32
0.0
 13
1.0
 23
0.0
 33
0.0
 40
0.0
 40
0.0
 40
0.0
 40
0.0
 40
0.2543211584721053
 40
0.5088664984542124
 40
0.7634130007196955
 40
1.0
 40
1.0
 40
1.0
 40
1.0
 10
320.0309589507636
 20
709.5646725366418
 30
0.0
 10
320.0426359817731
 20
709.5013819827492
 30
0.0
 10
320.0660003369761
 20
709.3747450849853
 30
0.0
 10
320.2454441450736
 20
709.1847727502426
 30
0.0
 10
320.4950556347184
 20
708.9991601844072
 30
0.0
 10
320.688009793016
 20
708.8770368620726
 30
0.0
 10
320.7809589507636
 20
708.8182080705477
 30
0.0
  0
ARC
  5
1FB
330
1F
100
AcDbEntity
  8
0
  6
Continuous
 62
     7
370
    15
100
AcDbCircle
 10
753.9271318194
 20
591.3682080705
 30
0.0
 40
4.999999999999917
100
AcDbArc
 50
270.0
 51
335.0
  0
LINE
  5
1FC
330
1F
100
AcDbEntity
  8
0
  6
Continuous
 62
     7
370
    15
100
AcDbLine
 10
758.4586707546
 20
589.2551167618
 30
0.0
 11
768.7640699998
 21
611.3551167618
 31
0.0
  0
LINE
  5
1FD
330
1F
100
AcDbEntity
  8
0
  6
Continuous
 62
     7
370
    15
100
AcDbLine
 10
753.9271318194
 20
586.3682080705
 30
0.0
 11
320.0344944847
 21
586.3682080705
 31
0.0
  0
SPLINE
  5
1FE
330
1F
100
AcDbEntity
  8
0
  6
Continuous
 62
     7
370
    15
100
AcDbSpline
210
0.0
220
0.0
230
1.0
 70
     8
 71
     3
 72
    12
 73
     8
 74
     0
 42
0.00000001
 43
0.00000001
 12
1.0
 22
0.0
 32
0.0
 13
1.0
 23
0.0
 33
0.0
 40
0.0
 40
0.0
 40
0.0
 40
0.0
 40
0.2096821001528683
 40
0.4420453733186041
 40
0.6744332966681316
 40
0.9068208701180589
 40
1.0
 40
1.0
 40
1.0
 40
1.0
 10
320.0344944846696
 20
586.3682080705476
 30
0.0
 10
320.0866370886333
 20
586.3803780556318
 30
0.0
 10
320.1965625272767
 20
586.4060344449753
 30
0.0
 10
320.3645465922182
 20
586.6164997384396
 30
0.0
 10
320.5379992264266
 20
586.9423944773874
 30
0.0
 10
320.6771875575429
 20
587.2671149969386
 30
0.0
 10
320.7578677881538
 20
587.4623349554919
 30
0.0
 10
320.7809589507636
 20
587.5182080705475
 30
0.0
  0
LINE
  5
1FF
330
1F
100
AcDbEntity
  8
0
  6
Continuous
 62
     7
370
    15
100
AcDbLine
 10
320.0344944847
 20
586.3682080705
 30
0.0
 11
320.0344944847
 21
586.7682080705
 31
0.0
  0
SPLINE
  5
200
330
1F
100
AcDbEntity
  8
0
  6
Continuous
 62
     7
370
    15
100
AcDbSpline
210
0.0
220
0.0
230
1.0
 70
     8
 71
     3
 72
    11
 73
     7
 74
     0
 42
0.00000001
 43
0.00000001
 12
1.0
 22
0.0
 32
0.0
 13
1.0
 23
0.0
 33
0.0
 40
0.0
 40
0.0
 40
0.0
 40
0.0
 40
0.2543211584721391
 40
0.5088664984542423
 40
0.7634130007197231
 40
1.0
 40
1.0
 40
1.0
 40
1.0
 10
320.0344944846696
 20
586.7682080705475
 30
0.0
 10
320.0977850385623
 20
586.779885101557
 30
0.0
 10
320.2244219363262
 20
586.80324945676
 30
0.0
 10
320.4143942710689
 20
586.9826932648576
 30
0.0
 10
320.6000068369042
 20
587.2323047545024
 30
0.0
 10
320.7221301592388
 20
587.4252589127999
 30
0.0
 10
320.7809589507636
 20
587.5182080705475
 30
0.0
  0
CIRCLE
  5
201
330
1F
100
AcDbEntity
  8
0
  6
Continuous
 62
     7
370
    15
100
AcDbCircle
 10
553.4045701558
 20
699.9682080705
 30
0.0
 40
1.350000000000023
  0
CIRCLE
  5
202
330
1F
100
AcDbEntity
  8
0
  6
Continuous
 62
     7
370
    15
100
AcDbCircle
 10
358.4045701558
 20
699.9682080705
 30
0.0
 40
1.350000000000023
  0
CIRCLE
  5
203
330
1F
100
AcDbEntity
  8
0
  6
Continuous
 62
     7
370
    15
100
AcDbCircle
 10
743.4045701558
 20
699.9682080705
 30
0.0
 40
1.350000000000023
  0
CIRCLE
  5
204
330
1F
100
AcDbEntity
  8
0
  6
Continuous
 62
     7
370
    15
100
AcDbCircle
 10
743.4045701558
 20
699.9682080705
 30
0.0
 40
1.262499999999898
  0
CIRCLE
  5
205
330
1F
100
AcDbEntity
  8
0
  6
Continuous
 62
     7
370
    15
100
AcDbCircle
 10
743.4045701558
 20
699.9682080705
 30
0.0
 40
1.0499999999999
  0
CIRCLE
  5
206
330
1F
100
AcDbEntity
  8
0
  6
Continuous
 62
     7
370
    15
100
AcDbCircle
 10
358.4045701557
 20
699.9682080705
 30
0.0
 40
1.262500000000045
  0
CIRCLE
  5
207
330
1F
100
AcDbEntity
  8
0
  6
Continuous
 62
     7
370
    15
100
AcDbCircle
 10
358.4045701557
 20
699.9682080705
 30
0.0
 40
1.049999999999955
  0
CIRCLE
  5
208
330
1F
100
AcDbEntity
  8
0
  6
Continuous
 62
     7
370
    15
100
AcDbCircle
 10
553.4045701557
 20
699.9682080705
 30
0.0
 40
1.262500000000045
  0
CIRCLE
  5
209
330
1F
100
AcDbEntity
  8
0
  6
Continuous
 62
     7
370
    15
100
AcDbCircle
 10
553.4045701557
 20
699.9682080705
 30
0.0
 40
1.049999999999955
  0
LINE
  5
20A
330
1F
100
AcDbEntity
  8
0
  6
Continuous
 62
     7
370
    15
100
AcDbLine
 10
741.3477230432
 20
675.4406358752
 30
0.0
 11
741.3024076538
 21
675.4195049621
 31
0.0
  0
LINE
  5
20B
330
1F
100
AcDbEntity
  8
0
  6
Continuous
 62
     7
370
    15
100
AcDbLine
 10
741.3477230432
 20
675.4406358752
 30
0.0
 11
744.7600913304
 21
668.1227884679
 31
0.0
  0
LINE
  5
20C
330
1F
100
AcDbEntity
  8
0
  6
Continuous
 62
     7
370
    15
100
AcDbLine
 10
741.8128637123
 20
674.5614485704
 30
0.0
 11
744.806514144
 21
668.1415445021
 31
0.0
  0
LINE
  5
20D
330
1F
100
AcDbEntity
  8
0
  6
Continuous
 62
     7
370
    15
100
AcDbLine
 10
741.7600364296
 20
674.6747370437
 30
0.0
 11
741.8128637123
 21
674.5614485704
 31
0.0
  0
SPLINE
  5
20E
330
1F
100
AcDbEntity
  8
0
  6
Continuous
 62
     7
370
    15
100
AcDbSpline
210
0.0
220
0.0
230
1.0
 70
     8
 71
     3
 72
    13
 73
     9
 74
     0
 42
0.00000001
 43
0.00000001
 12
1.0
 22
0.0
 32
0.0
 13
1.0
 23
0.0
 33
0.0
 40
0.0
 40
0.0
 40
0.0
 40
0.0
 40
0.0075462231145184
 40
0.2722763788514904
 40
0.4815195415730968
 40
0.6613541616925387
 40
0.8304588949399375
 40
0.9999999999999999
 40
0.9999999999999999
 40
0.9999999999999999
 40
0.9999999999999999
 10
357.9724555439189
 20
339.1682080705473
 30
0.0
 10
357.9723662559405
 20
339.1682096625685
 30
0.0
 10
357.9691446433477
 20
339.1682671045206
 30
0.0
 10
357.9633371641311
 20
339.1740599343261
 30
0.0
 10
357.9560884067422
 20
339.1954193239625
 30
0.0
 10
357.9509955609367
 20
339.2232551255146
 30
0.0
 10
357.9475959898726
 20
339.2563230222046
 30
0.0
 10
357.9471465777394
 20
339.2809024969039
 30
0.0
 10
357.9469215821214
 20
339.2932080705473
 30
0.0
  0
LINE
  5
20F
330
1F
100
AcDbEntity
  8
0
  6
Continuous
 62
     7
370
    15
100
AcDbLine
 10
357.9724555439
 20
339.1682080705
 30
0.0
 11
354.6196478987
 21
339.1682080705
 31
0.0
  0
SPLINE
  5
210
330
1F
100
AcDbEntity
  8
0
  6
Continuous
 62
     7
370
    15
100
AcDbSpline
210
0.0
220
0.0
230
1.0
 70
     8
 71
     3
 72
    13
 73
     9
 74
     0
 42
0.00000001
 43
0.00000001
 12
1.0
 22
0.0
 32
0.0
 13
1.0
 23
0.0
 33
0.0
 40
0.0
 40
0.0
 40
0.0
 40
0.0
 40
0.1695411050600381
 40
0.3386458383077292
 40
0.5184804584270557
 40
0.7277236211487575
 40
0.9924537768854413
 40
1.0
 40
1.0
 40
1.0
 40
1.0
 10
357.9469215821214
 20
339.6432080705473
 30
0.0
 10
357.9471465777395
 20
339.6555136441906
 30
0.0
 10
357.9475959898728
 20
339.6800931188899
 30
0.0
 10
357.9509955609366
 20
339.7131610155799
 30
0.0
 10
357.9560884067424
 20
339.7409968171322
 30
0.0
 10
357.9633371641311
 20
339.7623562067682
 30
0.0
 10
357.9691446433475
 20
339.7681490365752
 30
0.0
 10
357.9723662559405
 20
339.768206478526
 30
0.0
 10
357.9724555439189
 20
339.7682080705473
 30
0.0
  0
LINE
  5
211
330
1F
100
AcDbEntity
  8
0
  6
Continuous
 62
     7
370
    15
100
AcDbLine
 10
354.7635030769
 20
339.7682080705
 30
0.0
 11
357.9724555439
 21
339.7682080705
 31
0.0
  0
LINE
  5
212
330
1F
100
AcDbEntity
  8
0
  6
Continuous
 62
     7
370
    15
100
AcDbLine
 10
357.9469215821
 20
339.6432080705
 30
0.0
 11
357.9469215821
 21
339.2932080705
 31
0.0
  0
SPLINE
  5
213
330
1F
100
AcDbEntity
  8
0
  6
Continuous
 62
     7
370
    15
100
AcDbSpline
210
0.0
220
0.0
230
1.0
 70
     8
 71
     3
 72
    12
 73
     8
 74
     0
 42
0.00000001
 43
0.00000001
 12
1.0
 22
0.0
 32
0.0
 13
1.0
 23
0.0
 33
0.0
 40
0.0
 40
0.0
 40
0.0
 40
0.0
 40
0.2289440738516417
 40
0.4594214300241933
 40
0.6825355698157534
 40
0.8947175231628363
 40
1.0
 40
1.0
 40
1.0
 40
1.0
 10
360.1725847839597
 20
339.1682080705472
 30
0.0
 10
360.2396307922696
 20
339.176875312836
 30
0.0
 10
360.3741718288506
 20
339.1942678435955
 30
0.0
 10
360.5504753565716
 20
339.3312027665016
 30
0.0
 10
360.6769801409051
 20
339.5297210337432
 30
0.0
 10
360.7336515633379
 20
339.7301590284195
 30
0.0
 10
360.7384713906281
 20
339.8526017249631
 30
0.0
 10
360.7400698164888
 20
339.8932080705472
 30
0.0
  0
LINE
  5
214
330
1F
100
AcDbEntity
  8
0
  6
Continuous
 62
     7
370
    15
100
AcDbLine
 10
360.172584784
 20
339.1682080705
 30
0.0
 11
358.0875362316
 21
339.1682080705
 31
0.0
  0
LINE
  5
215
330
1F
100
AcDbEntity
  8
0
  6
Continuous
 62
     7
370
    15
100
AcDbLine
 10
358.5431353327
 20
342.5682080705
 30
0.0
 11
360.628183885
 21
342.5682080705
 31
0.0
  0
LINE
  5
216
330
1F
100
AcDbEntity
  8
0
  6
Continuous
 62
     7
370
    15
100
AcDbLine
 10
358.2781986853
 20
342.5682080705
 30
0.0
 11
358.5431353327
 21
342.5682080705
 31
0.0
  0
LINE
  5
217
330
1F
100
AcDbEntity
  8
0
  6
Continuous
 62
     7
370
    15
100
AcDbLine
 10
357.9724555439
 20
339.7682080705
 30
0.0
 11
358.0875362316
 21
339.7682080705
 31
0.0
  0
LINE
  5
218
330
1F
100
AcDbEntity
  8
0
  6
Continuous
 62
     7
370
    15
100
AcDbLine
 10
358.0875362316
 20
339.1682080705
 30
0.0
 11
357.9724555439
 21
339.1682080705
 31
0.0
  0
LINE
  5
219
330
1F
100
AcDbEntity
  8
0
  6
Continuous
 62
     7
370
    15
100
AcDbLine
 10
360.7400698165
 20
339.8932080705
 30
0.0
 11
360.753183885
 21
339.8932080705
 31
0.0
  0
LINE
  5
21A
330
1F
100
AcDbEntity
  8
0
  6
Continuous
 62
     7
370
    15
100
AcDbLine
 10
360.4001238105
 20
339.1682080705
 30
0.0
 11
360.172584784
 21
339.1682080705
 31
0.0
  0
SPLINE
  5
21B
330
1F
100
AcDbEntity
  8
0
  6
Continuous
 62
     7
370
    15
100
AcDbSpline
210
0.0
220
0.0
230
1.0
 70
     8
 71
     3
 72
    11
 73
     7
 74
     0
 42
0.00000001
 43
0.00000001
 12
1.0
 22
0.0
 32
0.0
 13
1.0
 23
0.0
 33
0.0
 40
0.0
 40
0.0
 40
0.0
 40
0.0
 40
0.079633295975208
 40
0.4594981978904142
 40
0.8207504115405956
 40
1.0
 40
1.0
 40
1.0
 40
1.0
 10
351.8413008125694
 20
339.317453385534
 30
0.0
 10
351.8292692302894
 20
339.3259347507445
 30
0.0
 10
351.7598448732068
 20
339.3748737276151
 30
0.0
 10
351.6752222255164
 20
339.5340442661361
 30
0.0
 10
351.6163856153699
 20
339.7296936015911
 30
0.0
 10
351.6117238210378
 20
339.8524858133184
 30
0.0
 10
351.610177804517
 20
339.8932080705472
 30
0.0
  0
ARC
  5
21C
330
1F
100
AcDbEntity
  8
0
  6
Continuous
 62
     7
370
    15
100
AcDbCircle
 10
351.980788727
 20
342.4488329751
 30
0.0
 40
0.1195365972841705
100
AcDbArc
 50
357.3028984186
 51
87.0213133888
  0
LINE
  5
21D
330
1F
100
AcDbEntity
  8
0
  6
Continuous
 62
     7
370
    15
100
AcDbLine
 10
351.722063736
 20
342.5682080705
 30
0.0
 11
351.9870003834
 21
342.5682080705
 31
0.0
  0
LINE
  5
21E
330
1F
100
AcDbEntity
  8
0
  6
Continuous
 62
     7
370
    15
100
AcDbLine
 10
351.9870003834
 20
342.5682080705
 30
0.0
 11
353.3550311818
 21
342.5682080705
 31
0.0
  0
SPLINE
  5
21F
330
1F
100
AcDbEntity
  8
0
  6
Continuous
 62
     7
370
    15
100
AcDbSpline
210
0.0
220
0.0
230
1.0
 70
     8
 71
     3
 72
    13
 73
     9
 74
     0
 42
0.00000001
 43
0.00000001
 12
1.0
 22
0.0
 32
0.0
 13
1.0
 23
0.0
 33
0.0
 40
0.0
 40
0.0
 40
0.0
 40
0.0
 40
0.1695411050600487
 40
0.3386458383075766
 40
0.5184804584264412
 40
0.7277236211484663
 40
0.9924537768852053
 40
0.9999999999999999
 40
0.9999999999999999
 40
0.9999999999999999
 40
0.9999999999999999
 10
354.809621183193
 20
340.2432080705472
 30
0.0
 10
354.8092697814954
 20
340.2555136441906
 30
0.0
 10
354.8085678825521
 20
340.2800931188896
 30
0.0
 10
354.8032489197063
 20
340.3131610155801
 30
0.0
 10
354.7952525875415
 20
340.3409968171321
 30
0.0
 10
354.7838144650017
 20
340.3623562067683
 30
0.0
 10
354.7745821654104
 20
340.3681490365741
 30
0.0
 10
354.7694359940892
 20
340.368206478526
 30
0.0
 10
354.7692933663771
 20
340.3682080705472
 30
0.0
  0
LINE
  5
220
330
1F
100
AcDbEntity
  8
0
  6
Continuous
 62
     7
370
    15
100
AcDbLine
 10
354.7692933664
 20
340.3682080705
 30
0.0
 11
358.1531986853
 21
340.3682080705
 31
0.0
  0
SPLINE
  5
221
330
1F
100
AcDbEntity
  8
0
  6
Continuous
 62
     7
370
    15
100
AcDbSpline
210
0.0
220
0.0
230
1.0
 70
     8
 71
     3
 72
    13
 73
     9
 74
     0
 42
0.00000001
 43
0.00000001
 12
1.0
 22
0.0
 32
0.0
 13
1.0
 23
0.0
 33
0.0
 40
0.0
 40
0.0
 40
0.0
 40
0.0
 40
0.0075462231146054
 40
0.2722763788514918
 40
0.4815195415735233
 40
0.6613541616923626
 40
0.8304588949399624
 40
1.0
 40
1.0
 40
1.0
 40
1.0
 10
354.7692933663772
 20
339.7682080705472
 30
0.0
 10
354.7694359940893
 20
339.7682096625684
 30
0.0
 10
354.7745821654107
 20
339.7682671045208
 30
0.0
 10
354.7838144650017
 20
339.774059934326
 30
0.0
 10
354.7952525875415
 20
339.7954193239623
 30
0.0
 10
354.8032489197064
 20
339.8232551255145
 30
0.0
 10
354.8085678825522
 20
339.8563230222047
 30
0.0
 10
354.8092697814954
 20
339.8809024969039
 30
0.0
 10
354.8096211831931
 20
339.8932080705472
 30
0.0
  0
LINE
  5
222
330
1F
100
AcDbEntity
  8
0
  6
Continuous
 62
     7
370
    15
100
AcDbLine
 10
357.9805535104
 20
339.7682080705
 30
0.0
 11
354.7692933664
 21
339.7682080705
 31
0.0
  0
LINE
  5
223
330
1F
100
AcDbEntity
  8
0
  6
Continuous
 62
     7
370
    15
100
AcDbLine
 10
354.8096211832
 20
339.8932080705
 30
0.0
 11
354.8096211832
 21
340.2432080705
 31
0.0
  0
SPLINE
  5
224
330
1F
100
AcDbEntity
  8
0
  6
Continuous
 62
     7
370
    15
100
AcDbSpline
210
0.0
220
0.0
230
1.0
 70
     8
 71
     3
 72
    12
 73
     8
 74
     0
 42
0.00000001
 43
0.00000001
 12
1.0
 22
0.0
 32
0.0
 13
1.0
 23
0.0
 33
0.0
 40
0.0
 40
0.0
 40
0.0
 40
0.0
 40
0.2289440738515986
 40
0.4594214300241307
 40
0.6825355698157537
 40
0.8947175231628802
 40
1.0
 40
1.0
 40
1.0
 40
1.0
 10
352.3755601261148
 20
340.3682080705472
 30
0.0
 10
352.3146546689327
 20
340.3595408282584
 30
0.0
 10
352.1924358590542
 20
340.3421482974989
 30
0.0
 10
352.0324659783577
 20
340.2052133745927
 30
0.0
 10
351.9177427331108
 20
340.0066951073513
 30
0.0
 10
351.8663696284246
 20
339.8062571126749
 30
0.0
 10
351.8620004617972
 20
339.6838144161313
 30
0.0
 10
351.8605514910134
 20
339.6432080705472
 30
0.0
  0
LINE
  5
225
330
1F
100
AcDbEntity
  8
0
  6
Continuous
 62
     7
370
    15
100
AcDbLine
 10
352.3755601261
 20
340.3682080705
 30
0.0
 11
354.6659177382
 21
340.3682080705
 31
0.0
  0
LINE
  5
226
330
1F
100
AcDbEntity
  8
0
  6
Continuous
 62
     7
370
    15
100
AcDbLine
 10
354.2566584247
 20
336.9682080705
 30
0.0
 11
351.9663008126
 21
336.9682080705
 31
0.0
  0
LINE
  5
227
330
1F
100
AcDbEntity
  8
0
  6
Continuous
 62
     7
370
    15
100
AcDbLine
 10
354.4946478987
 20
336.9682080705
 30
0.0
 11
354.2566584247
 21
336.9682080705
 31
0.0
  0
LINE
  5
228
330
1F
100
AcDbEntity
  8
0
  6
Continuous
 62
     7
370
    15
100
AcDbLine
 10
354.6659177382
 20
340.3682080705
 30
0.0
 11
354.7692933664
 21
340.3682080705
 31
0.0
  0
LINE
  5
229
330
1F
100
AcDbEntity
  8
0
  6
Continuous
 62
     7
370
    15
100
AcDbLine
 10
354.7692933664
 20
339.7682080705
 30
0.0
 11
354.6659177382
 21
339.7682080705
 31
0.0
  0
LINE
  5
22A
330
1F
100
AcDbEntity
  8
0
  6
Continuous
 62
     7
370
    15
100
AcDbLine
 10
351.860551491
 20
339.6432080705
 30
0.0
 11
351.8413008126
 21
339.6432080705
 31
0.0
  0
LINE
  5
22B
330
1F
100
AcDbEntity
  8
0
  6
Continuous
 62
     7
370
    15
100
AcDbLine
 10
351.9501238105
 20
340.3682080705
 30
0.0
 11
352.3755601261
 21
340.3682080705
 31
0.0
  0
ARC
  5
22C
330
1F
100
AcDbEntity
  8
0
  6
Continuous
 62
     7
370
    15
100
AcDbCircle
 10
360.1555255926
 20
337.0849931602
 30
0.0
 40
0.117176400064513
100
AcDbArc
 50
175.9798550464
 51
265.3161909111
  0
LINE
  5
22D
330
1F
100
AcDbEntity
  8
0
  6
Continuous
 62
     7
370
    15
100
AcDbLine
 10
360.1459573344
 20
336.9682080705
 30
0.0
 11
359.0400178287
 21
336.9682080705
 31
0.0
  0
LINE
  5
22E
330
1F
100
AcDbEntity
  8
0
  6
Continuous
 62
     7
370
    15
100
AcDbLine
 10
360.3839468084
 20
336.9682080705
 30
0.0
 11
360.1459573344
 21
336.9682080705
 31
0.0
  0
LINE
  5
22F
330
1F
100
AcDbEntity
  8
0
  6
Continuous
 62
     7
370
    15
100
AcDbLine
 10
354.23093503
 20
342.7449170769
 30
0.0
 11
355.6409813444
 21
342.9682080705
 31
0.0
  0
SPLINE
  5
230
330
1F
100
AcDbEntity
  8
0
  6
Continuous
 62
     7
370
    15
100
AcDbSpline
210
0.0
220
0.0
230
1.0
 70
     8
 71
     3
 72
     9
 73
     5
 74
     0
 42
0.00000001
 43
0.00000001
 12
1.0
 22
0.0
 32
0.0
 13
1.0
 23
0.0
 33
0.0
 40
0.0
 40
0.0
 40
0.0
 40
0.0
 40
0.0702005767034268
 40
1.0
 40
1.0
 40
1.0
 40
1.0
 10
355.6409813443962
 20
342.9682080705472
 30
0.0
 10
355.674407785203
 20
342.9679850124134
 30
0.0
 10
356.1505639989628
 20
342.9648075722233
 30
0.0
 10
356.6171739735129
 20
342.8508628312755
 30
0.0
 10
357.0510276587539
 20
342.7449170768546
 30
0.0
  0
LINE
  5
231
330
1F
100
AcDbEntity
  8
0
  6
Continuous
 62
     7
370
    15
100
AcDbLine
 10
357.0510276588
 20
342.7449170769
 30
0.0
 11
357.0510276588
 21
340.5914990642
 31
0.0
  0
SPLINE
  5
232
330
1F
100
AcDbEntity
  8
0
  6
Continuous
 62
     7
370
    15
100
AcDbSpline
210
0.0
220
0.0
230
1.0
 70
     8
 71
     3
 72
     9
 73
     5
 74
     0
 42
0.00000001
 43
0.00000001
 12
1.0
 22
0.0
 32
0.0
 13
1.0
 23
0.0
 33
0.0
 40
0.0
 40
0.0
 40
0.0
 40
0.0
 40
0.0702005767034557
 40
1.0
 40
1.0
 40
1.0
 40
1.0
 10
355.6409813443962
 20
340.3682080705472
 30
0.0
 10
355.674407785203
 20
340.368431128681
 30
0.0
 10
356.1505639989628
 20
340.3716085688712
 30
0.0
 10
356.6171739735128
 20
340.4855533098189
 30
0.0
 10
357.0510276587539
 20
340.5914990642398
 30
0.0
  0
LINE
  5
233
330
1F
100
AcDbEntity
  8
0
  6
Continuous
 62
     7
370
    15
100
AcDbLine
 10
354.23093503
 20
340.5914990642
 30
0.0
 11
355.6409813444
 21
340.3682080705
 31
0.0
  0
LINE
  5
234
330
1F
100
AcDbEntity
  8
0
  6
Continuous
 62
     7
370
    15
100
AcDbLine
 10
354.23093503
 20
342.7449170769
 30
0.0
 11
354.23093503
 21
340.5914990642
 31
0.0
  0
LINE
  5
235
330
1F
100
AcDbEntity
  8
0
  6
Continuous
 62
     7
370
    15
100
AcDbLine
 10
357.0510276588
 20
340.5914990642
 30
0.0
 11
358.023122049
 21
340.3682080705
 31
0.0
  0
LINE
  5
236
330
1F
100
AcDbEntity
  8
0
  6
Continuous
 62
     7
370
    15
100
AcDbLine
 10
357.0510276588
 20
342.7449170769
 30
0.0
 11
358.023122049
 21
342.9682080705
 31
0.0
  0
LINE
  5
237
330
1F
100
AcDbEntity
  8
0
  6
Continuous
 62
     7
370
    15
100
AcDbLine
 10
355.6409813444
 20
342.9682080705
 30
0.0
 11
358.023122049
 21
342.9682080705
 31
0.0
  0
SPLINE
  5
238
330
1F
100
AcDbEntity
  8
0
  6
Continuous
 62
     7
370
    15
100
AcDbSpline
210
0.0
220
0.0
230
1.0
 70
     8
 71
     3
 72
     9
 73
     5
 74
     0
 42
0.00000001
 43
0.00000001
 12
1.0
 22
0.0
 32
0.0
 13
1.0
 23
0.0
 33
0.0
 40
0.0
 40
0.0
 40
0.0
 40
0.0
 40
0.2575513451038433
 40
0.9999999999999999
 40
0.9999999999999999
 40
0.9999999999999999
 40
0.9999999999999999
 10
354.2309350300384
 20
340.5914990642398
 30
0.0
 10
354.1941682050984
 20
340.5577914528524
 30
0.0
 10
354.0514128841149
 20
340.4269142043805
 30
0.0
 10
353.9030987415571
 20
340.3932224604842
 30
0.0
 10
353.792983105913
 20
340.3682080705472
 30
0.0
  0
SPLINE
  5
239
330
1F
100
AcDbEntity
  8
0
  6
Continuous
 62
     7
370
    15
100
AcDbSpline
210
0.0
220
0.0
230
1.0
 70
     8
 71
     3
 72
     9
 73
     5
 74
     0
 42
0.00000001
 43
0.00000001
 12
1.0
 22
0.0
 32
0.0
 13
1.0
 23
0.0
 33
0.0
 40
0.0
 40
0.0
 40
0.0
 40
0.0
 40
0.2575513451037927
 40
1.0
 40
1.0
 40
1.0
 40
1.0
 10
354.2309350300384
 20
342.7449170768546
 30
0.0
 10
354.1941682050984
 20
342.7786246882421
 30
0.0
 10
354.051412884115
 20
342.909501936714
 30
0.0
 10
353.9030987415572
 20
342.9431936806103
 30
0.0
 10
353.792983105913
 20
342.9682080705472
 30
0.0
  0
LINE
  5
23A
330
1F
100
AcDbEntity
  8
0
  6
Continuous
 62
     7
370
    15
100
AcDbLine
 10
353.7929831059
 20
342.9682080705
 30
0.0
 11
355.6409813444
 21
342.9682080705
 31
0.0
  0
SPLINE
  5
23B
330
1F
100
AcDbEntity
  8
0
  6
Continuous
 62
     7
370
    15
100
AcDbSpline
210
0.0
220
0.0
230
1.0
 70
     8
 71
     3
 72
     9
 73
     5
 74
     0
 42
0.00000001
 43
0.00000001
 12
1.0
 22
0.0
 32
0.0
 13
1.0
 23
0.0
 33
0.0
 40
0.0
 40
0.0
 40
0.0
 40
0.0
 40
0.0702005767034065
 40
1.0
 40
1.0
 40
1.0
 40
1.0
 10
358.0231220489862
 20
342.9682080705472
 30
0.0
 10
358.0461664378569
 20
342.9679850124134
 30
0.0
 10
358.3744313888424
 20
342.9648075722229
 30
0.0
 10
358.6961151052337
 20
342.8508628312753
 30
0.0
 10
358.9952164392184
 20
342.7449170768546
 30
0.0
  0
LINE
  5
23C
330
1F
100
AcDbEntity
  8
0
  6
Continuous
 62
     7
370
    15
100
AcDbLine
 10
358.9952164392
 20
342.7449170769
 30
0.0
 11
358.9952164392
 21
342.5682080705
 31
0.0
  0
SPLINE
  5
23D
330
1F
100
AcDbEntity
  8
0
  6
Continuous
 62
     7
370
    15
100
AcDbSpline
210
0.0
220
0.0
230
1.0
 70
     8
 71
     3
 72
     9
 73
     5
 74
     0
 42
0.00000001
 43
0.00000001
 12
1.0
 22
0.0
 32
0.0
 13
1.0
 23
0.0
 33
0.0
 40
0.0
 40
0.0
 40
0.0
 40
0.0
 40
0.5278771639354992
 40
1.0
 40
1.0
 40
1.0
 40
1.0
 10
358.0231220489862
 20
340.3682080705472
 30
0.0
 10
358.0462369210374
 20
340.3672448418912
 30
0.0
 10
358.0900252749017
 20
340.3654201206836
 30
0.0
 10
358.1329384129099
 20
340.3783259635623
 30
0.0
 10
358.1531986853308
 20
340.384419106704
 30
0.0
  0
LINE
  5
23E
330
1F
100
AcDbEntity
  8
0
  6
Continuous
 62
     7
370
    15
100
AcDbLine
 10
353.5569928733
 20
340.4612474948
 30
0.0
 11
353.3550311818
 21
340.5914990642
 31
0.0
  0
LINE
  5
23F
330
1F
100
AcDbEntity
  8
0
  6
Continuous
 62
     7
370
    15
100
AcDbLine
 10
353.3550311818
 20
342.7449170769
 30
0.0
 11
353.3550311818
 21
340.5914990642
 31
0.0
  0
SPLINE
  5
240
330
1F
100
AcDbEntity
  8
0
  6
Continuous
 62
     7
370
    15
100
AcDbSpline
210
0.0
220
0.0
230
1.0
 70
     8
 71
     3
 72
     9
 73
     5
 74
     0
 42
0.00000001
 43
0.00000001
 12
1.0
 22
0.0
 32
0.0
 13
1.0
 23
0.0
 33
0.0
 40
0.0
 40
0.0
 40
0.0
 40
0.0
 40
0.2686336050555431
 40
1.0
 40
1.0
 40
1.0
 40
1.0
 10
353.792983105913
 20
342.9682080705472
 30
0.0
 10
353.7531610213095
 20
342.964893594255
 30
0.0
 10
353.6049216206759
 20
342.9525553155367
 30
0.0
 10
353.4605902765895
 20
342.8326279337368
 30
0.0
 10
353.3550311817876
 20
342.7449170768546
 30
0.0
  0
SPLINE
  5
241
330
1F
100
AcDbEntity
  8
0
  6
Continuous
 62
     7
370
    15
100
AcDbSpline
210
0.0
220
0.0
230
1.0
 70
     8
 71
     3
 72
     9
 73
     5
 74
     0
 42
0.00000001
 43
0.00000001
 12
1.0
 22
0.0
 32
0.0
 13
1.0
 23
0.0
 33
0.0
 40
0.0
 40
0.0
 40
0.0
 40
0.0
 40
0.5569342110492109
 40
1.0
 40
1.0
 40
1.0
 40
1.0
 10
358.9952164392184
 20
342.7449170768546
 30
0.0
 10
358.9585924879626
 20
342.7811225649767
 30
0.0
 10
358.8928325642062
 20
342.8461311196747
 30
0.0
 10
358.8245019921663
 20
342.866196740483
 30
0.0
 10
358.7942270533561
 20
342.8750871305973
 30
0.0
  0
LINE
  5
242
330
1F
100
AcDbEntity
  8
0
  6
Continuous
 62
     7
370
    15
100
AcDbLine
 10
358.023122049
 20
342.9682080705
 30
0.0
 11
358.6751238105
 21
342.9682080705
 31
0.0
  0
LINE
  5
243
330
1F
100
AcDbEntity
  8
0
  6
Continuous
 62
     7
370
    15
100
AcDbLine
 10
353.7929831059
 20
342.9682080705
 30
0.0
 11
353.6751238105
 21
342.9682080705
 31
0.0
  0
LINE
  5
244
330
1F
100
AcDbEntity
  8
0
  6
Continuous
 62
     7
370
    15
100
AcDbLine
 10
355.0497381932
 20
338.9449170769
 30
0.0
 11
356.4821852023
 21
339.1682080705
 31
0.0
  0
SPLINE
  5
245
330
1F
100
AcDbEntity
  8
0
  6
Continuous
 62
     7
370
    15
100
AcDbSpline
210
0.0
220
0.0
230
1.0
 70
     8
 71
     3
 72
     9
 73
     5
 74
     0
 42
0.00000001
 43
0.00000001
 12
1.0
 22
0.0
 32
0.0
 13
1.0
 23
0.0
 33
0.0
 40
0.0
 40
0.0
 40
0.0
 40
0.0
 40
0.0702005767034372
 40
1.0
 40
1.0
 40
1.0
 40
1.0
 10
356.482185202316
 20
339.1682080705472
 30
0.0
 10
356.5161426721318
 20
339.1679850124134
 30
0.0
 10
356.9998633395459
 20
339.1648075722234
 30
0.0
 10
357.4738861114616
 20
339.0508628312755
 30
0.0
 10
357.9146322114183
 20
338.9449170768546
 30
0.0
  0
LINE
  5
246
330
1F
100
AcDbEntity
  8
0
  6
Continuous
 62
     7
370
    15
100
AcDbLine
 10
357.9146322114
 20
338.9449170769
 30
0.0
 11
357.9146322114
 21
336.7914990642
 31
0.0
  0
SPLINE
  5
247
330
1F
100
AcDbEntity
  8
0
  6
Continuous
 62
     7
370
    15
100
AcDbSpline
210
0.0
220
0.0
230
1.0
 70
     8
 71
     3
 72
     9
 73
     5
 74
     0
 42
0.00000001
 43
0.00000001
 12
1.0
 22
0.0
 32
0.0
 13
1.0
 23
0.0
 33
0.0
 40
0.0
 40
0.0
 40
0.0
 40
0.0
 40
0.0702005767034412
 40
1.0
 40
1.0
 40
1.0
 40
1.0
 10
356.482185202316
 20
336.5682080705472
 30
0.0
 10
356.5161426721318
 20
336.568431128681
 30
0.0
 10
356.9998633395458
 20
336.5716085688711
 30
0.0
 10
357.4738861114615
 20
336.6855533098189
 30
0.0
 10
357.9146322114183
 20
336.7914990642398
 30
0.0
  0
LINE
  5
248
330
1F
100
AcDbEntity
  8
0
  6
Continuous
 62
     7
370
    15
100
AcDbLine
 10
355.0497381932
 20
336.7914990642
 30
0.0
 11
356.4821852023
 21
336.5682080705
 31
0.0
  0
LINE
  5
249
330
1F
100
AcDbEntity
  8
0
  6
Continuous
 62
     7
370
    15
100
AcDbLine
 10
355.0497381932
 20
338.9449170769
 30
0.0
 11
355.0497381932
 21
336.7914990642
 31
0.0
  0
SPLINE
  5
24A
330
1F
100
AcDbEntity
  8
0
  6
Continuous
 62
     7
370
    15
100
AcDbSpline
210
0.0
220
0.0
230
1.0
 70
     8
 71
     3
 72
     9
 73
     5
 74
     0
 42
0.00000001
 43
0.00000001
 12
1.0
 22
0.0
 32
0.0
 13
1.0
 23
0.0
 33
0.0
 40
0.0
 40
0.0
 40
0.0
 40
0.0
 40
0.2575513451038483
 40
1.0
 40
1.0
 40
1.0
 40
1.0
 10
355.0497381932138
 20
336.7914990642398
 30
0.0
 10
354.9767208169507
 20
336.7577914528524
 30
0.0
 10
354.6932147213648
 20
336.6269142043804
 30
0.0
 10
354.3986690386748
 20
336.5932224604842
 30
0.0
 10
354.1799839927562
 20
336.5682080705472
 30
0.0
  0
LINE
  5
24B
330
1F
100
AcDbEntity
  8
0
  6
Continuous
 62
     7
370
    15
100
AcDbLine
 10
356.4821852023
 20
336.5682080705
 30
0.0
 11
354.1799839928
 21
336.5682080705
 31
0.0
  0
SPLINE
  5
24C
330
1F
100
AcDbEntity
  8
0
  6
Continuous
 62
     7
370
    15
100
AcDbSpline
210
0.0
220
0.0
230
1.0
 70
     8
 71
     3
 72
     9
 73
     5
 74
     0
 42
0.00000001
 43
0.00000001
 12
1.0
 22
0.0
 32
0.0
 13
1.0
 23
0.0
 33
0.0
 40
0.0
 40
0.0
 40
0.0
 40
0.0
 40
0.5174000252721592
 40
1.0
 40
1.0
 40
1.0
 40
1.0
 10
355.0497381932138
 20
338.9449170768546
 30
0.0
 10
354.9769670894474
 20
338.9807927146944
 30
0.0
 10
354.836319427654
 20
339.0501310140517
 30
0.0
 10
354.690176481034
 20
339.0710923203562
 30
0.0
 10
354.6196478986885
 20
339.081208246249
 30
0.0
  0
LINE
  5
24D
330
1F
100
AcDbEntity
  8
0
  6
Continuous
 62
     7
370
    15
100
AcDbLine
 10
357.9146322114
 20
336.7914990642
 30
0.0
 11
358.4773250201
 21
336.5682080705
 31
0.0
  0
LINE
  5
24E
330
1F
100
AcDbEntity
  8
0
  6
Continuous
 62
     7
370
    15
100
AcDbLine
 10
358.4773250201
 20
336.5682080705
 30
0.0
 11
356.4821852023
 21
336.5682080705
 31
0.0
  0
LINE
  5
24F
330
1F
100
AcDbEntity
  8
0
  6
Continuous
 62
     7
370
    15
100
AcDbLine
 10
357.9146322114
 20
338.9449170769
 30
0.0
 11
358.4773250201
 21
339.1682080705
 31
0.0
  0
SPLINE
  5
250
330
1F
100
AcDbEntity
  8
0
  6
Continuous
 62
     7
370
    15
100
AcDbSpline
210
0.0
220
0.0
230
1.0
 70
     8
 71
     3
 72
     9
 73
     5
 74
     0
 42
0.00000001
 43
0.00000001
 12
1.0
 22
0.0
 32
0.0
 13
1.0
 23
0.0
 33
0.0
 40
0.0
 40
0.0
 40
0.0
 40
0.0
 40
0.2686336050555736
 40
1.0
 40
1.0
 40
1.0
 40
1.0
 10
354.1799839927562
 20
336.5682080705472
 30
0.0
 10
354.1008989986121
 20
336.5715225468394
 30
0.0
 10
353.806501750257
 20
336.5838608255577
 30
0.0
 10
353.5198657387186
 20
336.7037882073577
 30
0.0
 10
353.3102297922984
 20
336.7914990642398
 30
0.0
  0
LINE
  5
251
330
1F
100
AcDbEntity
  8
0
  6
Continuous
 62
     7
370
    15
100
AcDbLine
 10
353.3102297923
 20
336.9682080705
 30
0.0
 11
353.3102297923
 21
336.7914990642
 31
0.0
  0
LINE
  5
252
330
1F
100
AcDbEntity
  8
0
  6
Continuous
 62
     7
370
    15
100
AcDbLine
 10
359.0400178287
 20
338.9449170769
 30
0.0
 11
359.0400178287
 21
336.7914990642
 31
0.0
  0
SPLINE
  5
253
330
1F
100
AcDbEntity
  8
0
  6
Continuous
 62
     7
370
    15
100
AcDbSpline
210
0.0
220
0.0
230
1.0
 70
     8
 71
     3
 72
     9
 73
     5
 74
     0
 42
0.00000001
 43
0.00000001
 12
1.0
 22
0.0
 32
0.0
 13
1.0
 23
0.0
 33
0.0
 40
0.0
 40
0.0
 40
0.0
 40
0.0
 40
0.070200576703413
 40
1.0
 40
1.0
 40
1.0
 40
1.0
 10
358.4773250200629
 20
336.5682080705472
 30
0.0
 10
358.4906641690462
 20
336.5684311286811
 30
0.0
 10
358.6806789753299
 20
336.5716085688711
 30
0.0
 10
358.866884261247
 20
336.6855533098189
 30
0.0
 10
359.0400178287074
 20
336.7914990642398
 30
0.0
  0
LINE
  5
254
330
1F
100
AcDbEntity
  8
0
  6
Continuous
 62
     7
370
    15
100
AcDbLine
 10
353.4596052246
 20
336.7280342423
 30
0.0
 11
353.3102297923
 21
336.7914990642
 31
0.0
  0
LINE
  5
255
330
1F
100
AcDbEntity
  8
0
  6
Continuous
 62
     7
370
    15
100
AcDbLine
 10
354.1799839928
 20
336.5682080705
 30
0.0
 11
353.6751238105
 21
336.5682080705
 31
0.0
  0
LINE
  5
256
330
1F
100
AcDbEntity
  8
0
  6
Continuous
 62
     7
370
    15
100
AcDbLine
 10
358.6751238105
 20
336.5682080705
 30
0.0
 11
358.4773250201
 21
336.5682080705
 31
0.0
  0
LINE
  5
257
330
1F
100
AcDbEntity
  8
0
  6
Continuous
 62
     7
370
    15
100
AcDbLine
 10
355.6368641045
 20
345.4699170769
 30
0.0
 11
356.236689363
 21
345.5682080705
 31
0.0
  0
LINE
  5
258
330
1F
100
AcDbEntity
  8
0
  6
Continuous
 62
     7
370
    15
100
AcDbLine
 10
357.8019153918
 20
345.5682080705
 30
0.0
 11
358.3621509897
 21
345.4699170769
 31
0.0
  0
LINE
  5
259
330
1F
100
AcDbEntity
  8
0
  6
Continuous
 62
     7
370
    15
100
AcDbLine
 10
358.3621509897
 20
345.4699170769
 30
0.0
 11
358.3621509897
 21
343.3164990642
 31
0.0
  0
SPLINE
  5
25A
330
1F
100
AcDbEntity
  8
0
  6
Continuous
 62
     7
370
    15
100
AcDbSpline
210
0.0
220
0.0
230
1.0
 70
     8
 71
     3
 72
     9
 73
     5
 74
     0
 42
0.00000001
 43
0.00000001
 12
1.0
 22
0.0
 32
0.0
 13
1.0
 23
0.0
 33
0.0
 40
0.0
 40
0.0
 40
0.0
 40
0.0
 40
0.0702005767034191
 40
1.0
 40
1.0
 40
1.0
 40
1.0
 10
356.9995075470611
 20
343.0932080705472
 30
0.0
 10
357.0318102593272
 20
343.093431128681
 30
0.0
 10
357.4919590755196
 20
343.0966085688711
 30
0.0
 10
357.9428825775303
 20
343.2105533098189
 30
0.0
 10
358.3621509896507
 20
343.3164990642398
 30
0.0
  0
LINE
  5
25B
330
1F
100
AcDbEntity
  8
0
  6
Continuous
 62
     7
370
    15
100
AcDbLine
 10
355.6368641045
 20
343.3164990642
 30
0.0
 11
356.9995075471
 21
343.0932080705
 31
0.0
  0
LINE
  5
25C
330
1F
100
AcDbEntity
  8
0
  6
Continuous
 62
     7
370
    15
100
AcDbLine
 10
355.6368641045
 20
345.4699170769
 30
0.0
 11
355.6368641045
 21
343.3164990642
 31
0.0
  0
SPLINE
  5
25D
330
1F
100
AcDbEntity
  8
0
  6
Continuous
 62
     7
370
    15
100
AcDbSpline
210
0.0
220
0.0
230
1.0
 70
     8
 71
     3
 72
     9
 73
     5
 74
     0
 42
0.00000001
 43
0.00000001
 12
1.0
 22
0.0
 32
0.0
 13
1.0
 23
0.0
 33
0.0
 40
0.0
 40
0.0
 40
0.0
 40
0.0
 40
0.0702005767034443
 40
1.0
 40
1.0
 40
1.0
 40
1.0
 10
354.5433505148973
 20
343.0932080705472
 30
0.0
 10
354.5692732572223
 20
343.0934311286809
 30
0.0
 10
354.93854005733
 20
343.0966085688711
 30
0.0
 10
355.300403595432
 20
343.2105533098189
 30
0.0
 10
355.6368641044713
 20
343.3164990642398
 30
0.0
  0
LINE
  5
25E
330
1F
100
AcDbEntity
  8
0
  6
Continuous
 62
     7
370
    15
100
AcDbLine
 10
356.9995075471
 20
343.0932080705
 30
0.0
 11
354.5433505149
 21
343.0932080705
 31
0.0
  0
LINE
  5
25F
330
1F
100
AcDbEntity
  8
0
  6
Continuous
 62
     7
370
    15
100
AcDbLine
 10
355.187278233
 20
345.5682080705
 30
0.0
 11
355.6368641045
 21
345.4699170769
 31
0.0
  0
LINE
  5
260
330
1F
100
AcDbEntity
  8
0
  6
Continuous
 62
     7
370
    15
100
AcDbLine
 10
353.4498369253
 20
345.4699170769
 30
0.0
 11
353.9311932736
 21
345.5682080705
 31
0.0
  0
LINE
  5
261
330
1F
100
AcDbEntity
  8
0
  6
Continuous
 62
     7
370
    15
100
AcDbLine
 10
353.4498369253
 20
343.3164990642
 30
0.0
 11
354.5433505149
 21
343.0932080705
 31
0.0
  0
LINE
  5
262
330
1F
100
AcDbEntity
  8
0
  6
Continuous
 62
     7
370
    15
100
AcDbLine
 10
353.4498369253
 20
345.4699170769
 30
0.0
 11
353.4498369253
 21
343.3164990642
 31
0.0
  0
SPLINE
  5
263
330
1F
100
AcDbEntity
  8
0
  6
Continuous
 62
     7
370
    15
100
AcDbSpline
210
0.0
220
0.0
230
1.0
 70
     8
 71
     3
 72
     9
 73
     5
 74
     0
 42
0.00000001
 43
0.00000001
 12
1.0
 22
0.0
 32
0.0
 13
1.0
 23
0.0
 33
0.0
 40
0.0
 40
0.0
 40
0.0
 40
0.0
 40
0.2575513451038122
 40
1.0
 40
1.0
 40
1.0
 40
1.0
 10
358.3621509896507
 20
343.3164990642398
 30
0.0
 10
358.384744908405
 20
343.2827914528523
 30
0.0
 10
358.4724707898022
 20
343.1519142043803
 30
0.0
 10
358.5636126736208
 20
343.1182224604841
 30
0.0
 10
358.6312808426666
 20
343.0932080705472
 30
0.0
  0
LINE
  5
264
330
1F
100
AcDbEntity
  8
0
  6
Continuous
 62
     7
370
    15
100
AcDbLine
 10
358.6312808427
 20
343.0932080705
 30
0.0
 11
356.9995075471
 21
343.0932080705
 31
0.0
  0
SPLINE
  5
265
330
1F
100
AcDbEntity
  8
0
  6
Continuous
 62
     7
370
    15
100
AcDbSpline
210
0.0
220
0.0
230
1.0
 70
     8
 71
     3
 72
     9
 73
     5
 74
     0
 42
0.00000001
 43
0.00000001
 12
1.0
 22
0.0
 32
0.0
 13
1.0
 23
0.0
 33
0.0
 40
0.0
 40
0.0
 40
0.0
 40
0.0
 40
0.9250528693179256
 40
1.0
 40
1.0
 40
1.0
 40
1.0
 10
358.3621509896508
 20
345.4699170768546
 30
0.0
 10
358.3845491533439
 20
345.5091939332368
 30
0.0
 10
358.4087620004535
 20
345.5516529728063
 30
0.0
 10
358.4339259240343
 20
345.5670538211546
 30
0.0
 10
358.4358118879034
 20
345.5682080705483
 30
0.0
  0
SPLINE
  5
266
330
1F
100
AcDbEntity
  8
0
  6
Continuous
 62
     7
370
    15
100
AcDbSpline
210
0.0
220
0.0
230
1.0
 70
     8
 71
     3
 72
     9
 73
     5
 74
     0
 42
0.00000001
 43
0.00000001
 12
1.0
 22
0.0
 32
0.0
 13
1.0
 23
0.0
 33
0.0
 40
0.0
 40
0.0
 40
0.0
 40
0.0
 40
0.2575513451038439
 40
1.0
 40
1.0
 40
1.0
 40
1.0
 10
353.4498369253234
 20
343.3164990642398
 30
0.0
 10
353.4724308440777
 20
343.2827914528524
 30
0.0
 10
353.5601567254749
 20
343.1519142043805
 30
0.0
 10
353.6512986092935
 20
343.1182224604842
 30
0.0
 10
353.7189667783392
 20
343.0932080705472
 30
0.0
  0
LINE
  5
267
330
1F
100
AcDbEntity
  8
0
  6
Continuous
 62
     7
370
    15
100
AcDbLine
 10
354.5433505149
 20
343.0932080705
 30
0.0
 11
353.6791352042
 21
343.0932080705
 31
0.0
  0
SPLINE
  5
268
330
1F
100
AcDbEntity
  8
0
  6
Continuous
 62
     7
370
    15
100
AcDbSpline
210
0.0
220
0.0
230
1.0
 70
     8
 71
     3
 72
     9
 73
     5
 74
     0
 42
0.00000001
 43
0.00000001
 12
1.0
 22
0.0
 32
0.0
 13
1.0
 23
0.0
 33
0.0
 40
0.0
 40
0.0
 40
0.0
 40
0.0
 40
0.925052869318449
 40
1.0
 40
1.0
 40
1.0
 40
1.0
 10
353.4498369253234
 20
345.4699170768546
 30
0.0
 10
353.4722350890166
 20
345.5091939332369
 30
0.0
 10
353.4964479361263
 20
345.5516529728064
 30
0.0
 10
353.521611859707
 20
345.5670538211546
 30
0.0
 10
353.5234978235761
 20
345.5682080705483
 30
0.0
  0
LINE
  5
269
330
1F
100
AcDbEntity
  8
0
  6
Continuous
 62
     7
370
    15
100
AcDbLine
 10
358.806754784
 20
345.5682080705
 30
0.0
 11
358.9004106957
 21
345.4699170769
 31
0.0
  0
LINE
  5
26A
330
1F
100
AcDbEntity
  8
0
  6
Continuous
 62
     7
370
    15
100
AcDbLine
 10
358.9004106957
 20
345.4699170769
 30
0.0
 11
358.9004106957
 21
343.3164990642
 31
0.0
  0
SPLINE
  5
26B
330
1F
100
AcDbEntity
  8
0
  6
Continuous
 62
     7
370
    15
100
AcDbSpline
210
0.0
220
0.0
230
1.0
 70
     8
 71
     3
 72
     9
 73
     5
 74
     0
 42
0.00000001
 43
0.00000001
 12
1.0
 22
0.0
 32
0.0
 13
1.0
 23
0.0
 33
0.0
 40
0.0
 40
0.0
 40
0.0
 40
0.0
 40
0.2686336050555676
 40
1.0
 40
1.0
 40
1.0
 40
1.0
 10
358.6312808426666
 20
343.0932080705472
 30
0.0
 10
358.655752277054
 20
343.0965225468394
 30
0.0
 10
358.7468482305275
 20
343.1088608255577
 30
0.0
 10
358.8355426083342
 20
343.2287882073577
 30
0.0
 10
358.9004106956825
 20
343.3164990642398
 30
0.0
  0
LINE
  5
26C
330
1F
100
AcDbEntity
  8
0
  6
Continuous
 62
     7
370
    15
100
AcDbLine
 10
358.9004106957
 20
345.4699170769
 30
0.0
 11
358.4190543474
 21
345.5682080705
 31
0.0
  0
LINE
  5
26D
330
1F
100
AcDbEntity
  8
0
  6
Continuous
 62
     7
370
    15
100
AcDbLine
 10
358.9004106957
 20
343.3164990642
 30
0.0
 11
357.8068971061
 21
343.0932080705
 31
0.0
  0
ENDSEC
  0
SECTION
  2
OBJECTS
  0
DICTIONARY
  5
C
330
0
100
AcDbDictionary
281
     1
  3
ACAD_GROUP
350
D
  3
ACAD_LAYOUT
350
1A
  3
ACAD_MLINESTYLE
350
17
  3
ACAD_PLOTSETTINGS
350
19
  3
ACAD_PLOTSTYLENAME
350
E
  0
DICTIONARY
  5
D
102
{ACAD_REACTORS
330
C
102
}
330
C
100
AcDbDictionary
281
     1
  0
DICTIONARY
  5
1A
102
{ACAD_REACTORS
330
C
102
}
330
C
100
AcDbDictionary
281
     1
  3
Layout1
350
1E
  3
Layout2
350
26
  3
Model
350
22
  0
DICTIONARY
  5
17
102
{ACAD_REACTORS
330
C
102
}
330
C
100
AcDbDictionary
281
     1
  3
Standard
350
18
  0
DICTIONARY
  5
19
102
{ACAD_REACTORS
330
C
102
}
330
C
100
AcDbDictionary
281
     1
  0
ACDBDICTIONARYWDFLT
  5
E
102
{ACAD_REACTORS
330
C
102
}
330
C
100
AcDbDictionary
281
     1
  3
Normal
350
F
100
AcDbDictionaryWithDefault
340
F
  0
LAYOUT
  5
1E
102
{ACAD_REACTORS
330
1A
102
}
330
1A
100
AcDbPlotSettings
  1

  2
none_device
  4

  6

 40
0.0
 41
0.0
 42
0.0
 43
0.0
 44
0.0
 45
0.0
 46
0.0
 47
0.0
 48
0.0
 49
0.0
140
0.0
141
0.0
142
1.0
143
1.0
 70
   688
 72
     0
 73
     0
 74
     5
  7

 75
    16
147
1.0
148
0.0
149
0.0
100
AcDbLayout
  1
Layout1
 70
     1
 71
     1
 10
0.0
 20
0.0
 11
420.0
 21
297.0
 12
0.0
 22
0.0
 32
0.0
 14
1.0000000000E+20
 24
1.0000000000E+20
 34
1.0000000000E+20
 15
-1.0000000000E+20
 25
-1.0000000000E+20
 35
-1.0000000000E+20
146
0.0
 13
0.0
 23
0.0
 33
0.0
 16
1.0
 26
0.0
 36
0.0
 17
0.0
 27
1.0
 37
0.0
 76
     0
330
1B
  0
LAYOUT
  5
26
102
{ACAD_REACTORS
330
1A
102
}
330
1A
100
AcDbPlotSettings
  1

  2
none_device
  4

  6

 40
0.0
 41
0.0
 42
0.0
 43
0.0
 44
0.0
 45
0.0
 46
0.0
 47
0.0
 48
0.0
 49
0.0
140
0.0
141
0.0
142
1.0
143
1.0
 70
   688
 72
     0
 73
     0
 74
     5
  7

 75
    16
147
1.0
148
0.0
149
0.0
100
AcDbLayout
  1
Layout2
 70
     1
 71
     2
 10
0.0
 20
0.0
 11
0.0
 21
0.0
 12
0.0
 22
0.0
 32
0.0
 14
0.0
 24
0.0
 34
0.0
 15
0.0
 25
0.0
 35
0.0
146
0.0
 13
0.0
 23
0.0
 33
0.0
 16
1.0
 26
0.0
 36
0.0
 17
0.0
 27
1.0
 37
0.0
 76
     0
330
23
  0
LAYOUT
  5
22
102
{ACAD_REACTORS
330
1A
102
}
330
1A
100
AcDbPlotSettings
  1

  2
none_device
  4

  6

 40
0.0
 41
0.0
 42
0.0
 43
0.0
 44
0.0
 45
0.0
 46
0.0
 47
0.0
 48
0.0
 49
0.0
140
0.0
141
0.0
142
1.0
143
1.0
 70
  1712
 72
     0
 73
     0
 74
     0
  7

 75
     0
147
1.0
148
0.0
149
0.0
100
AcDbLayout
  1
Model
 70
     1
 71
     0
 10
0.0
 20
0.0
 11
1100.0
 21
1000.0
 12
0.0
 22
0.0
 32
0.0
 14
0.0
 24
0.0
 34
0.0
 15
1100.0
 25
1000.0
 35
0.0
146
0.0
 13
0.0
 23
0.0
 33
0.0
 16
1.0
 26
0.0
 36
0.0
 17
0.0
 27
1.0
 37
0.0
 76
     0
330
1F
331
29
  0
MLINESTYLE
  5
18
102
{ACAD_REACTORS
330
17
102
}
330
17
100
AcDbMlineStyle
  2
Standard
 70
     0
  3

 62
   256
 51
90.0
 52
90.0
 71
     2
 49
0.5
 62
   256
  6
BYLAYER
 49
-0.5
 62
   256
  6
BYLAYER
  0
ACDBPLACEHOLDER
  5
F
102
{ACAD_REACTORS
330
E
102
}
330
E
  0
ENDSEC
  0
EOF
