  0
SECTION
  2
HEADER
  9
$ACADVER
  1
AC1015
  9
$ACADMAINTVER
 70
     6
  9
$DWGCODEPAGE
  3
ANSI_1252
  9
$INSBASE
 10
0.0
 20
0.0
 30
0.0
  9
$EXTMIN
 10
0.0
 20
0.0
 30
0.0
  9
$EXTMAX
 10
1100.0
 20
1000.0
 30
0.0
  9
$LIMMIN
 10
0.0
 20
0.0
  9
$LIMMAX
 10
1100.0
 20
1000.0
  9
$ORTHOMODE
 70
     0
  9
$REGENMODE
 70
     1
  9
$FILLMODE
 70
     1
  9
$QTEXTMODE
 70
     0
  9
$MIRRTEXT
 70
     1
  9
$LTSCALE
 40
1.0
  9
$ATTMODE
 70
     1
  9
$TEXTSIZE
 40
3.5
  9
$TRACEWID
 40
1.0
  9
$TEXTSTYLE
  7
Standard
  9
$CLAYER
  8
0
  9
$CELTYPE
  6
ByLayer
  9
$CECOLOR
 62
   256
  9
$CELTSCALE
 40
1.0
  9
$DISPSILH
 70
     0
  9
$DIMSCALE
 40
1.0
  9
$DIMASZ
 40
3.302
  9
$DIMEXO
 40
1.0
  9
$DIMDLI
 40
3.75
  9
$DIMRND
 40
0.0
  9
$DIMDLE
 40
0.0
  9
$DIMEXE
 40
1.0
  9
$DIMTP
 40
0.0
  9
$DIMTM
 40
0.0
  9
$DIMTXT
 40
3.5
  9
$DIMCEN
 40
2.5
  9
$DIMTSZ
 40
0.0
  9
$DIMTOL
 70
     0
  9
$DIMLIM
 70
     0
  9
$DIMTIH
 70
     1
  9
$DIMTOH
 70
     1
  9
$DIMSE1
 70
     0
  9
$DIMSE2
 70
     0
  9
$DIMTAD
 70
     1
  9
$DIMZIN
 70
     0
  9
$DIMBLK
  1

  9
$DIMASO
 70
     1
  9
$DIMSHO
 70
     1
  9
$DIMPOST
  1

  9
$DIMAPOST
  1

  9
$DIMALT
 70
     0
  9
$DIMALTD
 70
     3
  9
$DIMALTF
 40
0.0393700787
  9
$DIMLFAC
 40
5.0
  9
$DIMTOFL
 70
     1
  9
$DIMTVP
 40
0.0
  9
$DIMTIX
 70
     0
  9
$DIMSOXD
 70
     0
  9
$DIMSAH
 70
     0
  9
$DIMBLK1
  1

  9
$DIMBLK2
  1

  9
$DIMSTYLE
  2
ISO-25
  9
$DIMCLRD
 70
     0
  9
$DIMCLRE
 70
     0
  9
$DIMCLRT
 70
     0
  9
$DIMTFAC
 40
1.0
  9
$DIMGAP
 40
1.524
  9
$DIMJUST
 70
     0
  9
$DIMSD1
 70
     0
  9
$DIMSD2
 70
     0
  9
$DIMTOLJ
 70
     0
  9
$DIMTZIN
 70
     0
  9
$DIMALTZ
 70
     0
  9
$DIMALTTZ
 70
     0
  9
$DIMUPT
 70
     0
  9
$DIMDEC
 70
     3
  9
$DIMTDEC
 70
     3
  9
$DIMALTU
 70
     2
  9
$DIMALTTD
 70
     3
  9
$DIMTXSTY
  7
Standard
  9
$DIMAUNIT
 70
     0
  9
$DIMADEC
 70
     2
  9
$DIMALTRND
 40
0.0
  9
$DIMAZIN
 70
     0
  9
$DIMDSEP
 70
    44
  9
$DIMATFIT
 70
     3
  9
$DIMFRAC
 70
     0
  9
$DIMLDRBLK
  1

  9
$DIMLUNIT
 70
     2
  9
$DIMLWD
 70
    -2
  9
$DIMLWE
 70
    -2
  9
$DIMTMOVE
 70
     0
  9
$LUNITS
 70
     2
  9
$LUPREC
 70
     8
  9
$SKETCHINC
 40
1.0
  9
$FILLETRAD
 40
10.0
  9
$AUNITS
 70
     0
  9
$AUPREC
 70
     8
  9
$MENU
  1
.
  9
$ELEVATION
 40
0.0
  9
$PELEVATION
 40
0.0
  9
$THICKNESS
 40
0.0
  9
$LIMCHECK
 70
     0
  9
$CHAMFERA
 40
10.0
  9
$CHAMFERB
 40
10.0
  9
$CHAMFERC
 40
20.0
  9
$CHAMFERD
 40
0.0
  9
$SKPOLY
 70
     0
  9
$TDCREATE
 40
2457423.411641424
  9
$TDUCREATE
 40
2457423.411641424
  9
$TDUPDATE
 40
2457423.411641794
  9
$TDUUPDATE
 40
2457423.411641794
  9
$TDINDWG
 40
0.0000000116
  9
$TDUSRTIMER
 40
0.0000000116
  9
$USRTIMER
 70
     1
  9
$ANGBASE
 50
0.0
  9
$ANGDIR
 70
     0
  9
$PDMODE
 70
     0
  9
$PDSIZE
 40
-1.0
  9
$PLINEWID
 40
0.0
  9
$SPLFRAME
 70
     0
  9
$SPLINETYPE
 70
     6
  9
$SPLINESEGS
 70
     8
  9
$HANDSEED
  5
140
  9
$SURFTAB1
 70
     6
  9
$SURFTAB2
 70
     6
  9
$SURFTYPE
 70
     6
  9
$SURFU
 70
     6
  9
$SURFV
 70
     6
  9
$UCSBASE
  2

  9
$UCSNAME
  2

  9
$UCSORG
 10
0.0
 20
0.0
 30
0.0
  9
$UCSXDIR
 10
1.0
 20
0.0
 30
0.0
  9
$UCSYDIR
 10
0.0
 20
1.0
 30
0.0
  9
$UCSORTHOREF
  2

  9
$UCSORTHOVIEW
 70
     0
  9
$UCSORGTOP
 10
0.0
 20
0.0
 30
0.0
  9
$UCSORGBOTTOM
 10
0.0
 20
0.0
 30
0.0
  9
$UCSORGLEFT
 10
0.0
 20
0.0
 30
0.0
  9
$UCSORGRIGHT
 10
0.0
 20
0.0
 30
0.0
  9
$UCSORGFRONT
 10
0.0
 20
0.0
 30
0.0
  9
$UCSORGBACK
 10
0.0
 20
0.0
 30
0.0
  9
$PUCSBASE
  2

  9
$PUCSNAME
  2

  9
$PUCSORG
 10
0.0
 20
0.0
 30
0.0
  9
$PUCSXDIR
 10
1.0
 20
0.0
 30
0.0
  9
$PUCSYDIR
 10
0.0
 20
1.0
 30
0.0
  9
$PUCSORTHOREF
  2

  9
$PUCSORTHOVIEW
 70
     0
  9
$PUCSORGTOP
 10
0.0
 20
0.0
 30
0.0
  9
$PUCSORGBOTTOM
 10
0.0
 20
0.0
 30
0.0
  9
$PUCSORGLEFT
 10
0.0
 20
0.0
 30
0.0
  9
$PUCSORGRIGHT
 10
0.0
 20
0.0
 30
0.0
  9
$PUCSORGFRONT
 10
0.0
 20
0.0
 30
0.0
  9
$PUCSORGBACK
 10
0.0
 20
0.0
 30
0.0
  9
$USERI1
 70
     0
  9
$USERI2
 70
     0
  9
$USERI3
 70
     0
  9
$USERI4
 70
     0
  9
$USERI5
 70
     0
  9
$USERR1
 40
0.0
  9
$USERR2
 40
0.0
  9
$USERR3
 40
0.0
  9
$USERR4
 40
0.0
  9
$USERR5
 40
0.0
  9
$WORLDVIEW
 70
     1
  9
$SHADEDGE
 70
     3
  9
$SHADEDIF
 70
    70
  9
$TILEMODE
 70
     1
  9
$MAXACTVP
 70
    64
  9
$PINSBASE
 10
0.0
 20
0.0
 30
0.0
  9
$PLIMCHECK
 70
     0
  9
$PEXTMIN
 10
1.0000000000E+20
 20
1.0000000000E+20
 30
1.0000000000E+20
  9
$PEXTMAX
 10
-1.0000000000E+20
 20
-1.0000000000E+20
 30
-1.0000000000E+20
  9
$PLIMMIN
 10
0.0
 20
0.0
  9
$PLIMMAX
 10
420.0
 20
297.0
  9
$UNITMODE
 70
     0
  9
$VISRETAIN
 70
     1
  9
$PLINEGEN
 70
     0
  9
$PSLTSCALE
 70
     1
  9
$TREEDEPTH
 70
  3020
  9
$CMLSTYLE
  2
Standard
  9
$CMLJUST
 70
     0
  9
$CMLSCALE
 40
20.0
  9
$PROXYGRAPHICS
 70
     1
  9
$MEASUREMENT
 70
     1
  9
$CELWEIGHT
370
    -1
  9
$ENDCAPS
280
     0
  9
$JOINSTYLE
280
     0
  9
$LWDISPLAY
290
     1
  9
$INSUNITS
 70
     4
  9
$HYPERLINKBASE
  1

  9
$STYLESHEET
  1

  9
$XEDIT
290
     1
  9
$CEPSNTYPE
380
     0
  9
$PSTYLEMODE
290
     1
  9
$FINGERPRINTGUID
  2
{7BC8F13A-30FD-4C0C-949F-BF9EE62E35AA}
  9
$VERSIONGUID
  2
{FAEB1C32-E019-11D5-929B-00C0DF256EC4}
  9
$EXTNAMES
290
     1
  9
$PSVPSCALE
 40
0.0
  9
$OLESTARTUP
290
     0
  0
ENDSEC
  0
SECTION
  2
CLASSES
  0
CLASS
  1
ACDBDICTIONARYWDFLT
  2
AcDbDictionaryWithDefault
  3
ObjectDBX Classes
 90
        0
280
     0
281
     0
  0
CLASS
  1
VISUALSTYLE
  2
AcDbVisualStyle
  3
ObjectDBX Classes
 90
     4095
280
     0
281
     0
  0
CLASS
  1
MATERIAL
  2
AcDbMaterial
  3
ObjectDBX Classes
 90
     1153
280
     0
281
     0
  0
CLASS
  1
ACDBPLACEHOLDER
  2
AcDbPlaceHolder
  3
ObjectDBX Classes
 90
        0
280
     0
281
     0
  0
CLASS
  1
LAYOUT
  2
AcDbLayout
  3
ObjectDBX Classes
 90
        0
280
     0
281
     0
  0
ENDSEC
  0
SECTION
  2
TABLES
  0
TABLE
  2
VPORT
  5
8
330
0
100
AcDbSymbolTable
 70
     1
  0
VPORT
  5
29
330
8
100
AcDbSymbolTableRecord
100
AcDbViewportTableRecord
  2
*Active
 70
     0
 10
0.0
 20
0.0
 11
1.0
 21
1.0
 12
550.0
 22
500.0
 13
0.0
 23
0.0
 14
10.0
 24
10.0
 15
10.0
 25
10.0
 16
0.0
 26
0.0
 36
1.0
 17
0.0
 27
0.0
 37
0.0
 40
1000.0
 41
1.1
 42
50.0
 43
0.0
 44
0.0
 50
0.0
 51
0.0
 71
     0
 72
  2000
 73
     1
 74
     3
 75
     0
 76
     0
 77
     0
 78
     0
281
     0
 65
     1
110
0.0
120
0.0
130
0.0
111
1.0
121
0.0
131
0.0
112
0.0
122
1.0
132
0.0
 79
     0
146
0.0
  0
ENDTAB
  0
TABLE
  2
LTYPE
  5
5
330
0
100
AcDbSymbolTable
 70
     6
  0
LTYPE
  5
14
330
5
100
AcDbSymbolTableRecord
100
AcDbLinetypeTableRecord
  2
ByBlock
 70
     0
  3

 72
    65
 73
     0
 40
0.0
  0
LTYPE
  5
15
330
5
100
AcDbSymbolTableRecord
100
AcDbLinetypeTableRecord
  2
ByLayer
 70
     0
  3

 72
    65
 73
     0
 40
0.0
  0
LTYPE
  5
16
330
5
100
AcDbSymbolTableRecord
100
AcDbLinetypeTableRecord
  2
Continuous
 70
     0
  3
Solid line
 72
    65
 73
     0
 40
0.0
  0
LTYPE
  5
3F
330
5
100
AcDbSymbolTableRecord
100
AcDbLinetypeTableRecord
  2
HIDDEN
 70
     0
  3
Hidden __ __ __ __ __ __ __ __ __ __ __ __ __ __
 72
    65
 73
     2
 40
1.905
 49
1.27
 74
     0
 49
-0.635
 74
     0
  0
LTYPE
  5
40
330
5
100
AcDbSymbolTableRecord
100
AcDbLinetypeTableRecord
  2
PHANTOM
 70
     0
  3
Phantom ______  __  __  ______  __  __  ______
 72
    65
 73
     6
 40
12.7
 49
6.35
 74
     0
 49
-1.27
 74
     0
 49
1.27
 74
     0
 49
-1.27
 74
     0
 49
1.27
 74
     0
 49
-1.27
 74
     0
  0
LTYPE
  5
41
330
5
100
AcDbSymbolTableRecord
100
AcDbLinetypeTableRecord
  2
CENTER
 70
     0
  3
Center ____ _ ____ _ ____ _ ____ _ ____ _ ____
 72
    65
 73
     4
 40
10.16
 49
6.35
 74
     0
 49
-1.27
 74
     0
 49
1.27
 74
     0
 49
-1.27
 74
     0
  0
LTYPE
  5
42
330
5
100
AcDbSymbolTableRecord
100
AcDbLinetypeTableRecord
  2
CENTERX2
 70
     0
  3
Center (2x) ________  __  ________  __  _____
 72
    65
 73
     4
 40
20.32
 49
12.7
 74
     0
 49
-2.54
 74
     0
 49
2.54
 74
     0
 49
-2.54
 74
     0
  0
LTYPE
  5
43
330
5
100
AcDbSymbolTableRecord
100
AcDbLinetypeTableRecord
  2
DOT2
 70
     0
  3
Dot (.5x) ........................................
 72
    65
 73
     2
 40
0.635
 49
0.0
 74
     0
 49
-0.635
 74
     0
  0
ENDTAB
  0
TABLE
  2
LAYER
  5
2
330
0
100
AcDbSymbolTable
 70
     1
  0
LAYER
  5
10
330
2
100
AcDbSymbolTableRecord
100
AcDbLayerTableRecord
  2
0
 70
     0
 62
     7
  6
Continuous
370
    -3
390
F
  0
ENDTAB
  0
TABLE
  2
STYLE
  5
3
330
0
100
AcDbSymbolTable
 70
     1
  0
STYLE
  5
11
330
3
100
AcDbSymbolTableRecord
100
AcDbTextStyleTableRecord
  2
Standard
 70
     0
 40
0.0
 41
1.0
 50
0.0
 71
     0
 42
3.5
  3
txt
  4

  0
ENDTAB
  0
TABLE
  2
VIEW
  5
6
330
0
100
AcDbSymbolTable
 70
     0
  0
ENDTAB
  0
TABLE
  2
UCS
  5
7
330
0
100
AcDbSymbolTable
 70
     0
  0
ENDTAB
  0
TABLE
  2
APPID
  5
9
330
0
100
AcDbSymbolTable
 70
     1
  0
APPID
  5
12
330
9
100
AcDbSymbolTableRecord
100
AcDbRegAppTableRecord
  2
ACAD
 70
     0
  0
ENDTAB
  0
TABLE
  2
DIMSTYLE
  5
A
330
0
100
AcDbSymbolTable
 70
     1
100
AcDbDimStyleTable
  0
DIMSTYLE
105
27
330
A
100
AcDbSymbolTableRecord
100
AcDbDimStyleTableRecord
  2
ISO-25
 70
     0
 41
2.5
 42
0.625
 43
3.75
 44
1.25
 73
     0
 74
     0
 77
     1
 78
     8
140
2.5
141
2.5
143
0.0393700787
147
0.625
171
     3
172
     1
178
     0
271
     2
272
     2
274
     3
278
    44
283
     0
284
     8
340
11
  0
ENDTAB
  0
TABLE
  2
BLOCK_RECORD
  5
1
330
0
100
AcDbSymbolTable
 70
     1
  0
BLOCK_RECORD
  5
1F
330
1
100
AcDbSymbolTableRecord
100
AcDbBlockTableRecord
  2
*Model_Space
340
22
  0
BLOCK_RECORD
  5
1B
330
1
100
AcDbSymbolTableRecord
100
AcDbBlockTableRecord
  2
*Paper_Space
340
1E
  0
BLOCK_RECORD
  5
23
330
1
100
AcDbSymbolTableRecord
100
AcDbBlockTableRecord
  2
*Paper_Space0
340
26
  0
ENDTAB
  0
ENDSEC
  0
SECTION
  2
BLOCKS
  0
BLOCK
  5
20
330
1F
100
AcDbEntity
  8
0
100
AcDbBlockBegin
  2
*Model_Space
 70
     0
 10
0.0
 20
0.0
 30
0.0
  3
*Model_Space
  1

  0
ENDBLK
  5
21
330
1F
100
AcDbEntity
  8
0
100
AcDbBlockEnd
  0
BLOCK
  5
1C
330
1B
100
AcDbEntity
 67
     1
  8
0
100
AcDbBlockBegin
  2
*Paper_Space
 70
     0
 10
0.0
 20
0.0
 30
0.0
  3
*Paper_Space
  1

  0
ENDBLK
  5
1D
330
1B
100
AcDbEntity
 67
     1
  8
0
100
AcDbBlockEnd
  0
BLOCK
  5
24
330
23
100
AcDbEntity
  8
0
100
AcDbBlockBegin
  2
*Paper_Space0
 70
     0
 10
0.0
 20
0.0
 30
0.0
  3
*Paper_Space0
  1

  0
ENDBLK
  5
25
330
23
100
AcDbEntity
  8
0
100
AcDbBlockEnd
  0
ENDSEC
  0
SECTION
  2
ENTITIES
  0
SPLINE
  5
44
330
1F
100
AcDbEntity
  8
0
  6
Continuous
 62
     7
370
    15
100
AcDbSpline
210
0.0
220
0.0
230
1.0
 70
     8
 71
     3
 72
     9
 73
     5
 74
     0
 42
0.00000001
 43
0.00000001
 12
1.0
 22
0.0
 32
0.0
 13
1.0
 23
0.0
 33
0.0
 40
0.0
 40
0.0
 40
0.0
 40
0.0
 40
0.0419383744720905
 40
1.0
 40
1.0
 40
1.0
 40
1.0
 10
590.8863828464926
 20
323.2877869880425
 30
0.0
 10
590.8887657693776
 20
323.2965687896209
 30
0.0
 10
590.9455853985376
 20
323.505966547377
 30
0.0
 10
591.0585695090264
 20
323.7152780292008
 30
0.0
 10
591.1668152495802
 20
323.9158113277184
 30
0.0
  0
LINE
  5
45
330
1F
100
AcDbEntity
  8
0
  6
Continuous
 62
     7
370
    15
100
AcDbLine
 10
580.2937396749
 20
323.9158113277
 30
0.0
 11
580.4561716452
 21
323.5347737348
 31
0.0
  0
ARC
  5
46
330
1F
100
AcDbEntity
  8
0
  6
Continuous
 62
     7
370
    15
100
AcDbCircle
 10
591.0441301843
 20
318.1849775023
 30
0.0
 40
0.5000000000000341
100
AcDbArc
 50
286.1036910378
 51
349.3444562998
  0
ARC
  5
47
330
1F
100
AcDbEntity
  8
0
  6
Continuous
 62
     7
370
    15
100
AcDbCircle
 10
580.4093269238
 20
318.1849775023
 30
0.0
 40
0.5000000000000365
100
AcDbArc
 50
190.6555437002
 51
253.8963089622
  0
SPLINE
  5
48
330
1F
100
AcDbEntity
  8
0
  6
Continuous
 62
     7
370
    15
100
AcDbSpline
210
0.0
220
0.0
230
1.0
 70
     8
 71
     3
 72
    17
 73
    13
 74
     0
 42
0.00000001
 43
0.00000001
 12
1.0
 22
0.0
 32
0.0
 13
1.0
 23
0.0
 33
0.0
 40
0.0
 40
0.0
 40
0.0
 40
0.0
 40
0.056845955787036
 40
0.1651286287963857
 40
0.2731859515160209
 40
0.3810463634167185
 40
0.4887963787714494
 40
0.5965120289071357
 40
0.704256335788872
 40
0.8120889382014989
 40
0.9200910904622993
 40
0.9999999999999999
 40
0.9999999999999999
 40
0.9999999999999999
 40
0.9999999999999999
 10
580.270639149803
 20
317.7045901096092
 30
0.0
 10
580.4555254731757
 20
317.6535345881845
 30
0.0
 10
580.9925913847092
 20
317.5052262674144
 30
0.0
 10
581.9426964487201
 20
317.3055970821745
 30
0.0
 10
583.1264044306511
 20
317.1296600657123
 30
0.0
 10
584.3512525560964
 20
317.0209085790974
 30
0.0
 10
585.596651227837
 20
316.9796489159101
 30
0.0
 10
586.8436805055841
 20
317.0067161471896
 30
0.0
 10
588.0734122638554
 20
317.1013042118444
 30
0.0
 10
589.2650423510713
 20
317.2633602986667
 30
0.0
 10
590.307331036468
 20
317.4668654240587
 30
0.0
 10
590.9216014740674
 20
317.6336606703378
 30
0.0
 10
591.1828190967024
 20
317.7045901096092
 30
0.0
  0
SPLINE
  5
49
330
1F
100
AcDbEntity
  8
0
  6
Continuous
 62
     7
370
    15
100
AcDbSpline
210
0.0
220
0.0
230
1.0
 70
     8
 71
     3
 72
    10
 73
     6
 74
     0
 42
0.00000001
 43
0.00000001
 12
1.0
 22
0.0
 32
0.0
 13
1.0
 23
0.0
 33
0.0
 40
0.0
 40
0.0
 40
0.0
 40
0.0
 40
0.1102508708415925
 40
0.7179890719813196
 40
1.0
 40
1.0
 40
1.0
 40
1.0
 10
578.6556010081947
 20
323.8794524944054
 30
0.0
 10
578.7096922424653
 20
323.6638569561525
 30
0.0
 10
579.0619517284885
 20
322.2598295842879
 30
0.0
 10
579.4960160254192
 20
320.3176339090354
 30
0.0
 10
579.8044259108983
 20
318.6341034047693
 30
0.0
 10
579.9021781369627
 20
318.1004990613686
 30
0.0
  0
SPLINE
  5
4A
330
1F
100
AcDbEntity
  8
0
  6
Continuous
 62
     7
370
    15
100
AcDbSpline
210
0.0
220
0.0
230
1.0
 70
     8
 71
     3
 72
     9
 73
     5
 74
     0
 42
0.00000001
 43
0.00000001
 12
1.0
 22
0.0
 32
0.0
 13
1.0
 23
0.0
 33
0.0
 40
0.0
 40
0.0
 40
0.0
 40
0.0
 40
0.524500279428786
 40
1.0
 40
1.0
 40
1.0
 40
1.0
 10
591.535944952029
 20
318.0927057540642
 30
0.0
 10
591.7308091863766
 20
319.0929748486649
 30
0.0
 10
592.1023327908254
 20
321.0000645754618
 30
0.0
 10
592.5761641100236
 20
322.9524498483623
 30
0.0
 10
592.8014707699001
 20
323.880808500074
 30
0.0
  0
LINE
  5
4B
330
1F
100
AcDbEntity
  8
0
  6
Continuous
 62
     7
370
    15
100
AcDbLine
 10
505.29374042
 20
323.9158113277
 30
0.0
 11
505.4561705276
 21
323.5347737348
 31
0.0
  0
SPLINE
  5
4C
330
1F
100
AcDbEntity
  8
0
  6
Continuous
 62
     7
370
    15
100
AcDbSpline
210
0.0
220
0.0
230
1.0
 70
     8
 71
     3
 72
     9
 73
     5
 74
     0
 42
0.00000001
 43
0.00000001
 12
1.0
 22
0.0
 32
0.0
 13
1.0
 23
0.0
 33
0.0
 40
0.0
 40
0.0
 40
0.0
 40
0.0
 40
0.0419382462669053
 40
0.9999999999999999
 40
0.9999999999999999
 40
0.9999999999999999
 40
0.9999999999999999
 10
515.8863835915506
 20
323.2877869880425
 30
0.0
 10
515.888765880332
 20
323.2965687902082
 30
0.0
 10
515.9455705632536
 20
323.5059672020961
 30
0.0
 10
516.0585626233675
 20
323.715278335844
 30
0.0
 10
516.1668159946382
 20
323.9158113277184
 30
0.0
  0
ARC
  5
4D
330
1F
100
AcDbEntity
  8
0
  6
Continuous
 62
     7
370
    15
100
AcDbCircle
 10
516.0441301843
 20
318.1849775023
 30
0.0
 40
0.5000000000000471
100
AcDbArc
 50
286.1036910378
 51
349.3444562998
  0
ARC
  5
4E
330
1F
100
AcDbEntity
  8
0
  6
Continuous
 62
     7
370
    15
100
AcDbCircle
 10
505.4093269238
 20
318.1849775023
 30
0.0
 40
0.5000000000000471
100
AcDbArc
 50
190.6555437002
 51
253.8963089622
  0
SPLINE
  5
4F
330
1F
100
AcDbEntity
  8
0
  6
Continuous
 62
     7
370
    15
100
AcDbSpline
210
0.0
220
0.0
230
1.0
 70
     8
 71
     3
 72
    17
 73
    13
 74
     0
 42
0.00000001
 43
0.00000001
 12
1.0
 22
0.0
 32
0.0
 13
1.0
 23
0.0
 33
0.0
 40
0.0
 40
0.0
 40
0.0
 40
0.0
 40
0.0568460937884605
 40
0.1651286238967941
 40
0.2731859483150741
 40
0.381046361911321
 40
0.4887963789598658
 40
0.5965120307888258
 40
0.7042563393642862
 40
0.8120889434720252
 40
0.920090950975077
 40
1.0
 40
1.0
 40
1.0
 40
1.0
 10
505.270639894861
 20
317.7045901096092
 30
0.0
 10
505.4555268794842
 20
317.6535346189117
 30
0.0
 10
505.9925933921083
 20
317.5052267518378
 30
0.0
 10
506.9426974742881
 20
317.3055968020202
 30
0.0
 10
508.1264052415838
 20
317.12966011981
 30
0.0
 10
509.3512532844361
 20
317.0209085638379
 30
0.0
 10
510.5966519740193
 20
316.9796489229463
 30
0.0
 10
511.8436812628475
 20
317.0067161342938
 30
0.0
 10
513.0734129589339
 20
317.1013042564214
 30
0.0
 10
514.2650427447842
 20
317.263360059656
 30
0.0
 10
515.3073306191318
 20
317.4668658584567
 30
0.0
 10
515.9216015472363
 20
317.6336607116817
 30
0.0
 10
516.1828198417604
 20
317.7045901096092
 30
0.0
  0
SPLINE
  5
50
330
1F
100
AcDbEntity
  8
0
  6
Continuous
 62
     7
370
    15
100
AcDbSpline
210
0.0
220
0.0
230
1.0
 70
     8
 71
     3
 72
     9
 73
     5
 74
     0
 42
0.00000001
 43
0.00000001
 12
1.0
 22
0.0
 32
0.0
 13
1.0
 23
0.0
 33
0.0
 40
0.0
 40
0.0
 40
0.0
 40
0.0
 40
0.5245002833623416
 40
1.0
 40
1.0
 40
1.0
 40
1.0
 10
516.5359475597322
 20
318.0927057540642
 30
0.0
 10
516.7308111889143
 20
319.0929748444137
 30
0.0
 10
517.1023336367824
 20
321.000064548803
 30
0.0
 10
517.5761636264782
 20
322.9524498449761
 30
0.0
 10
517.801469652313
 20
323.880808500074
 30
0.0
  0
SPLINE
  5
51
330
1F
100
AcDbEntity
  8
0
  6
Continuous
 62
     7
370
    15
100
AcDbSpline
210
0.0
220
0.0
230
1.0
 70
     8
 71
     3
 72
    10
 73
     6
 74
     0
 42
0.00000001
 43
0.00000001
 12
1.0
 22
0.0
 32
0.0
 13
1.0
 23
0.0
 33
0.0
 40
0.0
 40
0.0
 40
0.0
 40
0.0
 40
0.1102508680280576
 40
0.7179890536586768
 40
1.0
 40
1.0
 40
1.0
 40
1.0
 10
503.6555998906076
 20
323.8794524944054
 30
0.0
 10
503.7096911322151
 20
323.6638569567295
 30
0.0
 10
504.0619506660186
 20
322.2598295886227
 30
0.0
 10
504.4960137404381
 20
320.3176337667924
 30
0.0
 10
504.8044259221201
 20
318.6341033955791
 30
0.0
 10
504.9021788820207
 20
318.1004990613686
 30
0.0
  0
LINE
  5
52
330
1F
100
AcDbEntity
  8
0
  6
Continuous
 62
     7
370
    15
100
AcDbLine
 10
448.2267298683
 20
323.7586040771
 30
0.0
 11
503.685748665
 21
323.7586040771
 31
0.0
  0
LINE
  5
53
330
1F
100
AcDbEntity
  8
0
  6
Continuous
 62
     7
370
    15
100
AcDbLine
 10
517.7727215871
 20
323.7586040771
 30
0.0
 11
578.6857497826
 21
323.7586040771
 31
0.0
  0
LINE
  5
54
330
1F
100
AcDbEntity
  8
0
  6
Continuous
 62
     7
370
    15
100
AcDbLine
 10
592.772720842
 20
323.7586040771
 30
0.0
 11
648.226725398
 21
323.7586040771
 31
0.0
  0
LINE
  5
55
330
1F
100
AcDbEntity
  8
0
  6
Continuous
 62
     7
370
    15
100
AcDbLine
 10
448.2267298683
 20
323.9158113277
 30
0.0
 11
648.226725398
 21
323.9158113277
 31
0.0
  0
ARC
  5
56
330
1F
100
AcDbEntity
  8
0
  6
Continuous
 62
     7
370
    15
100
AcDbCircle
 10
563.0017285541
 20
765.2394274344
 30
0.0
 40
0.1500000000000909
100
AcDbArc
 50
180.0
 51
270.0
  0
ARC
  5
57
330
1F
100
AcDbEntity
  8
0
  6
Continuous
 62
     7
370
    15
100
AcDbCircle
 10
567.5517285541
 20
765.2394274344
 30
0.0
 40
0.1499999999999773
100
AcDbArc
 50
270.0
 51
0.0
  0
ARC
  5
58
330
1F
100
AcDbEntity
  8
0
  6
Continuous
 62
     7
370
    15
100
AcDbCircle
 10
563.0017285541
 20
765.4394274344
 30
0.0
 40
0.1500000000000909
100
AcDbArc
 50
90.0
 51
180.0
  0
ARC
  5
59
330
1F
100
AcDbEntity
  8
0
  6
Continuous
 62
     7
370
    15
100
AcDbCircle
 10
567.5517285541
 20
765.4394274344
 30
0.0
 40
0.1499999999999773
100
AcDbArc
 50
0.0
 51
90.0
  0
LINE
  5
5A
330
1F
100
AcDbEntity
  8
0
  6
Continuous
 62
     7
370
    15
100
AcDbLine
 10
562.8517285533
 20
765.4394228733
 30
0.0
 11
562.8517285533
 21
765.2394343889
 31
0.0
  0
LINE
  5
5B
330
1F
100
AcDbEntity
  8
0
  6
Continuous
 62
     7
370
    15
100
AcDbLine
 10
567.7017285436
 20
765.2394343889
 30
0.0
 11
567.7017285436
 21
765.4394228733
 31
0.0
  0
ARC
  5
5C
330
1F
100
AcDbEntity
  8
0
  6
Continuous
 62
     7
370
    15
100
AcDbCircle
 10
563.3767285541
 20
764.9394274344
 30
0.0
 40
0.1500000000000909
100
AcDbArc
 50
0.0
 51
90.0
  0
ARC
  5
5D
330
1F
100
AcDbEntity
  8
0
  6
Continuous
 62
     7
370
    15
100
AcDbCircle
 10
567.1767285541
 20
764.9394274344
 30
0.0
 40
0.1499999999999773
100
AcDbArc
 50
90.0
 51
180.0
  0
LINE
  5
5E
330
1F
100
AcDbEntity
  8
0
  6
Continuous
 62
     7
370
    15
100
AcDbLine
 10
563.5267285345
 20
764.9394293106
 30
0.0
 11
563.5267285345
 21
762.6394201792
 31
0.0
  0
LINE
  5
5F
330
1F
100
AcDbEntity
  8
0
  6
Continuous
 62
     7
370
    15
100
AcDbLine
 10
567.0267287589
 20
762.6394201792
 30
0.0
 11
567.0267287589
 21
764.9394293106
 31
0.0
  0
LINE
  5
60
330
1F
100
AcDbEntity
  8
0
  6
Continuous
 62
     7
370
    15
100
AcDbLine
 10
563.5267285345
 20
762.6394201792
 30
0.0
 11
563.651728555
 21
762.339430002
 31
0.0
  0
LINE
  5
61
330
1F
100
AcDbEntity
  8
0
  6
Continuous
 62
     7
370
    15
100
AcDbLine
 10
566.9017285056
 20
762.339430002
 30
0.0
 11
567.0267287589
 21
762.6394201792
 31
0.0
  0
LINE
  5
62
330
1F
100
AcDbEntity
  8
0
  6
Continuous
 62
     7
370
    15
100
AcDbLine
 10
631.0267322644
 20
764.8887355602
 30
0.0
 11
631.0267322644
 21
762.6394201792
 31
0.0
  0
LINE
  5
63
330
1F
100
AcDbEntity
  8
0
  6
Continuous
 62
     7
370
    15
100
AcDbLine
 10
634.5267319068
 20
762.6394201792
 30
0.0
 11
634.5267319068
 21
764.7821177519
 31
0.0
  0
LINE
  5
64
330
1F
100
AcDbEntity
  8
0
  6
Continuous
 62
     7
370
    15
100
AcDbLine
 10
631.0267322644
 20
762.6394201792
 30
0.0
 11
631.1517306551
 21
762.339430002
 31
0.0
  0
LINE
  5
65
330
1F
100
AcDbEntity
  8
0
  6
Continuous
 62
     7
370
    15
100
AcDbLine
 10
634.4017260655
 20
762.339430002
 30
0.0
 11
634.5267319068
 21
762.6394201792
 31
0.0
  0
ELLIPSE
  5
66
330
1F
100
AcDbEntity
  8
0
  6
Continuous
 62
     7
370
    15
100
AcDbEllipse
 10
646.4729087165
 20
770.8135685062
 30
0.0
 11
0.7124986078903248
 21
0.7124986078902111
 31
0.0
210
0.0
220
0.0
230
1.0
 40
0.9924325091
 41
5.501585242055473
 42
7.064785372303986
  0
ELLIPSE
  5
67
330
1F
100
AcDbEntity
  8
0
  6
Continuous
 62
     7
370
    15
100
AcDbEllipse
 10
449.9805483916
 20
770.8135685062
 30
0.0
 11
-0.7124986078902679
 21
0.712498607890211
 31
0.0
210
0.0
220
0.0
230
1.0
 40
0.9924325091
 41
5.501585242055455
 42
7.064785372303652
  0
LINE
  5
68
330
1F
100
AcDbEntity
  8
0
  6
Continuous
 62
     7
370
    15
100
AcDbLine
 10
646.4805328235
 20
771.8173880851
 30
0.0
 11
449.9729224428
 21
771.8173880851
 31
0.0
  0
LINE
  5
69
330
1F
100
AcDbEntity
  8
0
  6
Continuous
 62
     7
370
    15
100
AcDbLine
 10
647.4767276033
 20
739.8135830438
 30
0.0
 11
647.4767276033
 21
770.8212007559
 31
0.0
  0
LINE
  5
6A
330
1F
100
AcDbEntity
  8
0
  6
Continuous
 62
     7
370
    15
100
AcDbLine
 10
448.9767276629
 20
770.8212007559
 30
0.0
 11
448.9767276629
 21
739.8135830438
 31
0.0
  0
LINE
  5
6B
330
1F
100
AcDbEntity
  8
0
  6
Continuous
 62
     7
370
    15
100
AcDbLine
 10
640.4759311065
 20
760.983945874
 30
0.0
 11
640.4759311065
 21
759.4521214044
 31
0.0
  0
LINE
  5
6C
330
1F
100
AcDbEntity
  8
0
  6
Continuous
 62
     7
370
    15
100
AcDbLine
 10
640.4759311065
 20
751.1826474941
 30
0.0
 11
640.4759311065
 21
749.6508379257
 31
0.0
  0
LINE
  5
6D
330
1F
100
AcDbEntity
  8
0
  6
Continuous
 62
     7
370
    15
100
AcDbLine
 10
545.4759322986
 20
747.0180560625
 30
0.0
 11
545.4759322986
 21
763.616712836
 31
0.0
  0
LINE
  5
6E
330
1F
100
AcDbEntity
  8
0
  6
Continuous
 62
     7
370
    15
100
AcDbLine
 10
587.9759327456
 20
747.2632099664
 30
0.0
 11
587.9759327456
 21
763.3715738332
 31
0.0
  0
LINE
  5
6F
330
1F
100
AcDbEntity
  8
0
  6
Continuous
 62
     7
370
    15
100
AcDbLine
 10
455.9775241598
 20
760.983945874
 30
0.0
 11
455.9775241598
 21
759.4521214044
 31
0.0
  0
LINE
  5
70
330
1F
100
AcDbEntity
  8
0
  6
Continuous
 62
     7
370
    15
100
AcDbLine
 10
455.9775241598
 20
751.1826474941
 30
0.0
 11
455.9775241598
 21
749.6508379257
 31
0.0
  0
LINE
  5
71
330
1F
100
AcDbEntity
  8
0
  6
Continuous
 62
     7
370
    15
100
AcDbLine
 10
593.4775252774
 20
763.210700897
 30
0.0
 11
593.4775252774
 21
747.4240680015
 31
0.0
  0
LINE
  5
72
330
1F
100
AcDbEntity
  8
0
  6
Continuous
 62
     7
370
    15
100
AcDbLine
 10
550.9775248304
 20
763.616712836
 30
0.0
 11
550.9775248304
 21
747.0180560625
 31
0.0
  0
LINE
  5
73
330
1F
100
AcDbEntity
  8
0
  6
Continuous
 62
     7
370
    15
100
AcDbLine
 10
508.477526246
 20
763.3715738332
 30
0.0
 11
508.477526246
 21
747.2632099664
 31
0.0
  0
LINE
  5
74
330
1F
100
AcDbEntity
  8
0
  6
Continuous
 62
     7
370
    15
100
AcDbLine
 10
502.9759318515
 20
747.4240680015
 30
0.0
 11
502.9759318515
 21
763.210700897
 31
0.0
  0
ELLIPSE
  5
75
330
1F
100
AcDbEntity
  8
0
  6
Continuous
 62
     7
370
    15
100
AcDbEllipse
 10
646.4729087165
 20
739.8212081813
 30
0.0
 11
0.7124986078903248
 21
-0.7124986078902111
 31
0.0
210
0.0
220
0.0
230
1.0
 40
0.9924325091
 41
5.501585242055281
 42
7.064785372303746
  0
ELLIPSE
  5
76
330
1F
100
AcDbEntity
  8
0
  6
Continuous
 62
     7
370
    15
100
AcDbEllipse
 10
449.9805483916
 20
739.8212081813
 30
0.0
 11
-0.7124986078902679
 21
-0.712498607890211
 31
0.0
210
0.0
220
0.0
230
1.0
 40
0.9924325091
 41
5.501585242055461
 42
7.064785372303748
  0
LINE
  5
77
330
1F
100
AcDbEntity
  8
0
  6
Continuous
 62
     7
370
    15
100
AcDbLine
 10
449.9729224428
 20
738.8173957145
 30
0.0
 11
646.4805328235
 21
738.8173957145
 31
0.0
  0
SPLINE
  5
78
330
1F
100
AcDbEntity
  8
0
  6
Continuous
 62
     7
370
    15
100
AcDbSpline
210
0.0
220
0.0
230
1.0
 70
     8
 71
     3
 72
    19
 73
    15
 74
     0
 42
0.00000001
 43
0.00000001
 12
1.0
 22
0.0
 32
0.0
 13
1.0
 23
0.0
 33
0.0
 40
0.0
 40
0.0
 40
0.0
 40
0.0
 40
0.32438141869246
 40
0.5392454207708435
 40
0.6822241950576182
 40
0.7780878196058619
 40
0.8430793588177906
 40
0.8878382662011914
 40
0.9311113102271515
 40
0.9564444349275188
 40
0.9725803951584474
 40
0.984924710320587
 40
0.9973134578679694
 40
1.0
 40
1.0
 40
1.0
 40
1.0
 10
456.28373557176
 20
750.9910185611473
 30
0.0
 10
456.2500784286025
 20
751.0610602268515
 30
0.0
 10
456.1941274422699
 20
751.1774961424672
 30
0.0
 10
456.1229806482133
 20
751.3003575583798
 30
0.0
 10
456.0754384166594
 20
751.3632962365926
 30
0.0
 10
456.0434634274644
 20
751.3884252531952
 30
0.0
 10
456.0217671531473
 20
751.3908511489739
 30
0.0
 10
456.0056602603234
 20
751.378595308092
 30
0.0
 10
455.9938252561052
 20
751.354977848419
 30
0.0
 10
455.9854289652545
 20
751.3176111153729
 30
0.0
 10
455.9807795700408
 20
751.2784880769403
 30
0.0
 10
455.9782822377263
 20
751.2372006941849
 30
0.0
 10
455.9775646287521
 20
751.2041276891756
 30
0.0
 10
455.9775302808832
 20
751.1858964522982
 30
0.0
 10
455.977524159807
 20
751.1826474941001
 30
0.0
  0
SPLINE
  5
79
330
1F
100
AcDbEntity
  8
0
  6
Continuous
 62
     7
370
    15
100
AcDbSpline
210
0.0
220
0.0
230
1.0
 70
     8
 71
     3
 72
    14
 73
    10
 74
     0
 42
0.00000001
 43
0.00000001
 12
1.0
 22
0.0
 32
0.0
 13
1.0
 23
0.0
 33
0.0
 40
0.0
 40
0.0
 40
0.0
 40
0.0
 40
0.0119836228261467
 40
0.0239896434505568
 40
0.0398828817343745
 40
0.0687367127988142
 40
0.1675510507308205
 40
0.6411391160469639
 40
1.0
 40
1.0
 40
1.0
 40
1.0
 10
455.977524159807
 20
759.4521214044319
 30
0.0
 10
455.9776372170404
 20
759.4375352558551
 30
0.0
 10
455.9778635428152
 20
759.408335696694
 30
0.0
 10
455.9800505041652
 20
759.3655077095522
 30
0.0
 10
455.9846789665736
 20
759.3205091987296
 30
0.0
 10
455.998957401845
 20
759.2562200616763
 30
0.0
 10
456.0630101407555
 20
759.2181024161388
 30
0.0
 10
456.1601598147504
 20
759.3935786332536
 30
0.0
 10
456.2465105744008
 20
759.5683905641495
 30
0.0
 10
456.28373557176
 20
759.6437503373847
 30
0.0
  0
LINE
  5
7A
330
1F
100
AcDbEntity
  8
0
  6
Continuous
 62
     7
370
    15
100
AcDbLine
 10
456.2837355718
 20
759.6437503374
 30
0.0
 11
456.8313681468
 21
758.7824334181
 31
0.0
  0
LINE
  5
7B
330
1F
100
AcDbEntity
  8
0
  6
Continuous
 62
     7
370
    15
100
AcDbLine
 10
456.8313681468
 20
751.8523354805
 30
0.0
 11
456.2837355718
 21
750.9910185611
 31
0.0
  0
LINE
  5
7C
330
1F
100
AcDbEntity
  8
0
  6
Continuous
 62
     7
370
    15
100
AcDbLine
 10
640.1697196945
 20
750.9910185611
 30
0.0
 11
639.6220871195
 21
751.8523354805
 31
0.0
  0
LINE
  5
7D
330
1F
100
AcDbEntity
  8
0
  6
Continuous
 62
     7
370
    15
100
AcDbLine
 10
639.6220871195
 20
758.7824334181
 30
0.0
 11
640.1697196945
 21
759.6437503374
 31
0.0
  0
SPLINE
  5
7E
330
1F
100
AcDbEntity
  8
0
  6
Continuous
 62
     7
370
    15
100
AcDbSpline
210
0.0
220
0.0
230
1.0
 70
     8
 71
     3
 72
    19
 73
    15
 74
     0
 42
0.00000001
 43
0.00000001
 12
1.0
 22
0.0
 32
0.0
 13
1.0
 23
0.0
 33
0.0
 40
0.0
 40
0.0
 40
0.0
 40
0.0
 40
0.324381757603614
 40
0.5392464533441103
 40
0.6822256892203449
 40
0.7780896232525585
 40
0.8430815511984527
 40
0.8878406030805037
 40
0.931113786808186
 40
0.9564452319713602
 40
0.9725837672895606
 40
0.984924822801501
 40
0.9973175523855506
 40
0.9999999999999999
 40
0.9999999999999999
 40
0.9999999999999999
 40
0.9999999999999999
 10
640.1697196945131
 20
759.6437503373847
 30
0.0
 10
640.2033770388442
 20
759.5737152239841
 30
0.0
 10
640.2593284082851
 20
759.4572900994954
 30
0.0
 10
640.3304735971811
 20
759.3344257173661
 30
0.0
 10
640.3780189679527
 20
759.2714879706658
 30
0.0
 10
640.4099874013149
 20
759.2463577729118
 30
0.0
 10
640.4316976878257
 20
759.2439342593244
 30
0.0
 10
640.4478010183522
 20
759.2561845141796
 30
0.0
 10
640.4596405231135
 20
759.2798175421781
 30
0.0
 10
640.4680280223391
 20
759.3171510614235
 30
0.0
 10
640.4726702955674
 20
759.35629597697
 30
0.0
 10
640.4751869954731
 20
759.39757310472
 30
0.0
 10
640.4758899031347
 20
759.4306466022341
 30
0.0
 10
640.4759248823354
 20
759.4488774440186
 30
0.0
 10
640.4759311064661
 20
759.4521214044319
 30
0.0
  0
SPLINE
  5
7F
330
1F
100
AcDbEntity
  8
0
  6
Continuous
 62
     7
370
    15
100
AcDbSpline
210
0.0
220
0.0
230
1.0
 70
     8
 71
     3
 72
    14
 73
    10
 74
     0
 42
0.00000001
 43
0.00000001
 12
1.0
 22
0.0
 32
0.0
 13
1.0
 23
0.0
 33
0.0
 40
0.0
 40
0.0
 40
0.0
 40
0.0
 40
0.0127130465489118
 40
0.0254472845433405
 40
0.0421370322575226
 40
0.0736027010833451
 40
0.1869952626419028
 40
0.6362549250504604
 40
1.0
 40
1.0
 40
1.0
 40
1.0
 10
640.4759311064661
 20
751.1826474941003
 30
0.0
 10
640.4758045903494
 20
751.1981367221243
 30
0.0
 10
640.4755513472256
 20
751.2291409972496
 30
0.0
 10
640.4731024957217
 20
751.2736192749553
 30
0.0
 10
640.467982974962
 20
751.3196483803999
 30
0.0
 10
640.451702674238
 20
751.3858431441496
 30
0.0
 10
640.3884217280865
 20
751.4046854081697
 30
0.0
 10
640.2918032433704
 20
751.240235058124
 30
0.0
 10
640.207456934124
 20
751.0680538599197
 30
0.0
 10
640.1697196945131
 20
750.9910185611474
 30
0.0
  0
ARC
  5
80
330
1F
100
AcDbEntity
  8
0
  6
Continuous
 62
     7
370
    15
100
AcDbCircle
 10
453.2267285541
 20
755.3173883437
 30
0.0
 40
5.000000000000007
100
AcDbArc
 50
316.1311450389
 51
43.8688549611
  0
ARC
  5
81
330
1F
100
AcDbEntity
  8
0
  6
Continuous
 62
     7
370
    15
100
AcDbCircle
 10
643.2267285541
 20
755.3173883437
 30
0.0
 40
5.000000000000007
100
AcDbArc
 50
136.1311450389
 51
223.8688549611
  0
ARC
  5
82
330
1F
100
AcDbEntity
  8
0
  6
Continuous
 62
     7
370
    15
100
AcDbCircle
 10
548.2267285541
 20
3521.0882216771
 30
0.0
 40
2776.577043655675
100
AcDbArc
 50
270.1083239506
 51
270.7694911169
  0
ARC
  5
83
330
1F
100
AcDbEntity
  8
0
  6
Continuous
 62
     7
370
    15
100
AcDbCircle
 10
548.2267285541
 20
-2010.4534449896
 30
0.0
 40
2776.577043655675
100
AcDbArc
 50
90.1083239506
 51
90.7694911169
  0
ARC
  5
84
330
1F
100
AcDbEntity
  8
0
  6
Continuous
 62
     7
370
    15
100
AcDbCircle
 10
548.2267285541
 20
3521.0882216771
 30
0.0
 40
2776.577043655675
100
AcDbArc
 50
269.2305088831
 51
269.8916760494
  0
ARC
  5
85
330
1F
100
AcDbEntity
  8
0
  6
Continuous
 62
     7
370
    15
100
AcDbCircle
 10
548.2267285541
 20
-2010.4534449896
 30
0.0
 40
2776.577043655675
100
AcDbArc
 50
89.2305088831
 51
89.8916760494
  0
SPLINE
  5
86
330
1F
100
AcDbEntity
  8
0
  6
Continuous
 62
     7
370
    15
100
AcDbSpline
210
0.0
220
0.0
230
1.0
 70
     8
 71
     3
 72
    12
 73
     8
 74
     0
 42
0.00000001
 43
0.00000001
 12
1.0
 22
0.0
 32
0.0
 13
1.0
 23
0.0
 33
0.0
 40
0.0
 40
0.0
 40
0.0
 40
0.0
 40
0.2154570348083993
 40
0.4309422092874756
 40
0.6457505833565029
 40
0.8597525404841702
 40
1.0
 40
1.0
 40
1.0
 40
1.0
 10
545.475932298559
 20
763.6167128360496
 30
0.0
 10
545.448273579295
 20
763.898912811499
 30
0.0
 10
545.3929525284123
 20
764.4633496190006
 30
0.0
 10
544.9607483384332
 20
765.2150434081583
 30
0.0
 10
544.3250964548987
 20
765.7802544829342
 30
0.0
 10
543.6230148476799
 20
766.0775478375059
 30
0.0
 10
543.1604420401432
 20
766.1069803574275
 30
0.0
 10
542.9773093148649
 20
766.1186327016578
 30
0.0
  0
SPLINE
  5
87
330
1F
100
AcDbEntity
  8
0
  6
Continuous
 62
     7
370
    15
100
AcDbSpline
210
0.0
220
0.0
230
1.0
 70
     8
 71
     3
 72
    12
 73
     8
 74
     0
 42
0.00000001
 43
0.00000001
 12
1.0
 22
0.0
 32
0.0
 13
1.0
 23
0.0
 33
0.0
 40
0.0
 40
0.0
 40
0.0
 40
0.0
 40
0.2154572053091225
 40
0.4309425503111903
 40
0.6457510943676268
 40
0.8597517806647824
 40
1.0
 40
1.0
 40
1.0
 40
1.0
 10
550.9775248303592
 20
747.0180560624825
 30
0.0
 10
551.0051834981473
 20
746.735855929634
 30
0.0
 10
551.0605044460714
 20
746.1714188073136
 30
0.0
 10
551.492709407509
 20
745.4197273770613
 30
0.0
 10
552.1283569511061
 20
744.8545086399549
 30
0.0
 10
552.8304467247306
 20
744.557244421092
 30
0.0
 10
553.2930161161971
 20
744.5277952237027
 30
0.0
 10
553.4761487453759
 20
744.5161361968742
 30
0.0
  0
SPLINE
  5
88
330
1F
100
AcDbEntity
  8
0
  6
Continuous
 62
     7
370
    15
100
AcDbSpline
210
0.0
220
0.0
230
1.0
 70
     8
 71
     3
 72
    12
 73
     8
 74
     0
 42
0.00000001
 43
0.00000001
 12
1.0
 22
0.0
 32
0.0
 13
1.0
 23
0.0
 33
0.0
 40
0.0
 40
0.0
 40
0.0
 40
0.0
 40
0.2137384782469454
 40
0.4274824694139577
 40
0.64117555701426
 40
0.8553618644737568
 40
1.0
 40
1.0
 40
1.0
 40
1.0
 10
542.9773093148649
 20
744.5161361968742
 30
0.0
 10
543.257318127799
 20
744.543104725902
 30
0.0
 10
543.8173429758867
 20
744.5970424795522
 30
0.0
 10
544.5643523645202
 20
745.0249606766478
 30
0.0
 10
545.1290672520281
 20
745.6560601795403
 30
0.0
 10
545.4319954831145
 20
746.3606405397201
 30
0.0
 10
545.4633098329814
 20
746.829189283626
 30
0.0
 10
545.475932298559
 20
747.0180560624825
 30
0.0
  0
SPLINE
  5
89
330
1F
100
AcDbEntity
  8
0
  6
Continuous
 62
     7
370
    15
100
AcDbSpline
210
0.0
220
0.0
230
1.0
 70
     8
 71
     3
 72
    12
 73
     8
 74
     0
 42
0.00000001
 43
0.00000001
 12
1.0
 22
0.0
 32
0.0
 13
1.0
 23
0.0
 33
0.0
 40
0.0
 40
0.0
 40
0.0
 40
0.0
 40
0.2137371841008208
 40
0.4274807216128124
 40
0.6411733059540814
 40
0.8553622857425871
 40
1.0
 40
1.0
 40
1.0
 40
1.0
 10
553.4761487453759
 20
766.1186327016578
 30
0.0
 10
553.1961396968089
 20
766.0916703303852
 30
0.0
 10
552.6361132763097
 20
766.0377447863744
 30
0.0
 10
551.8891057044257
 20
765.609821858836
 30
0.0
 10
551.3243835717751
 20
764.9787218151963
 30
0.0
 10
551.0214650742112
 20
764.2741318750799
 30
0.0
 10
550.9901481982276
 20
763.8055793885733
 30
0.0
 10
550.9775248303592
 20
763.6167128360496
 30
0.0
  0
SPLINE
  5
8A
330
1F
100
AcDbEntity
  8
0
  6
Continuous
 62
     7
370
    15
100
AcDbSpline
210
0.0
220
0.0
230
1.0
 70
     8
 71
     3
 72
    12
 73
     8
 74
     0
 42
0.00000001
 43
0.00000001
 12
1.0
 22
0.0
 32
0.0
 13
1.0
 23
0.0
 33
0.0
 40
0.0
 40
0.0
 40
0.0
 40
0.0
 40
0.2175556476691351
 40
0.4351416127363561
 40
0.6520490598056323
 40
0.8681522980618367
 40
1.0
 40
1.0
 40
1.0
 40
1.0
 10
587.9759327455938
 20
763.3715738332496
 30
0.0
 10
587.948274467951
 20
763.6537560427245
 30
0.0
 10
587.892954058355
 20
764.2181597850858
 30
0.0
 10
587.4607806310869
 20
764.9697721168022
 30
0.0
 10
586.8251413830595
 20
765.5351148322311
 30
0.0
 10
586.1350630894042
 20
765.8268926703942
 30
0.0
 10
585.6857287179581
 20
765.8604717029139
 30
0.0
 10
585.5154641851366
 20
765.8731956756341
 30
0.0
  0
SPLINE
  5
8B
330
1F
100
AcDbEntity
  8
0
  6
Continuous
 62
     7
370
    15
100
AcDbSpline
210
0.0
220
0.0
230
1.0
 70
     8
 71
     3
 72
    12
 73
     8
 74
     0
 42
0.00000001
 43
0.00000001
 12
1.0
 22
0.0
 32
0.0
 13
1.0
 23
0.0
 33
0.0
 40
0.0
 40
0.0
 40
0.0
 40
0.0
 40
0.2175551642958821
 40
0.4351407265159939
 40
0.6520477719943952
 40
0.8681520645732693
 40
0.9999999999999999
 40
0.9999999999999999
 40
0.9999999999999999
 40
0.9999999999999999
 10
508.4775262459696
 20
747.2632099664436
 30
0.0
 10
508.5051837985022
 20
746.9810278460574
 30
0.0
 10
508.5605027680224
 20
746.4166241773505
 30
0.0
 10
508.9926760678443
 20
745.6650103423851
 30
0.0
 10
509.6283192308261
 20
745.0996727843736
 30
0.0
 10
510.3183917683896
 20
744.8078737375564
 30
0.0
 10
510.7677293759922
 20
744.7742964934014
 30
0.0
 10
510.9379948064268
 20
744.761573222898
 30
0.0
  0
SPLINE
  5
8C
330
1F
100
AcDbEntity
  8
0
  6
Continuous
 62
     7
370
    15
100
AcDbSpline
210
0.0
220
0.0
230
1.0
 70
     8
 71
     3
 72
    12
 73
     8
 74
     0
 42
0.00000001
 43
0.00000001
 12
1.0
 22
0.0
 32
0.0
 13
1.0
 23
0.0
 33
0.0
 40
0.0
 40
0.0
 40
0.0
 40
0.0
 40
0.215836113913856
 40
0.4316756495949744
 40
0.6474814170269586
 40
0.863804379551493
 40
1.0
 40
1.0
 40
1.0
 40
1.0
 10
510.9379948064268
 20
765.8731956756341
 30
0.0
 10
510.6584281773333
 20
765.841938027534
 30
0.0
 10
510.0992904870245
 20
765.7794222357895
 30
0.0
 10
509.3589427098276
 20
765.3401065140861
 30
0.0
 10
508.8037600148191
 20
764.7003826600563
 30
0.0
 10
508.5170411343718
 20
764.0033394244152
 30
0.0
 10
508.4885383154065
 20
763.547635232866
 30
0.0
 10
508.4775262459696
 20
763.3715738332496
 30
0.0
  0
SPLINE
  5
8D
330
1F
100
AcDbEntity
  8
0
  6
Continuous
 62
     7
370
    15
100
AcDbSpline
210
0.0
220
0.0
230
1.0
 70
     8
 71
     3
 72
    12
 73
     8
 74
     0
 42
0.00000001
 43
0.00000001
 12
1.0
 22
0.0
 32
0.0
 13
1.0
 23
0.0
 33
0.0
 40
0.0
 40
0.0
 40
0.0
 40
0.0
 40
0.2158353200812781
 40
0.4316764442996371
 40
0.6474818908176375
 40
0.8638045316590931
 40
1.0
 40
1.0
 40
1.0
 40
1.0
 10
585.5154641851366
 20
744.761573222898
 30
0.0
 10
585.7950308698149
 20
744.7928297807084
 30
0.0
 10
586.3541717571411
 20
744.8553437368648
 30
0.0
 10
587.0945102470808
 20
745.2946796568806
 30
0.0
 10
587.6496980471253
 20
745.9343999582331
 30
0.0
 10
587.9364150900469
 20
746.6314446932538
 30
0.0
 10
587.9649199032001
 20
747.0871486265895
 30
0.0
 10
587.9759327455938
 20
747.2632099664436
 30
0.0
  0
ARC
  5
8E
330
1F
100
AcDbEntity
  8
0
  6
Continuous
 62
     7
370
    15
100
AcDbCircle
 10
460.853324312
 20
751.1950974004
 30
0.0
 40
5.306210322340752
100
AcDbArc
 50
213.2125857976
 51
268.1932631805
  0
LINE
  5
8F
330
1F
100
AcDbEntity
  8
0
  6
Continuous
 62
     7
370
    15
100
AcDbLine
 10
456.4139121159
 20
748.288633374
 30
0.0
 11
456.3102372869
 21
748.4559138096
 31
0.0
  0
ARC
  5
90
330
1F
100
AcDbEntity
  8
0
  6
Continuous
 62
     7
370
    15
100
AcDbCircle
 10
635.6001327961
 20
759.4396792871
 30
0.0
 40
5.306210322340709
100
AcDbArc
 50
33.2125857976
 51
88.1932631805
  0
LINE
  5
91
330
1F
100
AcDbEntity
  8
0
  6
Continuous
 62
     7
370
    15
100
AcDbLine
 10
640.0395431503
 20
762.3461355245
 30
0.0
 11
640.1432254299
 21
762.178855089
 31
0.0
  0
ARC
  5
92
330
1F
100
AcDbEntity
  8
0
  6
Continuous
 62
     7
370
    15
100
AcDbCircle
 10
635.6001327961
 20
751.1950974004
 30
0.0
 40
5.306210322340926
100
AcDbArc
 50
271.8067368195
 51
326.7874142024
  0
LINE
  5
93
330
1F
100
AcDbEntity
  8
0
  6
Continuous
 62
     7
370
    15
100
AcDbLine
 10
640.1432254299
 20
748.4559138096
 30
0.0
 11
640.0395431503
 21
748.288633374
 31
0.0
  0
ARC
  5
94
330
1F
100
AcDbEntity
  8
0
  6
Continuous
 62
     7
370
    15
100
AcDbCircle
 10
460.853324312
 20
759.4396792871
 30
0.0
 40
5.306210322340815
100
AcDbArc
 50
91.8067368195
 51
146.7874142024
  0
LINE
  5
95
330
1F
100
AcDbEntity
  8
0
  6
Continuous
 62
     7
370
    15
100
AcDbLine
 10
456.3102372869
 20
762.178855089
 30
0.0
 11
456.4139121159
 21
762.3461355245
 31
0.0
  0
SPLINE
  5
96
330
1F
100
AcDbEntity
  8
0
  6
Continuous
 62
     7
370
    15
100
AcDbSpline
210
0.0
220
0.0
230
1.0
 70
     8
 71
     3
 72
    12
 73
     8
 74
     0
 42
0.00000001
 43
0.00000001
 12
1.0
 22
0.0
 32
0.0
 13
1.0
 23
0.0
 33
0.0
 40
0.0
 40
0.0
 40
0.0
 40
0.0
 40
0.2116830667582537
 40
0.4233729912811369
 40
0.6349947938395311
 40
0.8470936678471568
 40
1.0
 40
1.0
 40
1.0
 40
1.0
 10
500.4391544445932
 20
744.922446159147
 30
0.0
 10
500.7195408246332
 20
744.945114908367
 30
0.0
 10
501.2803226682162
 20
744.9904531411926
 30
0.0
 10
502.0338207539755
 20
745.4068642179167
 30
0.0
 10
502.6079545108723
 20
746.0291947463611
 30
0.0
 10
502.9273548027558
 20
746.7409947620715
 30
0.0
 10
502.96159013908
 20
747.2223999252075
 30
0.0
 10
502.9759318515241
 20
747.4240680015312
 30
0.0
  0
SPLINE
  5
97
330
1F
100
AcDbEntity
  8
0
  6
Continuous
 62
     7
370
    15
100
AcDbSpline
210
0.0
220
0.0
230
1.0
 70
     8
 71
     3
 72
    12
 73
     8
 74
     0
 42
0.00000001
 43
0.00000001
 12
1.0
 22
0.0
 32
0.0
 13
1.0
 23
0.0
 33
0.0
 40
0.0
 40
0.0
 40
0.0
 40
0.0
 40
0.2134007393303496
 40
0.4268277113641376
 40
0.6395796854876826
 40
0.8515212908488314
 40
1.0
 40
1.0
 40
1.0
 40
1.0
 10
593.4775252773941
 20
747.4240680015312
 30
0.0
 10
593.5051841843792
 20
747.1418499482713
 30
0.0
 10
593.5605053983747
 20
746.5773791495451
 30
0.0
 10
593.992744735834
 20
745.8256079448004
 30
0.0
 10
594.6284020254519
 20
745.2605161781835
 30
0.0
 10
595.3425003725126
 20
744.9577433656656
 30
0.0
 10
595.818295885158
 20
744.93274463373
 30
0.0
 10
596.0143045469702
 20
744.9224461591468
 30
0.0
  0
SPLINE
  5
98
330
1F
100
AcDbEntity
  8
0
  6
Continuous
 62
     7
370
    15
100
AcDbSpline
210
0.0
220
0.0
230
1.0
 70
     8
 71
     3
 72
    12
 73
     8
 74
     0
 42
0.00000001
 43
0.00000001
 12
1.0
 22
0.0
 32
0.0
 13
1.0
 23
0.0
 33
0.0
 40
0.0
 40
0.0
 40
0.0
 40
0.0
 40
0.2134002228719326
 40
0.4268302857540314
 40
0.6395814711315163
 40
0.8515212158401542
 40
1.0
 40
1.0
 40
1.0
 40
1.0
 10
502.9759318515241
 20
763.2107008970008
 30
0.0
 10
502.9482730624042
 20
763.4929187843485
 30
0.0
 10
502.8929516166024
 20
764.0573940219107
 30
0.0
 10
502.4607164731902
 20
764.8091708364503
 30
0.0
 10
501.8250602084809
 20
765.3742735689414
 30
0.0
 10
501.1109545111855
 20
765.6770171173691
 30
0.0
 10
500.6351626657657
 20
765.7020323231415
 30
0.0
 10
500.4391544445932
 20
765.7123376405464
 30
0.0
  0
SPLINE
  5
99
330
1F
100
AcDbEntity
  8
0
  6
Continuous
 62
     7
370
    15
100
AcDbSpline
210
0.0
220
0.0
230
1.0
 70
     8
 71
     3
 72
    12
 73
     8
 74
     0
 42
0.00000001
 43
0.00000001
 12
1.0
 22
0.0
 32
0.0
 13
1.0
 23
0.0
 33
0.0
 40
0.0
 40
0.0
 40
0.0
 40
0.0
 40
0.2116842988491223
 40
0.4233731215150514
 40
0.6349949746606505
 40
0.8470901169843215
 40
1.0
 40
1.0
 40
1.0
 40
1.0
 10
596.0143045469702
 20
765.7123376405464
 30
0.0
 10
595.7339169624018
 20
765.6896631067566
 30
0.0
 10
595.1731358012191
 20
765.644313554609
 30
0.0
 10
594.4196371202763
 20
765.2279040656811
 30
0.0
 10
593.8455072283476
 20
764.60557745289
 30
0.0
 10
593.5260982368596
 20
763.8937804472679
 30
0.0
 10
593.4918660222341
 20
763.412374207494
 30
0.0
 10
593.4775252773941
 20
763.2107008970008
 30
0.0
  0
ARC
  5
9A
330
1F
100
AcDbEntity
  8
0
  6
Continuous
 62
     7
370
    15
100
AcDbCircle
 10
548.2267285541
 20
3521.0882216771
 30
0.0
 40
2776.577043655675
100
AcDbArc
 50
268.1932631805
 51
269.0138355523
  0
ARC
  5
9B
330
1F
100
AcDbEntity
  8
0
  6
Continuous
 62
     7
370
    15
100
AcDbCircle
 10
548.2267285541
 20
-2010.4534449896
 30
0.0
 40
2776.577043655675
100
AcDbArc
 50
88.1932631805
 51
89.0138355523
  0
ARC
  5
9C
330
1F
100
AcDbEntity
  8
0
  6
Continuous
 62
     7
370
    15
100
AcDbCircle
 10
548.2267285541
 20
-2010.4534449896
 30
0.0
 40
2776.577043655675
100
AcDbArc
 50
90.9861644477
 51
91.8067368195
  0
ARC
  5
9D
330
1F
100
AcDbEntity
  8
0
  6
Continuous
 62
     7
370
    15
100
AcDbCircle
 10
548.2267285541
 20
3521.0882216771
 30
0.0
 40
2776.577043655675
100
AcDbArc
 50
270.9861644477
 51
271.8067368195
  0
SPLINE
  5
9E
330
1F
100
AcDbEntity
  8
0
  6
Continuous
 62
     7
370
    15
100
AcDbSpline
210
0.0
220
0.0
230
1.0
 70
     8
 71
     3
 72
    12
 73
     8
 74
     0
 42
0.00000001
 43
0.00000001
 12
1.0
 22
0.0
 32
0.0
 13
1.0
 23
0.0
 33
0.0
 40
0.0
 40
0.0
 40
0.0
 40
0.0
 40
0.2431809441332703
 40
0.4869714043319919
 40
0.7196853802570322
 40
0.9552617896698573
 40
1.0
 40
1.0
 40
1.0
 40
1.0
 10
640.1432254299104
 20
748.4559138095605
 30
0.0
 10
640.193137174331
 20
748.5515613199219
 30
0.0
 10
640.2930857634764
 20
748.7430960744548
 30
0.0
 10
640.3683786307106
 20
749.0060810428813
 30
0.0
 10
640.4001240193707
 20
749.1961269290246
 30
0.0
 10
640.4014381275684
 20
749.2690856967596
 30
0.0
 10
640.3968780739442
 20
749.28259078547
 30
0.0
 10
640.3961502894342
 20
749.2847461974845
 30
0.0
  0
SPLINE
  5
9F
330
1F
100
AcDbEntity
  8
0
  6
Continuous
 62
     7
370
    15
100
AcDbSpline
210
0.0
220
0.0
230
1.0
 70
     8
 71
     3
 72
    15
 73
    11
 74
     0
 42
0.00000001
 43
0.00000001
 12
1.0
 22
0.0
 32
0.0
 13
1.0
 23
0.0
 33
0.0
 40
0.0
 40
0.0
 40
0.0
 40
0.0
 40
0.309803951621503
 40
0.5224499175568984
 40
0.6700837598815818
 40
0.8213271569306332
 40
0.8850193782282374
 40
0.9493331742418721
 40
0.9897448709758936
 40
1.0
 40
1.0
 40
1.0
 40
1.0
 10
640.3961502894342
 20
749.2847461974845
 30
0.0
 10
640.405341783465
 20
749.3006928149387
 30
0.0
 10
640.4208422161529
 20
749.3275850121832
 30
0.0
 10
640.4404514223487
 20
749.3796606430446
 30
0.0
 10
640.45507598443
 20
749.4331594125749
 30
0.0
 10
640.4650706876627
 20
749.4854144679988
 30
0.0
 10
640.4717467301795
 20
749.5440214446646
 30
0.0
 10
640.4749262586578
 20
749.590857139128
 30
0.0
 10
640.4758889025454
 20
749.6298673177803
 30
0.0
 10
640.4759240021856
 20
749.6473078963214
 30
0.0
 10
640.4759311064661
 20
749.650837925695
 30
0.0
  0
SPLINE
  5
A0
330
1F
100
AcDbEntity
  8
0
  6
Continuous
 62
     7
370
    15
100
AcDbSpline
210
0.0
220
0.0
230
1.0
 70
     8
 71
     3
 72
    12
 73
     8
 74
     0
 42
0.00000001
 43
0.00000001
 12
1.0
 22
0.0
 32
0.0
 13
1.0
 23
0.0
 33
0.0
 40
0.0
 40
0.0
 40
0.0
 40
0.0
 40
0.2406713445704527
 40
0.48148704102804
 40
0.7183722599279755
 40
0.950572187955804
 40
1.0
 40
1.0
 40
1.0
 40
1.0
 10
640.3961502894342
 20
761.3500227010476
 30
0.0
 10
640.3984797542457
 20
761.3699369671724
 30
0.0
 10
640.4031400810547
 20
761.4097774437683
 30
0.0
 10
640.3761478266333
 20
761.5959950855802
 30
0.0
 10
640.3067986712813
 20
761.8445591915705
 30
0.0
 10
640.2162948635421
 20
762.0511147743679
 30
0.0
 10
640.1541349652093
 20
762.1597829899831
 30
0.0
 10
640.1432254299104
 20
762.1788550889717
 30
0.0
  0
SPLINE
  5
A1
330
1F
100
AcDbEntity
  8
0
  6
Continuous
 62
     7
370
    15
100
AcDbSpline
210
0.0
220
0.0
230
1.0
 70
     8
 71
     3
 72
    12
 73
     8
 74
     0
 42
0.00000001
 43
0.00000001
 12
1.0
 22
0.0
 32
0.0
 13
1.0
 23
0.0
 33
0.0
 40
0.0
 40
0.0
 40
0.0
 40
0.0
 40
0.0402755653673816
 40
0.0803763874458667
 40
0.1535167006269504
 40
0.3575416716522303
 40
1.0
 40
1.0
 40
1.0
 40
1.0
 10
640.4759311064661
 20
760.9839458739982
 30
0.0
 10
640.4758068612668
 20
760.9978576701973
 30
0.0
 10
640.4755589099299
 20
761.0256209035911
 30
0.0
 10
640.4732166285283
 20
761.0724347025979
 30
0.0
 10
640.4661573350347
 20
761.1474586629232
 30
0.0
 10
640.4403490668244
 20
761.2732496261551
 30
0.0
 10
640.4152214686587
 20
761.3168961496508
 30
0.0
 10
640.3961502894342
 20
761.3500227010475
 30
0.0
  0
SPLINE
  5
A2
330
1F
100
AcDbEntity
  8
0
  6
Continuous
 62
     7
370
    15
100
AcDbSpline
210
0.0
220
0.0
230
1.0
 70
     8
 71
     3
 72
    15
 73
    11
 74
     0
 42
0.00000001
 43
0.00000001
 12
1.0
 22
0.0
 32
0.0
 13
1.0
 23
0.0
 33
0.0
 40
0.0
 40
0.0
 40
0.0
 40
0.0
 40
0.3098042606725514
 40
0.5224516431209326
 40
0.6700909730126933
 40
0.8213348142799938
 40
0.88501895226186
 40
0.9493328088127005
 40
0.9897447747438964
 40
1.0
 40
1.0
 40
1.0
 40
1.0
 10
456.0573124274194
 20
761.3500227010476
 30
0.0
 10
456.0481173153619
 20
761.3340815976248
 30
0.0
 10
456.0326107455274
 20
761.307198637209
 30
0.0
 10
456.0130059373714
 20
761.255128398325
 30
0.0
 10
455.9983738455012
 20
761.2016083175323
 30
0.0
 10
455.988401480327
 20
761.1493475043167
 30
0.0
 10
455.9817044384866
 20
761.0907634470815
 30
0.0
 10
455.9785329347268
 20
761.0439259427167
 30
0.0
 10
455.9775826585848
 20
761.0049164623665
 30
0.0
 10
455.9775340070551
 20
760.9874759064563
 30
0.0
 10
455.977524159807
 20
760.9839458739982
 30
0.0
  0
SPLINE
  5
A3
330
1F
100
AcDbEntity
  8
0
  6
Continuous
 62
     7
370
    15
100
AcDbSpline
210
0.0
220
0.0
230
1.0
 70
     8
 71
     3
 72
    12
 73
     8
 74
     0
 42
0.00000001
 43
0.00000001
 12
1.0
 22
0.0
 32
0.0
 13
1.0
 23
0.0
 33
0.0
 40
0.0
 40
0.0
 40
0.0
 40
0.0
 40
0.2431735326869964
 40
0.486971071853341
 40
0.719685430619347
 40
0.9552616404321204
 40
1.0
 40
1.0
 40
1.0
 40
1.0
 10
456.3102372869432
 20
762.1788550889717
 30
0.0
 10
456.2603210223834
 20
762.083214035214
 30
0.0
 10
456.1603604033677
 20
761.8916865036326
 30
0.0
 10
456.0850902274985
 20
761.628686724166
 30
0.0
 10
456.0533321026527
 20
761.4386430164533
 30
0.0
 10
456.0520050861007
 20
761.3656831003952
 30
0.0
 10
456.0565819564003
 20
761.3521781056435
 30
0.0
 10
456.0573124274194
 20
761.3500227010475
 30
0.0
  0
SPLINE
  5
A4
330
1F
100
AcDbEntity
  8
0
  6
Continuous
 62
     7
370
    15
100
AcDbSpline
210
0.0
220
0.0
230
1.0
 70
     8
 71
     3
 72
    12
 73
     8
 74
     0
 42
0.00000001
 43
0.00000001
 12
1.0
 22
0.0
 32
0.0
 13
1.0
 23
0.0
 33
0.0
 40
0.0
 40
0.0
 40
0.0
 40
0.0
 40
0.2406663587214025
 40
0.4814797900466739
 40
0.7183627807846897
 40
0.9505605247208312
 40
1.0
 40
1.0
 40
1.0
 40
1.0
 10
456.0573124274194
 20
749.2847461974847
 30
0.0
 10
456.0549798340605
 20
749.2648380188793
 30
0.0
 10
456.0503132218812
 20
749.2250094956657
 30
0.0
 10
456.0773080884022
 20
749.0387878337253
 30
0.0
 10
456.1466560455282
 20
748.7902243571232
 30
0.0
 10
456.2371635109527
 20
748.5836654725761
 30
0.0
 10
456.2993252257752
 20
748.4749908853273
 30
0.0
 10
456.3102372869432
 20
748.4559138095603
 30
0.0
  0
SPLINE
  5
A5
330
1F
100
AcDbEntity
  8
0
  6
Continuous
 62
     7
370
    15
100
AcDbSpline
210
0.0
220
0.0
230
1.0
 70
     8
 71
     3
 72
    12
 73
     8
 74
     0
 42
0.00000001
 43
0.00000001
 12
1.0
 22
0.0
 32
0.0
 13
1.0
 23
0.0
 33
0.0
 40
0.0
 40
0.0
 40
0.0
 40
0.0
 40
0.0403654002907643
 40
0.0805439537145375
 40
0.1538264437764908
 40
0.3585291989010641
 40
1.0
 40
1.0
 40
1.0
 40
1.0
 10
455.977524159807
 20
749.650837925695
 30
0.0
 10
455.9776507696057
 20
749.6368952269216
 30
0.0
 10
455.9779034031408
 20
749.6090743685485
 30
0.0
 10
455.9802566395329
 20
749.5621769427557
 30
0.0
 10
455.9873271229094
 20
749.4870511877739
 30
0.0
 10
456.0131693071235
 20
749.361479848922
 30
0.0
 10
456.0382779568487
 20
749.3178336734102
 30
0.0
 10
456.0573124274194
 20
749.2847461974845
 30
0.0
  0
LINE
  5
A6
330
1F
100
AcDbEntity
  8
0
  6
Continuous
 62
     7
370
    15
100
AcDbLine
 10
456.2438004598
 20
761.1635346687
 30
0.0
 11
456.0573869332
 21
761.3499481952
 31
0.0
  0
ELLIPSE
  5
A7
330
1F
100
AcDbEntity
  8
0
  6
Continuous
 62
     7
370
    15
100
AcDbEllipse
 10
456.2399910887
 20
760.6654330791
 30
0.0
 11
0.0
 21
0.4999999999998863
 31
0.0
210
0.0
220
0.0
230
1.0
 40
0.0874886635
 41
4.712388980384691
 42
6.195918844580954
  0
LINE
  5
A8
330
1F
100
AcDbEntity
  8
0
  6
Continuous
 62
     7
370
    15
100
AcDbLine
 10
456.2837355718
 20
759.6437503374
 30
0.0
 11
456.2837355718
 21
760.6654335535
 31
0.0
  0
ELLIPSE
  5
A9
330
1F
100
AcDbEntity
  8
0
  6
Continuous
 62
     7
370
    15
100
AcDbEllipse
 10
456.0650137617
 20
762.3461401624
 30
0.0
 11
0.0
 21
1.0
 31
0.0
210
0.0
220
0.0
230
1.0
 40
0.0874886635
 41
3.053409736768919
 42
3.054326190989599
  0
LINE
  5
AA
330
1F
100
AcDbEntity
  8
0
  6
Continuous
 62
     7
370
    15
100
AcDbLine
 10
640.2096548065
 20
749.471249131
 30
0.0
 11
640.396068333
 21
749.2848356045
 31
0.0
  0
ELLIPSE
  5
AB
330
1F
100
AcDbEntity
  8
0
  6
Continuous
 62
     7
370
    15
100
AcDbEllipse
 10
640.2134660194
 20
749.9693436084
 30
0.0
 11
0.0
 21
0.4999999999998863
 31
0.0
210
0.0
220
0.0
230
1.0
 40
0.0874886635
 41
1.570796326794897
 42
3.054326190989526
  0
LINE
  5
AC
330
1F
100
AcDbEntity
  8
0
  6
Continuous
 62
     7
370
    15
100
AcDbLine
 10
640.1697196945
 20
749.9693502462
 30
0.0
 11
640.1697196945
 21
750.9910185611
 31
0.0
  0
ELLIPSE
  5
AD
330
1F
100
AcDbEntity
  8
0
  6
Continuous
 62
     7
370
    15
100
AcDbEllipse
 10
640.3884433465
 20
748.288636525
 30
0.0
 11
0.0
 21
0.9999999999998863
 31
0.0
210
0.0
220
0.0
230
1.0
 40
0.0874886635
 41
6.195002390609976
 42
6.195918844579541
  0
LINE
  5
AE
330
1F
100
AcDbEntity
  8
0
  6
Continuous
 62
     7
370
    15
100
AcDbLine
 10
640.1697196945
 20
759.6437503374
 30
0.0
 11
640.1697196945
 21
760.6654335535
 31
0.0
  0
ELLIPSE
  5
AF
330
1F
100
AcDbEntity
  8
0
  6
Continuous
 62
     7
370
    15
100
AcDbEllipse
 10
640.2134660194
 20
760.6654330791
 30
0.0
 11
0.0
 21
0.4999999999998863
 31
0.0
210
0.0
220
0.0
230
1.0
 40
0.0874886635
 41
0.0872664626003082
 42
1.570796326794897
  0
LINE
  5
B0
330
1F
100
AcDbEntity
  8
0
  6
Continuous
 62
     7
370
    15
100
AcDbLine
 10
640.2096548065
 20
761.1635346687
 30
0.0
 11
640.396068333
 21
761.3499481952
 31
0.0
  0
ELLIPSE
  5
B1
330
1F
100
AcDbEntity
  8
0
  6
Continuous
 62
     7
370
    15
100
AcDbEllipse
 10
640.3884433465
 20
762.3461401624
 30
0.0
 11
0.0
 21
1.0
 31
0.0
210
0.0
220
0.0
230
1.0
 40
0.0874886635
 41
3.228859116190145
 42
3.229775570159711
  0
LINE
  5
B2
330
1F
100
AcDbEntity
  8
0
  6
Continuous
 62
     7
370
    15
100
AcDbLine
 10
456.2837355718
 20
749.9693502462
 30
0.0
 11
456.2837355718
 21
750.9910185611
 31
0.0
  0
ELLIPSE
  5
B3
330
1F
100
AcDbEntity
  8
0
  6
Continuous
 62
     7
370
    15
100
AcDbEllipse
 10
456.2399910887
 20
749.9693436084
 30
0.0
 11
0.0
 21
0.4999999999998863
 31
0.0
210
0.0
220
0.0
230
1.0
 40
0.0874886635
 41
3.228859116188698
 42
4.712388980384691
  0
LINE
  5
B4
330
1F
100
AcDbEntity
  8
0
  6
Continuous
 62
     7
370
    15
100
AcDbLine
 10
456.2438004598
 20
749.471249131
 30
0.0
 11
456.0573869332
 21
749.2848356045
 31
0.0
  0
ELLIPSE
  5
B5
330
1F
100
AcDbEntity
  8
0
  6
Continuous
 62
     7
370
    15
100
AcDbEllipse
 10
456.0650137617
 20
748.288636525
 30
0.0
 11
0.0
 21
0.9999999999998863
 31
0.0
210
0.0
220
0.0
230
1.0
 40
0.0874886635
 41
0.0872664626002052
 42
0.0881829168208832
  0
ARC
  5
B6
330
1F
100
AcDbEntity
  8
0
  6
Continuous
 62
     7
370
    15
100
AcDbCircle
 10
608.8642364976
 20
512.3048920442
 30
0.0
 40
13.61249999999995
100
AcDbArc
 50
359.9999999534
 51
90.0000000462
  0
LINE
  5
B7
330
1F
100
AcDbEntity
  8
0
  6
Continuous
 62
     7
370
    15
100
AcDbLine
 10
622.476736544
 20
512.3048928356
 30
0.0
 11
622.476736544
 21
391.0298962867
 31
0.0
  0
ARC
  5
B8
330
1F
100
AcDbEntity
  8
0
  6
Continuous
 62
     7
370
    15
100
AcDbCircle
 10
608.8642364976
 20
391.0298920442
 30
0.0
 40
13.61250000000001
100
AcDbArc
 50
269.9999999531
 51
0.0000000521
  0
LINE
  5
B9
330
1F
100
AcDbEntity
  8
0
  6
Continuous
 62
     7
370
    15
100
AcDbLine
 10
487.5892349466
 20
377.4173875129
 30
0.0
 11
608.8642352208
 21
377.4173875129
 31
0.0
  0
ARC
  5
BA
330
1F
100
AcDbEntity
  8
0
  6
Continuous
 62
     7
370
    15
100
AcDbCircle
 10
487.5892364976
 20
391.0298920442
 30
0.0
 40
13.61250000000001
100
AcDbArc
 50
179.9999999391
 51
270.0000000521
  0
LINE
  5
BB
330
1F
100
AcDbEntity
  8
0
  6
Continuous
 62
     7
370
    15
100
AcDbLine
 10
473.9767336234
 20
512.3048928356
 30
0.0
 11
473.9767336234
 21
391.0298962867
 31
0.0
  0
ARC
  5
BC
330
1F
100
AcDbEntity
  8
0
  6
Continuous
 62
     7
370
    15
100
AcDbCircle
 10
487.5892364976
 20
512.3048920442
 30
0.0
 40
13.61249999999995
100
AcDbArc
 50
89.9999999303
 51
180.0000000521
  0
LINE
  5
BD
330
1F
100
AcDbEntity
  8
0
  6
Continuous
 62
     7
370
    15
100
AcDbLine
 10
608.8642352208
 20
525.9173904336
 30
0.0
 11
487.5892349466
 21
525.9173904336
 31
0.0
  0
ARC
  5
BE
330
1F
100
AcDbEntity
  8
0
  6
Continuous
 62
     7
370
    15
100
AcDbCircle
 10
608.8642364976
 20
391.0298920442
 30
0.0
 40
14.36250000000001
100
AcDbArc
 50
270.0000000143
 51
359.9999999945
  0
LINE
  5
BF
330
1F
100
AcDbEntity
  8
0
  6
Continuous
 62
     7
370
    15
100
AcDbLine
 10
608.8642352208
 20
376.6673971689
 30
0.0
 11
487.5892349466
 21
376.6673971689
 31
0.0
  0
ARC
  5
C0
330
1F
100
AcDbEntity
  8
0
  6
Continuous
 62
     7
370
    15
100
AcDbCircle
 10
487.5892364976
 20
391.0298920442
 30
0.0
 40
14.36250000000007
100
AcDbArc
 50
180.0000000029
 51
270.0
  0
LINE
  5
C1
330
1F
100
AcDbEntity
  8
0
  6
Continuous
 62
     7
370
    15
100
AcDbLine
 10
623.2267380639
 20
391.0298962867
 30
0.0
 11
623.2267380639
 21
512.3048928356
 31
0.0
  0
LINE
  5
C2
330
1F
100
AcDbEntity
  8
0
  6
Continuous
 62
     7
370
    15
100
AcDbLine
 10
473.2267358288
 20
391.0298962867
 30
0.0
 11
473.2267358288
 21
512.3048928356
 31
0.0
  0
ARC
  5
C3
330
1F
100
AcDbEntity
  8
0
  6
Continuous
 62
     7
370
    15
100
AcDbCircle
 10
608.8642364976
 20
512.3048920442
 30
0.0
 40
14.36250000000007
100
AcDbArc
 50
0.0
 51
89.9999999974
  0
ARC
  5
C4
330
1F
100
AcDbEntity
  8
0
  6
Continuous
 62
     7
370
    15
100
AcDbCircle
 10
487.5892364976
 20
512.3048920442
 30
0.0
 40
14.36250000000007
100
AcDbArc
 50
89.9999999941
 51
180.0
  0
LINE
  5
C5
330
1F
100
AcDbEntity
  8
0
  6
Continuous
 62
     7
370
    15
100
AcDbLine
 10
487.5892349466
 20
526.6673919535
 30
0.0
 11
608.8642352208
 21
526.6673919535
 31
0.0
  0
LINE
  5
C6
330
1F
100
AcDbEntity
  8
0
  6
Continuous
 62
     7
370
    15
100
AcDbLine
 10
487.5892200455
 20
552.4173845327
 30
0.0
 11
608.8642203196
 21
552.4173845327
 31
0.0
  0
LINE
  5
C7
330
1F
100
AcDbEntity
  8
0
  6
Continuous
 62
     7
370
    15
100
AcDbLine
 10
608.8642203196
 20
551.6673848754
 30
0.0
 11
487.5892200455
 21
551.6673848754
 31
0.0
  0
ARC
  5
C8
330
1F
100
AcDbEntity
  8
0
  6
Continuous
 62
     7
370
    15
100
AcDbCircle
 10
487.5892206106
 20
566.0298846432
 30
0.0
 40
13.61250000000007
100
AcDbArc
 50
179.9999999534
 51
270.0000000462
  0
ARC
  5
C9
330
1F
100
AcDbEntity
  8
0
  6
Continuous
 62
     7
370
    15
100
AcDbCircle
 10
487.5892206106
 20
566.0298846432
 30
0.0
 40
14.36250000000001
100
AcDbArc
 50
180.0
 51
269.9999999974
  0
LINE
  5
CA
330
1F
100
AcDbEntity
  8
0
  6
Continuous
 62
     7
370
    15
100
AcDbLine
 10
473.9767187222
 20
566.0298846918
 30
0.0
 11
473.9767187222
 21
687.3048861301
 31
0.0
  0
ARC
  5
CB
330
1F
100
AcDbEntity
  8
0
  6
Continuous
 62
     7
370
    15
100
AcDbCircle
 10
487.5892206106
 20
687.3048846432
 30
0.0
 40
13.61250000000007
100
AcDbArc
 50
89.9999999531
 51
180.0000000521
  0
LINE
  5
CC
330
1F
100
AcDbEntity
  8
0
  6
Continuous
 62
     7
370
    15
100
AcDbLine
 10
608.8642203196
 20
700.9173800028
 30
0.0
 11
487.5892200455
 21
700.9173800028
 31
0.0
  0
ARC
  5
CD
330
1F
100
AcDbEntity
  8
0
  6
Continuous
 62
     7
370
    15
100
AcDbCircle
 10
608.8642206106
 20
687.3048846432
 30
0.0
 40
13.61250000000007
100
AcDbArc
 50
359.9999999391
 51
90.0000000521
  0
LINE
  5
CE
330
1F
100
AcDbEntity
  8
0
  6
Continuous
 62
     7
370
    15
100
AcDbLine
 10
622.4767216429
 20
566.0298846918
 30
0.0
 11
622.4767216429
 21
687.3048861301
 31
0.0
  0
ARC
  5
CF
330
1F
100
AcDbEntity
  8
0
  6
Continuous
 62
     7
370
    15
100
AcDbCircle
 10
608.8642206106
 20
566.0298846432
 30
0.0
 40
13.61250000000007
100
AcDbArc
 50
269.9999999303
 51
0.0000000521
  0
ARC
  5
D0
330
1F
100
AcDbEntity
  8
0
  6
Continuous
 62
     7
370
    15
100
AcDbCircle
 10
608.8642206106
 20
566.0298846432
 30
0.0
 40
14.36249999999995
100
AcDbArc
 50
269.9999999941
 51
0.0
  0
LINE
  5
D1
330
1F
100
AcDbEntity
  8
0
  6
Continuous
 62
     7
370
    15
100
AcDbLine
 10
473.2267209276
 20
687.3048861301
 30
0.0
 11
473.2267209276
 21
566.0298846918
 31
0.0
  0
LINE
  5
D2
330
1F
100
AcDbEntity
  8
0
  6
Continuous
 62
     7
370
    15
100
AcDbLine
 10
623.2267194375
 20
687.3048861301
 30
0.0
 11
623.2267194375
 21
566.0298846918
 31
0.0
  0
ARC
  5
D3
330
1F
100
AcDbEntity
  8
0
  6
Continuous
 62
     7
370
    15
100
AcDbCircle
 10
487.5892206106
 20
687.3048846432
 30
0.0
 40
14.36250000000007
100
AcDbArc
 50
90.0000000143
 51
179.9999999945
  0
ARC
  5
D4
330
1F
100
AcDbEntity
  8
0
  6
Continuous
 62
     7
370
    15
100
AcDbCircle
 10
608.8642206106
 20
687.3048846432
 30
0.0
 40
14.36249999999995
100
AcDbArc
 50
0.0000000029
 51
90.0
  0
LINE
  5
D5
330
1F
100
AcDbEntity
  8
0
  6
Continuous
 62
     7
370
    15
100
AcDbLine
 10
487.5892200455
 20
701.667385248
 30
0.0
 11
608.8642203196
 21
701.667385248
 31
0.0
  0
LINE
  5
D6
330
1F
100
AcDbEntity
  8
0
  6
Continuous
 62
     7
370
    15
100
AcDbLine
 10
470.8517217025
 20
566.517384795
 30
0.0
 11
470.8517217025
 21
686.8173871911
 31
0.0
  0
ARC
  5
D7
330
1F
100
AcDbEntity
  8
0
  6
Continuous
 62
     7
370
    15
100
AcDbCircle
 10
488.0767206106
 20
686.8173846432
 30
0.0
 40
17.22499999999991
100
AcDbArc
 50
89.9999999971
 51
180.0000000029
  0
ARC
  5
D8
330
1F
100
AcDbEntity
  8
0
  6
Continuous
 62
     7
370
    15
100
AcDbCircle
 10
608.3767206106
 20
566.5173846432
 30
0.0
 40
17.22499999999991
100
AcDbArc
 50
270.0000000189
 51
359.999999978
  0
LINE
  5
D9
330
1F
100
AcDbEntity
  8
0
  6
Continuous
 62
     7
370
    15
100
AcDbLine
 10
488.0767189845
 20
549.292384719
 30
0.0
 11
608.3767213806
 21
549.292384719
 31
0.0
  0
LINE
  5
DA
330
1F
100
AcDbEntity
  8
0
  6
Continuous
 62
     7
370
    15
100
AcDbLine
 10
625.6017186626
 20
566.517384795
 30
0.0
 11
625.6017186626
 21
686.8173871911
 31
0.0
  0
ARC
  5
DB
330
1F
100
AcDbEntity
  8
0
  6
Continuous
 62
     7
370
    15
100
AcDbCircle
 10
608.3767206106
 20
686.8173846432
 30
0.0
 40
17.22500000000002
100
AcDbArc
 50
359.9999999945
 51
89.999999989
  0
LINE
  5
DC
330
1F
100
AcDbEntity
  8
0
  6
Continuous
 62
     7
370
    15
100
AcDbLine
 10
608.3767213806
 20
704.0423919237
 30
0.0
 11
488.0767189845
 21
704.0423919237
 31
0.0
  0
ARC
  5
DD
330
1F
100
AcDbEntity
  8
0
  6
Continuous
 62
     7
370
    15
100
AcDbCircle
 10
488.0767206106
 20
566.5173846432
 30
0.0
 40
17.22500000000002
100
AcDbArc
 50
180.0
 51
270.0000000029
  0
ARC
  5
DE
330
1F
100
AcDbEntity
  8
0
  6
Continuous
 62
     7
370
    15
100
AcDbCircle
 10
608.3767364976
 20
391.5173920442
 30
0.0
 40
17.22499999999991
100
AcDbArc
 50
269.9999999971
 51
0.0000000029
  0
LINE
  5
DF
330
1F
100
AcDbEntity
  8
0
  6
Continuous
 62
     7
370
    15
100
AcDbLine
 10
625.6017335638
 20
511.8173938966
 30
0.0
 11
625.6017335638
 21
391.5173877752
 31
0.0
  0
ARC
  5
E0
330
1F
100
AcDbEntity
  8
0
  6
Continuous
 62
     7
370
    15
100
AcDbCircle
 10
488.0767364976
 20
391.5173920442
 30
0.0
 40
17.22499999999991
100
AcDbArc
 50
179.9999999945
 51
269.999999989
  0
LINE
  5
E1
330
1F
100
AcDbEntity
  8
0
  6
Continuous
 62
     7
370
    15
100
AcDbLine
 10
470.8517366036
 20
511.8173938966
 30
0.0
 11
470.8517366036
 21
391.5173877752
 31
0.0
  0
ARC
  5
E2
330
1F
100
AcDbEntity
  8
0
  6
Continuous
 62
     7
370
    15
100
AcDbCircle
 10
488.0767364976
 20
511.8173920442
 30
0.0
 40
17.22499999999997
100
AcDbArc
 50
90.0000000189
 51
179.999999978
  0
LINE
  5
E3
330
1F
100
AcDbEntity
  8
0
  6
Continuous
 62
     7
370
    15
100
AcDbLine
 10
608.3767362818
 20
529.0423911786
 30
0.0
 11
488.0767338857
 21
529.0423911786
 31
0.0
  0
LINE
  5
E4
330
1F
100
AcDbEntity
  8
0
  6
Continuous
 62
     7
370
    15
100
AcDbLine
 10
488.0767338857
 20
374.2923904932
 30
0.0
 11
608.3767362818
 21
374.2923904932
 31
0.0
  0
ARC
  5
E5
330
1F
100
AcDbEntity
  8
0
  6
Continuous
 62
     7
370
    15
100
AcDbCircle
 10
608.3767364976
 20
511.8173920442
 30
0.0
 40
17.22499999999997
100
AcDbArc
 50
0.0
 51
90.0000000029
  0
ARC
  5
E6
330
1F
100
AcDbEntity
  8
0
  6
Continuous
 62
     7
370
    15
100
AcDbCircle
 10
575.1731044525
 20
321.4695930176
 30
0.0
 40
5.716344281581256
100
AcDbArc
 50
341.0817305627
 51
22.7580801691
  0
ARC
  5
E7
330
1F
100
AcDbEntity
  8
0
  6
Continuous
 62
     7
370
    15
100
AcDbCircle
 10
596.249751094
 20
321.4678824581
 30
0.0
 40
5.686497999472749
100
AcDbArc
 50
159.9584676225
 51
197.7081755749
  0
LWPOLYLINE
  5
E8
330
1F
100
AcDbEntity
  8
0
  6
Continuous
 62
     7
370
    15
100
AcDbPolyline
 90
        9
 70
   128
 43
0.0
 10
584.976729466
 20
317.4291570461
 10
585.0338195398
 20
317.307861594
 10
585.196398659
 20
317.2050286806
 10
585.4397159949
 20
317.1363194263
 10
585.7267291233
 20
317.1121944463
 10
586.013740389
 20
317.1363194263
 10
586.2570577249
 20
317.2050286806
 10
586.4196387067
 20
317.307861594
 10
586.4767287805
 20
317.4291570461
  0
LINE
  5
E9
330
1F
100
AcDbEntity
  8
0
  6
Continuous
 62
     7
370
    15
100
AcDbLine
 10
584.976729466
 20
323.9158113277
 30
0.0
 11
584.976729466
 21
317.4291570461
 31
0.0
  0
LINE
  5
EA
330
1F
100
AcDbEntity
  8
0
  6
Continuous
 62
     7
370
    15
100
AcDbLine
 10
586.4767287805
 20
317.4291570461
 30
0.0
 11
586.4767287805
 21
323.9158113277
 31
0.0
  0
LINE
  5
EB
330
1F
100
AcDbEntity
  8
0
  6
Continuous
 62
     7
370
    15
100
AcDbLine
 10
579.9179491534
 20
318.0925269401
 30
0.0
 11
579.9163770809
 21
318.1017060554
 31
0.0
  0
ARC
  5
EC
330
1F
100
AcDbEntity
  8
0
  6
Continuous
 62
     7
370
    15
100
AcDbCircle
 10
500.1731126918
 20
321.4695933312
 30
0.0
 40
5.71633553184654
100
AcDbArc
 50
341.0816971816
 51
22.7581135501
  0
ARC
  5
ED
330
1F
100
AcDbEntity
  8
0
  6
Continuous
 62
     7
370
    15
100
AcDbCircle
 10
521.2496107461
 20
321.4678853315
 30
0.0
 40
5.686364465952435
100
AcDbArc
 50
159.9580076196
 51
197.7086355777
  0
LWPOLYLINE
  5
EE
330
1F
100
AcDbEntity
  8
0
  6
Continuous
 62
     7
370
    15
100
AcDbPolyline
 90
        9
 70
   128
 43
0.0
 10
509.9767283484
 20
317.4291570461
 10
510.0338184222
 20
317.307861594
 10
510.1963975414
 20
317.2050286806
 10
510.4397148773
 20
317.1363194263
 10
510.7267298683
 20
317.1121944463
 10
511.0137411341
 20
317.1363194263
 10
511.2570584699
 20
317.2050286806
 10
511.4196375891
 20
317.307861594
 10
511.4767276629
 20
317.4291570461
  0
LINE
  5
EF
330
1F
100
AcDbEntity
  8
0
  6
Continuous
 62
     7
370
    15
100
AcDbLine
 10
509.9767283484
 20
323.9158113277
 30
0.0
 11
509.9767283484
 21
317.4291570461
 31
0.0
  0
LINE
  5
F0
330
1F
100
AcDbEntity
  8
0
  6
Continuous
 62
     7
370
    15
100
AcDbLine
 10
511.4767276629
 20
317.4291570461
 30
0.0
 11
511.4767276629
 21
323.9158113277
 31
0.0
  0
LINE
  5
F1
330
1F
100
AcDbEntity
  8
0
  6
Continuous
 62
     7
370
    15
100
AcDbLine
 10
504.9179480359
 20
318.0925269401
 30
0.0
 11
504.9163796886
 21
318.1017060554
 31
0.0
  0
LINE
  5
F2
330
1F
100
AcDbEntity
  8
0
  6
Continuous
 62
     7
370
    15
100
AcDbLine
 10
448.2267298683
 20
323.7586040771
 30
0.0
 11
448.2267298683
 21
323.9158113277
 31
0.0
  0
LINE
  5
F3
330
1F
100
AcDbEntity
  8
0
  6
Continuous
 62
     7
370
    15
100
AcDbLine
 10
648.226725398
 20
323.7586040771
 30
0.0
 11
648.226725398
 21
323.9158113277
 31
0.0
  0
LINE
  5
F4
330
1F
100
AcDbEntity
  8
0
  6
Continuous
 62
     7
370
    15
100
AcDbLine
 10
458.2767286285
 20
746.556447891
 30
0.0
 11
458.2767286285
 21
764.0783210075
 31
0.0
  0
LINE
  5
F5
330
1F
100
AcDbEntity
  8
0
  6
Continuous
 62
     7
370
    15
100
AcDbLine
 10
638.1767266377
 20
746.556447891
 30
0.0
 11
638.1767266377
 21
764.0783210075
 31
0.0
  0
LINE
  5
F6
330
1F
100
AcDbEntity
  8
0
  6
Continuous
 62
     7
370
    15
100
AcDbLine
 10
648.226725398
 20
773.917393831
 30
0.0
 11
448.2267298683
 21
773.917393831
 31
0.0
  0
LINE
  5
F7
330
1F
100
AcDbEntity
  8
0
  6
Continuous
 62
     7
370
    15
100
AcDbLine
 10
648.226725398
 20
773.917393831
 30
0.0
 11
648.226725398
 21
771.7923839367
 31
0.0
  0
LINE
  5
F8
330
1F
100
AcDbEntity
  8
0
  6
Continuous
 62
     7
370
    15
100
AcDbLine
 10
448.2267298683
 20
771.7923839367
 30
0.0
 11
448.2267298683
 21
773.917393831
 31
0.0
  0
LINE
  5
F9
330
1F
100
AcDbEntity
  8
0
  6
Continuous
 62
     7
370
    15
100
AcDbLine
 10
648.226725398
 20
738.5423947847
 30
0.0
 11
648.226725398
 21
736.4173848903
 31
0.0
  0
LINE
  5
FA
330
1F
100
AcDbEntity
  8
0
  6
Continuous
 62
     7
370
    15
100
AcDbLine
 10
648.226725398
 20
736.4173848903
 30
0.0
 11
448.2267298683
 21
736.4173848903
 31
0.0
  0
LINE
  5
FB
330
1F
100
AcDbEntity
  8
0
  6
Continuous
 62
     7
370
    15
100
AcDbLine
 10
448.2267298683
 20
736.4173848903
 30
0.0
 11
448.2267298683
 21
738.5423947847
 31
0.0
  0
LINE
  5
FC
330
1F
100
AcDbEntity
  8
0
  6
Continuous
 62
     7
370
    15
100
AcDbLine
 10
638.2267274841
 20
746.5845812834
 30
0.0
 11
638.2267274841
 21
764.0502025163
 31
0.0
  0
LINE
  5
FD
330
1F
100
AcDbEntity
  8
0
  6
Continuous
 62
     7
370
    15
100
AcDbLine
 10
458.2267277821
 20
764.0502025163
 30
0.0
 11
458.2267277821
 21
746.5845812834
 31
0.0
  0
LINE
  5
FE
330
1F
100
AcDbEntity
  8
0
  6
Continuous
 62
     7
370
    15
100
AcDbLine
 10
448.2267298683
 20
771.7923839367
 30
0.0
 11
448.2267298683
 21
738.5423947847
 31
0.0
  0
LINE
  5
FF
330
1F
100
AcDbEntity
  8
0
  6
Continuous
 62
     7
370
    15
100
AcDbLine
 10
648.226725398
 20
738.5423947847
 30
0.0
 11
648.226725398
 21
771.7923839367
 31
0.0
  0
LINE
  5
100
330
1F
100
AcDbEntity
  8
0
  6
Continuous
 62
     7
370
    15
100
AcDbLine
 10
648.226725398
 20
735.2923919237
 30
0.0
 11
648.226725398
 21
736.4173848903
 31
0.0
  0
LINE
  5
101
330
1F
100
AcDbEntity
  8
0
  6
Continuous
 62
     7
370
    15
100
AcDbLine
 10
448.2267298683
 20
736.4173848903
 30
0.0
 11
448.2267298683
 21
735.2923919237
 31
0.0
  0
LINE
  5
102
330
1F
100
AcDbEntity
  8
0
  6
Continuous
 62
     7
370
    15
100
AcDbLine
 10
448.2267298683
 20
735.2923919237
 30
0.0
 11
448.2267298683
 21
329.9158234871
 31
0.0
  0
LINE
  5
103
330
1F
100
AcDbEntity
  8
0
  6
Continuous
 62
     7
370
    15
100
AcDbLine
 10
648.226725398
 20
329.9158234871
 30
0.0
 11
648.226725398
 21
735.2923919237
 31
0.0
  0
ARC
  5
104
330
1F
100
AcDbEntity
  8
0
  6
Continuous
 62
     7
370
    15
100
AcDbCircle
 10
611.2267285541
 20
385.9173883437
 30
0.0
 40
25.00000000000009
100
AcDbArc
 50
270.0
 51
0.0
  0
ARC
  5
105
330
1F
100
AcDbEntity
  8
0
  6
Continuous
 62
     7
370
    15
100
AcDbCircle
 10
611.2267285541
 20
692.4173883437
 30
0.0
 40
25.0
100
AcDbArc
 50
0.0
 51
90.0
  0
ARC
  5
106
330
1F
100
AcDbEntity
  8
0
  6
Continuous
 62
     7
370
    15
100
AcDbCircle
 10
485.2267285541
 20
692.4173883437
 30
0.0
 40
25.0
100
AcDbArc
 50
90.0
 51
180.0
  0
ARC
  5
107
330
1F
100
AcDbEntity
  8
0
  6
Continuous
 62
     7
370
    15
100
AcDbCircle
 10
485.2267285541
 20
385.9173883437
 30
0.0
 40
25.0
100
AcDbArc
 50
180.0
 51
270.0
  0
LINE
  5
108
330
1F
100
AcDbEntity
  8
0
  6
Continuous
 62
     7
370
    15
100
AcDbLine
 10
648.226725398
 20
329.9158234871
 30
0.0
 11
648.226725398
 21
323.9158113277
 31
0.0
  0
LINE
  5
109
330
1F
100
AcDbEntity
  8
0
  6
Continuous
 62
     7
370
    15
100
AcDbLine
 10
448.2267298683
 20
323.9158113277
 30
0.0
 11
448.2267298683
 21
329.9158234871
 31
0.0
  0
LINE
  5
10A
330
1F
100
AcDbEntity
  8
0
  6
Continuous
 62
     7
370
    15
100
AcDbLine
 10
565.2767284721
 20
765.0894243992
 30
0.0
 11
567.5517283327
 21
765.0894243992
 31
0.0
  0
LINE
  5
10B
330
1F
100
AcDbEntity
  8
0
  6
Continuous
 62
     7
370
    15
100
AcDbLine
 10
563.0017285532
 20
765.0894243992
 30
0.0
 11
565.2767284721
 21
765.0894243992
 31
0.0
  0
LINE
  5
10C
330
1F
100
AcDbEntity
  8
0
  6
Continuous
 62
     7
370
    15
100
AcDbLine
 10
565.2767284721
 20
762.6394201792
 30
0.0
 11
567.0267287589
 21
762.6394201792
 31
0.0
  0
LINE
  5
10D
330
1F
100
AcDbEntity
  8
0
  6
Continuous
 62
     7
370
    15
100
AcDbLine
 10
563.5267285345
 20
762.6394201792
 30
0.0
 11
565.2767284721
 21
762.6394201792
 31
0.0
  0
LINE
  5
10E
330
1F
100
AcDbEntity
  8
0
  6
Continuous
 62
     7
370
    15
100
AcDbLine
 10
565.2767284721
 20
762.339430002
 30
0.0
 11
566.9017285056
 21
762.339430002
 31
0.0
  0
LINE
  5
10F
330
1F
100
AcDbEntity
  8
0
  6
Continuous
 62
     7
370
    15
100
AcDbLine
 10
563.651728555
 20
762.339430002
 30
0.0
 11
565.2767284721
 21
762.339430002
 31
0.0
  0
LINE
  5
110
330
1F
100
AcDbEntity
  8
0
  6
Continuous
 62
     7
370
    15
100
AcDbLine
 10
632.7767320856
 20
762.6394201792
 30
0.0
 11
634.5267319068
 21
762.6394201792
 31
0.0
  0
LINE
  5
111
330
1F
100
AcDbEntity
  8
0
  6
Continuous
 62
     7
370
    15
100
AcDbLine
 10
631.0267322644
 20
762.6394201792
 30
0.0
 11
632.7767320856
 21
762.6394201792
 31
0.0
  0
LINE
  5
112
330
1F
100
AcDbEntity
  8
0
  6
Continuous
 62
     7
370
    15
100
AcDbLine
 10
632.7767320856
 20
762.339430002
 30
0.0
 11
634.4017260655
 21
762.339430002
 31
0.0
  0
LINE
  5
113
330
1F
100
AcDbEntity
  8
0
  6
Continuous
 62
     7
370
    15
100
AcDbLine
 10
631.1517306551
 20
762.339430002
 30
0.0
 11
632.7767320856
 21
762.339430002
 31
0.0
  0
LINE
  5
114
330
1F
100
AcDbEntity
  8
0
  6
Continuous
 62
     7
370
    15
100
AcDbLine
 10
602.6881807431
 20
765.589432863
 30
0.0
 11
595.2085801348
 21
765.589432863
 31
0.0
  0
LINE
  5
115
330
1F
100
AcDbEntity
  8
0
  6
Continuous
 62
     7
370
    15
100
AcDbLine
 10
586.5727350995
 20
765.589432863
 30
0.0
 11
551.9438623398
 21
765.589432863
 31
0.0
  0
LINE
  5
116
330
1F
100
AcDbEntity
  8
0
  6
Continuous
 62
     7
370
    15
100
AcDbLine
 10
544.4704280182
 20
765.589432863
 30
0.0
 11
509.8841437086
 21
765.589432863
 31
0.0
  0
LINE
  5
117
330
1F
100
AcDbEntity
  8
0
  6
Continuous
 62
     7
370
    15
100
AcDbLine
 10
501.1792094394
 20
765.589432863
 30
0.0
 11
493.7652745232
 21
765.589432863
 31
0.0
  0
LINE
  5
118
330
1F
100
AcDbEntity
  8
0
  6
Continuous
 62
     7
370
    15
100
AcDbLine
 10
569.526728703
 20
765.4896397865
 30
0.0
 11
569.526728703
 21
765.589432863
 31
0.0
  0
LINE
  5
119
330
1F
100
AcDbEntity
  8
0
  6
Continuous
 62
     7
370
    15
100
AcDbLine
 10
620.2456452831
 20
765.1894260919
 30
0.0
 11
594.445670484
 21
765.1894260919
 31
0.0
  0
LINE
  5
11A
330
1F
100
AcDbEntity
  8
0
  6
Continuous
 62
     7
370
    15
100
AcDbLine
 10
587.1447590127
 20
765.1894260919
 30
0.0
 11
569.526728703
 21
765.1894260919
 31
0.0
  0
LINE
  5
11B
330
1F
100
AcDbEntity
  8
0
  6
Continuous
 62
     7
370
    15
100
AcDbLine
 10
569.526728703
 20
765.4896397865
 30
0.0
 11
569.526728703
 21
765.1894260919
 31
0.0
  0
ARC
  5
11C
330
1F
100
AcDbEntity
  8
0
  6
Continuous
 62
     7
370
    15
100
AcDbCircle
 10
518.2267285541
 20
752.1452625746
 30
0.0
 40
5.099999999999924
100
AcDbArc
 50
352.0107311586
 51
8.3587425524
  0
ARC
  5
11D
330
1F
100
AcDbEntity
  8
0
  6
Continuous
 62
     7
370
    15
100
AcDbCircle
 10
518.2267285541
 20
752.1452625746
 30
0.0
 40
5.100000000000141
100
AcDbArc
 50
172.0107311329
 51
188.3587425524
  0
ARC
  5
11E
330
1F
100
AcDbEntity
  8
0
  6
Continuous
 62
     7
370
    15
100
AcDbCircle
 10
518.2267285541
 20
752.1452625746
 30
0.0
 40
2.500000000000073
100
AcDbArc
 50
181.0410520324
 51
241.0410520324
  0
ARC
  5
11F
330
1F
100
AcDbEntity
  8
0
  6
Continuous
 62
     7
370
    15
100
AcDbCircle
 10
518.2267285541
 20
752.1452625746
 30
0.0
 40
2.500000000000073
100
AcDbArc
 50
121.0410520324
 51
181.0410520324
  0
ARC
  5
120
330
1F
100
AcDbEntity
  8
0
  6
Continuous
 62
     7
370
    15
100
AcDbCircle
 10
518.2267285541
 20
752.1452625746
 30
0.0
 40
2.500000000000017
100
AcDbArc
 50
61.0410520324
 51
121.0410520324
  0
ARC
  5
121
330
1F
100
AcDbEntity
  8
0
  6
Continuous
 62
     7
370
    15
100
AcDbCircle
 10
518.2267285541
 20
752.1452625746
 30
0.0
 40
2.500000000000017
100
AcDbArc
 50
1.0410520324
 51
61.0410520324
  0
ARC
  5
122
330
1F
100
AcDbEntity
  8
0
  6
Continuous
 62
     7
370
    15
100
AcDbCircle
 10
518.2267285541
 20
752.1452625746
 30
0.0
 40
2.499999999999959
100
AcDbArc
 50
301.0410520324
 51
1.0410520324
  0
ARC
  5
123
330
1F
100
AcDbEntity
  8
0
  6
Continuous
 62
     7
370
    15
100
AcDbCircle
 10
518.2267285541
 20
752.1452625746
 30
0.0
 40
2.499999999999973
100
AcDbArc
 50
241.0410520324
 51
301.0410520324
  0
SPLINE
  5
124
330
1F
100
AcDbEntity
  8
0
  6
Continuous
 62
     7
370
    15
100
AcDbSpline
210
0.0
220
0.0
230
1.0
 70
     8
 71
     3
 72
     9
 73
     5
 74
     0
 42
0.00000001
 43
0.00000001
 12
1.0
 22
0.0
 32
0.0
 13
1.0
 23
0.0
 33
0.0
 40
0.0
 40
0.0
 40
0.0
 40
0.0
 40
0.7681516826795117
 40
1.0
 40
1.0
 40
1.0
 40
1.0
 10
518.279178528446
 20
749.2589820897804
 30
0.0
 10
518.5924944300897
 20
749.4475552686129
 30
0.0
 10
519.0003772854012
 20
749.69304477685
 30
0.0
 10
519.4188396324994
 20
749.944878146169
 30
0.0
 10
519.5158594235361
 20
750.0032652890907
 30
0.0
  0
SPLINE
  5
125
330
1F
100
AcDbEntity
  8
0
  6
Continuous
 62
     7
370
    15
100
AcDbSpline
210
0.0
220
0.0
230
1.0
 70
     8
 71
     3
 72
     9
 73
     5
 74
     0
 42
0.00000001
 43
0.00000001
 12
1.0
 22
0.0
 32
0.0
 13
1.0
 23
0.0
 33
0.0
 40
0.0
 40
0.0
 40
0.0
 40
0.0
 40
0.070200733776236
 40
1.0
 40
1.0
 40
1.0
 40
1.0
 10
517.0162715896547
 20
749.9578465497718
 30
0.0
 10
517.0462096361052
 20
749.9412785949746
 30
0.0
 10
517.4726730765868
 20
749.7052703097891
 30
0.0
 10
517.8905950159175
 20
749.4740088372515
 30
0.0
 10
518.279178528446
 20
749.2589820897804
 30
0.0
  0
SPLINE
  5
126
330
1F
100
AcDbEntity
  8
0
  6
Continuous
 62
     7
370
    15
100
AcDbSpline
210
0.0
220
0.0
230
1.0
 70
     8
 71
     3
 72
     9
 73
     5
 74
     0
 42
0.00000001
 43
0.00000001
 12
1.0
 22
0.0
 32
0.0
 13
1.0
 23
0.0
 33
0.0
 40
0.0
 40
0.0
 40
0.0
 40
0.0
 40
0.0702068789042315
 40
0.9999999999999999
 40
0.9999999999999999
 40
0.9999999999999999
 40
0.9999999999999999
 10
515.7271423324526
 20
752.0998437679038
 30
0.0
 10
515.7277634867281
 20
752.065629549926
 30
0.0
 10
515.736610971266
 20
751.5782952813781
 30
0.0
 10
515.7452925648598
 20
751.1007315660237
 30
0.0
 10
515.7533646508634
 20
750.6566961086021
 30
0.0
  0
LINE
  5
127
330
1F
100
AcDbEntity
  8
0
  6
Continuous
 62
     7
370
    15
100
AcDbLine
 10
515.7533646509
 20
750.6566961086
 30
0.0
 11
517.0162715897
 21
749.9578465498
 31
0.0
  0
LINE
  5
128
330
1F
100
AcDbEntity
  8
0
  6
Continuous
 62
     7
370
    15
100
AcDbLine
 10
520.7525403186
 20
750.7475484884
 30
0.0
 11
520.7263142749
 21
752.1906812465
 31
0.0
  0
SPLINE
  5
129
330
1F
100
AcDbEntity
  8
0
  6
Continuous
 62
     7
370
    15
100
AcDbSpline
210
0.0
220
0.0
230
1.0
 70
     8
 71
     3
 72
     9
 73
     5
 74
     0
 42
0.00000001
 43
0.00000001
 12
1.0
 22
0.0
 32
0.0
 13
1.0
 23
0.0
 33
0.0
 40
0.0
 40
0.0
 40
0.0
 40
0.0
 40
0.7889977692698243
 40
1.0
 40
1.0
 40
1.0
 40
1.0
 10
519.5158594235361
 20
750.0032652890907
 30
0.0
 10
519.8462091049508
 20
750.2020777437979
 30
0.0
 10
520.2649044350027
 20
750.454058753695
 30
0.0
 10
520.6675757689187
 20
750.6964115151173
 30
0.0
 10
520.7525403186262
 20
750.747548488401
 30
0.0
  0
SPLINE
  5
12A
330
1F
100
AcDbEntity
  8
0
  6
Continuous
 62
     7
370
    15
100
AcDbSpline
210
0.0
220
0.0
230
1.0
 70
     8
 71
     3
 72
     9
 73
     5
 74
     0
 42
0.00000001
 43
0.00000001
 12
1.0
 22
0.0
 32
0.0
 13
1.0
 23
0.0
 33
0.0
 40
0.0
 40
0.0
 40
0.0
 40
0.0
 40
0.2318513725014966
 40
1.0
 40
1.0
 40
1.0
 40
1.0
 10
516.9375971838415
 20
754.2872597253547
 30
0.0
 10
516.8405790087853
 20
754.228866978213
 30
0.0
 10
516.4221291458005
 20
753.9770127557783
 30
0.0
 10
516.014237611213
 20
753.7315377866588
 30
0.0
 10
515.7009162887514
 20
753.5429765260445
 30
0.0
  0
LINE
  5
12B
330
1F
100
AcDbEntity
  8
0
  6
Continuous
 62
     7
370
    15
100
AcDbLine
 10
515.7009162888
 20
753.542976526
 30
0.0
 11
515.7271423325
 21
752.0998437679
 31
0.0
  0
LINE
  5
12C
330
1F
100
AcDbEntity
  8
0
  6
Continuous
 62
     7
370
    15
100
AcDbLine
 10
520.7000919565
 20
753.6338289058
 30
0.0
 11
519.4371850177
 21
754.3326784647
 31
0.0
  0
SPLINE
  5
12D
330
1F
100
AcDbEntity
  8
0
  6
Continuous
 62
     7
370
    15
100
AcDbSpline
210
0.0
220
0.0
230
1.0
 70
     8
 71
     3
 72
     9
 73
     5
 74
     0
 42
0.00000001
 43
0.00000001
 12
1.0
 22
0.0
 32
0.0
 13
1.0
 23
0.0
 33
0.0
 40
0.0
 40
0.0
 40
0.0
 40
0.0
 40
0.0702068789042315
 40
0.9999999999999999
 40
0.9999999999999999
 40
0.9999999999999999
 40
0.9999999999999999
 10
520.726314274925
 20
752.1906812465415
 30
0.0
 10
520.7256931206495
 20
752.2248954645195
 30
0.0
 10
520.7168456361117
 20
752.7122297330669
 30
0.0
 10
520.7081640425179
 20
753.1897934484216
 30
0.0
 10
520.7000919565141
 20
753.6338289058433
 30
0.0
  0
SPLINE
  5
12E
330
1F
100
AcDbEntity
  8
0
  6
Continuous
 62
     7
370
    15
100
AcDbSpline
210
0.0
220
0.0
230
1.0
 70
     8
 71
     3
 72
     9
 73
     5
 74
     0
 42
0.00000001
 43
0.00000001
 12
1.0
 22
0.0
 32
0.0
 13
1.0
 23
0.0
 33
0.0
 40
0.0
 40
0.0
 40
0.0
 40
0.0
 40
0.2110022307301755
 40
1.0
 40
1.0
 40
1.0
 40
1.0
 10
518.1742780789316
 20
755.031542924665
 30
0.0
 10
518.0893135292241
 20
754.9804059513814
 30
0.0
 10
517.6866421953081
 20
754.738053189959
 30
0.0
 10
517.2679468652562
 20
754.4860721800619
 30
0.0
 10
516.9375971838415
 20
754.2872597253548
 30
0.0
  0
SPLINE
  5
12F
330
1F
100
AcDbEntity
  8
0
  6
Continuous
 62
     7
370
    15
100
AcDbSpline
210
0.0
220
0.0
230
1.0
 70
     8
 71
     3
 72
     9
 73
     5
 74
     0
 42
0.00000001
 43
0.00000001
 12
1.0
 22
0.0
 32
0.0
 13
1.0
 23
0.0
 33
0.0
 40
0.0
 40
0.0
 40
0.0
 40
0.0
 40
0.070200733776236
 40
1.0
 40
1.0
 40
1.0
 40
1.0
 10
519.4371850177229
 20
754.3326784646736
 30
0.0
 10
519.4072469712722
 20
754.349246419471
 30
0.0
 10
518.9807835307907
 20
754.5852547046568
 30
0.0
 10
518.56286159146
 20
754.816516177194
 30
0.0
 10
518.1742780789316
 20
755.031542924665
 30
0.0
  0
CIRCLE
  5
130
330
1F
100
AcDbEntity
  8
0
  6
Continuous
 62
     7
370
    15
100
AcDbCircle
 10
608.2267285541
 20
753.6452625746
 30
0.0
 40
7.124999999999886
  0
ARC
  5
131
330
1F
100
AcDbEntity
  8
0
  6
Continuous
 62
     7
370
    15
100
AcDbCircle
 10
548.2267285541
 20
752.1452625746
 30
0.0
 40
5.000000000000028
100
AcDbArc
 50
123.3779429051
 51
236.6220570949
  0
ARC
  5
132
330
1F
100
AcDbEntity
  8
0
  6
Continuous
 62
     7
370
    15
100
AcDbCircle
 10
548.2267285541
 20
752.1452625746
 30
0.0
 40
4.999999999999918
100
AcDbArc
 50
303.3779429052
 51
56.6220570948
  0
CIRCLE
  5
133
330
1F
100
AcDbEntity
  8
0
  6
Continuous
 62
     7
370
    15
100
AcDbCircle
 10
528.2267285541
 20
752.1452625746
 30
0.0
 40
5.0
  0
ARC
  5
134
330
1F
100
AcDbEntity
  8
0
  6
Continuous
 62
     7
370
    15
100
AcDbCircle
 10
508.2267285541
 20
752.1452625746
 30
0.0
 40
5.00000000000005
100
AcDbArc
 50
272.9682761878
 51
87.124876827
  0
CIRCLE
  5
135
330
1F
100
AcDbEntity
  8
0
  6
Continuous
 62
     7
370
    15
100
AcDbCircle
 10
488.2267285541
 20
752.1452625746
 30
0.0
 40
5.0
  0
CIRCLE
  5
136
330
1F
100
AcDbEntity
  8
0
  6
Continuous
 62
     7
370
    15
100
AcDbCircle
 10
468.2267285541
 20
752.1452625746
 30
0.0
 40
5.0
  0
CIRCLE
  5
137
330
1F
100
AcDbEntity
  8
0
  6
Continuous
 62
     7
370
    15
100
AcDbCircle
 10
568.2267285541
 20
752.1452625746
 30
0.0
 40
5.0
  0
ARC
  5
138
330
1F
100
AcDbEntity
  8
0
  6
Continuous
 62
     7
370
    15
100
AcDbCircle
 10
588.2267285541
 20
752.1452625746
 30
0.0
 40
5.000000000000052
100
AcDbArc
 50
92.8751231729
 51
267.0779029921
  0
CIRCLE
  5
139
330
1F
100
AcDbEntity
  8
0
  6
Continuous
 62
     7
370
    15
100
AcDbCircle
 10
628.2267285541
 20
752.1452625746
 30
0.0
 40
5.0
  0
LINE
  5
13A
330
1F
100
AcDbEntity
  8
0
  6
Continuous
 62
     7
370
    15
100
AcDbLine
 10
636.628615199
 20
764.6452654875
 30
0.0
 11
634.5267319068
 21
764.6452654875
 31
0.0
  0
LINE
  5
13B
330
1F
100
AcDbEntity
  8
0
  6
Continuous
 62
     7
370
    15
100
AcDbLine
 10
631.0267322644
 20
764.6452654875
 30
0.0
 11
593.9439018204
 21
764.6452654875
 31
0.0
  0
LINE
  5
13C
330
1F
100
AcDbEntity
  8
0
  6
Continuous
 62
     7
370
    15
100
AcDbLine
 10
587.5892476126
 20
764.6452654875
 30
0.0
 11
567.0267287589
 21
764.6452654875
 31
0.0
  0
LINE
  5
13D
330
1F
100
AcDbEntity
  8
0
  6
Continuous
 62
     7
370
    15
100
AcDbLine
 10
563.5267285345
 20
764.6452654875
 30
0.0
 11
551.2346574053
 21
764.6452654875
 31
0.0
  0
LINE
  5
13E
330
1F
100
AcDbEntity
  8
0
  6
Continuous
 62
     7
370
    15
100
AcDbLine
 10
545.225143893
 20
764.6452654875
 30
0.0
 11
508.8303186878
 21
764.6452654875
 31
0.0
  0
LINE
  5
13F
330
1F
100
AcDbEntity
  8
0
  6
Continuous
 62
     7
370
    15
100
AcDbLine
 10
502.5001377746
 20
764.6452654875
 30
0.0
 11
459.8248475179
 21
764.6452654875
 31
0.0
  0
ENDSEC
  0
SECTION
  2
OBJECTS
  0
DICTIONARY
  5
C
330
0
100
AcDbDictionary
281
     1
  3
ACAD_GROUP
350
D
  3
ACAD_LAYOUT
350
1A
  3
ACAD_MLINESTYLE
350
17
  3
ACAD_PLOTSETTINGS
350
19
  3
ACAD_PLOTSTYLENAME
350
E
  0
DICTIONARY
  5
D
102
{ACAD_REACTORS
330
C
102
}
330
C
100
AcDbDictionary
281
     1
  0
DICTIONARY
  5
1A
102
{ACAD_REACTORS
330
C
102
}
330
C
100
AcDbDictionary
281
     1
  3
Layout1
350
1E
  3
Layout2
350
26
  3
Model
350
22
  0
DICTIONARY
  5
17
102
{ACAD_REACTORS
330
C
102
}
330
C
100
AcDbDictionary
281
     1
  3
Standard
350
18
  0
DICTIONARY
  5
19
102
{ACAD_REACTORS
330
C
102
}
330
C
100
AcDbDictionary
281
     1
  0
ACDBDICTIONARYWDFLT
  5
E
102
{ACAD_REACTORS
330
C
102
}
330
C
100
AcDbDictionary
281
     1
  3
Normal
350
F
100
AcDbDictionaryWithDefault
340
F
  0
LAYOUT
  5
1E
102
{ACAD_REACTORS
330
1A
102
}
330
1A
100
AcDbPlotSettings
  1

  2
none_device
  4

  6

 40
0.0
 41
0.0
 42
0.0
 43
0.0
 44
0.0
 45
0.0
 46
0.0
 47
0.0
 48
0.0
 49
0.0
140
0.0
141
0.0
142
1.0
143
1.0
 70
   688
 72
     0
 73
     0
 74
     5
  7

 75
    16
147
1.0
148
0.0
149
0.0
100
AcDbLayout
  1
Layout1
 70
     1
 71
     1
 10
0.0
 20
0.0
 11
420.0
 21
297.0
 12
0.0
 22
0.0
 32
0.0
 14
1.0000000000E+20
 24
1.0000000000E+20
 34
1.0000000000E+20
 15
-1.0000000000E+20
 25
-1.0000000000E+20
 35
-1.0000000000E+20
146
0.0
 13
0.0
 23
0.0
 33
0.0
 16
1.0
 26
0.0
 36
0.0
 17
0.0
 27
1.0
 37
0.0
 76
     0
330
1B
  0
LAYOUT
  5
26
102
{ACAD_REACTORS
330
1A
102
}
330
1A
100
AcDbPlotSettings
  1

  2
none_device
  4

  6

 40
0.0
 41
0.0
 42
0.0
 43
0.0
 44
0.0
 45
0.0
 46
0.0
 47
0.0
 48
0.0
 49
0.0
140
0.0
141
0.0
142
1.0
143
1.0
 70
   688
 72
     0
 73
     0
 74
     5
  7

 75
    16
147
1.0
148
0.0
149
0.0
100
AcDbLayout
  1
Layout2
 70
     1
 71
     2
 10
0.0
 20
0.0
 11
0.0
 21
0.0
 12
0.0
 22
0.0
 32
0.0
 14
0.0
 24
0.0
 34
0.0
 15
0.0
 25
0.0
 35
0.0
146
0.0
 13
0.0
 23
0.0
 33
0.0
 16
1.0
 26
0.0
 36
0.0
 17
0.0
 27
1.0
 37
0.0
 76
     0
330
23
  0
LAYOUT
  5
22
102
{ACAD_REACTORS
330
1A
102
}
330
1A
100
AcDbPlotSettings
  1

  2
none_device
  4

  6

 40
0.0
 41
0.0
 42
0.0
 43
0.0
 44
0.0
 45
0.0
 46
0.0
 47
0.0
 48
0.0
 49
0.0
140
0.0
141
0.0
142
1.0
143
1.0
 70
  1712
 72
     0
 73
     0
 74
     0
  7

 75
     0
147
1.0
148
0.0
149
0.0
100
AcDbLayout
  1
Model
 70
     1
 71
     0
 10
0.0
 20
0.0
 11
1100.0
 21
1000.0
 12
0.0
 22
0.0
 32
0.0
 14
0.0
 24
0.0
 34
0.0
 15
1100.0
 25
1000.0
 35
0.0
146
0.0
 13
0.0
 23
0.0
 33
0.0
 16
1.0
 26
0.0
 36
0.0
 17
0.0
 27
1.0
 37
0.0
 76
     0
330
1F
331
29
  0
MLINESTYLE
  5
18
102
{ACAD_REACTORS
330
17
102
}
330
17
100
AcDbMlineStyle
  2
Standard
 70
     0
  3

 62
   256
 51
90.0
 52
90.0
 71
     2
 49
0.5
 62
   256
  6
BYLAYER
 49
-0.5
 62
   256
  6
BYLAYER
  0
ACDBPLACEHOLDER
  5
F
102
{ACAD_REACTORS
330
E
102
}
330
E
  0
ENDSEC
  0
EOF
