  0
SECTION
  2
HEADER
  9
$ACADVER
  1
AC1015
  9
$ACADMAINTVER
 70
     6
  9
$DWGCODEPAGE
  3
ANSI_1252
  9
$INSBASE
 10
0.0
 20
0.0
 30
0.0
  9
$EXTMIN
 10
0.0
 20
0.0
 30
0.0
  9
$EXTMAX
 10
1100.0
 20
1000.0
 30
0.0
  9
$LIMMIN
 10
0.0
 20
0.0
  9
$LIMMAX
 10
1100.0
 20
1000.0
  9
$ORTHOMODE
 70
     0
  9
$REGENMODE
 70
     1
  9
$FILLMODE
 70
     1
  9
$QTEXTMODE
 70
     0
  9
$MIRRTEXT
 70
     1
  9
$LTSCALE
 40
1.0
  9
$ATTMODE
 70
     1
  9
$TEXTSIZE
 40
3.5
  9
$TRACEWID
 40
1.0
  9
$TEXTSTYLE
  7
Standard
  9
$CLAYER
  8
0
  9
$CELTYPE
  6
ByLayer
  9
$CECOLOR
 62
   256
  9
$CELTSCALE
 40
1.0
  9
$DISPSILH
 70
     0
  9
$DIMSCALE
 40
1.0
  9
$DIMASZ
 40
3.302
  9
$DIMEXO
 40
1.0
  9
$DIMDLI
 40
3.75
  9
$DIMRND
 40
0.0
  9
$DIMDLE
 40
0.0
  9
$DIMEXE
 40
1.0
  9
$DIMTP
 40
0.0
  9
$DIMTM
 40
0.0
  9
$DIMTXT
 40
3.5
  9
$DIMCEN
 40
2.5
  9
$DIMTSZ
 40
0.0
  9
$DIMTOL
 70
     0
  9
$DIMLIM
 70
     0
  9
$DIMTIH
 70
     1
  9
$DIMTOH
 70
     1
  9
$DIMSE1
 70
     0
  9
$DIMSE2
 70
     0
  9
$DIMTAD
 70
     1
  9
$DIMZIN
 70
     0
  9
$DIMBLK
  1

  9
$DIMASO
 70
     1
  9
$DIMSHO
 70
     1
  9
$DIMPOST
  1

  9
$DIMAPOST
  1

  9
$DIMALT
 70
     0
  9
$DIMALTD
 70
     3
  9
$DIMALTF
 40
0.0393700787
  9
$DIMLFAC
 40
5.0
  9
$DIMTOFL
 70
     1
  9
$DIMTVP
 40
0.0
  9
$DIMTIX
 70
     0
  9
$DIMSOXD
 70
     0
  9
$DIMSAH
 70
     0
  9
$DIMBLK1
  1

  9
$DIMBLK2
  1

  9
$DIMSTYLE
  2
ISO-25
  9
$DIMCLRD
 70
     0
  9
$DIMCLRE
 70
     0
  9
$DIMCLRT
 70
     0
  9
$DIMTFAC
 40
1.0
  9
$DIMGAP
 40
1.524
  9
$DIMJUST
 70
     0
  9
$DIMSD1
 70
     0
  9
$DIMSD2
 70
     0
  9
$DIMTOLJ
 70
     0
  9
$DIMTZIN
 70
     0
  9
$DIMALTZ
 70
     0
  9
$DIMALTTZ
 70
     0
  9
$DIMUPT
 70
     0
  9
$DIMDEC
 70
     3
  9
$DIMTDEC
 70
     3
  9
$DIMALTU
 70
     2
  9
$DIMALTTD
 70
     3
  9
$DIMTXSTY
  7
Standard
  9
$DIMAUNIT
 70
     0
  9
$DIMADEC
 70
     2
  9
$DIMALTRND
 40
0.0
  9
$DIMAZIN
 70
     0
  9
$DIMDSEP
 70
    44
  9
$DIMATFIT
 70
     3
  9
$DIMFRAC
 70
     0
  9
$DIMLDRBLK
  1

  9
$DIMLUNIT
 70
     2
  9
$DIMLWD
 70
    -2
  9
$DIMLWE
 70
    -2
  9
$DIMTMOVE
 70
     0
  9
$LUNITS
 70
     2
  9
$LUPREC
 70
     8
  9
$SKETCHINC
 40
1.0
  9
$FILLETRAD
 40
10.0
  9
$AUNITS
 70
     0
  9
$AUPREC
 70
     8
  9
$MENU
  1
.
  9
$ELEVATION
 40
0.0
  9
$PELEVATION
 40
0.0
  9
$THICKNESS
 40
0.0
  9
$LIMCHECK
 70
     0
  9
$CHAMFERA
 40
10.0
  9
$CHAMFERB
 40
10.0
  9
$CHAMFERC
 40
20.0
  9
$CHAMFERD
 40
0.0
  9
$SKPOLY
 70
     0
  9
$TDCREATE
 40
2457423.410525938
  9
$TDUCREATE
 40
2457423.410525938
  9
$TDUPDATE
 40
2457423.410527199
  9
$TDUUPDATE
 40
2457423.410527199
  9
$TDINDWG
 40
0.0000000116
  9
$TDUSRTIMER
 40
0.0000000116
  9
$USRTIMER
 70
     1
  9
$ANGBASE
 50
0.0
  9
$ANGDIR
 70
     0
  9
$PDMODE
 70
     0
  9
$PDSIZE
 40
-1.0
  9
$PLINEWID
 40
0.0
  9
$SPLFRAME
 70
     0
  9
$SPLINETYPE
 70
     6
  9
$SPLINESEGS
 70
     8
  9
$HANDSEED
  5
219
  9
$SURFTAB1
 70
     6
  9
$SURFTAB2
 70
     6
  9
$SURFTYPE
 70
     6
  9
$SURFU
 70
     6
  9
$SURFV
 70
     6
  9
$UCSBASE
  2

  9
$UCSNAME
  2

  9
$UCSORG
 10
0.0
 20
0.0
 30
0.0
  9
$UCSXDIR
 10
1.0
 20
0.0
 30
0.0
  9
$UCSYDIR
 10
0.0
 20
1.0
 30
0.0
  9
$UCSORTHOREF
  2

  9
$UCSORTHOVIEW
 70
     0
  9
$UCSORGTOP
 10
0.0
 20
0.0
 30
0.0
  9
$UCSORGBOTTOM
 10
0.0
 20
0.0
 30
0.0
  9
$UCSORGLEFT
 10
0.0
 20
0.0
 30
0.0
  9
$UCSORGRIGHT
 10
0.0
 20
0.0
 30
0.0
  9
$UCSORGFRONT
 10
0.0
 20
0.0
 30
0.0
  9
$UCSORGBACK
 10
0.0
 20
0.0
 30
0.0
  9
$PUCSBASE
  2

  9
$PUCSNAME
  2

  9
$PUCSORG
 10
0.0
 20
0.0
 30
0.0
  9
$PUCSXDIR
 10
1.0
 20
0.0
 30
0.0
  9
$PUCSYDIR
 10
0.0
 20
1.0
 30
0.0
  9
$PUCSORTHOREF
  2

  9
$PUCSORTHOVIEW
 70
     0
  9
$PUCSORGTOP
 10
0.0
 20
0.0
 30
0.0
  9
$PUCSORGBOTTOM
 10
0.0
 20
0.0
 30
0.0
  9
$PUCSORGLEFT
 10
0.0
 20
0.0
 30
0.0
  9
$PUCSORGRIGHT
 10
0.0
 20
0.0
 30
0.0
  9
$PUCSORGFRONT
 10
0.0
 20
0.0
 30
0.0
  9
$PUCSORGBACK
 10
0.0
 20
0.0
 30
0.0
  9
$USERI1
 70
     0
  9
$USERI2
 70
     0
  9
$USERI3
 70
     0
  9
$USERI4
 70
     0
  9
$USERI5
 70
     0
  9
$USERR1
 40
0.0
  9
$USERR2
 40
0.0
  9
$USERR3
 40
0.0
  9
$USERR4
 40
0.0
  9
$USERR5
 40
0.0
  9
$WORLDVIEW
 70
     1
  9
$SHADEDGE
 70
     3
  9
$SHADEDIF
 70
    70
  9
$TILEMODE
 70
     1
  9
$MAXACTVP
 70
    64
  9
$PINSBASE
 10
0.0
 20
0.0
 30
0.0
  9
$PLIMCHECK
 70
     0
  9
$PEXTMIN
 10
1.0000000000E+20
 20
1.0000000000E+20
 30
1.0000000000E+20
  9
$PEXTMAX
 10
-1.0000000000E+20
 20
-1.0000000000E+20
 30
-1.0000000000E+20
  9
$PLIMMIN
 10
0.0
 20
0.0
  9
$PLIMMAX
 10
420.0
 20
297.0
  9
$UNITMODE
 70
     0
  9
$VISRETAIN
 70
     1
  9
$PLINEGEN
 70
     0
  9
$PSLTSCALE
 70
     1
  9
$TREEDEPTH
 70
  3020
  9
$CMLSTYLE
  2
Standard
  9
$CMLJUST
 70
     0
  9
$CMLSCALE
 40
20.0
  9
$PROXYGRAPHICS
 70
     1
  9
$MEASUREMENT
 70
     1
  9
$CELWEIGHT
370
    -1
  9
$ENDCAPS
280
     0
  9
$JOINSTYLE
280
     0
  9
$LWDISPLAY
290
     1
  9
$INSUNITS
 70
     4
  9
$HYPERLINKBASE
  1

  9
$STYLESHEET
  1

  9
$XEDIT
290
     1
  9
$CEPSNTYPE
380
     0
  9
$PSTYLEMODE
290
     1
  9
$FINGERPRINTGUID
  2
{5AFF1674-1531-4781-92A1-B7CC7F1BF5D9}
  9
$VERSIONGUID
  2
{FAEB1C32-E019-11D5-929B-00C0DF256EC4}
  9
$EXTNAMES
290
     1
  9
$PSVPSCALE
 40
0.0
  9
$OLESTARTUP
290
     0
  0
ENDSEC
  0
SECTION
  2
CLASSES
  0
CLASS
  1
ACDBDICTIONARYWDFLT
  2
AcDbDictionaryWithDefault
  3
ObjectDBX Classes
 90
        0
280
     0
281
     0
  0
CLASS
  1
VISUALSTYLE
  2
AcDbVisualStyle
  3
ObjectDBX Classes
 90
     4095
280
     0
281
     0
  0
CLASS
  1
MATERIAL
  2
AcDbMaterial
  3
ObjectDBX Classes
 90
     1153
280
     0
281
     0
  0
CLASS
  1
ACDBPLACEHOLDER
  2
AcDbPlaceHolder
  3
ObjectDBX Classes
 90
        0
280
     0
281
     0
  0
CLASS
  1
LAYOUT
  2
AcDbLayout
  3
ObjectDBX Classes
 90
        0
280
     0
281
     0
  0
ENDSEC
  0
SECTION
  2
TABLES
  0
TABLE
  2
VPORT
  5
8
330
0
100
AcDbSymbolTable
 70
     1
  0
VPORT
  5
29
330
8
100
AcDbSymbolTableRecord
100
AcDbViewportTableRecord
  2
*Active
 70
     0
 10
0.0
 20
0.0
 11
1.0
 21
1.0
 12
550.0
 22
500.0
 13
0.0
 23
0.0
 14
10.0
 24
10.0
 15
10.0
 25
10.0
 16
0.0
 26
0.0
 36
1.0
 17
0.0
 27
0.0
 37
0.0
 40
1000.0
 41
1.1
 42
50.0
 43
0.0
 44
0.0
 50
0.0
 51
0.0
 71
     0
 72
  2000
 73
     1
 74
     3
 75
     0
 76
     0
 77
     0
 78
     0
281
     0
 65
     1
110
0.0
120
0.0
130
0.0
111
1.0
121
0.0
131
0.0
112
0.0
122
1.0
132
0.0
 79
     0
146
0.0
  0
ENDTAB
  0
TABLE
  2
LTYPE
  5
5
330
0
100
AcDbSymbolTable
 70
     6
  0
LTYPE
  5
14
330
5
100
AcDbSymbolTableRecord
100
AcDbLinetypeTableRecord
  2
ByBlock
 70
     0
  3

 72
    65
 73
     0
 40
0.0
  0
LTYPE
  5
15
330
5
100
AcDbSymbolTableRecord
100
AcDbLinetypeTableRecord
  2
ByLayer
 70
     0
  3

 72
    65
 73
     0
 40
0.0
  0
LTYPE
  5
16
330
5
100
AcDbSymbolTableRecord
100
AcDbLinetypeTableRecord
  2
Continuous
 70
     0
  3
Solid line
 72
    65
 73
     0
 40
0.0
  0
LTYPE
  5
3F
330
5
100
AcDbSymbolTableRecord
100
AcDbLinetypeTableRecord
  2
HIDDEN
 70
     0
  3
Hidden __ __ __ __ __ __ __ __ __ __ __ __ __ __
 72
    65
 73
     2
 40
1.905
 49
1.27
 74
     0
 49
-0.635
 74
     0
  0
LTYPE
  5
40
330
5
100
AcDbSymbolTableRecord
100
AcDbLinetypeTableRecord
  2
PHANTOM
 70
     0
  3
Phantom ______  __  __  ______  __  __  ______
 72
    65
 73
     6
 40
12.7
 49
6.35
 74
     0
 49
-1.27
 74
     0
 49
1.27
 74
     0
 49
-1.27
 74
     0
 49
1.27
 74
     0
 49
-1.27
 74
     0
  0
LTYPE
  5
41
330
5
100
AcDbSymbolTableRecord
100
AcDbLinetypeTableRecord
  2
CENTER
 70
     0
  3
Center ____ _ ____ _ ____ _ ____ _ ____ _ ____
 72
    65
 73
     4
 40
10.16
 49
6.35
 74
     0
 49
-1.27
 74
     0
 49
1.27
 74
     0
 49
-1.27
 74
     0
  0
LTYPE
  5
42
330
5
100
AcDbSymbolTableRecord
100
AcDbLinetypeTableRecord
  2
CENTERX2
 70
     0
  3
Center (2x) ________  __  ________  __  _____
 72
    65
 73
     4
 40
20.32
 49
12.7
 74
     0
 49
-2.54
 74
     0
 49
2.54
 74
     0
 49
-2.54
 74
     0
  0
LTYPE
  5
43
330
5
100
AcDbSymbolTableRecord
100
AcDbLinetypeTableRecord
  2
DOT2
 70
     0
  3
Dot (.5x) ........................................
 72
    65
 73
     2
 40
0.635
 49
0.0
 74
     0
 49
-0.635
 74
     0
  0
ENDTAB
  0
TABLE
  2
LAYER
  5
2
330
0
100
AcDbSymbolTable
 70
     1
  0
LAYER
  5
10
330
2
100
AcDbSymbolTableRecord
100
AcDbLayerTableRecord
  2
0
 70
     0
 62
     7
  6
Continuous
370
    -3
390
F
  0
ENDTAB
  0
TABLE
  2
STYLE
  5
3
330
0
100
AcDbSymbolTable
 70
     1
  0
STYLE
  5
11
330
3
100
AcDbSymbolTableRecord
100
AcDbTextStyleTableRecord
  2
Standard
 70
     0
 40
0.0
 41
1.0
 50
0.0
 71
     0
 42
3.5
  3
txt
  4

  0
ENDTAB
  0
TABLE
  2
VIEW
  5
6
330
0
100
AcDbSymbolTable
 70
     0
  0
ENDTAB
  0
TABLE
  2
UCS
  5
7
330
0
100
AcDbSymbolTable
 70
     0
  0
ENDTAB
  0
TABLE
  2
APPID
  5
9
330
0
100
AcDbSymbolTable
 70
     1
  0
APPID
  5
12
330
9
100
AcDbSymbolTableRecord
100
AcDbRegAppTableRecord
  2
ACAD
 70
     0
  0
ENDTAB
  0
TABLE
  2
DIMSTYLE
  5
A
330
0
100
AcDbSymbolTable
 70
     1
100
AcDbDimStyleTable
  0
DIMSTYLE
105
27
330
A
100
AcDbSymbolTableRecord
100
AcDbDimStyleTableRecord
  2
ISO-25
 70
     0
 41
2.5
 42
0.625
 43
3.75
 44
1.25
 73
     0
 74
     0
 77
     1
 78
     8
140
2.5
141
2.5
143
0.0393700787
147
0.625
171
     3
172
     1
178
     0
271
     2
272
     2
274
     3
278
    44
283
     0
284
     8
340
11
  0
ENDTAB
  0
TABLE
  2
BLOCK_RECORD
  5
1
330
0
100
AcDbSymbolTable
 70
     1
  0
BLOCK_RECORD
  5
1F
330
1
100
AcDbSymbolTableRecord
100
AcDbBlockTableRecord
  2
*Model_Space
340
22
  0
BLOCK_RECORD
  5
1B
330
1
100
AcDbSymbolTableRecord
100
AcDbBlockTableRecord
  2
*Paper_Space
340
1E
  0
BLOCK_RECORD
  5
23
330
1
100
AcDbSymbolTableRecord
100
AcDbBlockTableRecord
  2
*Paper_Space0
340
26
  0
ENDTAB
  0
ENDSEC
  0
SECTION
  2
BLOCKS
  0
BLOCK
  5
20
330
1F
100
AcDbEntity
  8
0
100
AcDbBlockBegin
  2
*Model_Space
 70
     0
 10
0.0
 20
0.0
 30
0.0
  3
*Model_Space
  1

  0
ENDBLK
  5
21
330
1F
100
AcDbEntity
  8
0
100
AcDbBlockEnd
  0
BLOCK
  5
1C
330
1B
100
AcDbEntity
 67
     1
  8
0
100
AcDbBlockBegin
  2
*Paper_Space
 70
     0
 10
0.0
 20
0.0
 30
0.0
  3
*Paper_Space
  1

  0
ENDBLK
  5
1D
330
1B
100
AcDbEntity
 67
     1
  8
0
100
AcDbBlockEnd
  0
BLOCK
  5
24
330
23
100
AcDbEntity
  8
0
100
AcDbBlockBegin
  2
*Paper_Space0
 70
     0
 10
0.0
 20
0.0
 30
0.0
  3
*Paper_Space0
  1

  0
ENDBLK
  5
25
330
23
100
AcDbEntity
  8
0
100
AcDbBlockEnd
  0
ENDSEC
  0
SECTION
  2
ENTITIES
  0
LINE
  5
44
330
1F
100
AcDbEntity
  8
0
  6
Continuous
 62
     7
100
AcDbLine
 10
748.8752577624
 20
565.7812264854
 30
0.0
 11
747.6132399291
 21
568.4876324627
 31
0.0
  0
LINE
  5
45
330
1F
100
AcDbEntity
  8
0
  6
CENTERX2
 62
     7
100
AcDbLine
 10
765.7383151779
 20
523.7027791992
 30
0.0
 11
766.7899967056
 21
521.4474408848
 31
0.0
  0
LINE
  5
46
330
1F
100
AcDbEntity
  8
0
  6
CENTERX2
 62
     7
100
AcDbLine
 10
745.0300203526
 20
568.111860764
 30
0.0
 11
746.0817018803
 21
565.8565224496
 31
0.0
  0
LINE
  5
47
330
1F
100
AcDbEntity
  8
0
  6
Continuous
 62
     7
100
AcDbLine
 10
748.8752577624
 20
565.7812264854
 30
0.0
 11
747.6132399291
 21
568.4876324627
 31
0.0
  0
LINE
  5
48
330
1F
100
AcDbEntity
  8
0
  6
CENTERX2
 62
     7
100
AcDbLine
 10
765.7383151779
 20
523.7027791992
 30
0.0
 11
766.7899967056
 21
521.4474408848
 31
0.0
  0
LINE
  5
49
330
1F
100
AcDbEntity
  8
0
  6
CENTERX2
 62
     7
100
AcDbLine
 10
745.0300203526
 20
568.111860764
 30
0.0
 11
746.0817018803
 21
565.8565224496
 31
0.0
  0
ARC
  5
4A
330
1F
100
AcDbEntity
  8
0
  6
Continuous
 62
     7
370
    15
100
AcDbCircle
 10
752.1304529711
 20
561.166639416
 30
0.0
 40
1.000000000000068
100
AcDbArc
 50
205.0
 51
292.0
  0
ARC
  5
4B
330
1F
100
AcDbEntity
  8
0
  6
Continuous
 62
     7
370
    15
100
AcDbCircle
 10
762.2301542407
 20
539.5077601483
 30
0.0
 40
0.9999999999999208
100
AcDbArc
 50
118.0
 51
205.0
  0
LINE
  5
4C
330
1F
100
AcDbEntity
  8
0
  6
Continuous
 62
     7
370
    15
100
AcDbLine
 10
761.7606826779
 20
540.3907077412
 30
0.0
 11
762.2490356517
 21
540.6503696233
 31
0.0
  0
LINE
  5
4D
330
1F
100
AcDbEntity
  8
0
  6
Continuous
 62
     7
370
    15
100
AcDbLine
 10
753.0178793471
 20
560.4466482027
 30
0.0
 11
752.5050595645
 21
560.2394555614
 31
0.0
  0
LINE
  5
4E
330
1F
100
AcDbEntity
  8
0
  6
Continuous
 62
     7
370
    15
100
AcDbLine
 10
767.7433198578
 20
519.4030327873
 30
0.0
 11
767.9643596834
 21
519.5205617474
 31
0.0
  0
LINE
  5
4F
330
1F
100
AcDbEntity
  8
0
  6
Continuous
 62
     7
370
    15
100
AcDbLine
 10
756.1095914656
 20
545.5347446274
 30
0.0
 11
757.4526245924
 21
546.795453563
 31
0.0
  0
LINE
  5
50
330
1F
100
AcDbEntity
  8
0
  6
Continuous
 62
     7
370
    15
100
AcDbLine
 10
754.6422131518
 20
552.8224003468
 30
0.0
 11
752.813169024
 21
552.6039453663
 31
0.0
  0
LINE
  5
51
330
1F
100
AcDbEntity
  8
0
  6
Continuous
 62
     7
370
    15
100
AcDbLine
 10
764.5010042527
 20
535.8210073736
 30
0.0
 11
768.1873066644
 21
539.7467142564
 31
0.0
  0
LINE
  5
52
330
1F
100
AcDbEntity
  8
0
  6
Continuous
 62
     7
370
    15
100
AcDbLine
 10
756.1426862048
 20
565.5764861869
 30
0.0
 11
750.7659107461
 21
565.2760104523
 31
0.0
  0
LINE
  5
53
330
1F
100
AcDbEntity
  8
0
  6
Continuous
 62
     7
370
    15
100
AcDbLine
 10
768.1873066644
 20
539.7467142564
 30
0.0
 11
775.1374747121
 21
547.8064485939
 31
0.0
  0
LINE
  5
54
330
1F
100
AcDbEntity
  8
0
  6
Continuous
 62
     7
370
    15
100
AcDbLine
 10
756.3926634968
 20
565.5798556816
 30
0.0
 11
756.1426862048
 21
565.5764861869
 31
0.0
  0
ARC
  5
55
330
1F
100
AcDbEntity
  8
0
  6
Continuous
 62
     7
370
    15
100
AcDbCircle
 10
774.7588190201
 20
548.1329755713
 30
0.0
 40
0.5000000000000857
100
AcDbArc
 50
319.2277453179
 51
25.0
  0
LINE
  5
56
330
1F
100
AcDbEntity
  8
0
  6
Continuous
 62
     7
370
    15
100
AcDbLine
 10
755.6458721155
 20
545.3460931912
 30
0.0
 11
756.099026009
 21
545.5574023221
 31
0.0
  0
LINE
  5
57
330
1F
100
AcDbEntity
  8
0
  6
Continuous
 62
     7
370
    15
100
AcDbLine
 10
752.8237344805
 20
552.5812876716
 30
0.0
 11
752.370580587
 21
552.3699785408
 31
0.0
  0
SPLINE
  5
58
330
1F
100
AcDbEntity
  8
0
  6
Continuous
 62
     7
370
    15
100
AcDbSpline
210
0.0
220
0.0
230
1.0
 70
     8
 71
     3
 72
    15
 73
    11
 74
     0
 42
0.00000001
 43
0.00000001
 12
1.0
 22
0.0
 32
0.0
 13
1.0
 23
0.0
 33
0.0
 40
0.0
 40
0.0
 40
0.0
 40
0.0
 40
0.014387210899916
 40
0.0909384493332668
 40
0.160759365711391
 40
0.2501589854730266
 40
0.4278264203842017
 40
0.6687059451887816
 40
0.8806330084191375
 40
1.0
 40
1.0
 40
1.0
 40
1.0
 10
337.9658150497808
 20
484.5775538035399
 30
0.0
 10
337.9617942235756
 20
484.5782654328214
 30
0.0
 10
337.9363794505055
 20
484.5827634876432
 30
0.0
 10
337.8916130303452
 20
484.5613999645299
 30
0.0
 10
337.8490371990532
 20
484.5250363958223
 30
0.0
 10
337.8137095434715
 20
484.4675388084186
 30
0.0
 10
337.7837148477973
 20
484.3756602291028
 30
0.0
 10
337.7567749958162
 20
484.2095988335644
 30
0.0
 10
337.7416776225143
 20
484.0170617490209
 30
0.0
 10
337.7425674445962
 20
483.8978530868024
 30
0.0
 10
337.7428880521754
 20
483.8549015783984
 30
0.0
  0
SPLINE
  5
59
330
1F
100
AcDbEntity
  8
0
  6
Continuous
 62
     7
370
    15
100
AcDbSpline
210
0.0
220
0.0
230
1.0
 70
     8
 71
     3
 72
    13
 73
     9
 74
     0
 42
0.00000001
 43
0.00000001
 12
1.0
 22
0.0
 32
0.0
 13
1.0
 23
0.0
 33
0.0
 40
0.0
 40
0.0
 40
0.0
 40
0.0
 40
0.1161292153781346
 40
0.4018439566325079
 40
0.6554822748356843
 40
0.8572431030651851
 40
0.9958748511961116
 40
1.0
 40
1.0
 40
1.0
 40
1.0
 10
341.0117612513688
 20
483.8576922429418
 30
0.0
 10
341.0116735091028
 20
483.8678284994164
 30
0.0
 10
341.0113698930036
 20
483.9029031651143
 30
0.0
 10
341.0148189407428
 20
483.9574607522857
 30
0.0
 10
341.0209446340496
 20
484.0075340005125
 30
0.0
 10
341.0256937138597
 20
484.0319679557944
 30
0.0
 10
341.0289751624519
 20
484.0404770541809
 30
0.0
 10
341.0281652789279
 20
484.0387294299592
 30
0.0
 10
341.0281418762755
 20
484.0386789300526
 30
0.0
  0
LINE
  5
5A
330
1F
100
AcDbEntity
  8
0
  6
Continuous
 62
     7
370
    15
100
AcDbLine
 10
341.0112903114
 20
481.3049061787
 30
0.0
 11
341.0112903114
 21
483.8549061787
 31
0.0
  0
ARC
  5
5B
330
1F
100
AcDbEntity
  8
0
  6
Continuous
 62
     7
370
    15
100
AcDbCircle
 10
340.8862903114
 20
481.3049061787
 30
0.0
 40
0.1249999999999432
100
AcDbArc
 50
270.0
 51
0.0
  0
ARC
  5
5C
330
1F
100
AcDbEntity
  8
0
  6
Continuous
 62
     7
370
    15
100
AcDbCircle
 10
337.8659467855
 20
481.3049061787
 30
0.0
 40
0.125
100
AcDbArc
 50
180.0
 51
270.0
  0
LINE
  5
5D
330
1F
100
AcDbEntity
  8
0
  6
Continuous
 62
     7
370
    15
100
AcDbLine
 10
337.7409467855
 20
483.8549061787
 30
0.0
 11
337.7409467855
 21
481.3049061787
 31
0.0
  0
ARC
  5
5E
330
1F
100
AcDbEntity
  8
0
  6
Continuous
 62
     7
370
    15
100
AcDbCircle
 10
335.8792251014
 20
484.1049061787
 30
0.0
 40
0.1249999999999432
100
AcDbArc
 50
180.0
 51
270.0
  0
ARC
  5
5F
330
1F
100
AcDbEntity
  8
0
  6
Continuous
 62
     7
370
    15
100
AcDbCircle
 10
335.8792251014
 20
484.4549061787
 30
0.0
 40
0.125
100
AcDbArc
 50
90.0
 51
180.0
  0
LINE
  5
60
330
1F
100
AcDbEntity
  8
0
  6
Continuous
 62
     7
370
    15
100
AcDbLine
 10
335.7542251014
 20
484.4549061787
 30
0.0
 11
335.7542251014
 21
484.1049061787
 31
0.0
  0
ARC
  5
61
330
1F
100
AcDbEntity
  8
0
  6
Continuous
 62
     7
370
    15
100
AcDbCircle
 10
344.4792251014
 20
484.1049061787
 30
0.0
 40
0.7249999999999659
100
AcDbArc
 50
270.0
 51
0.0
  0
ARC
  5
62
330
1F
100
AcDbEntity
  8
0
  6
Continuous
 62
     7
370
    15
100
AcDbCircle
 10
345.0792251014
 20
486.6549061787
 30
0.0
 40
0.1250000000000568
100
AcDbArc
 50
0.0
 51
90.0
  0
LINE
  5
63
330
1F
100
AcDbEntity
  8
0
  6
Continuous
 62
     7
370
    15
100
AcDbLine
 10
345.2042251014
 20
484.1049061787
 30
0.0
 11
345.2042251014
 21
486.6549061787
 31
0.0
  0
SPLINE
  5
64
330
1F
100
AcDbEntity
  8
0
  6
Continuous
 62
     7
370
    15
100
AcDbSpline
210
0.0
220
0.0
230
1.0
 70
     8
 71
     3
 72
    12
 73
     8
 74
     0
 42
0.00000001
 43
0.00000001
 12
1.0
 22
0.0
 32
0.0
 13
1.0
 23
0.0
 33
0.0
 40
0.0
 40
0.0
 40
0.0
 40
0.0
 40
0.0851564162250374
 40
0.2783520618598984
 40
0.4877411582687142
 40
0.7281995984155812
 40
1.0
 40
1.0
 40
1.0
 40
1.0
 10
343.9035965234777
 20
484.1048656421558
 30
0.0
 10
343.9039251893684
 20
484.0988184304908
 30
0.0
 10
343.9049995045213
 20
484.0790518185304
 30
0.0
 10
343.8918171956193
 20
484.0460252919583
 30
0.0
 10
343.8646391728015
 20
484.011486729127
 30
0.0
 10
343.8229004463261
 20
483.9852976978814
 30
0.0
 10
343.7894955763902
 20
483.9818637906589
 30
0.0
 10
343.7717712223648
 20
483.9800417872378
 30
0.0
  0
LINE
  5
65
330
1F
100
AcDbEntity
  8
0
  6
Continuous
 62
     7
370
    15
100
AcDbLine
 10
343.9052029587
 20
486.6549061787
 30
0.0
 11
343.9052029587
 21
484.1049061787
 31
0.0
  0
ARC
  5
66
330
1F
100
AcDbEntity
  8
0
  6
Continuous
 62
     7
370
    15
100
AcDbCircle
 10
344.0302029587
 20
486.6549061787
 30
0.0
 40
0.1250000000000568
100
AcDbArc
 50
90.0
 51
180.0
  0
ARC
  5
67
330
1F
100
AcDbEntity
  8
0
  6
Continuous
 62
     7
370
    15
100
AcDbCircle
 10
335.7292251014
 20
484.1049061787
 30
0.0
 40
0.7250000000000227
100
AcDbArc
 50
180.0
 51
270.0
  0
LINE
  5
68
330
1F
100
AcDbEntity
  8
0
  6
Continuous
 62
     7
370
    15
100
AcDbLine
 10
335.6290341241
 20
484.1049061787
 30
0.0
 11
335.6290341241
 21
486.6549061787
 31
0.0
  0
ARC
  5
69
330
1F
100
AcDbEntity
  8
0
  6
Continuous
 62
     7
370
    15
100
AcDbCircle
 10
335.5040341241
 20
486.6549061787
 30
0.0
 40
0.1250000000000568
100
AcDbArc
 50
0.0
 51
90.0
  0
ARC
  5
6A
330
1F
100
AcDbEntity
  8
0
  6
Continuous
 62
     7
370
    15
100
AcDbCircle
 10
335.1292251014
 20
486.6549061787
 30
0.0
 40
0.1250000000000568
100
AcDbArc
 50
90.0
 51
180.0
  0
LINE
  5
6B
330
1F
100
AcDbEntity
  8
0
  6
Continuous
 62
     7
370
    15
100
AcDbLine
 10
335.0042251014
 20
486.6549061787
 30
0.0
 11
335.0042251014
 21
484.1049061787
 31
0.0
  0
ARC
  5
6C
330
1F
100
AcDbEntity
  8
0
  6
Continuous
 62
     7
370
    15
100
AcDbCircle
 10
336.1782472441
 20
486.6549061787
 30
0.0
 40
0.1250000000000568
100
AcDbArc
 50
0.0
 51
90.0
  0
LINE
  5
6D
330
1F
100
AcDbEntity
  8
0
  6
Continuous
 62
     7
370
    15
100
AcDbLine
 10
336.3032472441
 20
484.5799061787
 30
0.0
 11
336.3032472441
 21
486.6549061787
 31
0.0
  0
LINE
  5
6E
330
1F
100
AcDbEntity
  8
0
  6
Continuous
 62
     7
370
    15
100
AcDbLine
 10
342.6042251014
 20
487.3049061787
 30
0.0
 11
342.7696975908
 21
487.400441765
 31
0.0
  0
LINE
  5
6F
330
1F
100
AcDbEntity
  8
0
  6
Continuous
 62
     7
370
    15
100
AcDbLine
 10
337.438752612
 20
487.400441765
 30
0.0
 11
337.6042251014
 21
487.3049061787
 31
0.0
  0
LINE
  5
70
330
1F
100
AcDbEntity
  8
0
  6
Continuous
 62
     7
370
    15
100
AcDbLine
 10
338.6042251014
 20
487.3049061787
 30
0.0
 11
338.6042251014
 21
487.1799061787
 31
0.0
  0
LINE
  5
71
330
1F
100
AcDbEntity
  8
0
  6
Continuous
 62
     7
370
    15
100
AcDbLine
 10
341.6042251014
 20
487.1799061787
 30
0.0
 11
341.6042251014
 21
487.3049061787
 31
0.0
  0
ARC
  5
72
330
1F
100
AcDbEntity
  8
0
  6
Continuous
 62
     7
370
    15
100
AcDbCircle
 10
691.1042251014
 20
440.9299061787
 30
0.0
 40
1.0
100
AcDbArc
 50
270.0
 51
0.0
  0
ARC
  5
73
330
1F
100
AcDbEntity
  8
0
  6
Continuous
 62
     7
370
    15
100
AcDbCircle
 10
664.6042251014
 20
440.9299061787
 30
0.0
 40
1.0
100
AcDbArc
 50
180.0
 51
270.0
  0
LINE
  5
74
330
1F
100
AcDbEntity
  8
0
  6
Continuous
 62
     7
370
    15
100
AcDbLine
 10
692.1042251014
 20
440.9299061787
 30
0.0
 11
692.1042251014
 21
442.9299061787
 31
0.0
  0
LINE
  5
75
330
1F
100
AcDbEntity
  8
0
  6
Continuous
 62
     7
370
    15
100
AcDbLine
 10
663.6042251014
 20
442.9299061787
 30
0.0
 11
663.6042251014
 21
440.9299061787
 31
0.0
  0
LINE
  5
76
330
1F
100
AcDbEntity
  8
0
  6
Continuous
 62
     7
370
    15
100
AcDbLine
 10
402.6042251014
 20
440.9299061787
 30
0.0
 11
402.6042251014
 21
442.9299061787
 31
0.0
  0
LINE
  5
77
330
1F
100
AcDbEntity
  8
0
  6
Continuous
 62
     7
370
    15
100
AcDbLine
 10
374.1042251014
 20
442.9299061787
 30
0.0
 11
374.1042251014
 21
440.9299061787
 31
0.0
  0
ARC
  5
78
330
1F
100
AcDbEntity
  8
0
  6
Continuous
 62
     7
370
    15
100
AcDbCircle
 10
401.6042251014
 20
440.9299061787
 30
0.0
 40
1.0
100
AcDbArc
 50
270.0
 51
0.0
  0
ARC
  5
79
330
1F
100
AcDbEntity
  8
0
  6
Continuous
 62
     7
370
    15
100
AcDbCircle
 10
375.1042251014
 20
440.9299061787
 30
0.0
 40
1.0
100
AcDbArc
 50
180.0
 51
270.0
  0
LINE
  5
7A
330
1F
100
AcDbEntity
  8
0
  6
Continuous
 62
     7
370
    15
100
AcDbLine
 10
402.5042251014
 20
442.9299061787
 30
0.0
 11
402.5042251014
 21
457.4299061787
 31
0.0
  0
LINE
  5
7B
330
1F
100
AcDbEntity
  8
0
  6
Continuous
 62
     7
370
    15
100
AcDbLine
 10
374.2042251014
 20
457.4299061787
 30
0.0
 11
374.2042251014
 21
442.9299061787
 31
0.0
  0
LINE
  5
7C
330
1F
100
AcDbEntity
  8
0
  6
Continuous
 62
     7
370
    15
100
AcDbLine
 10
692.0042251014
 20
442.9299061787
 30
0.0
 11
692.0042251014
 21
457.4299061787
 31
0.0
  0
LINE
  5
7D
330
1F
100
AcDbEntity
  8
0
  6
Continuous
 62
     7
370
    15
100
AcDbLine
 10
663.7042251014
 20
457.4299061787
 30
0.0
 11
663.7042251014
 21
442.9299061787
 31
0.0
  0
ARC
  5
7E
330
1F
100
AcDbEntity
  8
0
  6
Continuous
 62
     7
370
    15
100
AcDbCircle
 10
694.5542251014
 20
488.1799061787
 30
0.0
 40
0.75
100
AcDbArc
 50
90.0
 51
180.0
  0
ARC
  5
7F
330
1F
100
AcDbEntity
  8
0
  6
Continuous
 62
     7
370
    15
100
AcDbCircle
 10
661.1542251014
 20
488.1799061787
 30
0.0
 40
0.75
100
AcDbArc
 50
0.0
 51
90.0
  0
ARC
  5
80
330
1F
100
AcDbEntity
  8
0
  6
Continuous
 62
     7
370
    15
100
AcDbCircle
 10
691.4542251014
 20
460.4461891516
 30
0.0
 40
2.350000000000023
100
AcDbArc
 50
350.5402980318
 51
0.0
  0
ARC
  5
81
330
1F
100
AcDbEntity
  8
0
  6
Continuous
 62
     7
370
    15
100
AcDbCircle
 10
664.2542251014
 20
460.4461891516
 30
0.0
 40
2.350000000000023
100
AcDbArc
 50
180.0
 51
189.4597019682
  0
LINE
  5
82
330
1F
100
AcDbEntity
  8
0
  6
Continuous
 62
     7
370
    15
100
AcDbLine
 10
693.8042251014
 20
460.4461891516
 30
0.0
 11
693.8042251014
 21
488.1799061787
 31
0.0
  0
LINE
  5
83
330
1F
100
AcDbEntity
  8
0
  6
Continuous
 62
     7
370
    15
100
AcDbLine
 10
661.9042251014
 20
488.1799061787
 30
0.0
 11
661.9042251014
 21
460.4461891516
 31
0.0
  0
LINE
  5
84
330
1F
100
AcDbEntity
  8
0
  6
Continuous
 62
     7
370
    15
100
AcDbLine
 10
661.9361817149
 20
460.0599575393
 30
0.0
 11
662.3743999912
 21
457.4299061787
 31
0.0
  0
LINE
  5
85
330
1F
100
AcDbEntity
  8
0
  6
Continuous
 62
     7
370
    15
100
AcDbLine
 10
693.3340502116
 20
457.4299061787
 30
0.0
 11
693.7722684879
 21
460.0599575393
 31
0.0
  0
ARC
  5
86
330
1F
100
AcDbEntity
  8
0
  6
Continuous
 62
     7
370
    15
100
AcDbCircle
 10
405.0542251014
 20
488.1799061787
 30
0.0
 40
0.75
100
AcDbArc
 50
90.0
 51
180.0
  0
ARC
  5
87
330
1F
100
AcDbEntity
  8
0
  6
Continuous
 62
     7
370
    15
100
AcDbCircle
 10
371.6542251014
 20
488.1799061787
 30
0.0
 40
0.7499999999999432
100
AcDbArc
 50
0.0
 51
90.0
  0
LINE
  5
88
330
1F
100
AcDbEntity
  8
0
  6
Continuous
 62
     7
370
    15
100
AcDbLine
 10
404.3042251014
 20
460.4461891516
 30
0.0
 11
404.3042251014
 21
488.1799061787
 31
0.0
  0
LINE
  5
89
330
1F
100
AcDbEntity
  8
0
  6
Continuous
 62
     7
370
    15
100
AcDbLine
 10
372.4042251014
 20
488.1799061787
 30
0.0
 11
372.4042251014
 21
460.4461891516
 31
0.0
  0
ARC
  5
8A
330
1F
100
AcDbEntity
  8
0
  6
Continuous
 62
     7
370
    15
100
AcDbCircle
 10
401.9542251014
 20
460.4461891516
 30
0.0
 40
2.350000000000061
100
AcDbArc
 50
350.5402980318
 51
0.0
  0
ARC
  5
8B
330
1F
100
AcDbEntity
  8
0
  6
Continuous
 62
     7
370
    15
100
AcDbCircle
 10
374.7542251014
 20
460.4461891516
 30
0.0
 40
2.350000000000023
100
AcDbArc
 50
180.0
 51
189.4597019682
  0
LINE
  5
8C
330
1F
100
AcDbEntity
  8
0
  6
Continuous
 62
     7
370
    15
100
AcDbLine
 10
372.4361817149
 20
460.0599575393
 30
0.0
 11
372.8743999912
 21
457.4299061787
 31
0.0
  0
LINE
  5
8D
330
1F
100
AcDbEntity
  8
0
  6
Continuous
 62
     7
370
    15
100
AcDbLine
 10
403.8340502116
 20
457.4299061787
 30
0.0
 11
404.2722684879
 21
460.0599575393
 31
0.0
  0
LINE
  5
8E
330
1F
100
AcDbEntity
  8
0
  6
Continuous
 62
     7
370
    15
100
AcDbLine
 10
320.4320993323
 20
623.3799061787
 30
0.0
 11
322.5163296576
 21
647.202767808
 31
0.0
  0
LINE
  5
8F
330
1F
100
AcDbEntity
  8
0
  6
Continuous
 62
     7
370
    15
100
AcDbLine
 10
320.4570993323
 20
623.3799061787
 30
0.0
 11
320.4320993323
 21
623.3799061787
 31
0.0
  0
LINE
  5
90
330
1F
100
AcDbEntity
  8
0
  6
Continuous
 62
     7
370
    15
100
AcDbLine
 10
351.9646183076
 20
640.153291045
 30
0.0
 11
353.4320993323
 21
623.3799061787
 31
0.0
  0
LINE
  5
91
330
1F
100
AcDbEntity
  8
0
  6
Continuous
 62
     7
370
    15
100
AcDbLine
 10
323.7612142429
 20
648.0841952264
 30
0.0
 11
351.2171134966
 21
641.0347184633
 31
0.0
  0
ARC
  5
92
330
1F
100
AcDbEntity
  8
0
  6
Continuous
 62
     7
370
    15
100
AcDbCircle
 10
350.9684236095
 20
640.0661353022
 30
0.0
 40
1.000000000000032
100
AcDbArc
 50
5.0
 51
75.6
  0
ARC
  5
93
330
1F
100
AcDbEntity
  8
0
  6
Continuous
 62
     7
370
    15
100
AcDbCircle
 10
323.5125243557
 20
647.1156120652
 30
0.0
 40
0.9999999999999435
100
AcDbArc
 50
75.6
 51
175.0
  0
LINE
  5
94
330
1F
100
AcDbEntity
  8
0
  6
Continuous
 62
     7
370
    15
100
AcDbLine
 10
565.5820956318
 20
621.8689499697
 30
0.0
 11
566.3320956318
 21
622.6189499697
 31
0.0
  0
LINE
  5
95
330
1F
100
AcDbEntity
  8
0
  6
Continuous
 62
     7
370
    15
100
AcDbLine
 10
566.3320956318
 20
622.6189499697
 30
0.0
 11
579.9445956442
 21
622.6189499697
 31
0.0
  0
LINE
  5
96
330
1F
100
AcDbEntity
  8
0
  6
Continuous
 62
     7
370
    15
100
AcDbLine
 10
565.5820956318
 20
621.8689499697
 30
0.0
 11
579.9445956318
 21
621.8689499697
 31
0.0
  0
LINE
  5
97
330
1F
100
AcDbEntity
  8
0
  6
Continuous
 62
     7
370
    15
100
AcDbLine
 10
565.5820956318
 20
619.8751600888
 30
0.0
 11
565.5820956318
 21
621.8689499697
 31
0.0
  0
LINE
  5
98
330
1F
100
AcDbEntity
  8
0
  6
Continuous
 62
     7
370
    15
100
AcDbLine
 10
565.7803678332
 20
619.8689499697
 30
0.0
 11
579.9445956326
 21
619.8689499697
 31
0.0
  0
LINE
  5
99
330
1F
100
AcDbEntity
  8
0
  6
Continuous
 62
     7
370
    15
100
AcDbLine
 10
579.9445956442
 20
622.6189499697
 30
0.0
 11
701.2195956174
 21
622.6189499697
 31
0.0
  0
LINE
  5
9A
330
1F
100
AcDbEntity
  8
0
  6
Continuous
 62
     7
370
    15
100
AcDbLine
 10
701.2195956326
 20
621.8689499697
 30
0.0
 11
579.9445956318
 21
621.8689499697
 31
0.0
  0
LINE
  5
9B
330
1F
100
AcDbEntity
  8
0
  6
Continuous
 62
     7
370
    15
100
AcDbLine
 10
701.2195956174
 20
622.6189499697
 30
0.0
 11
714.8320956318
 21
622.6189499697
 31
0.0
  0
LINE
  5
9C
330
1F
100
AcDbEntity
  8
0
  6
Continuous
 62
     7
370
    15
100
AcDbLine
 10
715.5820956318
 20
621.8689499697
 30
0.0
 11
714.8320956318
 21
622.6189499697
 31
0.0
  0
LINE
  5
9D
330
1F
100
AcDbEntity
  8
0
  6
Continuous
 62
     7
370
    15
100
AcDbLine
 10
701.2195956326
 20
621.8689499697
 30
0.0
 11
715.5820956318
 21
621.8689499697
 31
0.0
  0
LINE
  5
9E
330
1F
100
AcDbEntity
  8
0
  6
Continuous
 62
     7
370
    15
100
AcDbLine
 10
715.5820956318
 20
621.8689499697
 30
0.0
 11
715.5820956318
 21
619.8751600888
 31
0.0
  0
LINE
  5
9F
330
1F
100
AcDbEntity
  8
0
  6
Continuous
 62
     7
370
    15
100
AcDbLine
 10
701.2195956333
 20
619.8689499697
 30
0.0
 11
715.3838234305
 21
619.8689499697
 31
0.0
  0
LINE
  5
A0
330
1F
100
AcDbEntity
  8
0
  6
Continuous
 62
     7
370
    15
100
AcDbLine
 10
526.2196030218
 20
622.6189499697
 30
0.0
 11
539.8321030328
 21
622.6189499697
 31
0.0
  0
LINE
  5
A1
330
1F
100
AcDbEntity
  8
0
  6
Continuous
 62
     7
370
    15
100
AcDbLine
 10
540.5821030328
 20
621.8689499697
 30
0.0
 11
539.8321030328
 21
622.6189499697
 31
0.0
  0
LINE
  5
A2
330
1F
100
AcDbEntity
  8
0
  6
Continuous
 62
     7
370
    15
100
AcDbLine
 10
526.2196030328
 20
621.8689499697
 30
0.0
 11
540.5821030328
 21
621.8689499697
 31
0.0
  0
LINE
  5
A3
330
1F
100
AcDbEntity
  8
0
  6
Continuous
 62
     7
370
    15
100
AcDbLine
 10
540.5821030328
 20
621.8689499697
 30
0.0
 11
540.5821030328
 21
619.8751600886
 31
0.0
  0
LINE
  5
A4
330
1F
100
AcDbEntity
  8
0
  6
Continuous
 62
     7
370
    15
100
AcDbLine
 10
526.2196030314
 20
619.8689499697
 30
0.0
 11
540.3838308425
 21
619.8689499697
 31
0.0
  0
LINE
  5
A5
330
1F
100
AcDbEntity
  8
0
  6
Continuous
 62
     7
370
    15
100
AcDbLine
 10
526.2196030218
 20
622.6189499697
 30
0.0
 11
404.9446030452
 21
622.6189499697
 31
0.0
  0
LINE
  5
A6
330
1F
100
AcDbEntity
  8
0
  6
Continuous
 62
     7
370
    15
100
AcDbLine
 10
404.9446030314
 20
621.8689499697
 30
0.0
 11
526.2196030328
 21
621.8689499697
 31
0.0
  0
LINE
  5
A7
330
1F
100
AcDbEntity
  8
0
  6
Continuous
 62
     7
370
    15
100
AcDbLine
 10
390.5821030328
 20
619.8751600888
 30
0.0
 11
390.5821030328
 21
621.8689499697
 31
0.0
  0
LINE
  5
A8
330
1F
100
AcDbEntity
  8
0
  6
Continuous
 62
     7
370
    15
100
AcDbLine
 10
390.5821030328
 20
621.8689499697
 30
0.0
 11
404.9446030314
 21
621.8689499697
 31
0.0
  0
LINE
  5
A9
330
1F
100
AcDbEntity
  8
0
  6
Continuous
 62
     7
370
    15
100
AcDbLine
 10
390.7803752342
 20
619.8689499697
 30
0.0
 11
404.9446030314
 21
619.8689499697
 31
0.0
  0
LINE
  5
AA
330
1F
100
AcDbEntity
  8
0
  6
Continuous
 62
     7
370
    15
100
AcDbLine
 10
390.5821030328
 20
621.8689499697
 30
0.0
 11
391.3321030328
 21
622.6189499697
 31
0.0
  0
LINE
  5
AB
330
1F
100
AcDbEntity
  8
0
  6
Continuous
 62
     7
370
    15
100
AcDbLine
 10
391.3321030328
 20
622.6189499697
 30
0.0
 11
404.9446030452
 21
622.6189499697
 31
0.0
  0
LINE
  5
AC
330
1F
100
AcDbEntity
  8
0
  6
Continuous
 62
     7
370
    15
100
AcDbLine
 10
542.4329369303
 20
618.1582523809
 30
0.0
 11
542.9571030328
 21
614.4286167642
 31
0.0
  0
LINE
  5
AD
330
1F
100
AcDbEntity
  8
0
  6
Continuous
 62
     7
370
    15
100
AcDbLine
 10
525.7321030328
 20
614.4286167642
 30
0.0
 11
542.9571030328
 21
614.4286167642
 31
0.0
  0
LINE
  5
AE
330
1F
100
AcDbEntity
  8
0
  6
Continuous
 62
     7
370
    15
100
AcDbLine
 10
542.9571030328
 20
614.4286167642
 30
0.0
 11
542.6105092088
 21
614.3799061787
 31
0.0
  0
LINE
  5
AF
330
1F
100
AcDbEntity
  8
0
  6
Continuous
 62
     7
370
    15
100
AcDbLine
 10
525.7321030328
 20
614.4286167642
 30
0.0
 11
405.4321030337
 21
614.4286167642
 31
0.0
  0
LINE
  5
B0
330
1F
100
AcDbEntity
  8
0
  6
Continuous
 62
     7
370
    15
100
AcDbLine
 10
405.4321030337
 20
614.4286167642
 30
0.0
 11
388.2071030328
 21
614.4286167642
 31
0.0
  0
LINE
  5
B1
330
1F
100
AcDbEntity
  8
0
  6
Continuous
 62
     7
370
    15
100
AcDbLine
 10
388.2071030328
 20
614.4286167642
 30
0.0
 11
388.7312691357
 21
618.1582523807
 31
0.0
  0
LINE
  5
B2
330
1F
100
AcDbEntity
  8
0
  6
Continuous
 62
     7
370
    15
100
AcDbLine
 10
388.5536968568
 20
614.3799061787
 30
0.0
 11
388.2071030328
 21
614.4286167642
 31
0.0
  0
ARC
  5
B3
330
1F
100
AcDbEntity
  8
0
  6
Continuous
 62
     7
370
    15
100
AcDbCircle
 10
540.4524007929
 20
617.8799061789
 30
0.0
 40
1.999999999870105
100
AcDbArc
 50
8.000000003
 51
86.2816950912
  0
ARC
  5
B4
330
1F
100
AcDbEntity
  8
0
  6
Continuous
 62
     7
370
    15
100
AcDbCircle
 10
390.7118052732
 20
617.8799061789
 30
0.0
 40
2.000000000078635
100
AcDbArc
 50
93.7183049226
 51
172.0000000024
  0
LINE
  5
B5
330
1F
100
AcDbEntity
  8
0
  6
Continuous
 62
     7
370
    15
100
AcDbLine
 10
580.4320956252
 20
614.4286167642
 30
0.0
 11
563.2070956318
 21
614.4286167642
 31
0.0
  0
LINE
  5
B6
330
1F
100
AcDbEntity
  8
0
  6
Continuous
 62
     7
370
    15
100
AcDbLine
 10
563.2070956318
 20
614.4286167642
 30
0.0
 11
563.7312617345
 21
618.1582523814
 31
0.0
  0
LINE
  5
B7
330
1F
100
AcDbEntity
  8
0
  6
Continuous
 62
     7
370
    15
100
AcDbLine
 10
563.5536894558
 20
614.3799061787
 30
0.0
 11
563.2070956318
 21
614.4286167642
 31
0.0
  0
LINE
  5
B8
330
1F
100
AcDbEntity
  8
0
  6
Continuous
 62
     7
370
    15
100
AcDbLine
 10
580.4320956252
 20
614.4286167642
 30
0.0
 11
700.7320956302
 21
614.4286167642
 31
0.0
  0
LINE
  5
B9
330
1F
100
AcDbEntity
  8
0
  6
Continuous
 62
     7
370
    15
100
AcDbLine
 10
717.9570956318
 20
614.4286167642
 30
0.0
 11
717.6105018078
 21
614.3799061787
 31
0.0
  0
LINE
  5
BA
330
1F
100
AcDbEntity
  8
0
  6
Continuous
 62
     7
370
    15
100
AcDbLine
 10
717.9570956318
 20
614.4286167642
 30
0.0
 11
700.7320956302
 21
614.4286167642
 31
0.0
  0
LINE
  5
BB
330
1F
100
AcDbEntity
  8
0
  6
Continuous
 62
     7
370
    15
100
AcDbLine
 10
717.432929529
 20
618.1582523814
 30
0.0
 11
717.9570956318
 21
614.4286167642
 31
0.0
  0
ARC
  5
BC
330
1F
100
AcDbEntity
  8
0
  6
Continuous
 62
     7
370
    15
100
AcDbCircle
 10
565.7117978718
 20
617.8799061787
 30
0.0
 40
1.999999999999974
100
AcDbArc
 50
93.718304911
 51
171.9999999772
  0
ARC
  5
BD
330
1F
100
AcDbEntity
  8
0
  6
Continuous
 62
     7
370
    15
100
AcDbCircle
 10
715.4523933913
 20
617.8799061787
 30
0.0
 40
2.000000000261878
100
AcDbArc
 50
8.0000000202
 51
86.2816950747
  0
LINE
  5
BE
330
1F
100
AcDbEntity
  8
0
  6
Continuous
 62
     7
370
    15
100
AcDbLine
 10
750.8127541362
 20
561.6262521033
 30
0.0
 11
761.7352375015
 21
538.2029109374
 31
0.0
  0
SPLINE
  5
BF
330
1F
100
AcDbEntity
  8
0
  6
Continuous
 62
     7
370
    15
100
AcDbSpline
210
0.0
220
0.0
230
1.0
 70
    24
 71
     3
 72
    11
 73
     7
 74
     0
 42
0.00000001
 43
0.00000001
 12
1.0
 22
0.0
 32
0.0
 13
1.0
 23
0.0
 33
0.0
 40
0.0
 40
0.0
 40
0.0
 40
0.0
 40
0.1499516226907173
 40
0.433174957825371
 40
0.7165923401616989
 40
1.0
 40
1.0
 40
1.0
 40
1.0
 10
762.5188224120724
 20
536.5225076738142
 30
0.0
 10
762.4687607493249
 20
536.6298652560282
 30
0.0
 10
762.3241443839921
 20
536.9399960523032
 30
0.0
 10
762.0959753309696
 20
537.4293061655563
 30
0.0
 10
761.8670920881934
 20
537.9201478636782
 30
0.0
 10
761.7791885277803
 20
538.1086576573215
 30
0.0
 10
761.7352375014592
 20
538.2029109374308
 30
0.0
  0
SPLINE
  5
C0
330
1F
100
AcDbEntity
  8
0
  6
Continuous
 62
     7
370
    15
100
AcDbSpline
210
0.0
220
0.0
230
1.0
 70
    24
 71
     3
 72
    11
 73
     7
 74
     0
 42
0.00000001
 43
0.00000001
 12
1.0
 22
0.0
 32
0.0
 13
1.0
 23
0.0
 33
0.0
 40
0.0
 40
0.0
 40
0.0
 40
0.0
 40
0.1499515950756913
 40
0.4331749432232047
 40
0.7165923323728128
 40
1.0
 40
1.0
 40
1.0
 40
1.0
 10
750.8127541362127
 20
561.6262521033493
 30
0.0
 10
750.7916748785078
 20
561.6714567173764
 30
0.0
 10
750.7307818532963
 20
561.8020422313533
 30
0.0
 10
750.5658135988456
 20
562.1558177946874
 30
0.0
 10
750.3141495718149
 20
562.6955130422975
 30
0.0
 10
750.1241615881871
 20
563.1029435880009
 30
0.0
 10
750.0291692255995
 20
563.3066553669659
 30
0.0
  0
LINE
  5
C1
330
1F
100
AcDbEntity
  8
0
  6
Continuous
 62
     7
370
    15
100
AcDbLine
 10
743.4670465148
 20
571.5255389683
 30
0.0
 11
743.6748838756
 21
571.6095107128
 31
0.0
  0
SPLINE
  5
C2
330
1F
100
AcDbEntity
  8
0
  6
Continuous
 62
     7
370
    15
100
AcDbSpline
210
0.0
220
0.0
230
1.0
 70
     8
 71
     3
 72
    14
 73
    10
 74
     0
 42
0.00000001
 43
0.00000001
 12
1.0
 22
0.0
 32
0.0
 13
1.0
 23
0.0
 33
0.0
 40
0.0
 40
0.0
 40
0.0
 40
0.0
 40
0.0000064140457922
 40
0.0730558909548047
 40
0.2154935957733534
 40
0.4037789030075333
 40
0.5887468703998128
 40
0.8882363243876868
 40
1.0
 40
1.0
 40
1.0
 40
1.0
 10
743.6748838756304
 20
571.6095107127727
 30
0.0
 10
743.6748931456153
 20
571.6095144580237
 30
0.0
 10
743.7804781419028
 20
571.6521728131219
 30
0.0
 10
744.1059856098012
 20
571.745243874439
 30
0.0
 10
744.74495106096
 20
571.7481765243871
 30
0.0
 10
745.5307570476764
 20
571.5111573267307
 30
0.0
 10
746.3765925941955
 20
570.8577413868004
 30
0.0
 10
746.8730013503782
 20
570.0519486694119
 30
0.0
 10
747.1505650568015
 20
569.4748991520166
 30
0.0
 10
747.2259967989908
 20
569.3180780352094
 30
0.0
  0
SPLINE
  5
C3
330
1F
100
AcDbEntity
  8
0
  6
Continuous
 62
     7
370
    15
100
AcDbSpline
210
0.0
220
0.0
230
1.0
 70
     8
 71
     3
 72
    15
 73
    11
 74
     0
 42
0.00000001
 43
0.00000001
 12
1.0
 22
0.0
 32
0.0
 13
1.0
 23
0.0
 33
0.0
 40
0.0
 40
0.0
 40
0.0
 40
0.0
 40
0.0125258353877795
 40
0.2274813526119533
 40
0.4424404199769135
 40
0.4999991763207164
 40
0.714875500956981
 40
0.929749526558846
 40
0.9874741646146589
 40
1.0
 40
1.0
 40
1.0
 40
1.0
 10
743.8890880495229
 20
570.6204742371157
 30
0.0
 10
743.88648673609
 20
570.6264529560801
 30
0.0
 10
743.8392443542464
 20
570.7350323070627
 30
0.0
 10
743.7459989278503
 20
570.9465393409583
 30
0.0
 10
743.6536329731537
 20
571.1503982468662
 30
0.0
 10
743.5748347055759
 20
571.3203789502431
 30
0.0
 10
743.5099235295138
 20
571.4558098479846
 30
0.0
 10
743.4756970814268
 20
571.5181909787904
 30
0.0
 10
743.4682005258726
 20
571.5257158032736
 30
0.0
 10
743.4672232263708
 20
571.5255665695713
 30
0.0
 10
743.4670489714217
 20
571.5255399608284
 30
0.0
  0
SPLINE
  5
C4
330
1F
100
AcDbEntity
  8
0
  6
Continuous
 62
     7
370
    15
100
AcDbSpline
210
0.0
220
0.0
230
1.0
 70
     8
 71
     3
 72
     9
 73
     5
 74
     0
 42
0.00000001
 43
0.00000001
 12
1.0
 22
0.0
 32
0.0
 13
1.0
 23
0.0
 33
0.0
 40
0.0
 40
0.0
 40
0.0
 40
0.0
 40
0.0000220488581531
 40
0.9999999999999999
 40
0.9999999999999999
 40
0.9999999999999999
 40
0.9999999999999999
 10
768.4916318017367
 20
523.7137766027961
 30
0.0
 10
768.4916360279174
 20
523.7137675397169
 30
0.0
 10
768.6833094717936
 20
523.3027222557658
 30
0.0
 10
768.8287785016817
 20
522.872175134232
 30
0.0
 10
768.9742443241438
 20
522.4416375057704
 30
0.0
  0
LINE
  5
C5
330
1F
100
AcDbEntity
  8
0
  6
Continuous
 62
     7
370
    15
100
AcDbLine
 10
743.4670465148
 20
571.5255389683
 30
0.0
 11
743.4427698077
 21
571.515730542
 31
0.0
  0
LINE
  5
C6
330
1F
100
AcDbEntity
  8
0
  6
Continuous
 62
     7
370
    15
100
AcDbLine
 10
762.5188224121
 20
536.5225076738
 30
0.0
 11
768.4916318017
 21
523.7137766028
 31
0.0
  0
LINE
  5
C7
330
1F
100
AcDbEntity
  8
0
  6
Continuous
 62
     7
370
    15
100
AcDbLine
 10
747.225996799
 20
569.3180780352
 30
0.0
 11
750.0291692256
 21
563.306655367
 31
0.0
  0
SPLINE
  5
C8
330
1F
100
AcDbEntity
  8
0
  6
Continuous
 62
     7
370
    15
100
AcDbSpline
210
0.0
220
0.0
230
1.0
 70
     8
 71
     3
 72
    20
 73
    16
 74
     0
 42
0.00000001
 43
0.00000001
 12
1.0
 22
0.0
 32
0.0
 13
1.0
 23
0.0
 33
0.0
 40
0.0
 40
0.0
 40
0.0
 40
0.0
 40
0.2070577373168126
 40
0.42037705027606
 40
0.7011163025568207
 40
0.8834527988430992
 40
0.928228640493498
 40
0.9524788585968974
 40
0.9675018207221384
 40
0.9773827146382335
 40
0.9840938553685418
 40
0.9887393639099427
 40
0.9919933949590747
 40
0.9977340800222597
 40
1.0
 40
1.0
 40
1.0
 40
1.0
 10
768.9742443241438
 20
522.4416375057704
 30
0.0
 10
769.0266769909505
 20
522.1970802696403
 30
0.0
 10
769.1331279263076
 20
521.7005702097881
 30
0.0
 10
769.0339122719952
 20
520.8461914663679
 30
0.0
 10
768.7168688249959
 20
520.197784555555
 30
0.0
 10
768.3814920671929
 20
519.8139409921107
 30
0.0
 10
768.1763161919423
 20
519.6531779337566
 30
0.0
 10
768.1035746922262
 20
519.6031301941703
 30
0.0
 10
768.0596266220188
 20
519.5751944026962
 30
0.0
 10
768.0307892309398
 20
519.557808536111
 30
0.0
 10
768.0111635816312
 20
519.5464006690856
 30
0.0
 10
767.9975435671652
 20
519.5386834210859
 30
0.0
 10
767.9847508925313
 20
519.5315667737569
 30
0.0
 10
767.974122191544
 20
519.5257698901855
 30
0.0
 10
767.9665131035624
 20
519.5217105627845
 30
0.0
 10
767.9643596834322
 20
519.5205617473993
 30
0.0
  0
SPLINE
  5
C9
330
1F
100
AcDbEntity
  8
0
  6
Continuous
 62
     7
370
    15
100
AcDbSpline
210
0.0
220
0.0
230
1.0
 70
     8
 71
     3
 72
    10
 73
     6
 74
     0
 42
0.00000001
 43
0.00000001
 12
1.0
 22
0.0
 32
0.0
 13
1.0
 23
0.0
 33
0.0
 40
0.0
 40
0.0
 40
0.0
 40
0.0
 40
0.4527378322255641
 40
0.9055954617456958
 40
1.0
 40
1.0
 40
1.0
 40
1.0
 10
769.0352851952363
 20
521.0431765558506
 30
0.0
 10
769.0390967186602
 20
521.0694262678701
 30
0.0
 10
769.0467207740617
 20
521.1219326377492
 30
0.0
 10
769.1084012827307
 20
521.363267067239
 30
0.0
 10
769.0873910166264
 20
521.6014899574693
 30
0.0
 10
769.0837666760689
 20
521.6425841958036
 30
0.0
  0
SPLINE
  5
CA
330
1F
100
AcDbEntity
  8
0
  6
Continuous
 62
     7
370
    15
100
AcDbSpline
210
0.0
220
0.0
230
1.0
 70
     8
 71
     3
 72
    12
 73
     8
 74
     0
 42
0.00000001
 43
0.00000001
 12
1.0
 22
0.0
 32
0.0
 13
1.0
 23
0.0
 33
0.0
 40
0.0
 40
0.0
 40
0.0
 40
0.0
 40
0.4616906275983997
 40
0.7307729957121298
 40
0.9175829515514835
 40
0.9719359527200856
 40
1.0
 40
1.0
 40
1.0
 40
1.0
 10
768.9637189519465
 20
522.479330405174
 30
0.0
 10
768.9487120555011
 20
522.5336103251832
 30
0.0
 10
768.9249588449826
 20
522.619525648954
 30
0.0
 10
768.889147154693
 20
522.7315751459768
 30
0.0
 10
768.868401540263
 20
522.7937595209321
 30
0.0
 10
768.8571579303357
 20
522.8265953224331
 30
0.0
 10
768.853685832461
 20
522.8366392746041
 30
0.0
 10
768.8525035392248
 20
522.8400593673387
 30
0.0
  0
LINE
  5
CB
330
1F
100
AcDbEntity
  8
0
  6
Continuous
 62
     7
370
    15
100
AcDbLine
 10
746.5410768789
 20
570.4486502092
 30
0.0
 11
746.3182705172
 21
570.8160947181
 31
0.0
  0
LINE
  5
CC
330
1F
100
AcDbEntity
  8
0
  6
Continuous
 62
     7
370
    15
100
AcDbLine
 10
768.5147226753
 20
523.6640038725
 30
0.0
 11
768.4937056966
 21
523.7093271168
 31
0.0
  0
SPLINE
  5
CD
330
1F
100
AcDbEntity
  8
0
  6
Continuous
 62
     7
370
    15
100
AcDbSpline
210
0.0
220
0.0
230
1.0
 70
     8
 71
     3
 72
     9
 73
     5
 74
     0
 42
0.00000001
 43
0.00000001
 12
1.0
 22
0.0
 32
0.0
 13
1.0
 23
0.0
 33
0.0
 40
0.0
 40
0.0
 40
0.0
 40
0.0
 40
0.5000138394957003
 40
1.0
 40
1.0
 40
1.0
 40
1.0
 10
768.7486260953235
 20
523.1201862319649
 30
0.0
 10
768.7146413891045
 20
523.2045447296148
 30
0.0
 10
768.6466738579394
 20
523.3732570551275
 30
0.0
 10
768.558705591208
 20
523.5670900550678
 30
0.0
 10
768.5147226752787
 20
523.664003872487
 30
0.0
  0
SPLINE
  5
CE
330
1F
100
AcDbEntity
  8
0
  6
Continuous
 62
     7
370
    15
100
AcDbSpline
210
0.0
220
0.0
230
1.0
 70
     8
 71
     3
 72
    13
 73
     9
 74
     0
 42
0.00000001
 43
0.00000001
 12
1.0
 22
0.0
 32
0.0
 13
1.0
 23
0.0
 33
0.0
 40
0.0
 40
0.0
 40
0.0
 40
0.0
 40
0.1254648118065656
 40
0.2502435788816402
 40
0.3760698054095823
 40
0.5019139201694192
 40
0.7508310514861765
 40
1.0
 40
1.0
 40
1.0
 40
1.0
 10
746.3182705170076
 20
570.8160947183502
 30
0.0
 10
746.2744320308625
 20
570.8647308575328
 30
0.0
 10
746.1869947685121
 20
570.9617371922714
 30
0.0
 10
746.0501537524215
 20
571.091437260896
 30
0.0
 10
745.916653438909
 20
571.2031733450931
 30
0.0
 10
745.754223931054
 20
571.3224102221092
 30
0.0
 10
745.5878807611829
 20
571.4211906398262
 30
0.0
 10
745.5614234162157
 20
571.4346727399331
 30
0.0
 10
745.548188055717
 20
571.4414171980569
 30
0.0
  0
SPLINE
  5
CF
330
1F
100
AcDbEntity
  8
0
  6
Continuous
 62
     7
370
    15
100
AcDbSpline
210
0.0
220
0.0
230
1.0
 70
     8
 71
     3
 72
     9
 73
     5
 74
     0
 42
0.00000001
 43
0.00000001
 12
1.0
 22
0.0
 32
0.0
 13
1.0
 23
0.0
 33
0.0
 40
0.0
 40
0.0
 40
0.0
 40
0.0
 40
0.8821747880986529
 40
1.0
 40
1.0
 40
1.0
 40
1.0
 10
769.0933529441518
 20
521.5387447477143
 30
0.0
 10
769.0968596720144
 20
521.5440912488788
 30
0.0
 10
769.1008347661906
 20
521.55015184054
 30
0.0
 10
769.0909855653813
 20
521.6753233733044
 30
0.0
 10
769.0898250812088
 20
521.6900717356764
 30
0.0
  0
SPLINE
  5
D0
330
1F
100
AcDbEntity
  8
0
  6
Continuous
 62
     7
370
    15
100
AcDbSpline
210
0.0
220
0.0
230
1.0
 70
     8
 71
     3
 72
     9
 73
     5
 74
     0
 42
0.00000001
 43
0.00000001
 12
1.0
 22
0.0
 32
0.0
 13
1.0
 23
0.0
 33
0.0
 40
0.0
 40
0.0
 40
0.0
 40
0.0
 40
0.1164892876092715
 40
1.0
 40
1.0
 40
1.0
 40
1.0
 10
768.9797656503554
 20
522.4050587346566
 30
0.0
 10
768.9755712920955
 20
522.4268898216493
 30
0.0
 10
768.9395649060504
 20
522.6142983588704
 30
0.0
 10
768.8381910144813
 20
522.8828860922804
 30
0.0
 10
768.7486260953235
 20
523.1201862319649
 30
0.0
  0
LINE
  5
D1
330
1F
100
AcDbEntity
  8
0
  6
Continuous
 62
     7
370
    15
100
AcDbLine
 10
768.8525035393
 20
522.840059367
 30
0.0
 11
768.767951462
 21
523.0626075003
 31
0.0
  0
LINE
  5
D2
330
1F
100
AcDbEntity
  8
0
  6
Continuous
 62
     7
370
    15
100
AcDbLine
 10
754.6422131518
 20
552.8224003468
 30
0.0
 11
757.4526245924
 21
546.795453563
 31
0.0
  0
LINE
  5
D3
330
1F
100
AcDbEntity
  8
0
  6
Continuous
 62
     7
370
    15
100
AcDbLine
 10
752.813169024
 20
552.6039453663
 30
0.0
 11
756.1095914656
 21
545.5347446274
 31
0.0
  0
LINE
  5
D4
330
1F
100
AcDbEntity
  8
0
  6
Continuous
 62
     7
370
    15
100
AcDbLine
 10
757.1570168771
 20
563.4012470405
 30
0.0
 11
756.1426862048
 21
565.5764861869
 31
0.0
  0
LINE
  5
D5
330
1F
100
AcDbEntity
  8
0
  6
Continuous
 62
     7
370
    15
100
AcDbLine
 10
768.1873066644
 20
539.7467142564
 30
0.0
 11
767.1729759921
 21
541.9219534029
 31
0.0
  0
LINE
  5
D6
330
1F
100
AcDbEntity
  8
0
  6
Continuous
 62
     7
370
    15
100
AcDbLine
 10
756.130652518
 20
560.0265494044
 30
0.0
 11
754.8899154672
 21
560.236093561
 31
0.0
  0
SPLINE
  5
D7
330
1F
100
AcDbEntity
  8
0
  6
Continuous
 62
     7
370
    15
100
AcDbSpline
210
0.0
220
0.0
230
1.0
 70
     8
 71
     3
 72
     9
 73
     5
 74
     0
 42
0.00000001
 43
0.00000001
 12
1.0
 22
0.0
 32
0.0
 13
1.0
 23
0.0
 33
0.0
 40
0.0
 40
0.0
 40
0.0
 40
0.0
 40
0.4986163301834894
 40
1.0
 40
1.0
 40
1.0
 40
1.0
 10
756.6846713447825
 20
559.9927474297426
 30
0.0
 10
756.5927457650916
 20
559.9859362581284
 30
0.0
 10
756.4083844152394
 20
559.9722761126379
 30
0.0
 10
756.2234004548698
 20
560.0084249617945
 30
0.0
 10
756.1306525179625
 20
560.0265494044442
 30
0.0
  0
SPLINE
  5
D8
330
1F
100
AcDbEntity
  8
0
  6
Continuous
 62
     7
370
    15
100
AcDbSpline
210
0.0
220
0.0
230
1.0
 70
     8
 71
     3
 72
    11
 73
     7
 74
     0
 42
0.00000001
 43
0.00000001
 12
1.0
 22
0.0
 32
0.0
 13
1.0
 23
0.0
 33
0.0
 40
0.0
 40
0.0
 40
0.0
 40
0.0
 40
0.1671876360232862
 40
0.3343907167769871
 40
0.6674481169899074
 40
0.9999999999999999
 40
0.9999999999999999
 40
0.9999999999999999
 40
0.9999999999999999
 10
757.1499635224686
 20
560.4202737841938
 30
0.0
 10
757.1448558528277
 20
560.3872136009822
 30
0.0
 10
757.1346400417011
 20
560.3210901804722
 30
0.0
 10
757.0651125101986
 20
560.2008015998447
 30
0.0
 10
756.9334725899394
 20
560.0642594932474
 30
0.0
 10
756.7675630914975
 20
560.0165727118523
 30
0.0
 10
756.6846713447825
 20
559.9927474297426
 30
0.0
  0
SPLINE
  5
D9
330
1F
100
AcDbEntity
  8
0
  6
Continuous
 62
     7
370
    15
100
AcDbSpline
210
0.0
220
0.0
230
1.0
 70
     8
 71
     3
 72
     9
 73
     5
 74
     0
 42
0.00000001
 43
0.00000001
 12
1.0
 22
0.0
 32
0.0
 13
1.0
 23
0.0
 33
0.0
 40
0.0
 40
0.0
 40
0.0
 40
0.0
 40
0.9825480036302114
 40
1.0
 40
1.0
 40
1.0
 40
1.0
 10
755.7827007042944
 20
560.3812512613231
 30
0.0
 10
755.7566334473455
 20
560.4474815103116
 30
0.0
 10
755.7301031843433
 20
560.5148881395488
 30
0.0
 10
755.7468497799766
 20
560.5780035830608
 30
0.0
 10
755.7471420415028
 20
560.5791050735518
 30
0.0
  0
LINE
  5
DA
330
1F
100
AcDbEntity
  8
0
  6
Continuous
 62
     7
370
    15
100
AcDbLine
 10
760.7437240248
 20
547.7878286133
 30
0.0
 11
760.3108890461
 21
548.7146227955
 31
0.0
  0
SPLINE
  5
DB
330
1F
100
AcDbEntity
  8
0
  6
Continuous
 62
     7
370
    15
100
AcDbSpline
210
0.0
220
0.0
230
1.0
 70
     8
 71
     3
 72
    11
 73
     7
 74
     0
 42
0.00000001
 43
0.00000001
 12
1.0
 22
0.0
 32
0.0
 13
1.0
 23
0.0
 33
0.0
 40
0.0
 40
0.0
 40
0.0
 40
0.0
 40
0.3327148683312799
 40
0.499917255520852
 40
0.6672668872821399
 40
0.9999999999999999
 40
0.9999999999999999
 40
0.9999999999999999
 40
0.9999999999999999
 10
762.1445636492367
 20
548.9529269165985
 30
0.0
 10
762.1216070128653
 20
548.9917477164392
 30
0.0
 10
762.0871137583005
 20
549.050077504377
 30
0.0
 10
762.0151128187107
 20
549.097994182221
 30
0.0
 10
761.9367943465678
 20
549.1317041213041
 30
0.0
 10
761.8732266314232
 20
549.1294617065712
 30
0.0
 10
761.8309314633498
 20
549.1279697022132
 30
0.0
  0
SPLINE
  5
DC
330
1F
100
AcDbEntity
  8
0
  6
Continuous
 62
     7
370
    15
100
AcDbSpline
210
0.0
220
0.0
230
1.0
 70
     8
 71
     3
 72
    11
 73
     7
 74
     0
 42
0.00000001
 43
0.00000001
 12
1.0
 22
0.0
 32
0.0
 13
1.0
 23
0.0
 33
0.0
 40
0.0
 40
0.0
 40
0.0
 40
0.0
 40
0.2502176649091559
 40
0.5001638301791557
 40
0.7500323481731352
 40
1.0
 40
1.0
 40
1.0
 40
1.0
 10
762.1030538937752
 20
548.568732588285
 30
0.0
 10
762.1203987586948
 20
548.5973883296118
 30
0.0
 10
762.155069668422
 20
548.654668719243
 30
0.0
 10
762.1797230995467
 20
548.7548435792949
 30
0.0
 10
762.1799115930221
 20
548.8586958714477
 30
0.0
 10
762.1563478549849
 20
548.9215124153577
 30
0.0
 10
762.1445636492367
 20
548.9529269165985
 30
0.0
  0
LINE
  5
DD
330
1F
100
AcDbEntity
  8
0
  6
Continuous
 62
     7
370
    15
100
AcDbLine
 10
762.2783673334
 20
548.174783672
 30
0.0
 11
762.1030538938
 21
548.5687325883
 31
0.0
  0
SPLINE
  5
DE
330
1F
100
AcDbEntity
  8
0
  6
Continuous
 62
     7
370
    15
100
AcDbSpline
210
0.0
220
0.0
230
1.0
 70
     8
 71
     3
 72
     9
 73
     5
 74
     0
 42
0.00000001
 43
0.00000001
 12
1.0
 22
0.0
 32
0.0
 13
1.0
 23
0.0
 33
0.0
 40
0.0
 40
0.0
 40
0.0
 40
0.0
 40
0.819229370759067
 40
1.0
 40
1.0
 40
1.0
 40
1.0
 10
761.5225686061844
 20
549.4448857356444
 30
0.0
 10
761.6085373857032
 20
549.4913259436722
 30
0.0
 10
761.7134759811531
 20
549.5480136183156
 30
0.0
 10
761.8251818721379
 20
549.53120006406
 30
0.0
 10
761.8453750163412
 20
549.5281606672776
 30
0.0
  0
SPLINE
  5
DF
330
1F
100
AcDbEntity
  8
0
  6
Continuous
 62
     7
370
    15
100
AcDbSpline
210
0.0
220
0.0
230
1.0
 70
     8
 71
     3
 72
    13
 73
     9
 74
     0
 42
0.00000001
 43
0.00000001
 12
1.0
 22
0.0
 32
0.0
 13
1.0
 23
0.0
 33
0.0
 40
0.0
 40
0.0
 40
0.0
 40
0.0
 40
0.2493042775567594
 40
0.3736983464972324
 40
0.4997789606171659
 40
0.6250159298479008
 40
0.7502475256883154
 40
1.0
 40
1.0
 40
1.0
 40
1.0
 10
761.221730188224
 20
548.4768171571358
 30
0.0
 10
761.1895718667167
 20
548.5658302836218
 30
0.0
 10
761.141367673467
 20
548.6992578305152
 30
0.0
 10
761.1475161220217
 20
548.8918614007716
 30
0.0
 10
761.1777734530289
 20
549.0315891164591
 30
0.0
 10
761.2330451082173
 20
549.162158802331
 30
0.0
 10
761.3370107000441
 20
549.3170527280735
 30
0.0
 10
761.4483876628776
 20
549.3937816178808
 30
0.0
 10
761.5225686061844
 20
549.4448857356444
 30
0.0
  0
LINE
  5
E0
330
1F
100
AcDbEntity
  8
0
  6
Continuous
 62
     7
370
    15
100
AcDbLine
 10
761.2975209507
 20
548.3587097522
 30
0.0
 11
761.2217301882
 21
548.4768171571
 31
0.0
  0
LINE
  5
E1
330
1F
100
AcDbEntity
  8
0
  6
Continuous
 62
     7
370
    15
100
AcDbLine
 10
760.9314244998
 20
548.2508325585
 30
0.0
 11
761.2975209507
 21
548.3587097522
 31
0.0
  0
LINE
  5
E2
330
1F
100
AcDbEntity
  8
0
  6
Continuous
 62
     7
370
    15
100
AcDbLine
 10
760.3108890461
 20
548.7146227955
 30
0.0
 11
760.6272714138
 21
548.8963332088
 31
0.0
  0
LINE
  5
E3
330
1F
100
AcDbEntity
  8
0
  6
Continuous
 62
     7
370
    15
100
AcDbLine
 10
765.8701205377
 20
539.8054331583
 30
0.0
 11
766.1457063554
 21
540.0796481783
 31
0.0
  0
LINE
  5
E4
330
1F
100
AcDbEntity
  8
0
  6
Continuous
 62
     7
370
    15
100
AcDbLine
 10
765.9125811439
 20
539.7215653678
 30
0.0
 11
765.8701205377
 21
539.8054331583
 31
0.0
  0
LINE
  5
E5
330
1F
100
AcDbEntity
  8
0
  6
Continuous
 62
     7
370
    15
100
AcDbLine
 10
764.9032508615
 20
538.7183832395
 30
0.0
 11
765.9125811439
 21
539.7215653678
 31
0.0
  0
LINE
  5
E6
330
1F
100
AcDbEntity
  8
0
  6
Continuous
 62
     7
370
    15
100
AcDbLine
 10
764.988263056
 20
538.5448634594
 30
0.0
 11
764.9032508615
 21
538.7183832395
 31
0.0
  0
LINE
  5
E7
330
1F
100
AcDbEntity
  8
0
  6
Continuous
 62
     7
370
    15
100
AcDbLine
 10
766.188226607
 20
539.995729372
 30
0.0
 11
766.5102119385
 21
540.3157228727
 31
0.0
  0
LINE
  5
E8
330
1F
100
AcDbEntity
  8
0
  6
Continuous
 62
     7
370
    15
100
AcDbLine
 10
764.5010042527
 20
535.8210073736
 30
0.0
 11
750.7659107461
 21
565.2760104523
 31
0.0
  0
LINE
  5
E9
330
1F
100
AcDbEntity
  8
0
  6
Continuous
 62
     7
370
    15
100
AcDbLine
 10
760.7458873156
 20
547.7875833472
 30
0.0
 11
760.7437240248
 21
547.7878286133
 31
0.0
  0
LINE
  5
EA
330
1F
100
AcDbEntity
  8
0
  6
Continuous
 62
     7
370
    15
100
AcDbLine
 10
760.3129235974
 20
548.7146536123
 30
0.0
 11
760.3108890461
 21
548.7146227955
 31
0.0
  0
LINE
  5
EB
330
1F
100
AcDbEntity
  8
0
  6
Continuous
 62
     7
370
    15
100
AcDbLine
 10
760.7458873156
 20
547.7875833472
 30
0.0
 11
760.3129235974
 21
548.7146536123
 31
0.0
  0
LINE
  5
EC
330
1F
100
AcDbEntity
  8
0
  6
Continuous
 62
     7
370
    15
100
AcDbLine
 10
760.6293053402
 20
548.8963653656
 30
0.0
 11
760.6272714138
 21
548.8963332088
 31
0.0
  0
LINE
  5
ED
330
1F
100
AcDbEntity
  8
0
  6
Continuous
 62
     7
370
    15
100
AcDbLine
 10
760.3129235974
 20
548.7146536123
 30
0.0
 11
760.6293053402
 21
548.8963653656
 31
0.0
  0
LINE
  5
EE
330
1F
100
AcDbEntity
  8
0
  6
Continuous
 62
     7
370
    15
100
AcDbLine
 10
760.6293053402
 20
548.8963653656
 30
0.0
 11
760.9335491078
 21
548.250670248
 31
0.0
  0
LINE
  5
EF
330
1F
100
AcDbEntity
  8
0
  6
Continuous
 62
     7
370
    15
100
AcDbLine
 10
760.9335491078
 20
548.250670248
 30
0.0
 11
761.2996569678
 21
548.3585223476
 31
0.0
  0
LINE
  5
F0
330
1F
100
AcDbEntity
  8
0
  6
Continuous
 62
     7
370
    15
100
AcDbLine
 10
761.2996571468
 20
548.3585225219
 30
0.0
 11
761.2238484056
 21
548.4766685513
 31
0.0
  0
SPLINE
  5
F1
330
1F
100
AcDbEntity
  8
0
  6
Continuous
 62
     7
370
    15
100
AcDbSpline
210
0.0
220
0.0
230
1.0
 70
     8
 71
     3
 72
    13
 73
     9
 74
     0
 42
0.00000001
 43
0.00000001
 12
1.0
 22
0.0
 32
0.0
 13
1.0
 23
0.0
 33
0.0
 40
0.0
 40
0.0
 40
0.0
 40
0.0
 40
0.2493418571093338
 40
0.3739067550176164
 40
0.4998259552337466
 40
0.6250595944122064
 40
0.7502808147443235
 40
1.0
 40
1.0
 40
1.0
 40
1.0
 10
761.2238484056306
 20
548.4766685512799
 30
0.0
 10
761.1916670408498
 20
548.5657066945336
 30
0.0
 10
761.1434086785484
 20
548.69922604665
 30
0.0
 10
761.1496418258091
 20
548.891874814745
 30
0.0
 10
761.1798361569932
 20
549.031635725616
 30
0.0
 10
761.2350887337376
 20
549.1621693786681
 30
0.0
 10
761.339036046492
 20
549.3170876270028
 30
0.0
 10
761.4504154499739
 20
549.3938228063645
 30
0.0
 10
761.5245967691311
 20
549.4449302522014
 30
0.0
  0
SPLINE
  5
F2
330
1F
100
AcDbEntity
  8
0
  6
Continuous
 62
     7
370
    15
100
AcDbSpline
210
0.0
220
0.0
230
1.0
 70
     8
 71
     3
 72
    12
 73
     8
 74
     0
 42
0.00000001
 43
0.00000001
 12
1.0
 22
0.0
 32
0.0
 13
1.0
 23
0.0
 33
0.0
 40
0.0
 40
0.0
 40
0.0
 40
0.0
 40
0.2497804431754005
 40
0.4994012335319635
 40
0.6248383138129324
 40
0.7502856917678548
 40
1.0
 40
1.0
 40
1.0
 40
1.0
 10
761.5245967691311
 20
549.4449302522013
 30
0.0
 10
761.6105776755343
 20
549.4836102198624
 30
0.0
 10
761.7824845317003
 20
549.5609454320083
 30
0.0
 10
762.020135934158
 20
549.5273541173491
 30
0.0
 10
762.1895391600442
 20
549.4515485558567
 30
0.0
 10
762.3455239136609
 20
549.3412906733168
 30
0.0
 10
762.4198658531233
 20
549.2130573807517
 30
0.0
 10
762.4693491736994
 20
549.1277030145565
 30
0.0
  0
SPLINE
  5
F3
330
1F
100
AcDbEntity
  8
0
  6
Continuous
 62
     7
370
    15
100
AcDbSpline
210
0.0
220
0.0
230
1.0
 70
     8
 71
     3
 72
    11
 73
     7
 74
     0
 42
0.00000001
 43
0.00000001
 12
1.0
 22
0.0
 32
0.0
 13
1.0
 23
0.0
 33
0.0
 40
0.0
 40
0.0
 40
0.0
 40
0.0
 40
0.2502429075565899
 40
0.5000901178352006
 40
0.749838964249719
 40
1.0
 40
1.0
 40
1.0
 40
1.0
 10
762.4693491736994
 20
549.1277030145565
 30
0.0
 10
762.4997690563911
 20
549.0463085667882
 30
0.0
 10
762.5605607202524
 20
548.8836483764435
 30
0.0
 10
762.5477475564804
 20
548.6138707852767
 30
0.0
 10
762.4557936482862
 20
548.361087570753
 30
0.0
 10
762.3390230577785
 20
548.2366713079446
 30
0.0
 10
762.280589622256
 20
548.1744118842388
 30
0.0
  0
LINE
  5
F4
330
1F
100
AcDbEntity
  8
0
  6
Continuous
 62
     7
370
    15
100
AcDbLine
 10
762.2805896223
 20
548.1744118842
 30
0.0
 11
762.1052197673
 21
548.5684817835
 31
0.0
  0
SPLINE
  5
F5
330
1F
100
AcDbEntity
  8
0
  6
Continuous
 62
     7
370
    15
100
AcDbSpline
210
0.0
220
0.0
230
1.0
 70
     8
 71
     3
 72
    11
 73
     7
 74
     0
 42
0.00000001
 43
0.00000001
 12
1.0
 22
0.0
 32
0.0
 13
1.0
 23
0.0
 33
0.0
 40
0.0
 40
0.0
 40
0.0
 40
0.0
 40
0.2501909120879348
 40
0.5001304459399377
 40
0.7500135060955856
 40
1.0
 40
1.0
 40
1.0
 40
1.0
 10
762.1052197673278
 20
548.5684817834943
 30
0.0
 10
762.1225626981347
 20
548.597142547969
 30
0.0
 10
762.1572311345137
 20
548.6544352801393
 30
0.0
 10
762.1818734365395
 20
548.75463163083
 30
0.0
 10
762.1820489712168
 20
548.8585062386702
 30
0.0
 10
762.1584778945254
 20
548.9213381830414
 30
0.0
 10
762.1466899174986
 20
548.9527606558664
 30
0.0
  0
SPLINE
  5
F6
330
1F
100
AcDbEntity
  8
0
  6
Continuous
 62
     7
370
    15
100
AcDbSpline
210
0.0
220
0.0
230
1.0
 70
     8
 71
     3
 72
    12
 73
     8
 74
     0
 42
0.00000001
 43
0.00000001
 12
1.0
 22
0.0
 32
0.0
 13
1.0
 23
0.0
 33
0.0
 40
0.0
 40
0.0
 40
0.0
 40
0.0
 40
0.2495329045239852
 40
0.3749246843076406
 40
0.5004192239764443
 40
0.7499112932266305
 40
1.0
 40
1.0
 40
1.0
 40
1.0
 10
762.1466885333086
 20
548.952764014033
 30
0.0
 10
762.1237377897114
 20
548.9915427413589
 30
0.0
 10
762.0892541599303
 20
549.0498080115372
 30
0.0
 10
762.0171636467825
 20
549.0981309426842
 30
0.0
 10
761.9391644406167
 20
549.1302741232782
 30
0.0
 10
761.8307058494397
 20
549.1386536064263
 30
0.0
 10
761.7528685837962
 20
549.1022413211821
 30
0.0
 10
761.7139034713704
 20
549.0840134353938
 30
0.0
  0
SPLINE
  5
F7
330
1F
100
AcDbEntity
  8
0
  6
Continuous
 62
     7
370
    15
100
AcDbSpline
210
0.0
220
0.0
230
1.0
 70
     8
 71
     3
 72
    14
 73
    10
 74
     0
 42
0.00000001
 43
0.00000001
 12
1.0
 22
0.0
 32
0.0
 13
1.0
 23
0.0
 33
0.0
 40
0.0
 40
0.0
 40
0.0
 40
0.0
 40
0.249796480260842
 40
0.4989738063782977
 40
0.624198543753397
 40
0.7493921604417648
 40
0.8745742948499593
 40
0.9372820540892135
 40
1.0
 40
1.0
 40
1.0
 40
1.0
 10
761.7139034713705
 20
549.0840134353938
 30
0.0
 10
761.6795667097391
 20
549.0606343559498
 30
0.0
 10
761.6109782947544
 20
549.0139341452518
 30
0.0
 10
761.5546152860317
 20
548.9181540726557
 30
0.0
 10
761.5311848999798
 20
548.8338144584789
 30
0.0
 10
761.5250456439053
 20
548.7674682294456
 30
0.0
 10
761.5327815058271
 20
548.7127366182845
 30
0.0
 10
761.5446717574998
 20
548.670806605851
 30
0.0
 10
761.5532323331406
 20
548.6510224520438
 30
0.0
 10
761.5575129685923
 20
548.6411295717376
 30
0.0
  0
SPLINE
  5
F8
330
1F
100
AcDbEntity
  8
0
  6
Continuous
 62
     7
370
    15
100
AcDbSpline
210
0.0
220
0.0
230
1.0
 70
     8
 71
     3
 72
    10
 73
     6
 74
     0
 42
0.00000001
 43
0.00000001
 12
1.0
 22
0.0
 32
0.0
 13
1.0
 23
0.0
 33
0.0
 40
0.0
 40
0.0
 40
0.0
 40
0.0
 40
0.2501216062010646
 40
0.5003940587088676
 40
0.9999999999999999
 40
0.9999999999999999
 40
0.9999999999999999
 40
0.9999999999999999
 10
761.5575145225125
 20
548.6411259909984
 30
0.0
 10
761.5700039331537
 20
548.6191032966188
 30
0.0
 10
761.5949902866979
 20
548.5750446261521
 30
0.0
 10
761.6687874029845
 20
548.5087935938384
 30
0.0
 10
761.7355662552859
 20
548.4834978190569
 30
0.0
 10
761.7800576176697
 20
548.4666445272768
 30
0.0
  0
LINE
  5
F9
330
1F
100
AcDbEntity
  8
0
  6
Continuous
 62
     7
370
    15
100
AcDbLine
 10
761.7800578814
 20
548.4666444425
 30
0.0
 11
761.8547813589
 21
548.1247863833
 31
0.0
  0
LINE
  5
FA
330
1F
100
AcDbEntity
  8
0
  6
Continuous
 62
     7
370
    15
100
AcDbLine
 10
761.8547813589
 20
548.1247863833
 30
0.0
 11
760.7458873156
 21
547.7875833472
 31
0.0
  0
LINE
  5
FB
330
1F
100
AcDbEntity
  8
0
  6
Continuous
 62
     7
370
    15
100
AcDbLine
 10
761.5245967691
 20
549.4449302522
 30
0.0
 11
761.5225686062
 21
549.4448857356
 31
0.0
  0
LINE
  5
FC
330
1F
100
AcDbEntity
  8
0
  6
Continuous
 62
     7
370
    15
100
AcDbLine
 10
761.2238484056
 20
548.4766685513
 30
0.0
 11
761.2217301882
 21
548.4768171571
 31
0.0
  0
LINE
  5
FD
330
1F
100
AcDbEntity
  8
0
  6
Continuous
 62
     7
370
    15
100
AcDbLine
 10
761.2996572249
 20
548.3585224234
 30
0.0
 11
761.2975209507
 21
548.3587097522
 31
0.0
  0
LINE
  5
FE
330
1F
100
AcDbEntity
  8
0
  6
Continuous
 62
     7
370
    15
100
AcDbLine
 10
762.1466885333
 20
548.952764014
 30
0.0
 11
762.1445636492
 21
548.9529269166
 31
0.0
  0
LINE
  5
FF
330
1F
100
AcDbEntity
  8
0
  6
Continuous
 62
     7
370
    15
100
AcDbLine
 10
762.1052197673
 20
548.5684817835
 30
0.0
 11
762.1030538938
 21
548.5687325883
 31
0.0
  0
LINE
  5
100
330
1F
100
AcDbEntity
  8
0
  6
Continuous
 62
     7
370
    15
100
AcDbLine
 10
762.2805896223
 20
548.1744118842
 30
0.0
 11
762.2783673334
 21
548.174783672
 31
0.0
  0
LINE
  5
101
330
1F
100
AcDbEntity
  8
0
  6
Continuous
 62
     7
370
    15
100
AcDbLine
 10
757.5446379225
 20
562.569991026
 30
0.0
 11
766.7853549467
 21
542.7532094173
 31
0.0
  0
LINE
  5
102
330
1F
100
AcDbEntity
  8
0
  6
Continuous
 62
     7
370
    15
100
AcDbLine
 10
754.8903489509
 20
560.2395578782
 30
0.0
 11
754.8899154672
 21
560.236093561
 31
0.0
  0
LINE
  5
103
330
1F
100
AcDbEntity
  8
0
  6
Continuous
 62
     7
370
    15
100
AcDbLine
 10
756.1311425648
 20
560.0298892746
 30
0.0
 11
754.8903491881
 21
560.2395578395
 31
0.0
  0
LINE
  5
104
330
1F
100
AcDbEntity
  8
0
  6
Continuous
 62
     7
370
    15
100
AcDbLine
 10
754.8903489509
 20
560.2395578782
 30
0.0
 11
754.9436120858
 21
560.5207420386
 31
0.0
  0
LINE
  5
105
330
1F
100
AcDbEntity
  8
0
  6
Continuous
 62
     7
370
    15
100
AcDbLine
 10
754.9436120858
 20
560.5207420386
 30
0.0
 11
755.7831369799
 21
560.3847090096
 31
0.0
  0
SPLINE
  5
106
330
1F
100
AcDbEntity
  8
0
  6
Continuous
 62
     7
370
    15
100
AcDbSpline
210
0.0
220
0.0
230
1.0
 70
     8
 71
     3
 72
    13
 73
     9
 74
     0
 42
0.00000001
 43
0.00000001
 12
1.0
 22
0.0
 32
0.0
 13
1.0
 23
0.0
 33
0.0
 40
0.0
 40
0.0
 40
0.0
 40
0.0
 40
0.2492561668020681
 40
0.3716945146304534
 40
0.4998384439452437
 40
0.6263351851495759
 40
0.7503879552280169
 40
1.0
 40
1.0
 40
1.0
 40
1.0
 10
755.7831372359718
 20
560.3847090514307
 30
0.0
 10
755.7623614711891
 20
560.450230922303
 30
0.0
 10
755.731380340788
 20
560.54793811368
 30
0.0
 10
755.7671052190807
 20
560.6734654918374
 30
0.0
 10
755.8184092216734
 20
560.760181019327
 30
0.0
 10
755.8928232372782
 20
560.8373514194162
 30
0.0
 10
756.0199384616876
 20
560.9226822221909
 30
0.0
 10
756.1452752217305
 20
560.9547338902261
 30
0.0
 10
756.2290015018511
 20
560.9761447431581
 30
0.0
  0
SPLINE
  5
107
330
1F
100
AcDbEntity
  8
0
  6
Continuous
 62
     7
370
    15
100
AcDbSpline
210
0.0
220
0.0
230
1.0
 70
     8
 71
     3
 72
    12
 73
     8
 74
     0
 42
0.00000001
 43
0.00000001
 12
1.0
 22
0.0
 32
0.0
 13
1.0
 23
0.0
 33
0.0
 40
0.0
 40
0.0
 40
0.0
 40
0.0
 40
0.2496763881762367
 40
0.3724361226465379
 40
0.5005048710572435
 40
0.7502284668960494
 40
1.0
 40
1.0
 40
1.0
 40
1.0
 10
756.2290015018511
 20
560.9761447431581
 30
0.0
 10
756.3181397141735
 20
560.9863693330279
 30
0.0
 10
756.4511049914248
 20
561.0016211020662
 30
0.0
 10
756.6322879070772
 20
560.9699728026889
 30
0.0
 10
756.801303402283
 20
560.9153113500971
 30
0.0
 10
756.9956358824425
 20
560.8086640530382
 30
0.0
 10
757.07205025378
 20
560.6840462906431
 30
0.0
 10
757.1102611062474
 20
560.6217314295726
 30
0.0
  0
SPLINE
  5
108
330
1F
100
AcDbEntity
  8
0
  6
Continuous
 62
     7
370
    15
100
AcDbSpline
210
0.0
220
0.0
230
1.0
 70
     8
 71
     3
 72
    12
 73
     8
 74
     0
 42
0.00000001
 43
0.00000001
 12
1.0
 22
0.0
 32
0.0
 13
1.0
 23
0.0
 33
0.0
 40
0.0
 40
0.0
 40
0.0
 40
0.0
 40
0.2497844234011124
 40
0.3752282831897977
 40
0.5006758907588272
 40
0.7505383114627888
 40
1.0
 40
1.0
 40
1.0
 40
1.0
 10
757.1102627013875
 20
560.62172826618
 30
0.0
 10
757.1318492411749
 20
560.5556479077385
 30
0.0
 10
757.1642767246592
 20
560.4563814318194
 30
0.0
 10
757.133495533631
 20
560.3244716484301
 30
0.0
 10
757.0665411027766
 20
560.2041362392997
 30
0.0
 10
756.9336974163105
 20
560.0675709070409
 30
0.0
 10
756.767976223348
 20
560.0198748633334
 30
0.0
 10
756.6851821265727
 20
559.9960459806905
 30
0.0
  0
SPLINE
  5
109
330
1F
100
AcDbEntity
  8
0
  6
Continuous
 62
     7
370
    15
100
AcDbSpline
210
0.0
220
0.0
230
1.0
 70
     8
 71
     3
 72
     9
 73
     5
 74
     0
 42
0.00000001
 43
0.00000001
 12
1.0
 22
0.0
 32
0.0
 13
1.0
 23
0.0
 33
0.0
 40
0.0
 40
0.0
 40
0.0
 40
0.0
 40
0.4986050564819905
 40
1.0
 40
1.0
 40
1.0
 40
1.0
 10
756.6851821265726
 20
559.9960459806905
 30
0.0
 10
756.5932539300601
 20
559.9892384452235
 30
0.0
 10
756.4088831634233
 20
559.9755852835106
 30
0.0
 10
756.2238958606989
 20
560.0117541224233
 30
0.0
 10
756.131144162498
 20
560.0298889953672
 30
0.0
  0
SPLINE
  5
10A
330
1F
100
AcDbEntity
  8
0
  6
Continuous
 62
     7
370
    15
100
AcDbSpline
210
0.0
220
0.0
230
1.0
 70
     8
 71
     3
 72
    12
 73
     8
 74
     0
 42
0.00000001
 43
0.00000001
 12
1.0
 22
0.0
 32
0.0
 13
1.0
 23
0.0
 33
0.0
 40
0.0
 40
0.0
 40
0.0
 40
0.0
 40
0.2495342807944669
 40
0.4992411243681138
 40
0.7489190611584261
 40
0.8743786364303149
 40
1.0
 40
1.0
 40
1.0
 40
1.0
 10
756.7385814648944
 20
560.5463937440708
 30
0.0
 10
756.7218581897587
 20
560.572994244591
 30
0.0
 10
756.6884000746842
 20
560.6262136409246
 30
0.0
 10
756.5876367414552
 20
560.6796400428569
 30
0.0
 10
756.4918081017653
 20
560.7012098861794
 30
0.0
 10
756.4140168741678
 20
560.7013502023566
 30
0.0
 10
756.3767375433549
 20
560.6957302502792
 30
0.0
 10
756.3580858671611
 20
560.6929184635844
 30
0.0
  0
SPLINE
  5
10B
330
1F
100
AcDbEntity
  8
0
  6
Continuous
 62
     7
370
    15
100
AcDbSpline
210
0.0
220
0.0
230
1.0
 70
     8
 71
     3
 72
    14
 73
    10
 74
     0
 42
0.00000001
 43
0.00000001
 12
1.0
 22
0.0
 32
0.0
 13
1.0
 23
0.0
 33
0.0
 40
0.0
 40
0.0
 40
0.0
 40
0.0
 40
0.2492280639566508
 40
0.3753948027361185
 40
0.4993910806605145
 40
0.6261696157544305
 40
0.7496639162295267
 40
0.8747305384645786
 40
1.0
 40
1.0
 40
1.0
 40
1.0
 10
756.3580858671611
 20
560.6929184635844
 30
0.0
 10
756.3224457325836
 20
560.6837865611143
 30
0.0
 10
756.2687634903959
 20
560.6700318150719
 30
0.0
 10
756.2143872716949
 20
560.633303607992
 30
0.0
 10
756.1824082062687
 20
560.6002576177821
 30
0.0
 10
756.1608774281144
 20
560.5628389282631
 30
0.0
 10
756.1507783801018
 20
560.5222134758428
 30
0.0
 10
756.1536256943931
 20
560.4801419121118
 30
0.0
 10
756.1641070283249
 20
560.4525661025161
 30
0.0
 10
756.1693519416352
 20
560.4387670258213
 30
0.0
  0
SPLINE
  5
10C
330
1F
100
AcDbEntity
  8
0
  6
Continuous
 62
     7
370
    15
100
AcDbSpline
210
0.0
220
0.0
230
1.0
 70
     8
 71
     3
 72
    13
 73
     9
 74
     0
 42
0.00000001
 43
0.00000001
 12
1.0
 22
0.0
 32
0.0
 13
1.0
 23
0.0
 33
0.0
 40
0.0
 40
0.0
 40
0.0
 40
0.0
 40
0.2493403954113299
 40
0.3715640705554108
 40
0.499944108216115
 40
0.7492984878481559
 40
0.8745707609942552
 40
1.0
 40
1.0
 40
1.0
 40
1.0
 10
756.1693519416352
 20
560.4387670258213
 30
0.0
 10
756.185384119645
 20
560.4124600681099
 30
0.0
 10
756.2092750792764
 20
560.3732577548426
 30
0.0
 10
756.2684550010455
 20
560.3337768965606
 30
0.0
 10
756.3349821067123
 20
560.3029464422351
 30
0.0
 10
756.4116034366311
 20
560.2858211853618
 30
0.0
 10
756.487489724742
 20
560.285705878172
 30
0.0
 10
756.5239474830119
 20
560.2912798660968
 30
0.0
 10
756.5421877753674
 20
560.2940686050144
 30
0.0
  0
SPLINE
  5
10D
330
1F
100
AcDbEntity
  8
0
  6
Continuous
 62
     7
370
    15
100
AcDbSpline
210
0.0
220
0.0
230
1.0
 70
     8
 71
     3
 72
    11
 73
     7
 74
     0
 42
0.00000001
 43
0.00000001
 12
1.0
 22
0.0
 32
0.0
 13
1.0
 23
0.0
 33
0.0
 40
0.0
 40
0.0
 40
0.0
 40
0.0
 40
0.2503954495839998
 40
0.5003797045900373
 40
0.7504390965290666
 40
1.0
 40
1.0
 40
1.0
 40
1.0
 10
756.5421877753674
 20
560.2940686050144
 30
0.0
 10
756.5775818333852
 20
560.3031353691325
 30
0.0
 10
756.6483118259815
 20
560.3212540081039
 30
0.0
 10
756.7198557120121
 20
560.3846934560164
 30
0.0
 10
756.7626087016231
 20
560.4625450086492
 30
0.0
 10
756.7465852147413
 20
560.5184627626232
 30
0.0
 10
756.7385814648944
 20
560.5463937440707
 30
0.0
  0
LINE
  5
10E
330
1F
100
AcDbEntity
  8
0
  6
Continuous
 62
     7
370
    15
100
AcDbLine
 10
756.6851821266
 20
559.9960459807
 30
0.0
 11
756.6846713448
 21
559.9927474297
 31
0.0
  0
SPLINE
  5
10F
330
1F
100
AcDbEntity
  8
0
  6
Continuous
 62
     7
370
    15
100
AcDbSpline
210
0.0
220
0.0
230
1.0
 70
     8
 71
     3
 72
    14
 73
    10
 74
     0
 42
0.00000001
 43
0.00000001
 12
1.0
 22
0.0
 32
0.0
 13
1.0
 23
0.0
 33
0.0
 40
0.0
 40
0.0
 40
0.0
 40
0.0
 40
0.2492631074119882
 40
0.3754410264839052
 40
0.499441391538153
 40
0.6262163984450569
 40
0.7497000111638729
 40
0.8747499222824914
 40
1.0
 40
1.0
 40
1.0
 40
1.0
 10
756.3576756955506
 20
560.68940415341
 30
0.0
 10
756.3220356134337
 20
560.6802732323353
 30
0.0
 10
756.2683543881898
 20
560.6665202047949
 30
0.0
 10
756.2139737444128
 20
560.6297995705821
 30
0.0
 10
756.1819909007984
 20
560.5967614613401
 30
0.0
 10
756.1604553520826
 20
560.5593523213357
 30
0.0
 10
756.1503507927821
 20
560.5187376542613
 30
0.0
 10
756.1531922921794
 20
560.4766775436733
 30
0.0
 10
756.1636698670509
 20
560.4491096951222
 30
0.0
 10
756.1689128439805
 20
560.4353147477489
 30
0.0
  0
SPLINE
  5
110
330
1F
100
AcDbEntity
  8
0
  6
Continuous
 62
     7
370
    15
100
AcDbSpline
210
0.0
220
0.0
230
1.0
 70
     8
 71
     3
 72
    12
 73
     8
 74
     0
 42
0.00000001
 43
0.00000001
 12
1.0
 22
0.0
 32
0.0
 13
1.0
 23
0.0
 33
0.0
 40
0.0
 40
0.0
 40
0.0
 40
0.0
 40
0.249496840733734
 40
0.4991901205401185
 40
0.7488841219042528
 40
0.8743600791987468
 40
1.0
 40
1.0
 40
1.0
 40
1.0
 10
756.7381422805269
 20
560.5429416519547
 30
0.0
 10
756.7214223618254
 20
560.5695339924234
 30
0.0
 10
756.6879693601464
 20
560.6227396105991
 30
0.0
 10
756.5872121611685
 20
560.6761440263567
 30
0.0
 10
756.4913926798902
 20
560.6977003740611
 30
0.0
 10
756.4136059822575
 20
560.6978363701128
 30
0.0
 10
756.3763272380426
 20
560.6922161155398
 30
0.0
 10
756.3576756955506
 20
560.68940415341
 30
0.0
  0
LINE
  5
111
330
1F
100
AcDbEntity
  8
0
  6
Continuous
 62
     7
370
    15
100
AcDbLine
 10
756.7510346367
 20
560.4601782888
 30
0.0
 11
756.7381422805
 21
560.542941652
 31
0.0
  0
LINE
  5
112
330
1F
100
AcDbEntity
  8
0
  6
Continuous
 62
     7
370
    15
100
AcDbLine
 10
756.7381422805
 20
560.542941652
 30
0.0
 11
756.7385814649
 21
560.5463937441
 31
0.0
  0
LINE
  5
113
330
1F
100
AcDbEntity
  8
0
  6
Continuous
 62
     7
370
    15
100
AcDbLine
 10
756.3576756956
 20
560.6894041534
 30
0.0
 11
756.3580858672
 21
560.6929184636
 31
0.0
  0
SPLINE
  5
114
330
1F
100
AcDbEntity
  8
0
  6
Continuous
 62
     7
370
    15
100
AcDbSpline
210
0.0
220
0.0
230
1.0
 70
     8
 71
     3
 72
    12
 73
     8
 74
     0
 42
0.00000001
 43
0.00000001
 12
1.0
 22
0.0
 32
0.0
 13
1.0
 23
0.0
 33
0.0
 40
0.0
 40
0.0
 40
0.0
 40
0.0
 40
0.0304717459459438
 40
0.0888135668586209
 40
0.3925556175487507
 40
0.6962774394174073
 40
1.0
 40
1.0
 40
1.0
 40
1.0
 10
767.1720833389984
 20
542.4642019876665
 30
0.0
 10
767.1744346641052
 20
542.4594489821596
 30
0.0
 10
767.1812878838035
 20
542.4455957762059
 30
0.0
 10
767.2087025345111
 20
542.3822233873947
 30
0.0
 10
767.2372479732621
 20
542.2631500798834
 30
0.0
 10
767.2329682771303
 20
542.0905585902897
 30
0.0
 10
767.1930080719641
 20
541.9883803334357
 30
0.0
 10
767.1730279450833
 20
541.9372911428792
 30
0.0
  0
SPLINE
  5
115
330
1F
100
AcDbEntity
  8
0
  6
Continuous
 62
     7
370
    15
100
AcDbSpline
210
0.0
220
0.0
230
1.0
 70
     8
 71
     3
 72
    10
 73
     6
 74
     0
 42
0.00000001
 43
0.00000001
 12
1.0
 22
0.0
 32
0.0
 13
1.0
 23
0.0
 33
0.0
 40
0.0
 40
0.0
 40
0.0
 40
0.0
 40
0.2117958997116893
 40
0.4880069094703494
 40
1.0
 40
1.0
 40
1.0
 40
1.0
 10
767.1730279450832
 20
541.9372911428792
 30
0.0
 10
767.1724704431468
 20
541.9359210335061
 30
0.0
 10
767.1711858819377
 20
541.9327641128971
 30
0.0
 10
767.1709838922607
 20
541.9271808338174
 30
0.0
 10
767.1721915407967
 20
541.9240118664328
 30
0.0
 10
767.1729759920654
 20
541.9219534028897
 30
0.0
  0
SPLINE
  5
116
330
1F
100
AcDbEntity
  8
0
  6
Continuous
 62
     7
370
    15
100
AcDbSpline
210
0.0
220
0.0
230
1.0
 70
     8
 71
     3
 72
    12
 73
     8
 74
     0
 42
0.00000001
 43
0.00000001
 12
1.0
 22
0.0
 32
0.0
 13
1.0
 23
0.0
 33
0.0
 40
0.0
 40
0.0
 40
0.0
 40
0.0
 40
0.030471745951585
 40
0.0888135668586336
 40
0.3925556175487848
 40
0.6962774394174438
 40
1.0
 40
1.0
 40
1.0
 40
1.0
 10
757.5718296059359
 20
563.0520125568662
 30
0.0
 10
757.5696999951235
 20
563.0568689494473
 30
0.0
 10
757.563492988391
 20
563.0710234894551
 30
0.0
 10
757.5325687198971
 20
563.1327593166184
 30
0.0
 10
757.4597019286936
 20
563.2311652380572
 30
0.0
 10
757.3247382415153
 20
563.3388264716672
 30
0.0
 10
757.2207792308832
 20
563.3738940960385
 30
0.0
 10
757.1687996623548
 20
563.3914279295471
 30
0.0
  0
SPLINE
  5
117
330
1F
100
AcDbEntity
  8
0
  6
Continuous
 62
     7
370
    15
100
AcDbSpline
210
0.0
220
0.0
230
1.0
 70
     8
 71
     3
 72
    11
 73
     7
 74
     0
 42
0.00000001
 43
0.00000001
 12
1.0
 22
0.0
 32
0.0
 13
1.0
 23
0.0
 33
0.0
 40
0.0
 40
0.0
 40
0.0
 40
0.0
 40
0.3704320937882197
 40
0.7442498469298503
 40
0.944248053769231
 40
1.0
 40
1.0
 40
1.0
 40
1.0
 10
757.15701687711
 20
563.4012470404524
 30
0.0
 10
757.1577616601899
 20
563.3998535086737
 30
0.0
 10
757.1592580334861
 20
563.3970537085746
 30
0.0
 10
757.1628916236466
 20
563.3937027628018
 30
0.0
 10
757.1666531610799
 20
563.3919953153242
 30
0.0
 10
757.1684154863767
 20
563.3915294789794
 30
0.0
 10
757.1687996623548
 20
563.3914279295471
 30
0.0
  0
SPLINE
  5
118
330
1F
100
AcDbEntity
  8
0
  6
Continuous
 62
     7
370
    15
100
AcDbSpline
210
0.0
220
0.0
230
1.0
 70
     8
 71
     3
 72
    12
 73
     8
 74
     0
 42
0.00000001
 43
0.00000001
 12
1.0
 22
0.0
 32
0.0
 13
1.0
 23
0.0
 33
0.0
 40
0.0
 40
0.0
 40
0.0
 40
0.0
 40
0.2238925571851501
 40
0.447784898419873
 40
0.671682486203182
 40
0.8955821585468946
 40
1.0
 40
1.0
 40
1.0
 40
1.0
 10
756.5095939963023
 20
565.5808634714048
 30
0.0
 10
756.4956601157369
 20
565.5806957245281
 30
0.0
 10
756.4677923680455
 20
565.5803602309369
 30
0.0
 10
756.431811635032
 20
565.5800585247422
 30
0.0
 10
756.405615401217
 20
565.5798941793399
 30
0.0
 10
756.3939477290952
 20
565.579847085099
 30
0.0
 10
756.3929733986296
 20
565.5798521112483
 30
0.0
 10
756.3926635233418
 20
565.5798537097609
 30
0.0
  0
LINE
  5
119
330
1F
100
AcDbEntity
  8
0
  6
Continuous
 62
     7
370
    15
100
AcDbLine
 10
756.5095939963
 20
565.5808634714
 30
0.0
 11
766.0570092592
 21
565.6849072423
 31
0.0
  0
LINE
  5
11A
330
1F
100
AcDbEntity
  8
0
  6
Continuous
 62
     7
370
    15
100
AcDbLine
 10
766.0570092592
 20
565.6849072423
 30
0.0
 11
766.7963274376
 21
565.6940966491
 31
0.0
  0
LINE
  5
11B
330
1F
100
AcDbEntity
  8
0
  6
Continuous
 62
     7
370
    15
100
AcDbLine
 10
766.2752642003
 20
539.8226345384
 30
0.0
 11
766.4418045951
 21
539.4488943548
 31
0.0
  0
LINE
  5
11C
330
1F
100
AcDbEntity
  8
0
  6
Continuous
 62
     7
370
    15
100
AcDbLine
 10
766.4418045951
 20
539.4488943548
 30
0.0
 11
766.1662016795
 21
539.1746917537
 31
0.0
  0
LINE
  5
11D
330
1F
100
AcDbEntity
  8
0
  6
Continuous
 62
     7
370
    15
100
AcDbLine
 10
766.1662016795
 20
539.1746917537
 30
0.0
 11
764.9917037033
 21
538.5418788936
 31
0.0
  0
LINE
  5
11E
330
1F
100
AcDbEntity
  8
0
  6
Continuous
 62
     7
370
    15
100
AcDbLine
 10
764.991703669
 20
538.5418789655
 30
0.0
 11
764.9066670671
 21
538.715451089
 31
0.0
  0
LINE
  5
11F
330
1F
100
AcDbEntity
  8
0
  6
Continuous
 62
     7
370
    15
100
AcDbLine
 10
764.9066670671
 20
538.715451089
 30
0.0
 11
765.9159961048
 21
539.7186358866
 31
0.0
  0
LINE
  5
120
330
1F
100
AcDbEntity
  8
0
  6
Continuous
 62
     7
370
    15
100
AcDbLine
 10
765.9159961048
 20
539.7186358866
 30
0.0
 11
765.8735231353
 21
539.8025301902
 31
0.0
  0
LINE
  5
121
330
1F
100
AcDbEntity
  8
0
  6
Continuous
 62
     7
370
    15
100
AcDbLine
 10
765.8735231353
 20
539.8025301902
 30
0.0
 11
766.149108446
 21
540.0767462977
 31
0.0
  0
LINE
  5
122
330
1F
100
AcDbEntity
  8
0
  6
Continuous
 62
     7
370
    15
100
AcDbLine
 10
766.149108446
 20
540.0767462977
 30
0.0
 11
766.1916411928
 21
539.9928006951
 31
0.0
  0
LINE
  5
123
330
1F
100
AcDbEntity
  8
0
  6
Continuous
 62
     7
370
    15
100
AcDbLine
 10
766.1916411928
 20
539.9928006951
 30
0.0
 11
766.5136296152
 21
540.3127985893
 31
0.0
  0
LINE
  5
124
330
1F
100
AcDbEntity
  8
0
  6
Continuous
 62
     7
370
    15
100
AcDbLine
 10
766.5136296151
 20
540.3127985897
 30
0.0
 11
766.5973311494
 21
540.1425643884
 31
0.0
  0
LINE
  5
125
330
1F
100
AcDbEntity
  8
0
  6
Continuous
 62
     7
370
    15
100
AcDbLine
 10
766.5973311494
 20
540.1425643884
 30
0.0
 11
766.2752677133
 21
539.8226380281
 31
0.0
  0
LINE
  5
126
330
1F
100
AcDbEntity
  8
0
  6
Continuous
 62
     7
370
    15
100
AcDbLine
 10
766.0919079202
 20
539.3487154313
 30
0.0
 11
765.9995468785
 21
539.5485323038
 31
0.0
  0
LINE
  5
127
330
1F
100
AcDbEntity
  8
0
  6
Continuous
 62
     7
370
    15
100
AcDbLine
 10
765.9995468785
 20
539.5485323038
 30
0.0
 11
765.473875438
 21
539.0263645107
 31
0.0
  0
LINE
  5
128
330
1F
100
AcDbEntity
  8
0
  6
Continuous
 62
     7
370
    15
100
AcDbLine
 10
765.473875438
 20
539.0263645107
 30
0.0
 11
766.0919079202
 21
539.3487154313
 31
0.0
  0
LINE
  5
129
330
1F
100
AcDbEntity
  8
0
  6
Continuous
 62
     7
370
    15
100
AcDbLine
 10
764.9032508615
 20
538.7183832395
 30
0.0
 11
764.9066670671
 21
538.715451089
 31
0.0
  0
LINE
  5
12A
330
1F
100
AcDbEntity
  8
0
  6
Continuous
 62
     7
370
    15
100
AcDbLine
 10
765.9125811439
 20
539.7215653678
 30
0.0
 11
765.9159961048
 21
539.7186358866
 31
0.0
  0
LINE
  5
12B
330
1F
100
AcDbEntity
  8
0
  6
Continuous
 62
     7
370
    15
100
AcDbLine
 10
764.988263056
 20
538.5448634594
 30
0.0
 11
764.9917037033
 21
538.5418788936
 31
0.0
  0
LINE
  5
12C
330
1F
100
AcDbEntity
  8
0
  6
Continuous
 62
     7
370
    15
100
AcDbLine
 10
765.8701205377
 20
539.8054331583
 30
0.0
 11
765.8735231353
 21
539.8025301902
 31
0.0
  0
LINE
  5
12D
330
1F
100
AcDbEntity
  8
0
  6
Continuous
 62
     7
370
    15
100
AcDbLine
 10
766.1457063554
 20
540.0796481783
 30
0.0
 11
766.149108446
 21
540.0767462977
 31
0.0
  0
LINE
  5
12E
330
1F
100
AcDbEntity
  8
0
  6
Continuous
 62
     7
370
    15
100
AcDbLine
 10
766.5102154506
 20
540.3157263631
 30
0.0
 11
766.5136296151
 21
540.3127985897
 31
0.0
  0
LINE
  5
12F
330
1F
100
AcDbEntity
  8
0
  6
Continuous
 62
     7
370
    15
100
AcDbLine
 10
765.4704354737
 20
539.0293476121
 30
0.0
 11
766.0884395343
 21
539.3517594828
 31
0.0
  0
LINE
  5
130
330
1F
100
AcDbEntity
  8
0
  6
Continuous
 62
     7
370
    15
100
AcDbLine
 10
766.0884395343
 20
539.3517594828
 30
0.0
 11
766.0919079202
 21
539.3487154313
 31
0.0
  0
LINE
  5
131
330
1F
100
AcDbEntity
  8
0
  6
Continuous
 62
     7
370
    15
100
AcDbLine
 10
766.0884395343
 20
539.3517594828
 30
0.0
 11
765.9961070933
 21
539.5515150209
 31
0.0
  0
LINE
  5
132
330
1F
100
AcDbEntity
  8
0
  6
Continuous
 62
     7
370
    15
100
AcDbLine
 10
767.9384845426
 20
563.94233085
 30
0.0
 11
774.5176640673
 21
549.8332348281
 31
0.0
  0
LINE
  5
133
330
1F
100
AcDbEntity
  8
0
  6
Continuous
 62
     7
370
    15
100
AcDbLine
 10
774.5176640673
 20
549.8332348281
 30
0.0
 11
775.2119729136
 21
548.3442847021
 31
0.0
  0
LINE
  5
134
330
1F
100
AcDbEntity
  8
0
  6
Continuous
 62
     7
370
    15
100
AcDbLine
 10
767.2568047171
 20
565.4041979535
 30
0.0
 11
767.9384845426
 21
563.94233085
 31
0.0
  0
SPLINE
  5
135
330
1F
100
AcDbEntity
  8
0
  6
Continuous
 62
     7
370
    15
100
AcDbSpline
210
0.0
220
0.0
230
1.0
 70
     8
 71
     3
 72
    11
 73
     7
 74
     0
 42
0.00000001
 43
0.00000001
 12
1.0
 22
0.0
 32
0.0
 13
1.0
 23
0.0
 33
0.0
 40
0.0
 40
0.0
 40
0.0
 40
0.0
 40
0.2933118760927535
 40
0.5865991201419712
 40
0.880502146150291
 40
1.0
 40
1.0
 40
1.0
 40
1.0
 10
766.796327437609
 20
565.6940966490529
 30
0.0
 10
766.8526778719515
 20
565.6892614368718
 30
0.0
 10
766.9653740083826
 20
565.679591418566
 30
0.0
 10
767.1157522482358
 20
565.5949892321554
 30
0.0
 10
767.209976278034
 20
565.4946889936076
 30
0.0
 10
767.2463038515086
 20
565.4244897733076
 30
0.0
 10
767.2568047170784
 20
565.404197953487
 30
0.0
  0
LINE
  5
136
330
1F
100
AcDbEntity
  8
0
  6
Continuous
 62
     7
370
    15
100
AcDbLine
 10
731.2208337666
 20
489.7799061787
 30
0.0
 11
731.2208337666
 21
489.5027300483
 31
0.0
  0
LINE
  5
137
330
1F
100
AcDbEntity
  8
0
  6
Continuous
 62
     7
370
    15
100
AcDbLine
 10
731.2313992231
 20
489.7799061787
 30
0.0
 11
731.2313992231
 21
489.5027300483
 31
0.0
  0
LINE
  5
138
330
1F
100
AcDbEntity
  8
0
  6
Continuous
 62
     7
370
    15
100
AcDbLine
 10
746.531585493
 20
582.9932009103
 30
0.0
 11
746.3886346764
 21
583.299759926
 31
0.0
  0
LINE
  5
139
330
1F
100
AcDbEntity
  8
0
  6
Continuous
 62
     7
370
    15
100
AcDbLine
 10
757.6795445126
 20
492.2205914349
 30
0.0
 11
767.9849437578
 21
514.3205914349
 31
0.0
  0
LINE
  5
13A
330
1F
100
AcDbEntity
  8
0
  6
Continuous
 62
     7
370
    15
100
AcDbLine
 10
757.3170213978
 20
492.3896387396
 30
0.0
 11
767.622420643
 21
514.4896387396
 31
0.0
  0
LINE
  5
13B
330
1F
100
AcDbEntity
  8
0
  6
Continuous
 62
     7
370
    15
100
AcDbLine
 10
723.4708337666
 20
489.1027300483
 30
0.0
 11
752.7854824626
 21
489.1027300483
 31
0.0
  0
LINE
  5
13C
330
1F
100
AcDbEntity
  8
0
  6
Continuous
 62
     7
370
    15
100
AcDbLine
 10
723.4708337666
 20
489.5027300483
 30
0.0
 11
752.7854824626
 21
489.5027300483
 31
0.0
  0
ARC
  5
13D
330
1F
100
AcDbEntity
  8
0
  6
Continuous
 62
     7
370
    15
100
AcDbCircle
 10
763.0908817078
 20
516.6027300483
 30
0.0
 40
5.400000000000079
100
AcDbArc
 50
335.0
 51
25.0
  0
ARC
  5
13E
330
1F
100
AcDbEntity
  8
0
  6
Continuous
 62
     7
370
    15
100
AcDbCircle
 10
763.0908817078
 20
516.6027300483
 30
0.0
 40
5.000000000000068
100
AcDbArc
 50
335.0
 51
25.0
  0
LINE
  5
13F
330
1F
100
AcDbEntity
  8
0
  6
Continuous
 62
     7
370
    15
100
AcDbLine
 10
767.9849437578
 20
518.8848686617
 30
0.0
 11
740.0315089447
 21
578.8312030703
 31
0.0
  0
LINE
  5
140
330
1F
100
AcDbEntity
  8
0
  6
Continuous
 62
     7
370
    15
100
AcDbLine
 10
767.622420643
 20
518.715821357
 30
0.0
 11
739.6689858299
 21
578.6621557656
 31
0.0
  0
ARC
  5
141
330
1F
100
AcDbEntity
  8
0
  6
Continuous
 62
     7
370
    15
100
AcDbCircle
 10
740.5979513116
 20
579.0953394839
 30
0.0
 40
0.6249999999999372
100
AcDbArc
 50
115.0
 51
205.0
  0
ARC
  5
142
330
1F
100
AcDbEntity
  8
0
  6
Continuous
 62
     7
370
    15
100
AcDbCircle
 10
740.5979513116
 20
579.0953394839
 30
0.0
 40
1.024999999999949
100
AcDbArc
 50
115.0
 51
205.0
  0
LINE
  5
143
330
1F
100
AcDbEntity
  8
0
  6
Continuous
 62
     7
370
    15
100
AcDbLine
 10
740.1647675933
 20
580.0243049656
 30
0.0
 11
746.4862644079
 21
582.9720673413
 31
0.0
  0
LINE
  5
144
330
1F
100
AcDbEntity
  8
0
  6
Continuous
 62
     7
370
    15
100
AcDbLine
 10
740.333814898
 20
579.6617818508
 30
0.0
 11
746.6553117126
 21
582.6095442264
 31
0.0
  0
ARC
  5
145
330
1F
100
AcDbEntity
  8
0
  6
Continuous
 62
     7
370
    15
100
AcDbCircle
 10
752.7854824626
 20
494.5027300483
 30
0.0
 40
5.0
100
AcDbArc
 50
270.0
 51
335.0
  0
ARC
  5
146
330
1F
100
AcDbEntity
  8
0
  6
Continuous
 62
     7
370
    15
100
AcDbCircle
 10
752.7854824626
 20
494.5027300483
 30
0.0
 40
5.399999999999977
100
AcDbArc
 50
270.0
 51
335.0
  0
LINE
  5
147
330
1F
100
AcDbEntity
  8
0
  6
Continuous
 62
     7
370
    15
100
AcDbLine
 10
747.392572195
 20
583.394685603
 30
0.0
 11
747.5616194997
 21
583.0321624882
 31
0.0
  0
LINE
  5
148
330
1F
100
AcDbEntity
  8
0
  6
Continuous
 62
     7
370
    15
100
AcDbLine
 10
747.5616194997
 20
583.0321624882
 30
0.0
 11
746.6553117126
 21
582.6095442264
 31
0.0
  0
LINE
  5
149
330
1F
100
AcDbEntity
  8
0
  6
Continuous
 62
     7
370
    15
100
AcDbLine
 10
746.4862644079
 20
582.9720673413
 30
0.0
 11
747.392572195
 21
583.394685603
 31
0.0
  0
LINE
  5
14A
330
1F
100
AcDbEntity
  8
0
  6
Continuous
 62
     7
370
    15
100
AcDbLine
 10
722.4708337666
 20
489.1027300483
 30
0.0
 11
722.4708337666
 21
489.5027300483
 31
0.0
  0
LINE
  5
14B
330
1F
100
AcDbEntity
  8
0
  6
Continuous
 62
     7
370
    15
100
AcDbLine
 10
723.4708337666
 20
489.1027300483
 30
0.0
 11
722.4708337666
 21
489.1027300483
 31
0.0
  0
LINE
  5
14C
330
1F
100
AcDbEntity
  8
0
  6
Continuous
 62
     7
370
    15
100
AcDbLine
 10
722.4708337666
 20
489.5027300483
 30
0.0
 11
723.4708337666
 21
489.5027300483
 31
0.0
  0
ARC
  5
14D
330
1F
100
AcDbEntity
  8
0
  6
Continuous
 62
     7
370
    15
100
AcDbCircle
 10
746.264220858
 20
583.6960601727
 30
0.0
 40
0.7500000000001527
100
AcDbArc
 50
295.0
 51
335.0
  0
LINE
  5
14E
330
1F
100
AcDbEntity
  8
0
  6
Continuous
 62
     7
370
    15
100
AcDbLine
 10
747.5773542615
 20
583.7909520235
 30
0.0
 11
747.392572195
 21
583.394685603
 31
0.0
  0
LINE
  5
14F
330
1F
100
AcDbEntity
  8
0
  6
Continuous
 62
     7
370
    15
100
AcDbLine
 10
747.050978339
 20
583.6086158482
 30
0.0
 11
746.9439516982
 21
583.3790964764
 31
0.0
  0
LINE
  5
150
330
1F
100
AcDbEntity
  8
0
  6
Continuous
 62
     7
370
    15
100
AcDbLine
 10
355.8320993323
 20
615.5049061787
 30
0.0
 11
355.8320993323
 21
621.2549061787
 31
0.0
  0
LINE
  5
151
330
1F
100
AcDbEntity
  8
0
  6
Continuous
 62
     7
370
    15
100
AcDbLine
 10
354.8320993323
 20
615.5049061787
 30
0.0
 11
354.8320993323
 21
621.2549061787
 31
0.0
  0
LINE
  5
152
330
1F
100
AcDbEntity
  8
0
  6
Continuous
 62
     7
370
    15
100
AcDbLine
 10
324.8320993323
 20
614.3799061787
 30
0.0
 11
320.4570993323
 21
614.3799061787
 31
0.0
  0
LINE
  5
153
330
1F
100
AcDbEntity
  8
0
  6
Continuous
 62
     7
370
    15
100
AcDbLine
 10
324.8320993323
 20
613.3799061787
 30
0.0
 11
320.4570993323
 21
613.3799061787
 31
0.0
  0
ARC
  5
154
330
1F
100
AcDbEntity
  8
0
  6
Continuous
 62
     7
370
    15
100
AcDbCircle
 10
353.7070993323
 20
621.2549061787
 30
0.0
 40
2.125
100
AcDbArc
 50
0.0
 51
90.0
  0
ARC
  5
155
330
1F
100
AcDbEntity
  8
0
  6
Continuous
 62
     7
370
    15
100
AcDbCircle
 10
353.7070993323
 20
621.2549061787
 30
0.0
 40
1.125
100
AcDbArc
 50
0.0
 51
90.0
  0
ARC
  5
156
330
1F
100
AcDbEntity
  8
0
  6
Continuous
 62
     7
370
    15
100
AcDbCircle
 10
320.4570993323
 20
621.2549061787
 30
0.0
 40
2.125
100
AcDbArc
 50
90.0
 51
180.0
  0
ARC
  5
157
330
1F
100
AcDbEntity
  8
0
  6
Continuous
 62
     7
370
    15
100
AcDbCircle
 10
320.4570993323
 20
621.2549061787
 30
0.0
 40
1.125
100
AcDbArc
 50
90.0
 51
180.0
  0
ARC
  5
158
330
1F
100
AcDbEntity
  8
0
  6
Continuous
 62
     7
370
    15
100
AcDbCircle
 10
356.9570993323
 20
615.5049061787
 30
0.0
 40
2.125
100
AcDbArc
 50
180.0
 51
270.0
  0
ARC
  5
159
330
1F
100
AcDbEntity
  8
0
  6
Continuous
 62
     7
370
    15
100
AcDbCircle
 10
356.9570993323
 20
615.5049061787
 30
0.0
 40
1.125
100
AcDbArc
 50
180.0
 51
270.0
  0
LINE
  5
15A
330
1F
100
AcDbEntity
  8
0
  6
Continuous
 62
     7
370
    15
100
AcDbLine
 10
318.3320993323
 20
615.5049061787
 30
0.0
 11
318.3320993323
 21
621.2549061787
 31
0.0
  0
LINE
  5
15B
330
1F
100
AcDbEntity
  8
0
  6
Continuous
 62
     7
370
    15
100
AcDbLine
 10
319.3320993323
 20
615.5049061787
 30
0.0
 11
319.3320993323
 21
621.2549061787
 31
0.0
  0
LINE
  5
15C
330
1F
100
AcDbEntity
  8
0
  6
Continuous
 62
     7
370
    15
100
AcDbLine
 10
356.9570993323
 20
614.3799061787
 30
0.0
 11
762.3336714467
 21
614.3799061787
 31
0.0
  0
LINE
  5
15D
330
1F
100
AcDbEntity
  8
0
  6
Continuous
 62
     7
370
    15
100
AcDbLine
 10
356.9570993323
 20
613.3799061787
 30
0.0
 11
762.3336714467
 21
613.3799061787
 31
0.0
  0
ARC
  5
15E
330
1F
100
AcDbEntity
  8
0
  6
Continuous
 62
     7
370
    15
100
AcDbCircle
 10
320.4570993323
 20
615.5049061787
 30
0.0
 40
2.125
100
AcDbArc
 50
180.0
 51
270.0
  0
ARC
  5
15F
330
1F
100
AcDbEntity
  8
0
  6
Continuous
 62
     7
370
    15
100
AcDbCircle
 10
320.4570993323
 20
615.5049061787
 30
0.0
 40
1.125
100
AcDbArc
 50
180.0
 51
270.0
  0
LINE
  5
160
330
1F
100
AcDbEntity
  8
0
  6
Continuous
 62
     7
370
    15
100
AcDbLine
 10
320.4570993323
 20
622.3799061787
 30
0.0
 11
353.7070993323
 21
622.3799061787
 31
0.0
  0
LINE
  5
161
330
1F
100
AcDbEntity
  8
0
  6
Continuous
 62
     7
370
    15
100
AcDbLine
 10
320.4570993323
 20
623.3799061787
 30
0.0
 11
353.7070993323
 21
623.3799061787
 31
0.0
  0
LINE
  5
162
330
1F
100
AcDbEntity
  8
0
  6
Continuous
 62
     7
370
    15
100
AcDbLine
 10
325.8320993323
 20
613.3799061787
 30
0.0
 11
325.8320993323
 21
613.5397307536
 31
0.0
  0
LINE
  5
163
330
1F
100
AcDbEntity
  8
0
  6
Continuous
 62
     7
370
    15
100
AcDbLine
 10
325.8320993323
 20
613.3799061787
 30
0.0
 11
324.8320993323
 21
613.3799061787
 31
0.0
  0
LINE
  5
164
330
1F
100
AcDbEntity
  8
0
  6
Continuous
 62
     7
370
    15
100
AcDbLine
 10
325.8070993318
 20
614.3799061787
 30
0.0
 11
324.8320993323
 21
614.3799061787
 31
0.0
  0
LINE
  5
165
330
1F
100
AcDbEntity
  8
0
  6
Continuous
 62
     7
370
    15
100
AcDbLine
 10
759.6461631694
 20
590.7855181633
 30
0.0
 11
766.8652103819
 21
606.26681487
 31
0.0
  0
LINE
  5
166
330
1F
100
AcDbEntity
  8
0
  6
Continuous
 62
     7
370
    15
100
AcDbLine
 10
760.5524709565
 20
590.3628999016
 30
0.0
 11
767.771518169
 21
605.8441966083
 31
0.0
  0
ARC
  5
167
330
1F
100
AcDbEntity
  8
0
  6
Continuous
 62
     7
370
    15
100
AcDbCircle
 10
762.3336714467
 20
608.3799061787
 30
0.0
 40
6.000000000000081
100
AcDbArc
 50
335.0
 51
90.0
  0
ARC
  5
168
330
1F
100
AcDbEntity
  8
0
  6
Continuous
 62
     7
370
    15
100
AcDbCircle
 10
762.3336714467
 20
608.3799061787
 30
0.0
 40
5.0
100
AcDbArc
 50
335.0
 51
90.0
  0
ARC
  5
169
330
1F
100
AcDbEntity
  8
0
  6
Continuous
 62
     7
370
    15
100
AcDbCircle
 10
755.1146242342
 20
592.898609472
 30
0.0
 40
5.999999999999978
100
AcDbArc
 50
295.0
 51
335.0
  0
ARC
  5
16A
330
1F
100
AcDbEntity
  8
0
  6
Continuous
 62
     7
370
    15
100
AcDbCircle
 10
755.1146242342
 20
592.898609472
 30
0.0
 40
5.000000000000012
100
AcDbArc
 50
295.0
 51
335.0
  0
LINE
  5
16B
330
1F
100
AcDbEntity
  8
0
  6
Continuous
 62
     7
370
    15
100
AcDbLine
 10
757.6503338047
 20
587.4607627498
 30
0.0
 11
748.8771395416
 21
583.3697550785
 31
0.0
  0
LINE
  5
16C
330
1F
100
AcDbEntity
  8
0
  6
Continuous
 62
     7
370
    15
100
AcDbLine
 10
757.2277155429
 20
588.3670705369
 30
0.0
 11
748.4545212798
 21
584.2760628655
 31
0.0
  0
LINE
  5
16D
330
1F
100
AcDbEntity
  8
0
  6
Continuous
 62
     7
370
    15
100
AcDbLine
 10
747.9708317545
 20
582.9471368167
 30
0.0
 11
747.5482134928
 21
583.8534446037
 31
0.0
  0
LINE
  5
16E
330
1F
100
AcDbEntity
  8
0
  6
Continuous
 62
     7
370
    15
100
AcDbLine
 10
748.8771395416
 20
583.3697550785
 30
0.0
 11
747.9708317545
 21
582.9471368167
 31
0.0
  0
LINE
  5
16F
330
1F
100
AcDbEntity
  8
0
  6
Continuous
 62
     7
370
    15
100
AcDbLine
 10
748.4545212798
 20
584.2760628655
 30
0.0
 11
747.5482134928
 21
583.8534446037
 31
0.0
  0
LINE
  5
170
330
1F
100
AcDbEntity
  8
0
  6
Continuous
 62
     7
370
    15
100
AcDbLine
 10
320.6070993323
 20
621.2299061787
 30
0.0
 11
320.6070993323
 21
622.3799061787
 31
0.0
  0
LINE
  5
171
330
1F
100
AcDbEntity
  8
0
  6
Continuous
 62
     7
370
    15
100
AcDbLine
 10
353.2570993323
 20
622.3799061787
 30
0.0
 11
353.2570993323
 21
621.2299061787
 31
0.0
  0
LINE
  5
172
330
1F
100
AcDbEntity
  8
0
  6
Continuous
 62
     7
370
    15
100
AcDbLine
 10
325.5070993318
 20
614.5549061787
 30
0.0
 11
320.3070993323
 21
614.5549061787
 31
0.0
  0
ARC
  5
173
330
1F
100
AcDbEntity
  8
0
  6
Continuous
 62
     7
370
    15
100
AcDbCircle
 10
320.3070993323
 20
615.5549061787
 30
0.0
 40
1.0
100
AcDbArc
 50
180.0
 51
270.0
  0
LINE
  5
174
330
1F
100
AcDbEntity
  8
0
  6
Continuous
 62
     7
370
    15
100
AcDbLine
 10
319.3070993323
 20
615.5549061787
 30
0.0
 11
319.3070993323
 21
621.3799061787
 31
0.0
  0
ARC
  5
175
330
1F
100
AcDbEntity
  8
0
  6
Continuous
 62
     7
370
    15
100
AcDbCircle
 10
320.3070993323
 20
621.3799061787
 30
0.0
 40
1.0
100
AcDbArc
 50
90.0
 51
180.0
  0
LINE
  5
176
330
1F
100
AcDbEntity
  8
0
  6
Continuous
 62
     7
370
    15
100
AcDbLine
 10
320.3070993323
 20
622.3799061787
 30
0.0
 11
320.3070993323
 21
620.9299061787
 31
0.0
  0
ARC
  5
177
330
1F
100
AcDbEntity
  8
0
  6
Continuous
 62
     7
370
    15
100
AcDbCircle
 10
320.4570993323
 20
620.9299061787
 30
0.0
 40
0.1499999999999773
100
AcDbArc
 50
180.0
 51
0.0
  0
LINE
  5
178
330
1F
100
AcDbEntity
  8
0
  6
Continuous
 62
     7
370
    15
100
AcDbLine
 10
320.6070993323
 20
620.9299061787
 30
0.0
 11
320.6070993323
 21
621.2299061787
 31
0.0
  0
ARC
  5
179
330
1F
100
AcDbEntity
  8
0
  6
Continuous
 62
     7
370
    15
100
AcDbCircle
 10
353.4070993323
 20
620.9299061787
 30
0.0
 40
0.1499999999999773
100
AcDbArc
 50
180.0
 51
0.0
  0
LINE
  5
17A
330
1F
100
AcDbEntity
  8
0
  6
Continuous
 62
     7
370
    15
100
AcDbLine
 10
353.5570993323
 20
620.9299061787
 30
0.0
 11
353.5570993323
 21
622.3799061787
 31
0.0
  0
ARC
  5
17B
330
1F
100
AcDbEntity
  8
0
  6
Continuous
 62
     7
370
    15
100
AcDbCircle
 10
353.5570993323
 20
621.3799061787
 30
0.0
 40
1.0
100
AcDbArc
 50
0.0
 51
90.0
  0
LINE
  5
17C
330
1F
100
AcDbEntity
  8
0
  6
Continuous
 62
     7
370
    15
100
AcDbLine
 10
354.5570993323
 20
621.3799061787
 30
0.0
 11
354.5570993323
 21
614.6799061787
 31
0.0
  0
LINE
  5
17D
330
1F
100
AcDbEntity
  8
0
  6
Continuous
 62
     7
370
    15
100
AcDbLine
 10
325.8070993318
 20
614.6799061787
 30
0.0
 11
325.8070993318
 21
614.9799061787
 31
0.0
  0
ARC
  5
17E
330
1F
100
AcDbEntity
  8
0
  6
Continuous
 62
     7
370
    15
100
AcDbCircle
 10
325.6570993318
 20
614.9799061787
 30
0.0
 40
0.1500000000000341
100
AcDbArc
 50
0.0
 51
180.0
  0
LINE
  5
17F
330
1F
100
AcDbEntity
  8
0
  6
Continuous
 62
     7
370
    15
100
AcDbLine
 10
325.5070993318
 20
614.9799061787
 30
0.0
 11
325.5070993318
 21
614.5549061787
 31
0.0
  0
LINE
  5
180
330
1F
100
AcDbEntity
  8
0
  6
Continuous
 62
     7
370
    15
100
AcDbLine
 10
353.2570993323
 20
621.2299061787
 30
0.0
 11
353.2570993323
 21
620.9299061787
 31
0.0
  0
LINE
  5
181
330
1F
100
AcDbEntity
  8
0
  6
Continuous
 62
     7
370
    15
100
AcDbLine
 10
354.5570993323
 20
613.5299061787
 30
0.0
 11
325.8320993323
 21
613.5299061787
 31
0.0
  0
LINE
  5
182
330
1F
100
AcDbEntity
  8
0
  6
Continuous
 62
     7
370
    15
100
AcDbLine
 10
354.5570993323
 20
614.6799061787
 30
0.0
 11
354.5570993323
 21
613.5299061787
 31
0.0
  0
LINE
  5
183
330
1F
100
AcDbEntity
  8
0
  6
Continuous
 62
     7
370
    15
100
AcDbLine
 10
325.8070993318
 20
613.5918052919
 30
0.0
 11
325.8070993318
 21
614.6799061787
 31
0.0
  0
LINE
  5
184
330
1F
100
AcDbEntity
  8
0
  6
Continuous
 62
     7
370
    15
100
AcDbLine
 10
747.5531790677
 20
583.8427958939
 30
0.0
 11
739.5233474938
 21
580.0984239373
 31
0.0
  0
SPLINE
  5
185
330
1F
100
AcDbEntity
  8
0
  6
Continuous
 62
     7
370
    15
100
AcDbSpline
210
0.0
220
0.0
230
1.0
 70
     8
 71
     3
 72
    14
 73
    10
 74
     0
 42
0.00000001
 43
0.00000001
 12
1.0
 22
0.0
 32
0.0
 13
1.0
 23
0.0
 33
0.0
 40
0.0
 40
0.0
 40
0.0
 40
0.0
 40
0.1424979789612885
 40
0.2891107491291732
 40
0.4316087267218896
 40
0.57822142329395
 40
0.7209671108987281
 40
0.8678498166738041
 40
1.0
 40
1.0
 40
1.0
 40
1.0
 10
739.5233474937938
 20
580.0984239373124
 30
0.0
 10
739.4510389297049
 20
580.0708592019732
 30
0.0
 10
739.3043338095018
 20
580.0149337682124
 30
0.0
 10
739.0542267194284
 20
579.9980252287147
 30
0.0
 10
738.7808846153107
 20
580.0258040270484
 30
0.0
 10
738.4899067567712
 20
580.096211281581
 30
0.0
 10
738.1805907924779
 20
580.2004761420565
 30
0.0
 10
737.8710040708711
 20
580.3236913598718
 30
0.0
 10
737.6630659752416
 20
580.4120679828543
 30
0.0
 10
737.5645863388573
 20
580.4539232170758
 30
0.0
  0
SPLINE
  5
186
330
1F
100
AcDbEntity
  8
0
  6
Continuous
 62
     7
370
    15
100
AcDbSpline
210
0.0
220
0.0
230
1.0
 70
     8
 71
     3
 72
    11
 73
     7
 74
     0
 42
0.00000001
 43
0.00000001
 12
1.0
 22
0.0
 32
0.0
 13
1.0
 23
0.0
 33
0.0
 40
0.0
 40
0.0
 40
0.0
 40
0.0
 40
0.2888077077194043
 40
0.5776153362197912
 40
0.866934541432365
 40
1.0
 40
1.0
 40
1.0
 40
1.0
 10
737.5645863388576
 20
580.453923217076
 30
0.0
 10
737.7884353512463
 20
580.3858188396479
 30
0.0
 10
738.236133314623
 20
580.2496101034724
 30
0.0
 10
738.8097141091534
 20
579.9996054399153
 30
0.0
 10
739.147157883519
 20
579.7314800747007
 30
0.0
 10
739.257834925744
 20
579.5319560066747
 30
0.0
 10
739.2927019383025
 20
579.4690991752511
 30
0.0
  0
LINE
  5
187
330
1F
100
AcDbEntity
  8
0
  6
Continuous
 62
     7
370
    15
100
AcDbLine
 10
739.2927019383
 20
579.4690991753
 30
0.0
 11
739.6689858299
 21
578.6621557656
 31
0.0
  0
ARC
  5
188
330
1F
100
AcDbEntity
  8
0
  6
Continuous
 62
     7
370
    15
100
AcDbCircle
 10
762.9616323555
 20
516.8799061787
 30
0.0
 40
4.999999999999861
100
AcDbArc
 50
335.0
 51
25.0
  0
SPLINE
  5
189
330
1F
100
AcDbEntity
  8
0
  6
Continuous
 62
     7
370
    15
100
AcDbSpline
210
0.0
220
0.0
230
1.0
 70
     8
 71
     3
 72
    12
 73
     8
 74
     0
 42
0.00000001
 43
0.00000001
 12
1.0
 22
0.0
 32
0.0
 13
1.0
 23
0.0
 33
0.0
 40
0.0
 40
0.0
 40
0.0
 40
0.0
 40
0.2096821001528857
 40
0.4420453733185738
 40
0.6744332966681329
 40
0.906820870118055
 40
1.0
 40
1.0
 40
1.0
 40
1.0
 10
319.5100602416607
 20
612.2299061787378
 30
0.0
 10
319.4579176376969
 20
612.3560716577254
 30
0.0
 10
319.3479921990536
 20
612.622049851469
 30
0.0
 10
319.1800081341121
 20
612.9827405663764
 30
0.0
 10
319.0065554999037
 20
613.2544200333695
 30
0.0
 10
318.8673671687873
 20
613.3687309534413
 30
0.0
 10
318.7866869381764
 20
613.3774194727533
 30
0.0
 10
318.7635957755667
 20
613.3799061787378
 30
0.0
  0
SPLINE
  5
18A
330
1F
100
AcDbEntity
  8
0
  6
Continuous
 62
     7
370
    15
100
AcDbSpline
210
0.0
220
0.0
230
1.0
 70
     8
 71
     3
 72
    11
 73
     7
 74
     0
 42
0.00000001
 43
0.00000001
 12
1.0
 22
0.0
 32
0.0
 13
1.0
 23
0.0
 33
0.0
 40
0.0
 40
0.0
 40
0.0
 40
0.0
 40
0.2543211584720604
 40
0.5088664984541659
 40
0.7634130007196578
 40
1.0
 40
1.0
 40
1.0
 40
1.0
 10
319.5100602416607
 20
612.2299061787378
 30
0.0
 10
319.4467696877681
 20
612.3298937738073
 30
0.0
 10
319.3201327900043
 20
612.5299571019929
 30
0.0
 10
319.1301604552614
 20
612.7807689790407
 30
0.0
 10
318.9445478894261
 20
612.9488016024701
 30
0.0
 10
318.8224245670914
 20
612.9697938645254
 30
0.0
 10
318.7635957755666
 20
612.9799061787377
 30
0.0
  0
LINE
  5
18B
330
1F
100
AcDbEntity
  8
0
  6
Continuous
 62
     7
370
    15
100
AcDbLine
 10
318.7635957756
 20
613.3799061787
 30
0.0
 11
318.7635957756
 21
612.9799061787
 31
0.0
  0
LINE
  5
18C
330
1F
100
AcDbEntity
  8
0
  6
Continuous
 62
     7
370
    15
100
AcDbLine
 10
318.7635957756
 20
613.3799061787
 30
0.0
 11
320.4570993323
 21
613.3799061787
 31
0.0
  0
LINE
  5
18D
330
1F
100
AcDbEntity
  8
0
  6
Continuous
 62
     7
370
    15
100
AcDbLine
 10
325.8320993323
 20
613.3799061787
 30
0.0
 11
356.9570993323
 21
613.3799061787
 31
0.0
  0
SPLINE
  5
18E
330
1F
100
AcDbEntity
  8
0
  6
Continuous
 62
     7
370
    15
100
AcDbSpline
210
0.0
220
0.0
230
1.0
 70
     8
 71
     3
 72
    12
 73
     8
 74
     0
 42
0.00000001
 43
0.00000001
 12
1.0
 22
0.0
 32
0.0
 13
1.0
 23
0.0
 33
0.0
 40
0.0
 40
0.0
 40
0.0
 40
0.0
 40
0.2096821001528651
 40
0.4420453733186043
 40
0.674433296668131
 40
0.9068208701180629
 40
1.0
 40
1.0
 40
1.0
 40
1.0
 10
319.5100602416607
 20
490.9299061787375
 30
0.0
 10
319.3838947626731
 20
490.8777635747737
 30
0.0
 10
319.1179165689295
 20
490.7678381361304
 30
0.0
 10
318.757225854022
 20
490.5998540711888
 30
0.0
 10
318.4855463870289
 20
490.4264014369805
 30
0.0
 10
318.3712354669572
 20
490.2872131058641
 30
0.0
 10
318.362546947645
 20
490.2065328752533
 30
0.0
 10
318.3600602416607
 20
490.1834417126434
 30
0.0
  0
SPLINE
  5
18F
330
1F
100
AcDbEntity
  8
0
  6
Continuous
 62
     7
370
    15
100
AcDbSpline
210
0.0
220
0.0
230
1.0
 70
     8
 71
     3
 72
    11
 73
     7
 74
     0
 42
0.00000001
 43
0.00000001
 12
1.0
 22
0.0
 32
0.0
 13
1.0
 23
0.0
 33
0.0
 40
0.0
 40
0.0
 40
0.0
 40
0.0
 40
0.2543211584721397
 40
0.5088664984542343
 40
0.7634130007197366
 40
1.0
 40
1.0
 40
1.0
 40
1.0
 10
319.5100602416607
 20
490.9299061787375
 30
0.0
 10
319.4100726465911
 20
490.8666156248447
 30
0.0
 10
319.2100093184055
 20
490.7399787270809
 30
0.0
 10
318.9591974413577
 20
490.5500063923382
 30
0.0
 10
318.7911648179283
 20
490.3643938265027
 30
0.0
 10
318.7701725558729
 20
490.2422705041682
 30
0.0
 10
318.7600602416607
 20
490.1834417126434
 30
0.0
  0
LINE
  5
190
330
1F
100
AcDbEntity
  8
0
  6
Continuous
 62
     7
370
    15
100
AcDbLine
 10
318.3600602417
 20
490.1834417126
 30
0.0
 11
318.7600602417
 21
490.1834417126
 31
0.0
  0
SPLINE
  5
191
330
1F
100
AcDbEntity
  8
0
  6
Continuous
 62
     7
370
    15
100
AcDbSpline
210
0.0
220
0.0
230
1.0
 70
     8
 71
     3
 72
    12
 73
     8
 74
     0
 42
0.00000001
 43
0.00000001
 12
1.0
 22
0.0
 32
0.0
 13
1.0
 23
0.0
 33
0.0
 40
0.0
 40
0.0
 40
0.0
 40
0.0
 40
0.2096821001528653
 40
0.4420453733185926
 40
0.6744332966681136
 40
0.9068208701180244
 40
1.0
 40
1.0
 40
1.0
 40
1.0
 10
318.3600602416607
 20
612.9763706448318
 30
0.0
 10
318.372230226745
 20
612.924228040868
 30
0.0
 10
318.3978866160885
 20
612.8143026022245
 30
0.0
 10
318.6083519095527
 20
612.6463185372832
 30
0.0
 10
318.9342466485006
 20
612.4728659030748
 30
0.0
 10
319.2589671680518
 20
612.3336775719584
 30
0.0
 10
319.4541871266049
 20
612.2529973413475
 30
0.0
 10
319.5100602416607
 20
612.2299061787378
 30
0.0
  0
LINE
  5
192
330
1F
100
AcDbEntity
  8
0
  6
Continuous
 62
     7
370
    15
100
AcDbLine
 10
318.3600602417
 20
612.9763706448
 30
0.0
 11
318.7600602417
 21
612.9763706448
 31
0.0
  0
SPLINE
  5
193
330
1F
100
AcDbEntity
  8
0
  6
Continuous
 62
     7
370
    15
100
AcDbSpline
210
0.0
220
0.0
230
1.0
 70
     8
 71
     3
 72
    11
 73
     7
 74
     0
 42
0.00000001
 43
0.00000001
 12
1.0
 22
0.0
 32
0.0
 13
1.0
 23
0.0
 33
0.0
 40
0.0
 40
0.0
 40
0.0
 40
0.0
 40
0.2543211584721053
 40
0.5088664984542124
 40
0.7634130007196955
 40
1.0
 40
1.0
 40
1.0
 40
1.0
 10
318.7600602416607
 20
612.9763706448318
 30
0.0
 10
318.7717372726702
 20
612.913080090939
 30
0.0
 10
318.7951016278732
 20
612.7864431931752
 30
0.0
 10
318.9745454359706
 20
612.5964708584324
 30
0.0
 10
319.2241569256155
 20
612.4108582925971
 30
0.0
 10
319.4171110839131
 20
612.2887349702625
 30
0.0
 10
319.5100602416607
 20
612.2299061787378
 30
0.0
  0
CIRCLE
  5
194
330
1F
100
AcDbEntity
  8
0
  6
Continuous
 62
     7
370
    15
100
AcDbCircle
 10
357.1336714467
 20
603.3799061787
 30
0.0
 40
3.173831552685897
  0
CIRCLE
  5
195
330
1F
100
AcDbEntity
  8
0
  6
Continuous
 62
     7
370
    15
100
AcDbCircle
 10
742.1336714467
 20
603.3799061787
 30
0.0
 40
3.173831552685897
  0
CIRCLE
  5
196
330
1F
100
AcDbEntity
  8
0
  6
Continuous
 62
     7
370
    15
100
AcDbCircle
 10
552.1336714467
 20
603.3799061787
 30
0.0
 40
3.173831552685897
  0
LINE
  5
197
330
1F
100
AcDbEntity
  8
0
  6
Continuous
 62
     7
370
    15
100
AcDbLine
 10
318.3600602417
 20
612.9763706448
 30
0.0
 11
318.3600602417
 21
490.1834417126
 31
0.0
  0
LINE
  5
198
330
1F
100
AcDbEntity
  8
0
  6
Continuous
 62
     7
370
    15
100
AcDbLine
 10
757.1877720455
 20
492.66681487
 30
0.0
 11
767.4931712907
 21
514.76681487
 31
0.0
  0
LINE
  5
199
330
1F
100
AcDbEntity
  8
0
  6
Continuous
 62
     7
370
    15
100
AcDbLine
 10
752.6562331103
 20
489.7799061787
 30
0.0
 11
318.7635957756
 21
489.7799061787
 31
0.0
  0
SPLINE
  5
19A
330
1F
100
AcDbEntity
  8
0
  6
Continuous
 62
     7
370
    15
100
AcDbSpline
210
0.0
220
0.0
230
1.0
 70
     8
 71
     3
 72
    12
 73
     8
 74
     0
 42
0.00000001
 43
0.00000001
 12
1.0
 22
0.0
 32
0.0
 13
1.0
 23
0.0
 33
0.0
 40
0.0
 40
0.0
 40
0.0
 40
0.0
 40
0.2096821001528683
 40
0.4420453733186041
 40
0.6744332966681316
 40
0.9068208701180589
 40
1.0
 40
1.0
 40
1.0
 40
1.0
 10
318.7635957755667
 20
489.7799061787375
 30
0.0
 10
318.8157383795304
 20
489.7920761638218
 30
0.0
 10
318.9256638181738
 20
489.8177325531652
 30
0.0
 10
319.0936478831154
 20
490.0281978466296
 30
0.0
 10
319.2671005173236
 20
490.3540925855773
 30
0.0
 10
319.40628884844
 20
490.6788131051285
 30
0.0
 10
319.4869690790509
 20
490.8740330636818
 30
0.0
 10
319.5100602416607
 20
490.9299061787374
 30
0.0
  0
ARC
  5
19B
330
1F
100
AcDbEntity
  8
0
  6
Continuous
 62
     7
370
    15
100
AcDbCircle
 10
752.6562331103
 20
494.7799061787
 30
0.0
 40
4.99999999999994
100
AcDbArc
 50
270.0
 51
335.0
  0
LINE
  5
19C
330
1F
100
AcDbEntity
  8
0
  6
Continuous
 62
     7
370
    15
100
AcDbLine
 10
318.7635957756
 20
489.7799061787
 30
0.0
 11
318.7635957756
 21
490.1799061787
 31
0.0
  0
SPLINE
  5
19D
330
1F
100
AcDbEntity
  8
0
  6
Continuous
 62
     7
370
    15
100
AcDbSpline
210
0.0
220
0.0
230
1.0
 70
     8
 71
     3
 72
    11
 73
     7
 74
     0
 42
0.00000001
 43
0.00000001
 12
1.0
 22
0.0
 32
0.0
 13
1.0
 23
0.0
 33
0.0
 40
0.0
 40
0.0
 40
0.0
 40
0.0
 40
0.2543211584721391
 40
0.5088664984542423
 40
0.7634130007197231
 40
1.0
 40
1.0
 40
1.0
 40
1.0
 10
318.7635957755667
 20
490.1799061787374
 30
0.0
 10
318.8268863294594
 20
490.191583209747
 30
0.0
 10
318.9535232272232
 20
490.2149475649499
 30
0.0
 10
319.1434955619659
 20
490.3943913730475
 30
0.0
 10
319.3291081278014
 20
490.6440028626923
 30
0.0
 10
319.4512314501359
 20
490.8369570209899
 30
0.0
 10
319.5100602416607
 20
490.9299061787374
 30
0.0
  0
CIRCLE
  5
19E
330
1F
100
AcDbEntity
  8
0
  6
Continuous
 62
     7
370
    15
100
AcDbCircle
 10
552.1336714467
 20
603.3799061787
 30
0.0
 40
1.350000000000023
  0
CIRCLE
  5
19F
330
1F
100
AcDbEntity
  8
0
  6
Continuous
 62
     7
370
    15
100
AcDbCircle
 10
357.1336714467
 20
603.3799061787
 30
0.0
 40
1.350000000000023
  0
CIRCLE
  5
1A0
330
1F
100
AcDbEntity
  8
0
  6
Continuous
 62
     7
370
    15
100
AcDbCircle
 10
742.1336714467
 20
603.3799061787
 30
0.0
 40
1.350000000000023
  0
CIRCLE
  5
1A1
330
1F
100
AcDbEntity
  8
0
  6
Continuous
 62
     7
370
    15
100
AcDbCircle
 10
742.1336714467
 20
603.3799061787
 30
0.0
 40
1.262499999999955
  0
CIRCLE
  5
1A2
330
1F
100
AcDbEntity
  8
0
  6
Continuous
 62
     7
370
    15
100
AcDbCircle
 10
742.1336714467
 20
603.3799061787
 30
0.0
 40
1.0499999999999
  0
CIRCLE
  5
1A3
330
1F
100
AcDbEntity
  8
0
  6
Continuous
 62
     7
370
    15
100
AcDbCircle
 10
552.1336714467
 20
603.3799061787
 30
0.0
 40
1.262500000000045
  0
CIRCLE
  5
1A4
330
1F
100
AcDbEntity
  8
0
  6
Continuous
 62
     7
370
    15
100
AcDbCircle
 10
552.1336714467
 20
603.3799061787
 30
0.0
 40
1.050000000000068
  0
CIRCLE
  5
1A5
330
1F
100
AcDbEntity
  8
0
  6
Continuous
 62
     7
370
    15
100
AcDbCircle
 10
357.1336714467
 20
603.3799061787
 30
0.0
 40
1.262499999999989
  0
CIRCLE
  5
1A6
330
1F
100
AcDbEntity
  8
0
  6
Continuous
 62
     7
370
    15
100
AcDbCircle
 10
357.1336714467
 20
603.3799061787
 30
0.0
 40
1.050000000000011
  0
LINE
  5
1A7
330
1F
100
AcDbEntity
  8
0
  6
Continuous
 62
     7
370
    15
100
AcDbLine
 10
337.9671419847
 20
484.5799061787
 30
0.0
 11
340.9286392207
 21
484.5799061787
 31
0.0
  0
LINE
  5
1A8
330
1F
100
AcDbEntity
  8
0
  6
Continuous
 62
     7
370
    15
100
AcDbLine
 10
340.8274440215
 20
481.1799061787
 30
0.0
 11
337.8659467855
 21
481.1799061787
 31
0.0
  0
LINE
  5
1A9
330
1F
100
AcDbEntity
  8
0
  6
Continuous
 62
     7
370
    15
100
AcDbLine
 10
341.0639708487
 20
484.1049061787
 30
0.0
 11
341.0639708487
 21
484.4549061787
 31
0.0
  0
LINE
  5
1AA
330
1F
100
AcDbEntity
  8
0
  6
Continuous
 62
     7
370
    15
100
AcDbLine
 10
340.8862903114
 20
481.1799061787
 30
0.0
 11
340.8274440215
 21
481.1799061787
 31
0.0
  0
SPLINE
  5
1AB
330
1F
100
AcDbEntity
  8
0
  6
Continuous
 62
     7
370
    15
100
AcDbSpline
210
0.0
220
0.0
230
1.0
 70
     8
 71
     3
 72
    11
 73
     7
 74
     0
 42
0.00000001
 43
0.00000001
 12
1.0
 22
0.0
 32
0.0
 13
1.0
 23
0.0
 33
0.0
 40
0.0
 40
0.0
 40
0.0
 40
0.0
 40
0.3086379197646599
 40
0.6164814546611798
 40
0.9438580105449316
 40
1.0
 40
1.0
 40
1.0
 40
1.0
 10
341.0639708487334
 20
484.1049061787371
 30
0.0
 10
341.0630454763486
 20
484.0925567157773
 30
0.0
 10
341.0611971133401
 20
484.0678895754094
 30
0.0
 10
341.0466048314268
 20
484.0354917407396
 30
0.0
 10
341.0327065812548
 20
484.0146122161877
 30
0.0
 10
341.0227542049111
 20
484.0079605294861
 30
0.0
 10
341.0212973100243
 20
484.0069868114503
 30
0.0
  0
LINE
  5
1AC
330
1F
100
AcDbEntity
  8
0
  6
Continuous
 62
     7
370
    15
100
AcDbLine
 10
343.84375666
 20
483.9799061787
 30
0.0
 11
343.7718069914
 21
483.9799061787
 31
0.0
  0
LINE
  5
1AD
330
1F
100
AcDbEntity
  8
0
  6
Continuous
 62
     7
370
    15
100
AcDbLine
 10
343.6158434808
 20
483.9799061787
 30
0.0
 11
340.9542003183
 21
483.9799061787
 31
0.0
  0
SPLINE
  5
1AE
330
1F
100
AcDbEntity
  8
0
  6
Continuous
 62
     7
370
    15
100
AcDbSpline
210
0.0
220
0.0
230
1.0
 70
     8
 71
     3
 72
    13
 73
     9
 74
     0
 42
0.00000001
 43
0.00000001
 12
1.0
 22
0.0
 32
0.0
 13
1.0
 23
0.0
 33
0.0
 40
0.0
 40
0.0
 40
0.0
 40
0.0
 40
0.0075462231145234
 40
0.2722763788514516
 40
0.4815195415730976
 40
0.6613541616925919
 40
0.8304588949399275
 40
1.0
 40
1.0
 40
1.0
 40
1.0
 10
340.9542003183321
 20
484.5799061787371
 30
0.0
 10
340.9545937932762
 20
484.5799045867158
 30
0.0
 10
340.968790820225
 20
484.5798471447642
 30
0.0
 10
340.9941168420432
 20
484.5740543149582
 30
0.0
 10
341.0252169065588
 20
484.5526949253219
 30
0.0
 10
341.0468285001988
 20
484.5248591237698
 30
0.0
 10
341.0611424720075
 20
484.4917912270797
 30
0.0
 10
341.0630272469311
 20
484.4672117523804
 30
0.0
 10
341.0639708487333
 20
484.4549061787371
 30
0.0
  0
LINE
  5
1AF
330
1F
100
AcDbEntity
  8
0
  6
Continuous
 62
     7
370
    15
100
AcDbLine
 10
340.9542003183
 20
484.5799061787
 30
0.0
 11
343.9052029587
 21
484.5799061787
 31
0.0
  0
LINE
  5
1B0
330
1F
100
AcDbEntity
  8
0
  6
Continuous
 62
     7
370
    15
100
AcDbLine
 10
341.0096860296
 20
483.8549061787
 30
0.0
 11
341.0112903114
 21
483.8549061787
 31
0.0
  0
LINE
  5
1B1
330
1F
100
AcDbEntity
  8
0
  6
Continuous
 62
     7
370
    15
100
AcDbLine
 10
340.9286392207
 20
484.5799061787
 30
0.0
 11
340.9542003183
 21
484.5799061787
 31
0.0
  0
LINE
  5
1B2
330
1F
100
AcDbEntity
  8
0
  6
Continuous
 62
     7
370
    15
100
AcDbLine
 10
337.7092946312
 20
483.9799061787
 30
0.0
 11
335.918393602
 21
483.9799061787
 31
0.0
  0
LINE
  5
1B3
330
1F
100
AcDbEntity
  8
0
  6
Continuous
 62
     7
370
    15
100
AcDbLine
 10
335.8792251014
 20
484.5799061787
 30
0.0
 11
337.9927030824
 21
484.5799061787
 31
0.0
  0
SPLINE
  5
1B4
330
1F
100
AcDbEntity
  8
0
  6
Continuous
 62
     7
370
    15
100
AcDbSpline
210
0.0
220
0.0
230
1.0
 70
     8
 71
     3
 72
    13
 73
     9
 74
     0
 42
0.00000001
 43
0.00000001
 12
1.0
 22
0.0
 32
0.0
 13
1.0
 23
0.0
 33
0.0
 40
0.0
 40
0.0
 40
0.0
 40
0.0
 40
0.1695411050600818
 40
0.3386458383076497
 40
0.5184804584265705
 40
0.7277236211484981
 40
0.9924537768853696
 40
1.0
 40
1.0
 40
1.0
 40
1.0
 10
343.6708866689927
 20
483.5049061787372
 30
0.0
 10
343.6704220201404
 20
483.4926006050939
 30
0.0
 10
343.6694939183682
 20
483.4680211303947
 30
0.0
 10
343.6624245457653
 20
483.4349532337044
 30
0.0
 10
343.6516893046536
 20
483.4071174321522
 30
0.0
 10
343.6361169603823
 20
483.3857580425162
 30
0.0
 10
343.6232881279691
 20
483.3799652127101
 30
0.0
 10
343.616044247195
 20
483.3799077707585
 30
0.0
 10
343.6158434808237
 20
483.3799061787372
 30
0.0
  0
LINE
  5
1B5
330
1F
100
AcDbEntity
  8
0
  6
Continuous
 62
     7
370
    15
100
AcDbLine
 10
343.6158434808
 20
483.3799061787
 30
0.0
 11
341.0112903114
 21
483.3799061787
 31
0.0
  0
LINE
  5
1B6
330
1F
100
AcDbEntity
  8
0
  6
Continuous
 62
     7
370
    15
100
AcDbLine
 10
337.7409467855
 20
483.3799061787
 30
0.0
 11
335.918393602
 21
483.3799061787
 31
0.0
  0
SPLINE
  5
1B7
330
1F
100
AcDbEntity
  8
0
  6
Continuous
 62
     7
370
    15
100
AcDbSpline
210
0.0
220
0.0
230
1.0
 70
     8
 71
     3
 72
    13
 73
     9
 74
     0
 42
0.00000001
 43
0.00000001
 12
1.0
 22
0.0
 32
0.0
 13
1.0
 23
0.0
 33
0.0
 40
0.0
 40
0.0
 40
0.0
 40
0.0
 40
0.1695411050603405
 40
0.338645838307556
 40
0.5184804584269221
 40
0.7277236211487309
 40
0.9924537768858874
 40
1.0
 40
1.0
 40
1.0
 40
1.0
 10
335.8071659871908
 20
483.5049061787371
 30
0.0
 10
335.8081129450847
 20
483.4926006050939
 30
0.0
 10
335.8100044235537
 20
483.4680211303947
 30
0.0
 10
335.8243918038407
 20
483.4349532337043
 30
0.0
 10
335.8461807411217
 20
483.4071174321523
 30
0.0
 10
335.8776694559237
 20
483.3857580425161
 30
0.0
 10
335.9034710683589
 20
483.37996521271
 30
0.0
 10
335.9179911728848
 20
483.3799077707585
 30
0.0
 10
335.9183936020227
 20
483.3799061787371
 30
0.0
  0
LINE
  5
1B8
330
1F
100
AcDbEntity
  8
0
  6
Continuous
 62
     7
370
    15
100
AcDbLine
 10
335.918393602
 20
483.9799061787
 30
0.0
 11
337.730079375
 21
483.9799061787
 31
0.0
  0
LINE
  5
1B9
330
1F
100
AcDbEntity
  8
0
  6
Continuous
 62
     7
370
    15
100
AcDbLine
 10
341.049425138
 20
483.9799061787
 30
0.0
 11
343.6158434808
 21
483.9799061787
 31
0.0
  0
SPLINE
  5
1BA
330
1F
100
AcDbEntity
  8
0
  6
Continuous
 62
     7
370
    15
100
AcDbSpline
210
0.0
220
0.0
230
1.0
 70
     8
 71
     3
 72
    13
 73
     9
 74
     0
 42
0.00000001
 43
0.00000001
 12
1.0
 22
0.0
 32
0.0
 13
1.0
 23
0.0
 33
0.0
 40
0.0
 40
0.0
 40
0.0
 40
0.0
 40
0.0075462231145643
 40
0.2722763788514153
 40
0.4815195415734048
 40
0.661354161692394
 40
0.8304588949399436
 40
0.9999999999999999
 40
0.9999999999999999
 40
0.9999999999999999
 40
0.9999999999999999
 10
343.6158434808236
 20
483.9799061787372
 30
0.0
 10
343.6160442471948
 20
483.979904586716
 30
0.0
 10
343.6232881279694
 20
483.9798471447644
 30
0.0
 10
343.6361169603821
 20
483.9740543149583
 30
0.0
 10
343.6516893046536
 20
483.9526949253222
 30
0.0
 10
343.6624245457651
 20
483.92485912377
 30
0.0
 10
343.6694939183682
 20
483.8917912270798
 30
0.0
 10
343.6704220201404
 20
483.8672117523806
 30
0.0
 10
343.6708866689926
 20
483.8549061787372
 30
0.0
  0
SPLINE
  5
1BB
330
1F
100
AcDbEntity
  8
0
  6
Continuous
 62
     7
370
    15
100
AcDbSpline
210
0.0
220
0.0
230
1.0
 70
     8
 71
     3
 72
    13
 73
     9
 74
     0
 42
0.00000001
 43
0.00000001
 12
1.0
 22
0.0
 32
0.0
 13
1.0
 23
0.0
 33
0.0
 40
0.0
 40
0.0
 40
0.0
 40
0.0
 40
0.0075462231144307
 40
0.2722763788513959
 40
0.4815195415730528
 40
0.6613541616925157
 40
0.8304588949396475
 40
1.0
 40
1.0
 40
1.0
 40
1.0
 10
335.9183936020226
 20
483.9799061787372
 30
0.0
 10
335.9179911728847
 20
483.9799045867159
 30
0.0
 10
335.9034710683584
 20
483.9798471447643
 30
0.0
 10
335.8776694559238
 20
483.9740543149582
 30
0.0
 10
335.8461807411217
 20
483.952694925322
 30
0.0
 10
335.8243918038407
 20
483.92485912377
 30
0.0
 10
335.8100044235537
 20
483.8917912270796
 30
0.0
 10
335.8081129450848
 20
483.8672117523805
 30
0.0
 10
335.8071659871908
 20
483.8549061787372
 30
0.0
  0
LINE
  5
1BC
330
1F
100
AcDbEntity
  8
0
  6
Continuous
 62
     7
370
    15
100
AcDbLine
 10
343.670886669
 20
483.8549061787
 30
0.0
 11
343.670886669
 21
483.5049061787
 31
0.0
  0
LINE
  5
1BD
330
1F
100
AcDbEntity
  8
0
  6
Continuous
 62
     7
370
    15
100
AcDbLine
 10
335.8071659872
 20
483.8549061787
 30
0.0
 11
335.8071659872
 21
483.5049061787
 31
0.0
  0
SPLINE
  5
1BE
330
1F
100
AcDbEntity
  8
0
  6
Continuous
 62
     7
370
    15
100
AcDbSpline
210
0.0
220
0.0
230
1.0
 70
     8
 71
     3
 72
    12
 73
     8
 74
     0
 42
0.00000001
 43
0.00000001
 12
1.0
 22
0.0
 32
0.0
 13
1.0
 23
0.0
 33
0.0
 40
0.0
 40
0.0
 40
0.0
 40
0.0
 40
0.2028202020467062
 40
0.4049472449426954
 40
0.6098312030740779
 40
0.8226939241827038
 40
1.0
 40
1.0
 40
1.0
 40
1.0
 10
344.4969234662196
 20
484.1049061787371
 30
0.0
 10
344.4894790515571
 20
484.0263357584694
 30
0.0
 10
344.4746156642942
 20
483.8694634405231
 30
0.0
 10
344.3592309837808
 20
483.6592653152885
 30
0.0
 10
344.1880108552132
 20
483.4957260475685
 30
0.0
 10
343.9825152848346
 20
483.3966214144356
 30
0.0
 10
343.8376422599931
 20
483.3851288114747
 30
0.0
 10
343.7718069914407
 20
483.3799061787372
 30
0.0
  0
LINE
  5
1BF
330
1F
100
AcDbEntity
  8
0
  6
Continuous
 62
     7
370
    15
100
AcDbLine
 10
344.4792251014
 20
483.3799061787
 30
0.0
 11
343.7718069914
 21
483.3799061787
 31
0.0
  0
ARC
  5
1C0
330
1F
100
AcDbEntity
  8
0
  6
Continuous
 62
     7
370
    15
100
AcDbCircle
 10
344.3798935353
 20
486.6629730293
 30
0.0
 40
0.1173076246680458
100
AcDbArc
 50
356.0568501216
 51
85.420672881
  0
LINE
  5
1C1
330
1F
100
AcDbEntity
  8
0
  6
Continuous
 62
     7
370
    15
100
AcDbLine
 10
344.0302029587
 20
486.7799061787
 30
0.0
 11
344.3892592906
 21
486.7799061787
 31
0.0
  0
LINE
  5
1C2
330
1F
100
AcDbEntity
  8
0
  6
Continuous
 62
     7
370
    15
100
AcDbLine
 10
344.3892592906
 20
486.7799061787
 30
0.0
 11
345.0792251014
 21
486.7799061787
 31
0.0
  0
LINE
  5
1C3
330
1F
100
AcDbEntity
  8
0
  6
Continuous
 62
     7
370
    15
100
AcDbLine
 10
343.7718069914
 20
483.3799061787
 30
0.0
 11
343.6158434808
 21
483.3799061787
 31
0.0
  0
LINE
  5
1C4
330
1F
100
AcDbEntity
  8
0
  6
Continuous
 62
     7
370
    15
100
AcDbLine
 10
343.6158434808
 20
483.9799061787
 30
0.0
 11
343.7718069914
 21
483.9799061787
 31
0.0
  0
LINE
  5
1C5
330
1F
100
AcDbEntity
  8
0
  6
Continuous
 62
     7
370
    15
100
AcDbLine
 10
335.7624300914
 20
483.9799061787
 30
0.0
 11
335.918393602
 21
483.9799061787
 31
0.0
  0
LINE
  5
1C6
330
1F
100
AcDbEntity
  8
0
  6
Continuous
 62
     7
370
    15
100
AcDbLine
 10
335.918393602
 20
483.3799061787
 30
0.0
 11
335.7624300914
 21
483.3799061787
 31
0.0
  0
SPLINE
  5
1C7
330
1F
100
AcDbEntity
  8
0
  6
Continuous
 62
     7
370
    15
100
AcDbSpline
210
0.0
220
0.0
230
1.0
 70
     8
 71
     3
 72
    12
 73
     8
 74
     0
 42
0.00000001
 43
0.00000001
 12
1.0
 22
0.0
 32
0.0
 13
1.0
 23
0.0
 33
0.0
 40
0.0
 40
0.0
 40
0.0
 40
0.0
 40
0.0935111908365582
 40
0.2922375474773422
 40
0.5125487745570586
 40
0.7523049646746135
 40
1.0
 40
1.0
 40
1.0
 40
1.0
 10
335.6283636100071
 20
484.1049061787371
 30
0.0
 10
335.6287202647304
 20
484.0981156278211
 30
0.0
 10
335.6298348682415
 20
484.0768940614187
 30
0.0
 10
335.6435665869482
 20
484.0416542546012
 30
0.0
 10
335.6739455144902
 20
484.0073746189906
 30
0.0
 10
335.7155811498178
 20
483.9842362330205
 30
0.0
 10
335.7466451369539
 20
483.9813651169185
 30
0.0
 10
335.7624300914056
 20
483.9799061787372
 30
0.0
  0
LINE
  5
1C8
330
1F
100
AcDbEntity
  8
0
  6
Continuous
 62
     7
370
    15
100
AcDbLine
 10
335.7624300914
 20
483.3799061787
 30
0.0
 11
335.7292251014
 21
483.3799061787
 31
0.0
  0
LINE
  5
1C9
330
1F
100
AcDbEntity
  8
0
  6
Continuous
 62
     7
370
    15
100
AcDbLine
 10
335.1449777922
 20
486.7799061787
 30
0.0
 11
335.5040341241
 21
486.7799061787
 31
0.0
  0
LINE
  5
1CA
330
1F
100
AcDbEntity
  8
0
  6
Continuous
 62
     7
370
    15
100
AcDbLine
 10
335.5040341241
 20
486.7799061787
 30
0.0
 11
336.1782472441
 21
486.7799061787
 31
0.0
  0
LINE
  5
1CB
330
1F
100
AcDbEntity
  8
0
  6
Continuous
 62
     7
370
    15
100
AcDbLine
 10
335.1292251014
 20
486.7799061787
 30
0.0
 11
335.1449777922
 21
486.7799061787
 31
0.0
  0
LINE
  5
1CC
330
1F
100
AcDbEntity
  8
0
  6
Continuous
 62
     7
370
    15
100
AcDbLine
 10
338.260062246
 20
489.681615185
 30
0.0
 11
338.8863321364
 21
489.7799061787
 31
0.0
  0
LINE
  5
1CD
330
1F
100
AcDbEntity
  8
0
  6
Continuous
 62
     7
370
    15
100
AcDbLine
 10
340.5205646393
 20
489.7799061787
 30
0.0
 11
341.1054994707
 21
489.681615185
 31
0.0
  0
LINE
  5
1CE
330
1F
100
AcDbEntity
  8
0
  6
Continuous
 62
     7
370
    15
100
AcDbLine
 10
341.1054994707
 20
489.681615185
 30
0.0
 11
341.1054994707
 21
487.5281971724
 31
0.0
  0
SPLINE
  5
1CF
330
1F
100
AcDbEntity
  8
0
  6
Continuous
 62
     7
370
    15
100
AcDbSpline
210
0.0
220
0.0
230
1.0
 70
     8
 71
     3
 72
     9
 73
     5
 74
     0
 42
0.00000001
 43
0.00000001
 12
1.0
 22
0.0
 32
0.0
 13
1.0
 23
0.0
 33
0.0
 40
0.0
 40
0.0
 40
0.0
 40
0.0
 40
0.070200576703419
 40
1.0
 40
1.0
 40
1.0
 40
1.0
 10
339.6827808583564
 20
487.3049061787372
 30
0.0
 10
339.7165077076074
 20
487.305129236871
 30
0.0
 10
340.1969432087802
 20
487.3083066770612
 30
0.0
 10
340.6677466772569
 20
487.422251418009
 30
0.0
 10
341.1054994707326
 20
487.5281971724298
 30
0.0
  0
LINE
  5
1D0
330
1F
100
AcDbEntity
  8
0
  6
Continuous
 62
     7
370
    15
100
AcDbLine
 10
338.260062246
 20
487.5281971724
 30
0.0
 11
339.6827808584
 21
487.3049061787
 31
0.0
  0
LINE
  5
1D1
330
1F
100
AcDbEntity
  8
0
  6
Continuous
 62
     7
370
    15
100
AcDbLine
 10
338.260062246
 20
489.681615185
 30
0.0
 11
338.260062246
 21
487.5281971724
 31
0.0
  0
LINE
  5
1D2
330
1F
100
AcDbEntity
  8
0
  6
Continuous
 62
     7
370
    15
100
AcDbLine
 10
341.1054994707
 20
487.5281971724
 30
0.0
 11
342.0275808984
 21
487.3049061787
 31
0.0
  0
LINE
  5
1D3
330
1F
100
AcDbEntity
  8
0
  6
Continuous
 62
     7
370
    15
100
AcDbLine
 10
342.0275808984
 20
487.3049061787
 30
0.0
 11
339.6827808584
 21
487.3049061787
 31
0.0
  0
LINE
  5
1D4
330
1F
100
AcDbEntity
  8
0
  6
Continuous
 62
     7
370
    15
100
AcDbLine
 10
341.1054994707
 20
489.681615185
 30
0.0
 11
341.5113926879
 21
489.7799061787
 31
0.0
  0
SPLINE
  5
1D5
330
1F
100
AcDbEntity
  8
0
  6
Continuous
 62
     7
370
    15
100
AcDbSpline
210
0.0
220
0.0
230
1.0
 70
     8
 71
     3
 72
     9
 73
     5
 74
     0
 42
0.00000001
 43
0.00000001
 12
1.0
 22
0.0
 32
0.0
 13
1.0
 23
0.0
 33
0.0
 40
0.0
 40
0.0
 40
0.0
 40
0.0
 40
0.268633605055563
 40
1.0
 40
1.0
 40
1.0
 40
1.0
 10
337.7594250613139
 20
487.3049061787372
 30
0.0
 10
337.8049469901495
 20
487.3082206550295
 30
0.0
 10
337.974404302931
 20
487.3205589337476
 30
0.0
 10
338.139394188309
 20
487.4404863155476
 30
0.0
 10
338.2600622459802
 20
487.5281971724298
 30
0.0
  0
LINE
  5
1D6
330
1F
100
AcDbEntity
  8
0
  6
Continuous
 62
     7
370
    15
100
AcDbLine
 10
339.6827808584
 20
487.3049061787
 30
0.0
 11
337.7594250613
 21
487.3049061787
 31
0.0
  0
LINE
  5
1D7
330
1F
100
AcDbEntity
  8
0
  6
Continuous
 62
     7
370
    15
100
AcDbLine
 10
338.0858428815
 20
489.7799061787
 30
0.0
 11
338.260062246
 21
489.681615185
 31
0.0
  0
LINE
  5
1D8
330
1F
100
AcDbEntity
  8
0
  6
Continuous
 62
     7
370
    15
100
AcDbLine
 10
342.570558869
 20
489.7799061787
 30
0.0
 11
342.9496623262
 21
489.681615185
 31
0.0
  0
LINE
  5
1D9
330
1F
100
AcDbEntity
  8
0
  6
Continuous
 62
     7
370
    15
100
AcDbLine
 10
342.9496623262
 20
489.681615185
 30
0.0
 11
342.9496623262
 21
487.5281971724
 31
0.0
  0
SPLINE
  5
1DA
330
1F
100
AcDbEntity
  8
0
  6
Continuous
 62
     7
370
    15
100
AcDbSpline
210
0.0
220
0.0
230
1.0
 70
     8
 71
     3
 72
     9
 73
     5
 74
     0
 42
0.00000001
 43
0.00000001
 12
1.0
 22
0.0
 32
0.0
 13
1.0
 23
0.0
 33
0.0
 40
0.0
 40
0.0
 40
0.0
 40
0.0
 40
0.0702005767034214
 40
1.0
 40
1.0
 40
1.0
 40
1.0
 10
342.0275808984426
 20
487.3049061787372
 30
0.0
 10
342.049439684178
 20
487.305129236871
 30
0.0
 10
342.3608158403553
 20
487.3083066770612
 30
0.0
 10
342.6659493576984
 20
487.422251418009
 30
0.0
 10
342.9496623261526
 20
487.5281971724298
 30
0.0
  0
SPLINE
  5
1DB
330
1F
100
AcDbEntity
  8
0
  6
Continuous
 62
     7
370
    15
100
AcDbSpline
210
0.0
220
0.0
230
1.0
 70
     8
 71
     3
 72
     9
 73
     5
 74
     0
 42
0.00000001
 43
0.00000001
 12
1.0
 22
0.0
 32
0.0
 13
1.0
 23
0.0
 33
0.0
 40
0.0
 40
0.0
 40
0.0
 40
0.0
 40
0.6864298143764589
 40
1.0
 40
1.0
 40
1.0
 40
1.0
 10
337.2587878766478
 20
489.6816151850446
 30
0.0
 10
337.3005832702568
 20
489.7189011092624
 30
0.0
 10
337.3614713504854
 20
489.7732197350519
 30
0.0
 10
337.424743654867
 20
489.791073951948
 30
0.0
 10
337.4445839630968
 20
489.7966725020542
 30
0.0
  0
SPLINE
  5
1DC
330
1F
100
AcDbEntity
  8
0
  6
Continuous
 62
     7
370
    15
100
AcDbSpline
210
0.0
220
0.0
230
1.0
 70
     8
 71
     3
 72
     9
 73
     5
 74
     0
 42
0.00000001
 43
0.00000001
 12
1.0
 22
0.0
 32
0.0
 13
1.0
 23
0.0
 33
0.0
 40
0.0
 40
0.0
 40
0.0
 40
0.0
 40
0.2575513451038013
 40
0.9999999999999999
 40
0.9999999999999999
 40
0.9999999999999999
 40
0.9999999999999999
 10
337.2587878766478
 20
487.5281971724298
 30
0.0
 10
337.3008172381212
 20
487.4944895610424
 30
0.0
 10
337.4640055198853
 20
487.3636123125704
 30
0.0
 10
337.6335482726078
 20
487.3299205686741
 30
0.0
 10
337.7594250613139
 20
487.3049061787372
 30
0.0
  0
LINE
  5
1DD
330
1F
100
AcDbEntity
  8
0
  6
Continuous
 62
     7
370
    15
100
AcDbLine
 10
337.2587878766
 20
489.681615185
 30
0.0
 11
337.2587878766
 21
487.5281971724
 31
0.0
  0
LINE
  5
1DE
330
1F
100
AcDbEntity
  8
0
  6
Continuous
 62
     7
370
    15
100
AcDbLine
 10
342.7627515158
 20
487.4227459252
 30
0.0
 11
342.9496623262
 21
487.5281971724
 31
0.0
  0
LINE
  5
1DF
330
1F
100
AcDbEntity
  8
0
  6
Continuous
 62
     7
370
    15
100
AcDbLine
 10
342.6042251014
 20
487.3049061787
 30
0.0
 11
342.0275808984
 21
487.3049061787
 31
0.0
  0
LINE
  5
1E0
330
1F
100
AcDbEntity
  8
0
  6
Continuous
 62
     7
370
    15
100
AcDbLine
 10
342.7627515158
 20
489.7870664323
 30
0.0
 11
342.9496623262
 21
489.681615185
 31
0.0
  0
LINE
  5
1E1
330
1F
100
AcDbEntity
  8
0
  6
Continuous
 62
     7
370
    15
100
AcDbLine
 10
337.7594250613
 20
487.3049061787
 30
0.0
 11
337.6042251014
 21
487.3049061787
 31
0.0
  0
LINE
  5
1E2
330
1F
100
AcDbEntity
  8
0
  6
Continuous
 62
     7
370
    15
100
AcDbLine
 10
341.0112903114
 20
483.2550030386
 30
0.0
 11
341.6466841698
 21
483.3799061787
 31
0.0
  0
SPLINE
  5
1E3
330
1F
100
AcDbEntity
  8
0
  6
Continuous
 62
     7
370
    15
100
AcDbSpline
210
0.0
220
0.0
230
1.0
 70
     8
 71
     3
 72
     9
 73
     5
 74
     0
 42
0.00000001
 43
0.00000001
 12
1.0
 22
0.0
 32
0.0
 13
1.0
 23
0.0
 33
0.0
 40
0.0
 40
0.0
 40
0.0
 40
0.0
 40
0.0702005767034282
 40
1.0
 40
1.0
 40
1.0
 40
1.0
 10
341.6466841697855
 20
483.3799061787372
 30
0.0
 10
341.6736117681135
 20
483.3796831206034
 30
0.0
 10
342.0571926387049
 20
483.3765056804132
 30
0.0
 10
342.4330832710064
 20
483.2625609394655
 30
0.0
 10
342.782586164143
 20
483.1566151850446
 30
0.0
  0
LINE
  5
1E4
330
1F
100
AcDbEntity
  8
0
  6
Continuous
 62
     7
370
    15
100
AcDbLine
 10
342.7825861641
 20
483.156615185
 30
0.0
 11
342.7825861641
 21
481.0031971724
 31
0.0
  0
SPLINE
  5
1E5
330
1F
100
AcDbEntity
  8
0
  6
Continuous
 62
     7
370
    15
100
AcDbSpline
210
0.0
220
0.0
230
1.0
 70
     8
 71
     3
 72
     9
 73
     5
 74
     0
 42
0.00000001
 43
0.00000001
 12
1.0
 22
0.0
 32
0.0
 13
1.0
 23
0.0
 33
0.0
 40
0.0
 40
0.0
 40
0.0
 40
0.0
 40
0.0702005767034292
 40
0.9999999999999999
 40
0.9999999999999999
 40
0.9999999999999999
 40
0.9999999999999999
 10
341.6466841697855
 20
480.7799061787372
 30
0.0
 10
341.6736117681135
 20
480.780129236871
 30
0.0
 10
342.0571926387051
 20
480.7833066770612
 30
0.0
 10
342.4330832710066
 20
480.8972514180089
 30
0.0
 10
342.782586164143
 20
481.0031971724299
 30
0.0
  0
LINE
  5
1E6
330
1F
100
AcDbEntity
  8
0
  6
Continuous
 62
     7
370
    15
100
AcDbLine
 10
340.5107821754
 20
481.0031971724
 30
0.0
 11
341.6466841698
 21
480.7799061787
 31
0.0
  0
LINE
  5
1E7
330
1F
100
AcDbEntity
  8
0
  6
Continuous
 62
     7
370
    15
100
AcDbLine
 10
340.5107821754
 20
481.1799061787
 30
0.0
 11
340.5107821754
 21
481.0031971724
 31
0.0
  0
SPLINE
  5
1E8
330
1F
100
AcDbEntity
  8
0
  6
Continuous
 62
     7
370
    15
100
AcDbSpline
210
0.0
220
0.0
230
1.0
 70
     8
 71
     3
 72
     9
 73
     5
 74
     0
 42
0.00000001
 43
0.00000001
 12
1.0
 22
0.0
 32
0.0
 13
1.0
 23
0.0
 33
0.0
 40
0.0
 40
0.0
 40
0.0
 40
0.0
 40
0.2686336050555538
 40
0.9999999999999999
 40
0.9999999999999999
 40
0.9999999999999999
 40
0.9999999999999999
 10
339.1716016440567
 20
480.7799061787372
 30
0.0
 10
339.2933706270931
 20
480.7832206550294
 30
0.0
 10
339.7466608363027
 20
480.7955589337476
 30
0.0
 10
340.1880008908149
 20
480.9154863155476
 30
0.0
 10
340.5107821754281
 20
481.0031971724298
 30
0.0
  0
LINE
  5
1E9
330
1F
100
AcDbEntity
  8
0
  6
Continuous
 62
     7
370
    15
100
AcDbLine
 10
341.6466841698
 20
480.7799061787
 30
0.0
 11
339.1716016441
 21
480.7799061787
 31
0.0
  0
SPLINE
  5
1EA
330
1F
100
AcDbEntity
  8
0
  6
Continuous
 62
     7
370
    15
100
AcDbSpline
210
0.0
220
0.0
230
1.0
 70
     8
 71
     3
 72
     9
 73
     5
 74
     0
 42
0.00000001
 43
0.00000001
 12
1.0
 22
0.0
 32
0.0
 13
1.0
 23
0.0
 33
0.0
 40
0.0
 40
0.0
 40
0.0
 40
0.0
 40
0.2575513451038017
 40
1.0
 40
1.0
 40
1.0
 40
1.0
 10
337.8324211126853
 20
481.0031971724298
 30
0.0
 10
337.9448476450228
 20
480.9694895610423
 30
0.0
 10
338.3813684960101
 20
480.8386123125704
 30
0.0
 10
338.8348872529766
 20
480.804920568674
 30
0.0
 10
339.1716016440567
 20
480.7799061787372
 30
0.0
  0
LINE
  5
1EB
330
1F
100
AcDbEntity
  8
0
  6
Continuous
 62
     7
370
    15
100
AcDbLine
 10
337.8324211127
 20
481.1844859593
 30
0.0
 11
337.8324211127
 21
481.0031971724
 31
0.0
  0
SPLINE
  5
1EC
330
1F
100
AcDbEntity
  8
0
  6
Continuous
 62
     7
370
    15
100
AcDbSpline
210
0.0
220
0.0
230
1.0
 70
     8
 71
     3
 72
     9
 73
     5
 74
     0
 42
0.00000001
 43
0.00000001
 12
1.0
 22
0.0
 32
0.0
 13
1.0
 23
0.0
 33
0.0
 40
0.0
 40
0.0
 40
0.0
 40
0.0
 40
0.0702005767034269
 40
1.0
 40
1.0
 40
1.0
 40
1.0
 10
337.6291425756713
 20
480.7799061787372
 30
0.0
 10
337.6339614797851
 20
480.7801292368709
 30
0.0
 10
337.7026062736035
 20
480.7833066770612
 30
0.0
 10
337.7698748391936
 20
480.8972514180089
 30
0.0
 10
337.8324211126853
 20
481.0031971724298
 30
0.0
  0
LINE
  5
1ED
330
1F
100
AcDbEntity
  8
0
  6
Continuous
 62
     7
370
    15
100
AcDbLine
 10
339.1716016441
 20
480.7799061787
 30
0.0
 11
337.6291425757
 21
480.7799061787
 31
0.0
  0
SPLINE
  5
1EE
330
1F
100
AcDbEntity
  8
0
  6
Continuous
 62
     7
370
    15
100
AcDbSpline
210
0.0
220
0.0
230
1.0
 70
     8
 71
     3
 72
     9
 73
     5
 74
     0
 42
0.00000001
 43
0.00000001
 12
1.0
 22
0.0
 32
0.0
 13
1.0
 23
0.0
 33
0.0
 40
0.0
 40
0.0
 40
0.0
 40
0.0
 40
0.1277356882371543
 40
1.0
 40
1.0
 40
1.0
 40
1.0
 10
337.6291425756713
 20
483.3799061787371
 30
0.0
 10
337.6339633326461
 20
483.3798322502392
 30
0.0
 10
337.6717034273783
 20
483.3792534887433
 30
0.0
 10
337.7086871789411
 20
483.3177995834221
 30
0.0
 10
337.7409467855445
 20
483.264195534992
 30
0.0
  0
LINE
  5
1EF
330
1F
100
AcDbEntity
  8
0
  6
Continuous
 62
     7
370
    15
100
AcDbLine
 10
342.7825861641
 20
481.0031971724
 30
0.0
 11
342.5793076271
 21
480.7799061787
 31
0.0
  0
LINE
  5
1F0
330
1F
100
AcDbEntity
  8
0
  6
Continuous
 62
     7
370
    15
100
AcDbLine
 10
341.6466841698
 20
480.7799061787
 30
0.0
 11
342.6040897574
 21
480.7799061787
 31
0.0
  0
LINE
  5
1F1
330
1F
100
AcDbEntity
  8
0
  6
Continuous
 62
     7
370
    15
100
AcDbLine
 10
342.7825861641
 20
483.156615185
 30
0.0
 11
342.5793076271
 21
483.3799061787
 31
0.0
  0
LINE
  5
1F2
330
1F
100
AcDbEntity
  8
0
  6
Continuous
 62
     7
370
    15
100
AcDbLine
 10
337.4258640387
 20
483.156615185
 30
0.0
 11
337.6291425757
 21
483.3799061787
 31
0.0
  0
LINE
  5
1F3
330
1F
100
AcDbEntity
  8
0
  6
Continuous
 62
     7
370
    15
100
AcDbLine
 10
337.4258640387
 20
481.0031971724
 30
0.0
 11
337.6291425757
 21
480.7799061787
 31
0.0
  0
LINE
  5
1F4
330
1F
100
AcDbEntity
  8
0
  6
Continuous
 62
     7
370
    15
100
AcDbLine
 10
337.4258640387
 20
483.156615185
 30
0.0
 11
337.4258640387
 21
481.0031971724
 31
0.0
  0
LINE
  5
1F5
330
1F
100
AcDbEntity
  8
0
  6
Continuous
 62
     7
370
    15
100
AcDbLine
 10
339.5387899759
 20
486.956615185
 30
0.0
 11
340.9059354781
 21
487.1799061787
 31
0.0
  0
SPLINE
  5
1F6
330
1F
100
AcDbEntity
  8
0
  6
Continuous
 62
     7
370
    15
100
AcDbSpline
210
0.0
220
0.0
230
1.0
 70
     8
 71
     3
 72
     9
 73
     5
 74
     0
 42
0.00000001
 43
0.00000001
 12
1.0
 22
0.0
 32
0.0
 13
1.0
 23
0.0
 33
0.0
 40
0.0
 40
0.0
 40
0.0
 40
0.0
 40
0.0702005767034291
 40
0.9999999999999999
 40
0.9999999999999999
 40
0.9999999999999999
 40
0.9999999999999999
 10
340.9059354780571
 20
487.1799061787372
 30
0.0
 10
340.9383449157727
 20
487.1796831206034
 30
0.0
 10
341.4000140250234
 20
487.1765056804132
 30
0.0
 10
341.8524273404287
 20
487.0625609394655
 30
0.0
 10
342.2730809801844
 20
486.9566151850447
 30
0.0
  0
LINE
  5
1F7
330
1F
100
AcDbEntity
  8
0
  6
Continuous
 62
     7
370
    15
100
AcDbLine
 10
342.2730809802
 20
486.956615185
 30
0.0
 11
342.2730809802
 21
484.8031971724
 31
0.0
  0
SPLINE
  5
1F8
330
1F
100
AcDbEntity
  8
0
  6
Continuous
 62
     7
370
    15
100
AcDbSpline
210
0.0
220
0.0
230
1.0
 70
     8
 71
     3
 72
     9
 73
     5
 74
     0
 42
0.00000001
 43
0.00000001
 12
1.0
 22
0.0
 32
0.0
 13
1.0
 23
0.0
 33
0.0
 40
0.0
 40
0.0
 40
0.0
 40
0.0
 40
0.070200576703411
 40
1.0
 40
1.0
 40
1.0
 40
1.0
 10
340.9059354780571
 20
484.5799061787372
 30
0.0
 10
340.9383449157726
 20
484.580129236871
 30
0.0
 10
341.4000140250231
 20
484.5833066770612
 30
0.0
 10
341.8524273404286
 20
484.6972514180089
 30
0.0
 10
342.2730809801844
 20
484.8031971724298
 30
0.0
  0
LINE
  5
1F9
330
1F
100
AcDbEntity
  8
0
  6
Continuous
 62
     7
370
    15
100
AcDbLine
 10
339.5387899759
 20
484.8031971724
 30
0.0
 11
340.9059354781
 21
484.5799061787
 31
0.0
  0
LINE
  5
1FA
330
1F
100
AcDbEntity
  8
0
  6
Continuous
 62
     7
370
    15
100
AcDbLine
 10
339.5387899759
 20
486.956615185
 30
0.0
 11
339.5387899759
 21
484.8031971724
 31
0.0
  0
SPLINE
  5
1FB
330
1F
100
AcDbEntity
  8
0
  6
Continuous
 62
     7
370
    15
100
AcDbSpline
210
0.0
220
0.0
230
1.0
 70
     8
 71
     3
 72
     9
 73
     5
 74
     0
 42
0.00000001
 43
0.00000001
 12
1.0
 22
0.0
 32
0.0
 13
1.0
 23
0.0
 33
0.0
 40
0.0
 40
0.0
 40
0.0
 40
0.0
 40
0.2686336050555632
 40
0.9999999999999999
 40
0.9999999999999999
 40
0.9999999999999999
 40
0.9999999999999999
 10
338.4543620365376
 20
487.1799061787372
 30
0.0
 10
338.552966880517
 20
487.176591702445
 30
0.0
 10
338.9200275986238
 20
487.1642534237268
 30
0.0
 10
339.2774114424554
 20
487.0443260419268
 30
0.0
 10
339.5387899759298
 20
486.9566151850446
 30
0.0
  0
LINE
  5
1FC
330
1F
100
AcDbEntity
  8
0
  6
Continuous
 62
     7
370
    15
100
AcDbLine
 10
338.4543620365
 20
487.1799061787
 30
0.0
 11
340.9059354781
 21
487.1799061787
 31
0.0
  0
SPLINE
  5
1FD
330
1F
100
AcDbEntity
  8
0
  6
Continuous
 62
     7
370
    15
100
AcDbSpline
210
0.0
220
0.0
230
1.0
 70
     8
 71
     3
 72
     9
 73
     5
 74
     0
 42
0.00000001
 43
0.00000001
 12
1.0
 22
0.0
 32
0.0
 13
1.0
 23
0.0
 33
0.0
 40
0.0
 40
0.0
 40
0.0
 40
0.0
 40
0.2686336050555629
 40
0.9999999999999999
 40
0.9999999999999999
 40
0.9999999999999999
 40
0.9999999999999999
 10
338.4543620365377
 20
484.5799061787372
 30
0.0
 10
338.552966880517
 20
484.5832206550294
 30
0.0
 10
338.9200275986238
 20
484.5955589337476
 30
0.0
 10
339.2774114424554
 20
484.7154863155476
 30
0.0
 10
339.5387899759298
 20
484.8031971724298
 30
0.0
  0
LINE
  5
1FE
330
1F
100
AcDbEntity
  8
0
  6
Continuous
 62
     7
370
    15
100
AcDbLine
 10
342.2730809802
 20
486.956615185
 30
0.0
 11
342.5557985429
 21
487.1799061787
 31
0.0
  0
LINE
  5
1FF
330
1F
100
AcDbEntity
  8
0
  6
Continuous
 62
     7
370
    15
100
AcDbLine
 10
340.9059354781
 20
487.1799061787
 30
0.0
 11
342.5557985429
 21
487.1799061787
 31
0.0
  0
LINE
  5
200
330
1F
100
AcDbEntity
  8
0
  6
Continuous
 62
     7
370
    15
100
AcDbLine
 10
342.2730809802
 20
484.8031971724
 30
0.0
 11
342.5557985429
 21
484.5799061787
 31
0.0
  0
SPLINE
  5
201
330
1F
100
AcDbEntity
  8
0
  6
Continuous
 62
     7
370
    15
100
AcDbSpline
210
0.0
220
0.0
230
1.0
 70
     8
 71
     3
 72
     9
 73
     5
 74
     0
 42
0.00000001
 43
0.00000001
 12
1.0
 22
0.0
 32
0.0
 13
1.0
 23
0.0
 33
0.0
 40
0.0
 40
0.0
 40
0.0
 40
0.0
 40
0.2575513451038157
 40
1.0
 40
1.0
 40
1.0
 40
1.0
 10
337.3699340971456
 20
486.9566151850446
 30
0.0
 10
337.4609737067724
 20
486.990322796432
 30
0.0
 10
337.8144551051713
 20
487.121200044904
 30
0.0
 10
338.1817008943475
 20
487.1548917888003
 30
0.0
 10
338.4543620365376
 20
487.1799061787372
 30
0.0
  0
SPLINE
  5
202
330
1F
100
AcDbEntity
  8
0
  6
Continuous
 62
     7
370
    15
100
AcDbSpline
210
0.0
220
0.0
230
1.0
 70
     8
 71
     3
 72
     9
 73
     5
 74
     0
 42
0.00000001
 43
0.00000001
 12
1.0
 22
0.0
 32
0.0
 13
1.0
 23
0.0
 33
0.0
 40
0.0
 40
0.0
 40
0.0
 40
0.0
 40
0.2575513451038155
 40
1.0
 40
1.0
 40
1.0
 40
1.0
 10
337.3699340971457
 20
484.8031971724298
 30
0.0
 10
337.4609737067724
 20
484.7694895610424
 30
0.0
 10
337.8144551051713
 20
484.6386123125704
 30
0.0
 10
338.1817008943476
 20
484.6049205686741
 30
0.0
 10
338.4543620365377
 20
484.5799061787372
 30
0.0
  0
LINE
  5
203
330
1F
100
AcDbEntity
  8
0
  6
Continuous
 62
     7
370
    15
100
AcDbLine
 10
337.3699340971
 20
486.956615185
 30
0.0
 11
337.3699340971
 21
484.8031971724
 31
0.0
  0
SPLINE
  5
204
330
1F
100
AcDbEntity
  8
0
  6
Continuous
 62
     7
370
    15
100
AcDbSpline
210
0.0
220
0.0
230
1.0
 70
     8
 71
     3
 72
     9
 73
     5
 74
     0
 42
0.00000001
 43
0.00000001
 12
1.0
 22
0.0
 32
0.0
 13
1.0
 23
0.0
 33
0.0
 40
0.0
 40
0.0
 40
0.0
 40
0.0
 40
0.0702005767034241
 40
1.0
 40
1.0
 40
1.0
 40
1.0
 10
342.5557985429196
 20
487.1799061787373
 30
0.0
 10
342.5625006219787
 20
487.1796831206034
 30
0.0
 10
342.657971049343
 20
487.1765056804132
 30
0.0
 10
342.7515274335622
 20
487.0625609394655
 30
0.0
 10
342.8385161056547
 20
486.9566151850447
 30
0.0
  0
LINE
  5
205
330
1F
100
AcDbEntity
  8
0
  6
Continuous
 62
     7
370
    15
100
AcDbLine
 10
342.8385161057
 20
486.956615185
 30
0.0
 11
342.8385161057
 21
484.8031971724
 31
0.0
  0
SPLINE
  5
206
330
1F
100
AcDbEntity
  8
0
  6
Continuous
 62
     7
370
    15
100
AcDbSpline
210
0.0
220
0.0
230
1.0
 70
     8
 71
     3
 72
     9
 73
     5
 74
     0
 42
0.00000001
 43
0.00000001
 12
1.0
 22
0.0
 32
0.0
 13
1.0
 23
0.0
 33
0.0
 40
0.0
 40
0.0
 40
0.0
 40
0.0
 40
0.0702005767034241
 40
1.0
 40
1.0
 40
1.0
 40
1.0
 10
342.5557985429196
 20
484.5799061787372
 30
0.0
 10
342.5625006219787
 20
484.580129236871
 30
0.0
 10
342.6579710493432
 20
484.5833066770612
 30
0.0
 10
342.7515274335623
 20
484.6972514180089
 30
0.0
 10
342.8385161056548
 20
484.8031971724298
 30
0.0
  0
SPLINE
  5
207
330
1F
100
AcDbEntity
  8
0
  6
Continuous
 62
     7
370
    15
100
AcDbSpline
210
0.0
220
0.0
230
1.0
 70
     8
 71
     3
 72
     9
 73
     5
 74
     0
 42
0.00000001
 43
0.00000001
 12
1.0
 22
0.0
 32
0.0
 13
1.0
 23
0.0
 33
0.0
 40
0.0
 40
0.0
 40
0.0
 40
0.0
 40
0.0702005767034276
 40
1.0
 40
1.0
 40
1.0
 40
1.0
 10
337.6526516598809
 20
487.1799061787372
 30
0.0
 10
337.6459495808217
 20
487.1796831206034
 30
0.0
 10
337.5504791534574
 20
487.1765056804131
 30
0.0
 10
337.4569227692382
 20
487.0625609394654
 30
0.0
 10
337.3699340971456
 20
486.9566151850446
 30
0.0
  0
LINE
  5
208
330
1F
100
AcDbEntity
  8
0
  6
Continuous
 62
     7
370
    15
100
AcDbLine
 10
338.4543620365
 20
487.1799061787
 30
0.0
 11
337.609448183
 21
487.1799061787
 31
0.0
  0
SPLINE
  5
209
330
1F
100
AcDbEntity
  8
0
  6
Continuous
 62
     7
370
    15
100
AcDbSpline
210
0.0
220
0.0
230
1.0
 70
     8
 71
     3
 72
     9
 73
     5
 74
     0
 42
0.00000001
 43
0.00000001
 12
1.0
 22
0.0
 32
0.0
 13
1.0
 23
0.0
 33
0.0
 40
0.0
 40
0.0
 40
0.0
 40
0.0
 40
0.0702005767034241
 40
1.0
 40
1.0
 40
1.0
 40
1.0
 10
337.6526516598809
 20
484.5799061787372
 30
0.0
 10
337.6459495808217
 20
484.580129236871
 30
0.0
 10
337.550479153457
 20
484.5833066770612
 30
0.0
 10
337.4569227692381
 20
484.6972514180089
 30
0.0
 10
337.3699340971456
 20
484.8031971724298
 30
0.0
  0
LINE
  5
20A
330
1F
100
AcDbEntity
  8
0
  6
Continuous
 62
     7
370
    15
100
AcDbLine
 10
677.8542251014
 20
439.9299061787
 30
0.0
 11
664.6042251014
 21
439.9299061787
 31
0.0
  0
LINE
  5
20B
330
1F
100
AcDbEntity
  8
0
  6
Continuous
 62
     7
370
    15
100
AcDbLine
 10
691.1042251014
 20
439.9299061787
 30
0.0
 11
677.8542251014
 21
439.9299061787
 31
0.0
  0
LINE
  5
20C
330
1F
100
AcDbEntity
  8
0
  6
Continuous
 62
     7
370
    15
100
AcDbLine
 10
677.8542251014
 20
442.9299061787
 30
0.0
 11
663.6042251014
 21
442.9299061787
 31
0.0
  0
LINE
  5
20D
330
1F
100
AcDbEntity
  8
0
  6
Continuous
 62
     7
370
    15
100
AcDbLine
 10
692.1042251014
 20
442.9299061787
 30
0.0
 11
677.8542251014
 21
442.9299061787
 31
0.0
  0
LINE
  5
20E
330
1F
100
AcDbEntity
  8
0
  6
Continuous
 62
     7
370
    15
100
AcDbLine
 10
402.6042251014
 20
442.9299061787
 30
0.0
 11
374.1042251014
 21
442.9299061787
 31
0.0
  0
LINE
  5
20F
330
1F
100
AcDbEntity
  8
0
  6
Continuous
 62
     7
370
    15
100
AcDbLine
 10
401.6042251014
 20
439.9299061787
 30
0.0
 11
375.1042251014
 21
439.9299061787
 31
0.0
  0
LINE
  5
210
330
1F
100
AcDbEntity
  8
0
  6
Continuous
 62
     7
370
    15
100
AcDbLine
 10
700.3542251014
 20
488.9299061787
 30
0.0
 11
700.3542251014
 21
489.7799061787
 31
0.0
  0
LINE
  5
211
330
1F
100
AcDbEntity
  8
0
  6
Continuous
 62
     7
370
    15
100
AcDbLine
 10
655.3542251014
 20
488.9299061787
 30
0.0
 11
655.3542251014
 21
489.7799061787
 31
0.0
  0
LINE
  5
212
330
1F
100
AcDbEntity
  8
0
  6
Continuous
 62
     7
370
    15
100
AcDbLine
 10
655.3542251014
 20
488.9299061787
 30
0.0
 11
700.3542251014
 21
488.9299061787
 31
0.0
  0
LINE
  5
213
330
1F
100
AcDbEntity
  8
0
  6
Continuous
 62
     7
370
    15
100
AcDbLine
 10
677.8542251014
 20
457.4299061787
 30
0.0
 11
662.3743999912
 21
457.4299061787
 31
0.0
  0
LINE
  5
214
330
1F
100
AcDbEntity
  8
0
  6
Continuous
 62
     7
370
    15
100
AcDbLine
 10
693.3340502116
 20
457.4299061787
 30
0.0
 11
677.8542251014
 21
457.4299061787
 31
0.0
  0
LINE
  5
215
330
1F
100
AcDbEntity
  8
0
  6
Continuous
 62
     7
370
    15
100
AcDbLine
 10
410.8542251014
 20
488.9299061787
 30
0.0
 11
410.8542251014
 21
489.7799061787
 31
0.0
  0
LINE
  5
216
330
1F
100
AcDbEntity
  8
0
  6
Continuous
 62
     7
370
    15
100
AcDbLine
 10
365.8542251014
 20
488.9299061787
 30
0.0
 11
365.8542251014
 21
489.7799061787
 31
0.0
  0
LINE
  5
217
330
1F
100
AcDbEntity
  8
0
  6
Continuous
 62
     7
370
    15
100
AcDbLine
 10
365.8542251014
 20
488.9299061787
 30
0.0
 11
410.8542251014
 21
488.9299061787
 31
0.0
  0
LINE
  5
218
330
1F
100
AcDbEntity
  8
0
  6
Continuous
 62
     7
370
    15
100
AcDbLine
 10
403.8340502116
 20
457.4299061787
 30
0.0
 11
372.8743999912
 21
457.4299061787
 31
0.0
  0
ENDSEC
  0
SECTION
  2
OBJECTS
  0
DICTIONARY
  5
C
330
0
100
AcDbDictionary
281
     1
  3
ACAD_GROUP
350
D
  3
ACAD_LAYOUT
350
1A
  3
ACAD_MLINESTYLE
350
17
  3
ACAD_PLOTSETTINGS
350
19
  3
ACAD_PLOTSTYLENAME
350
E
  0
DICTIONARY
  5
D
102
{ACAD_REACTORS
330
C
102
}
330
C
100
AcDbDictionary
281
     1
  0
DICTIONARY
  5
1A
102
{ACAD_REACTORS
330
C
102
}
330
C
100
AcDbDictionary
281
     1
  3
Layout1
350
1E
  3
Layout2
350
26
  3
Model
350
22
  0
DICTIONARY
  5
17
102
{ACAD_REACTORS
330
C
102
}
330
C
100
AcDbDictionary
281
     1
  3
Standard
350
18
  0
DICTIONARY
  5
19
102
{ACAD_REACTORS
330
C
102
}
330
C
100
AcDbDictionary
281
     1
  0
ACDBDICTIONARYWDFLT
  5
E
102
{ACAD_REACTORS
330
C
102
}
330
C
100
AcDbDictionary
281
     1
  3
Normal
350
F
100
AcDbDictionaryWithDefault
340
F
  0
LAYOUT
  5
1E
102
{ACAD_REACTORS
330
1A
102
}
330
1A
100
AcDbPlotSettings
  1

  2
none_device
  4

  6

 40
0.0
 41
0.0
 42
0.0
 43
0.0
 44
0.0
 45
0.0
 46
0.0
 47
0.0
 48
0.0
 49
0.0
140
0.0
141
0.0
142
1.0
143
1.0
 70
   688
 72
     0
 73
     0
 74
     5
  7

 75
    16
147
1.0
148
0.0
149
0.0
100
AcDbLayout
  1
Layout1
 70
     1
 71
     1
 10
0.0
 20
0.0
 11
420.0
 21
297.0
 12
0.0
 22
0.0
 32
0.0
 14
1.0000000000E+20
 24
1.0000000000E+20
 34
1.0000000000E+20
 15
-1.0000000000E+20
 25
-1.0000000000E+20
 35
-1.0000000000E+20
146
0.0
 13
0.0
 23
0.0
 33
0.0
 16
1.0
 26
0.0
 36
0.0
 17
0.0
 27
1.0
 37
0.0
 76
     0
330
1B
  0
LAYOUT
  5
26
102
{ACAD_REACTORS
330
1A
102
}
330
1A
100
AcDbPlotSettings
  1

  2
none_device
  4

  6

 40
0.0
 41
0.0
 42
0.0
 43
0.0
 44
0.0
 45
0.0
 46
0.0
 47
0.0
 48
0.0
 49
0.0
140
0.0
141
0.0
142
1.0
143
1.0
 70
   688
 72
     0
 73
     0
 74
     5
  7

 75
    16
147
1.0
148
0.0
149
0.0
100
AcDbLayout
  1
Layout2
 70
     1
 71
     2
 10
0.0
 20
0.0
 11
0.0
 21
0.0
 12
0.0
 22
0.0
 32
0.0
 14
0.0
 24
0.0
 34
0.0
 15
0.0
 25
0.0
 35
0.0
146
0.0
 13
0.0
 23
0.0
 33
0.0
 16
1.0
 26
0.0
 36
0.0
 17
0.0
 27
1.0
 37
0.0
 76
     0
330
23
  0
LAYOUT
  5
22
102
{ACAD_REACTORS
330
1A
102
}
330
1A
100
AcDbPlotSettings
  1

  2
none_device
  4

  6

 40
0.0
 41
0.0
 42
0.0
 43
0.0
 44
0.0
 45
0.0
 46
0.0
 47
0.0
 48
0.0
 49
0.0
140
0.0
141
0.0
142
1.0
143
1.0
 70
  1712
 72
     0
 73
     0
 74
     0
  7

 75
     0
147
1.0
148
0.0
149
0.0
100
AcDbLayout
  1
Model
 70
     1
 71
     0
 10
0.0
 20
0.0
 11
1100.0
 21
1000.0
 12
0.0
 22
0.0
 32
0.0
 14
0.0
 24
0.0
 34
0.0
 15
1100.0
 25
1000.0
 35
0.0
146
0.0
 13
0.0
 23
0.0
 33
0.0
 16
1.0
 26
0.0
 36
0.0
 17
0.0
 27
1.0
 37
0.0
 76
     0
330
1F
331
29
  0
MLINESTYLE
  5
18
102
{ACAD_REACTORS
330
17
102
}
330
17
100
AcDbMlineStyle
  2
Standard
 70
     0
  3

 62
   256
 51
90.0
 52
90.0
 71
     2
 49
0.5
 62
   256
  6
BYLAYER
 49
-0.5
 62
   256
  6
BYLAYER
  0
ACDBPLACEHOLDER
  5
F
102
{ACAD_REACTORS
330
E
102
}
330
E
  0
ENDSEC
  0
EOF
