  0
SECTION
  2
HEADER
  9
$ACADVER
  1
AC1009
  9
$DWGCODEPAGE
  3
ansi_1252
  9
$INSBASE
 10
0.0
 20
0.0
 30
0.0
  9
$EXTMIN
 10
0.0
 20
0.0
 30
0.0
  9
$EXTMAX
 10
841.0
 20
594.0
 30
0.0
  9
$LIMMIN
 10
0.0
 20
0.0
  9
$LIMMAX
 10
841.0
 20
594.0
  9
$ORTHOMODE
 70
     0
  9
$REGENMODE
 70
     1
  9
$FILLMODE
 70
     1
  9
$QTEXTMODE
 70
     0
  9
$MIRRTEXT
 70
     1
  9
$DRAGMODE
 70
     2
  9
$LTSCALE
 40
1.0
  9
$OSMODE
 70
    37
  9
$ATTMODE
 70
     1
  9
$TEXTSIZE
 40
3.5
  9
$TRACEWID
 40
1.0
  9
$TEXTSTYLE
  7
STANDARD
  9
$CLAYER
  8
0
  9
$CELTYPE
  6
BYLAYER
  9
$CECOLOR
 62
   256
  9
$DIMSCALE
 40
1.0
  9
$DIMASZ
 40
3.302
  9
$DIMEXO
 40
1.0
  9
$DIMDLI
 40
3.75
  9
$DIMRND
 40
0.0
  9
$DIMDLE
 40
0.0
  9
$DIMEXE
 40
1.0
  9
$DIMTP
 40
0.0
  9
$DIMTM
 40
0.0
  9
$DIMTXT
 40
3.5
  9
$DIMCEN
 40
2.5
  9
$DIMTSZ
 40
0.0
  9
$DIMTOL
 70
     0
  9
$DIMLIM
 70
     0
  9
$DIMTIH
 70
     1
  9
$DIMTOH
 70
     1
  9
$DIMSE1
 70
     0
  9
$DIMSE2
 70
     0
  9
$DIMTAD
 70
     1
  9
$DIMZIN
 70
     0
  9
$DIMBLK
  1

  9
$DIMASO
 70
     1
  9
$DIMSHO
 70
     1
  9
$DIMPOST
  1

  9
$DIMAPOST
  1

  9
$DIMALT
 70
     0
  9
$DIMALTD
 70
     3
  9
$DIMALTF
 40
0.0393700787
  9
$DIMLFAC
 40
1.0
  9
$DIMTOFL
 70
     1
  9
$DIMTVP
 40
0.0
  9
$DIMTIX
 70
     0
  9
$DIMSOXD
 70
     0
  9
$DIMSAH
 70
     0
  9
$DIMBLK1
  1

  9
$DIMBLK2
  1

  9
$DIMSTYLE
  2
ISO-25
  9
$DIMCLRD
 70
     0
  9
$DIMCLRE
 70
     0
  9
$DIMCLRT
 70
     0
  9
$DIMTFAC
 40
1.0
  9
$DIMGAP
 40
1.524
  9
$LUNITS
 70
     2
  9
$LUPREC
 70
     1
  9
$SKETCHINC
 40
1.0
  9
$FILLETRAD
 40
10.0
  9
$AUNITS
 70
     0
  9
$AUPREC
 70
     1
  9
$MENU
  1
.
  9
$ELEVATION
 40
0.0
  9
$PELEVATION
 40
0.0
  9
$THICKNESS
 40
0.0
  9
$LIMCHECK
 70
     0
  9
$CHAMFERA
 40
10.0
  9
$CHAMFERB
 40
10.0
  9
$SKPOLY
 70
     0
  9
$TDCREATE
 40
2455862.559001204
  9
$TDUPDATE
 40
2455862.559001215
  9
$TDINDWG
 40
0.0000000116
  9
$TDUSRTIMER
 40
0.0000000116
  9
$USRTIMER
 70
     1
  9
$ANGBASE
 50
0.0
  9
$ANGDIR
 70
     0
  9
$PDMODE
 70
     0
  9
$PDSIZE
 40
-1.0
  9
$PLINEWID
 40
0.0
  9
$COORDS
 70
     1
  9
$SPLFRAME
 70
     0
  9
$SPLINETYPE
 70
     6
  9
$SPLINESEGS
 70
     8
  9
$ATTDIA
 70
     0
  9
$ATTREQ
 70
     1
  9
$HANDLING
 70
     1
  9
$HANDSEED
  5
64F
  9
$SURFTAB1
 70
     6
  9
$SURFTAB2
 70
     6
  9
$SURFTYPE
 70
     6
  9
$SURFU
 70
     6
  9
$SURFV
 70
     6
  9
$UCSNAME
  2

  9
$UCSORG
 10
0.0
 20
0.0
 30
0.0
  9
$UCSXDIR
 10
1.0
 20
0.0
 30
0.0
  9
$UCSYDIR
 10
0.0
 20
1.0
 30
0.0
  9
$PUCSNAME
  2

  9
$PUCSORG
 10
0.0
 20
0.0
 30
0.0
  9
$PUCSXDIR
 10
1.0
 20
0.0
 30
0.0
  9
$PUCSYDIR
 10
0.0
 20
1.0
 30
0.0
  9
$USERI1
 70
     0
  9
$USERI2
 70
     0
  9
$USERI3
 70
     0
  9
$USERI4
 70
     0
  9
$USERI5
 70
     0
  9
$USERR1
 40
0.0
  9
$USERR2
 40
0.0
  9
$USERR3
 40
0.0
  9
$USERR4
 40
0.0
  9
$USERR5
 40
0.0
  9
$WORLDVIEW
 70
     1
  9
$SHADEDGE
 70
     3
  9
$SHADEDIF
 70
    70
  9
$TILEMODE
 70
     1
  9
$MAXACTVP
 70
    64
  9
$PLIMCHECK
 70
     0
  9
$PEXTMIN
 10
1.0000000000E+20
 20
1.0000000000E+20
 30
1.0000000000E+20
  9
$PEXTMAX
 10
-1.0000000000E+20
 20
-1.0000000000E+20
 30
-1.0000000000E+20
  9
$PLIMMIN
 10
0.0
 20
0.0
  9
$PLIMMAX
 10
420.0
 20
297.0
  9
$UNITMODE
 70
     0
  9
$VISRETAIN
 70
     1
  9
$PLINEGEN
 70
     0
  9
$PSLTSCALE
 70
     1
  0
ENDSEC
  0
SECTION
  2
TABLES
  0
TABLE
  2
VPORT
 70
     1
  0
VPORT
  2
*ACTIVE
 70
     0
 10
0.0
 20
0.0
 11
1.0
 21
1.0
 12
420.5
 22
297.0
 13
0.0
 23
0.0
 14
10.0
 24
10.0
 15
10.0
 25
10.0
 16
0.0
 26
0.0
 36
1.0
 17
0.0
 27
0.0
 37
0.0
 40
594.0
 41
1.4158249158
 42
50.0
 43
0.0
 44
0.0
 50
0.0
 51
0.0
 71
     0
 72
  2000
 73
     1
 74
     3
 75
     0
 76
     0
 77
     0
 78
     0
  0
ENDTAB
  0
TABLE
  2
LTYPE
 70
     8
  0
LTYPE
  2
CONTINUOUS
 70
     0
  3
Solid line
 72
    65
 73
     0
 40
0.0
  0
LTYPE
  2
SLD-SOLID
 70
     0
  3
SolidWorks Line Style
 72
    65
 73
     0
 40
0.0
  0
LTYPE
  2
SLD-DASHED
 70
     0
  3
SolidWorks Line Style
 72
    65
 73
     2
 40
1.905
 49
1.27
 49
-0.635
  0
LTYPE
  2
SLD-PHANTOM
 70
     0
  3
SolidWorks Line Style
 72
    65
 73
     6
 40
12.7
 49
6.35
 49
-1.27
 49
1.27
 49
-1.27
 49
1.27
 49
-1.27
  0
LTYPE
  2
SLD-CHAIN
 70
     0
  3
SolidWorks Line Style
 72
    65
 73
     4
 40
10.16
 49
6.35
 49
-1.27
 49
1.27
 49
-1.27
  0
LTYPE
  2
SLD-CENTER
 70
     0
  3
SolidWorks Line Style
 72
    65
 73
     4
 40
19.05
 49
15.24
 49
-1.27
 49
1.27
 49
-1.27
  0
LTYPE
  2
SLD-STITCH
 70
     0
  3
SolidWorks Line Style
 72
    65
 73
     2
 40
0.635
 49
0.0
 49
-0.635
  0
LTYPE
  2
SLD-THIN-THICK-CHAIN
 70
     0
  3
SolidWorks Line Style
 72
    65
 73
     4
 40
10.16
 49
6.35
 49
-1.27
 49
1.27
 49
-1.27
  0
ENDTAB
  0
TABLE
  2
LAYER
 70
     1
  0
LAYER
  2
0
 70
     0
 62
     7
  6
CONTINUOUS
  0
ENDTAB
  0
TABLE
  2
STYLE
 70
     1
  0
STYLE
  2
STANDARD
 70
     0
 40
0.0
 41
1.0
 50
0.0
 71
     0
 42
2.5
  3
txt
  4

  0
ENDTAB
  0
TABLE
  2
VIEW
 70
     0
  0
ENDTAB
  0
TABLE
  2
UCS
 70
     0
  0
ENDTAB
  0
TABLE
  2
APPID
 70
     1
  0
APPID
  2
ACAD
 70
     0
  0
ENDTAB
  0
TABLE
  2
DIMSTYLE
 70
     1
  0
DIMSTYLE
  2
ISO-25
 70
     0
  3

  4

  5

  6

  7

 40
1.0
 41
2.5
 42
0.625
 43
3.75
 44
1.25
 45
0.0
 46
0.0
 47
0.0
 48
0.0
140
2.5
141
2.5
142
0.0
143
0.0393700787
144
1.0
145
0.0
146
1.0
147
0.625
 71
     0
 72
     0
 73
     0
 74
     0
 75
     0
 76
     0
 77
     1
 78
     8
170
     0
171
     3
172
     1
173
     0
174
     0
175
     0
176
     0
177
     0
178
     0
  0
ENDTAB
  0
ENDSEC
  0
SECTION
  2
BLOCKS
  0
BLOCK
  8
0
  2
$MODEL_SPACE
 70
     0
 10
0.0
 20
0.0
 30
0.0
  3
$MODEL_SPACE
  1

  0
ENDBLK
  5
21
  8
0
  0
BLOCK
 67
     1
  8
0
  2
$PAPER_SPACE
 70
     0
 10
0.0
 20
0.0
 30
0.0
  3
$PAPER_SPACE
  1

  0
ENDBLK
  5
1D
 67
     1
  8
0
  0
ENDSEC
  0
SECTION
  2
ENTITIES
  0
LINE
  5
46
  8
0
  6
SLD-SOLID
 62
     7
 10
636.8872500835
 20
218.8741587704
 30
0.0
 11
640.6358010946
 21
209.5027886932
 31
0.0
  0
LINE
  5
47
  8
0
  6
SLD-SOLID
 62
     7
 10
698.1386817871
 20
209.5027886932
 30
0.0
 11
701.8872476993
 21
218.8741587704
 31
0.0
  0
ARC
  5
48
  8
0
  6
SLD-SOLID
 62
     7
 10
687.1677716197
 20
205.2641124653
 30
0.0
 40
3.661724210437715
 50
120.9304541884
 51
172.0943675209
  0
ARC
  5
49
  8
0
  6
SLD-SOLID
 62
     7
 10
651.5292678038
 20
205.2444961011
 30
0.0
 40
3.718142284672532
 50
8.1165746217
 51
55.7492869049
  0
LINE
  5
4A
  8
0
  6
SLD-SOLID
 62
     7
 10
657.4958391367
 20
191.4920233791
 30
0.0
 11
657.7298320709
 21
189.7473060196
 31
0.0
  0
ARC
  5
4B
  8
0
  6
SLD-SOLID
 62
     7
 10
401.1334232234
 20
158.1488613373
 30
0.0
 40
258.52167171795
 50
7.4104391389
 51
10.6141726745
  0
POLYLINE
  5
4C
  8
0
  6
SLD-SOLID
 62
     7
 66
     1
 10
0.0
 20
0.0
 30
0.0
  0
VERTEX
  5
35E
  8
0
  6
SLD-SOLID
 62
     7
 10
681.0144461571
 20
189.7409879272
 30
0.0
  0
VERTEX
  5
35F
  8
0
  6
SLD-SOLID
 62
     7
 10
682.224331039
 20
198.0203711098
 30
0.0
  0
VERTEX
  5
360
  8
0
  6
SLD-SOLID
 62
     7
 10
683.5488952576
 20
205.7678424423
 30
0.0
  0
SEQEND
  5
361
  8
0
  6
SLD-SOLID
 62
     7
  0
ARC
  5
4D
  8
0
  6
SLD-SOLID
 62
     7
 10
697.2102186942
 20
209.8741655631
 30
0.0
 40
1.0
 50
270.0
 51
338.1985905136
  0
ARC
  5
4E
  8
0
  6
SLD-SOLID
 62
     7
 10
641.5642846171
 20
209.8741655631
 30
0.0
 40
1.0
 50
201.8014094864
 51
270.0
  0
ARC
  5
4F
  8
0
  6
SLD-SOLID
 62
     7
 10
680.0220549161
 20
189.8741655631
 30
0.0
 40
1.000000000000014
 50
270.0
 51
352.3401380017
  0
ARC
  5
50
  8
0
  6
SLD-SOLID
 62
     7
 10
658.7524483952
 20
189.8741655631
 30
0.0
 40
1.000000000000014
 50
187.6598619983
 51
270.0
  0
LINE
  5
51
  8
0
  6
SLD-SOLID
 62
     7
 10
636.8872500835
 20
220.8741628235
 30
0.0
 11
636.8872500835
 21
220.7741611307
 31
0.0
  0
LINE
  5
52
  8
0
  6
SLD-SOLID
 62
     7
 10
651.8872506796
 20
220.7741611307
 30
0.0
 11
651.8872506796
 21
220.8741628235
 31
0.0
  0
LINE
  5
53
  8
0
  6
SLD-SOLID
 62
     7
 10
661.5872509657
 20
220.8741628235
 30
0.0
 11
661.8009038149
 21
220.2239208525
 31
0.0
  0
LINE
  5
54
  8
0
  6
SLD-SOLID
 62
     7
 10
676.9736088692
 20
220.2239208525
 30
0.0
 11
677.1872617184
 21
220.8741628235
 31
0.0
  0
LINE
  5
55
  8
0
  6
SLD-SOLID
 62
     7
 10
-30.0127588333
 20
539.0741624539
 30
0.0
 11
-29.5127354683
 21
539.0741624539
 31
0.0
  0
LINE
  5
56
  8
0
  6
SLD-SOLID
 62
     7
 10
-29.5127354683
 20
546.0741691893
 30
0.0
 11
-30.0127588333
 21
546.0741691893
 31
0.0
  0
LINE
  5
57
  8
0
  6
SLD-SOLID
 62
     7
 10
-30.0127588333
 20
307.0741616791
 30
0.0
 11
-29.5127354683
 21
307.0741616791
 31
0.0
  0
LINE
  5
58
  8
0
  6
SLD-SOLID
 62
     7
 10
-29.5127354683
 20
314.0741609638
 30
0.0
 11
-30.0127588333
 21
314.0741609638
 31
0.0
  0
LINE
  5
59
  8
0
  6
SLD-SOLID
 62
     7
 10
714.7872425495
 20
314.0741609638
 30
0.0
 11
714.2872489868
 21
314.0741609638
 31
0.0
  0
LINE
  5
5A
  8
0
  6
SLD-SOLID
 62
     7
 10
714.2872489868
 20
307.0741616791
 30
0.0
 11
714.7872425495
 21
307.0741616791
 31
0.0
  0
LINE
  5
5B
  8
0
  6
SLD-SOLID
 62
     7
 10
714.7872425495
 20
546.0741691893
 30
0.0
 11
714.2872489868
 21
546.0741691893
 31
0.0
  0
LINE
  5
5C
  8
0
  6
SLD-SOLID
 62
     7
 10
714.2872489868
 20
539.0741624539
 30
0.0
 11
714.7872425495
 21
539.0741624539
 31
0.0
  0
ARC
  5
5D
  8
0
  6
SLD-SOLID
 62
     7
 10
674.8372516556
 20
592.4241655631
 30
0.0
 40
0.2500000000001137
 50
0.0
 51
29.473426788
  0
LINE
  5
5E
  8
0
  6
SLD-SOLID
 62
     7
 10
675.0872410713
 20
591.7241670793
 30
0.0
 11
675.0872410713
 21
592.4241640275
 31
0.0
  0
POLYLINE
  5
5F
  8
0
  6
SLD-SOLID
 62
     7
 66
     1
 10
0.0
 20
0.0
 30
0.0
  0
VERTEX
  5
362
  8
0
  6
SLD-SOLID
 62
     7
 10
662.4329812704
 20
591.2242554729
 30
0.0
  0
VERTEX
  5
363
  8
0
  6
SLD-SOLID
 62
     7
 10
662.4321468054
 20
591.2529402082
 30
0.0
  0
VERTEX
  5
364
  8
0
  6
SLD-SOLID
 62
     7
 10
662.4459899841
 20
591.3321100777
 30
0.0
  0
VERTEX
  5
365
  8
0
  6
SLD-SOLID
 62
     7
 10
662.4727226673
 20
591.3974740212
 30
0.0
  0
VERTEX
  5
366
  8
0
  6
SLD-SOLID
 62
     7
 10
662.5058032452
 20
591.4430641239
 30
0.0
  0
VERTEX
  5
367
  8
0
  6
SLD-SOLID
 62
     7
 10
662.5384814916
 20
591.4679267114
 30
0.0
  0
VERTEX
  5
368
  8
0
  6
SLD-SOLID
 62
     7
 10
662.5622935472
 20
591.4736636584
 30
0.0
  0
SEQEND
  5
369
  8
0
  6
SLD-SOLID
 62
     7
  0
ARC
  5
60
  8
0
  6
SLD-SOLID
 62
     7
 10
662.181101906
 20
586.1241655631
 30
0.0
 40
0.2500000000001137
 50
270.0
 51
0.0
  0
LINE
  5
61
  8
0
  6
SLD-SOLID
 62
     7
 10
662.4311037241
 20
586.1241691416
 30
0.0
 11
662.4311037241
 21
591.224166066
 31
0.0
  0
ARC
  5
62
  8
0
  6
SLD-SOLID
 62
     7
 10
657.4811315067
 20
586.1241655631
 30
0.0
 40
0.2500000000001137
 50
180.0
 51
270.0
  0
LINE
  5
63
  8
0
  6
SLD-SOLID
 62
     7
 10
657.2311349092
 20
591.224166066
 30
0.0
 11
657.2311349092
 21
586.1241691416
 31
0.0
  0
ARC
  5
64
  8
0
  6
SLD-SOLID
 62
     7
 10
657.9372516556
 20
592.4241655631
 30
0.0
 40
0.2500000000001137
 50
90.0
 51
180.0
  0
LINE
  5
65
  8
0
  6
SLD-SOLID
 62
     7
 10
675.5433656155
 20
586.1241691416
 30
0.0
 11
675.5433656155
 21
591.224166066
 31
0.0
  0
ARC
  5
66
  8
0
  6
SLD-SOLID
 62
     7
 10
675.2933718046
 20
586.1241655631
 30
0.0
 40
0.2500000000001137
 50
270.0
 51
0.0
  0
ARC
  5
67
  8
0
  6
SLD-SOLID
 62
     7
 10
669.2274028548
 20
591.6810324873
 30
0.0
 40
0.2724305231305042
 50
310.8286621325
 51
9.0863150072
  0
ARC
  5
68
  8
0
  6
SLD-SOLID
 62
     7
 10
669.7482034793
 20
596.8241655631
 30
0.0
 40
0.2500000000001137
 50
90.0
 51
180.0
  0
LINE
  5
69
  8
0
  6
SLD-SOLID
 62
     7
 10
669.4982029377
 20
596.8241714542
 30
0.0
 11
669.4982029377
 21
591.7241670793
 31
0.0
  0
ARC
  5
6A
  8
0
  6
SLD-SOLID
 62
     7
 10
674.8048976515
 20
596.8241655631
 30
0.0
 40
0.2500000000001137
 50
0.0
 51
90.0
  0
LINE
  5
6B
  8
0
  6
SLD-SOLID
 62
     7
 10
675.0549055515
 20
591.7241670793
 30
0.0
 11
675.0549055515
 21
596.8241714542
 31
0.0
  0
ARC
  5
6C
  8
0
  6
SLD-SOLID
 62
     7
 10
674.8372516556
 20
590.5241655631
 30
0.0
 40
0.2500000000001137
 50
270.0
 51
0.0
  0
ARC
  5
6D
  8
0
  6
SLD-SOLID
 62
     7
 10
674.8372516556
 20
591.2241655631
 30
0.0
 40
0.2500000000001137
 50
0.0
 51
52.7089330724
  0
LINE
  5
6E
  8
0
  6
SLD-SOLID
 62
     7
 10
675.0872410713
 20
590.5241691177
 30
0.0
 11
675.0872410713
 21
591.224166066
 31
0.0
  0
LINE
  5
6F
  8
0
  6
SLD-SOLID
 62
     7
 10
657.7196098743
 20
596.8241714542
 30
0.0
 11
657.7196098743
 21
592.5471731132
 31
0.0
  0
ARC
  5
70
  8
0
  6
SLD-SOLID
 62
     7
 10
657.9696056598
 20
596.8241655631
 30
0.0
 40
0.25
 50
90.0
 51
180.0
  0
LINE
  5
71
  8
0
  6
SLD-SOLID
 62
     7
 10
661.1398734032
 20
585.2169938987
 30
0.0
 11
661.3872475801
 21
585.0741662686
 31
0.0
  0
LINE
  5
72
  8
0
  6
SLD-SOLID
 62
     7
 10
671.3872529446
 20
585.0741662686
 30
0.0
 11
671.6346420227
 21
585.2169938987
 31
0.0
  0
LINE
  5
73
  8
0
  6
SLD-SOLID
 62
     7
 10
671.6346420227
 20
590.1313372558
 30
0.0
 11
671.3872529446
 21
590.2741648858
 31
0.0
  0
LINE
  5
74
  8
0
  6
SLD-SOLID
 62
     7
 10
661.3872475801
 20
584.8241620367
 30
0.0
 11
661.2980045257
 21
584.7726338213
 31
0.0
  0
LINE
  5
75
  8
0
  6
SLD-SOLID
 62
     7
 10
671.848950523
 20
597.6076149052
 30
0.0
 11
671.3872529446
 21
597.8741668766
 31
0.0
  0
LINE
  5
76
  8
0
  6
SLD-SOLID
 62
     7
 10
661.3872475801
 20
597.8741668766
 30
0.0
 11
660.9255649029
 21
597.6076149052
 31
0.0
  0
LINE
  5
77
  8
0
  6
SLD-SOLID
 62
     7
 10
660.9255649029
 20
592.9407202309
 30
0.0
 11
661.3872475801
 21
592.6741682594
 31
0.0
  0
LINE
  5
78
  8
0
  6
SLD-SOLID
 62
     7
 10
669.3872488914
 20
584.8241620367
 30
0.0
 11
669.3872488914
 21
585.0741662686
 31
0.0
  0
LINE
  5
79
  8
0
  6
SLD-SOLID
 62
     7
 10
663.3872516333
 20
585.0741662686
 30
0.0
 11
663.3872516333
 21
584.8241620367
 31
0.0
  0
LINE
  5
7A
  8
0
  6
SLD-SOLID
 62
     7
 10
560.387251514
 20
220.8741628235
 30
0.0
 11
560.387251514
 21
203.4584008759
 31
0.0
  0
LINE
  5
7B
  8
0
  6
SLD-SOLID
 62
     7
 10
568.3872528253
 20
203.4584008759
 30
0.0
 11
568.3872528253
 21
220.8741628235
 31
0.0
  0
LINE
  5
7C
  8
0
  6
SLD-SOLID
 62
     7
 10
14.3872476993
 20
203.4584008759
 30
0.0
 11
14.3872476993
 21
220.8741628235
 31
0.0
  0
LINE
  5
7D
  8
0
  6
SLD-SOLID
 62
     7
 10
6.3872612892
 20
220.8741628235
 30
0.0
 11
6.3872612892
 21
203.4584008759
 31
0.0
  0
LINE
  5
7E
  8
0
  6
SLD-SOLID
 62
     7
 10
568.3872528253
 20
196.8578123157
 30
0.0
 11
568.3872528253
 21
203.4584008759
 31
0.0
  0
LINE
  5
7F
  8
0
  6
SLD-SOLID
 62
     7
 10
560.387251514
 20
203.4584008759
 30
0.0
 11
560.387251514
 21
196.8578123157
 31
0.0
  0
LINE
  5
80
  8
0
  6
SLD-SOLID
 62
     7
 10
6.3872612892
 20
203.4584008759
 30
0.0
 11
6.3872612892
 21
196.8578123157
 31
0.0
  0
LINE
  5
81
  8
0
  6
SLD-SOLID
 62
     7
 10
14.3872476993
 20
196.8578123157
 30
0.0
 11
14.3872476993
 21
203.4584008759
 31
0.0
  0
LINE
  5
82
  8
0
  6
SLD-SOLID
 62
     7
 10
568.3872528253
 20
167.5592385834
 30
0.0
 11
568.3872528253
 21
196.8578123157
 31
0.0
  0
LINE
  5
83
  8
0
  6
SLD-SOLID
 62
     7
 10
560.387251514
 20
196.8578123157
 30
0.0
 11
560.387251514
 21
167.5592385834
 31
0.0
  0
LINE
  5
84
  8
0
  6
SLD-SOLID
 62
     7
 10
14.3872476993
 20
167.5592385834
 30
0.0
 11
14.3872476993
 21
196.8578123157
 31
0.0
  0
LINE
  5
85
  8
0
  6
SLD-SOLID
 62
     7
 10
6.3872612892
 20
196.8578123157
 30
0.0
 11
6.3872612892
 21
167.5592385834
 31
0.0
  0
LINE
  5
86
  8
0
  6
SLD-SOLID
 62
     7
 10
529.3872482954
 20
169.203760535
 30
0.0
 11
529.3872482954
 21
167.9139756268
 31
0.0
  0
LINE
  5
87
  8
0
  6
SLD-SOLID
 62
     7
 10
599.387256044
 20
167.9139756268
 30
0.0
 11
599.387256044
 21
169.203760535
 31
0.0
  0
POLYLINE
  5
88
  8
0
  6
SLD-SOLID
 62
     7
 66
     1
 10
0.0
 20
0.0
 30
0.0
  0
VERTEX
  5
36A
  8
0
  6
SLD-SOLID
 62
     7
 10
533.9131556331
 20
154.101791293
 30
0.0
  0
VERTEX
  5
36B
  8
0
  6
SLD-SOLID
 62
     7
 10
534.1020874558
 20
153.808387429
 30
0.0
  0
VERTEX
  5
36C
  8
0
  6
SLD-SOLID
 62
     7
 10
535.9038390098
 20
151.5625440186
 30
0.0
  0
VERTEX
  5
36D
  8
0
  6
SLD-SOLID
 62
     7
 10
537.963566917
 20
149.463953883
 30
0.0
  0
VERTEX
  5
36E
  8
0
  6
SLD-SOLID
 62
     7
 10
540.2627862869
 20
147.5317501133
 30
0.0
  0
VERTEX
  5
36F
  8
0
  6
SLD-SOLID
 62
     7
 10
542.7806801973
 20
145.7836650913
 30
0.0
  0
VERTEX
  5
370
  8
0
  6
SLD-SOLID
 62
     7
 10
545.4943306623
 20
144.2356430595
 30
0.0
  0
VERTEX
  5
371
  8
0
  6
SLD-SOLID
 62
     7
 10
548.379061359
 20
142.9017805164
 30
0.0
  0
VERTEX
  5
372
  8
0
  6
SLD-SOLID
 62
     7
 10
551.4086015402
 20
141.7940877979
 30
0.0
  0
VERTEX
  5
373
  8
0
  6
SLD-SOLID
 62
     7
 10
554.5554883657
 20
140.9225784843
 30
0.0
  0
VERTEX
  5
374
  8
0
  6
SLD-SOLID
 62
     7
 10
557.7912308155
 20
140.2949713772
 30
0.0
  0
VERTEX
  5
375
  8
0
  6
SLD-SOLID
 62
     7
 10
561.0866077124
 20
139.9168991154
 30
0.0
  0
VERTEX
  5
376
  8
0
  6
SLD-SOLID
 62
     7
 10
564.411921042
 20
139.7917591637
 30
0.0
  0
VERTEX
  5
377
  8
0
  6
SLD-SOLID
 62
     7
 10
567.7372492729
 20
139.9206840103
 30
0.0
  0
VERTEX
  5
378
  8
0
  6
SLD-SOLID
 62
     7
 10
571.0326708732
 20
140.3026007717
 30
0.0
  0
VERTEX
  5
379
  8
0
  6
SLD-SOLID
 62
     7
 10
574.2685325323
 20
140.9342311924
 30
0.0
  0
VERTEX
  5
37A
  8
0
  6
SLD-SOLID
 62
     7
 10
577.4156726776
 20
141.810091645
 30
0.0
  0
VERTEX
  5
37B
  8
0
  6
SLD-SOLID
 62
     7
 10
580.4456747948
 20
142.9225527351
 30
0.0
  0
VERTEX
  5
37C
  8
0
  6
SLD-SOLID
 62
     7
 10
583.3310313402
 20
144.2618989056
 30
0.0
  0
VERTEX
  5
37D
  8
0
  6
SLD-SOLID
 62
     7
 10
586.0455013691
 20
145.8162986343
 30
0.0
  0
VERTEX
  5
37E
  8
0
  6
SLD-SOLID
 62
     7
 10
588.5641999422
 20
147.5719534462
 30
0.0
  0
VERTEX
  5
37F
  8
0
  6
SLD-SOLID
 62
     7
 10
590.8639557539
 20
149.5130979126
 30
0.0
  0
VERTEX
  5
380
  8
0
  6
SLD-SOLID
 62
     7
 10
592.9234750448
 20
151.6221486633
 30
0.0
  0
VERTEX
  5
381
  8
0
  6
SLD-SOLID
 62
     7
 10
594.7236843286
 20
153.8797341888
 30
0.0
  0
VERTEX
  5
382
  8
0
  6
SLD-SOLID
 62
     7
 10
596.2478943048
 20
156.2649332588
 30
0.0
  0
VERTEX
  5
383
  8
0
  6
SLD-SOLID
 62
     7
 10
597.4821872888
 20
158.7554537361
 30
0.0
  0
VERTEX
  5
384
  8
0
  6
SLD-SOLID
 62
     7
 10
598.4155513225
 20
161.3280200069
 30
0.0
  0
VERTEX
  5
385
  8
0
  6
SLD-SOLID
 62
     7
 10
599.0399546801
 20
163.9587306087
 30
0.0
  0
VERTEX
  5
386
  8
0
  6
SLD-SOLID
 62
     7
 10
599.3504501758
 20
166.6234754627
 30
0.0
  0
VERTEX
  5
387
  8
0
  6
SLD-SOLID
 62
     7
 10
599.387256044
 20
167.9139756268
 30
0.0
  0
SEQEND
  5
388
  8
0
  6
SLD-SOLID
 62
     7
  0
LINE
  5
89
  8
0
  6
SLD-SOLID
 62
     7
 10
-24.6127568306
 20
169.203760535
 30
0.0
 11
-24.6127568306
 21
167.9139756268
 31
0.0
  0
LINE
  5
8A
  8
0
  6
SLD-SOLID
 62
     7
 10
45.3872658192
 20
167.9139756268
 30
0.0
 11
45.3872658192
 21
169.203760535
 31
0.0
  0
POLYLINE
  5
8B
  8
0
  6
SLD-SOLID
 62
     7
 66
     1
 10
0.0
 20
0.0
 30
0.0
  0
VERTEX
  5
389
  8
0
  6
SLD-SOLID
 62
     7
 10
-20.0868271412
 20
154.101791293
 30
0.0
  0
VERTEX
  5
38A
  8
0
  6
SLD-SOLID
 62
     7
 10
-19.8979102196
 20
153.808387429
 30
0.0
  0
VERTEX
  5
38B
  8
0
  6
SLD-SOLID
 62
     7
 10
-18.096151215
 20
151.5625440186
 30
0.0
  0
VERTEX
  5
38C
  8
0
  6
SLD-SOLID
 62
     7
 10
-16.0364233078
 20
149.463953883
 30
0.0
  0
VERTEX
  5
38D
  8
0
  6
SLD-SOLID
 62
     7
 10
-13.7372039379
 20
147.5317501133
 30
0.0
  0
VERTEX
  5
38E
  8
0
  6
SLD-SOLID
 62
     7
 10
-11.2193249287
 20
145.7836650913
 30
0.0
  0
VERTEX
  5
38F
  8
0
  6
SLD-SOLID
 62
     7
 10
-8.5056744637
 20
144.2356430595
 30
0.0
  0
VERTEX
  5
390
  8
0
  6
SLD-SOLID
 62
     7
 10
-5.6209586681
 20
142.9017805164
 30
0.0
  0
VERTEX
  5
391
  8
0
  6
SLD-SOLID
 62
     7
 10
-2.5914035858
 20
141.7940877979
 30
0.0
  0
VERTEX
  5
392
  8
0
  6
SLD-SOLID
 62
     7
 10
0.5554832397
 20
140.9225784843
 30
0.0
  0
VERTEX
  5
393
  8
0
  6
SLD-SOLID
 62
     7
 10
3.7912405907
 20
140.2949713772
 30
0.0
  0
VERTEX
  5
394
  8
0
  6
SLD-SOLID
 62
     7
 10
7.0866025864
 20
139.9168991154
 30
0.0
  0
VERTEX
  5
395
  8
0
  6
SLD-SOLID
 62
     7
 10
10.4119159161
 20
139.7917591637
 30
0.0
  0
VERTEX
  5
396
  8
0
  6
SLD-SOLID
 62
     7
 10
13.7372590481
 20
139.9206840103
 30
0.0
  0
VERTEX
  5
397
  8
0
  6
SLD-SOLID
 62
     7
 10
17.0326806484
 20
140.3026007717
 30
0.0
  0
VERTEX
  5
398
  8
0
  6
SLD-SOLID
 62
     7
 10
20.2685274063
 20
140.9342311924
 30
0.0
  0
VERTEX
  5
399
  8
0
  6
SLD-SOLID
 62
     7
 10
23.4156824528
 20
141.810091645
 30
0.0
  0
VERTEX
  5
39A
  8
0
  6
SLD-SOLID
 62
     7
 10
26.4456845699
 20
142.9225527351
 30
0.0
  0
VERTEX
  5
39B
  8
0
  6
SLD-SOLID
 62
     7
 10
29.3310262142
 20
144.2618989056
 30
0.0
  0
VERTEX
  5
39C
  8
0
  6
SLD-SOLID
 62
     7
 10
32.0454813419
 20
145.8162986343
 30
0.0
  0
VERTEX
  5
39D
  8
0
  6
SLD-SOLID
 62
     7
 10
34.5641948162
 20
147.5719534462
 30
0.0
  0
VERTEX
  5
39E
  8
0
  6
SLD-SOLID
 62
     7
 10
36.8639506279
 20
149.5130979126
 30
0.0
  0
VERTEX
  5
39F
  8
0
  6
SLD-SOLID
 62
     7
 10
38.9234699188
 20
151.6221486633
 30
0.0
  0
VERTEX
  5
3A0
  8
0
  6
SLD-SOLID
 62
     7
 10
40.7236792026
 20
153.8797341888
 30
0.0
  0
VERTEX
  5
3A1
  8
0
  6
SLD-SOLID
 62
     7
 10
42.2478891788
 20
156.2649332588
 30
0.0
  0
VERTEX
  5
3A2
  8
0
  6
SLD-SOLID
 62
     7
 10
43.4821821628
 20
158.7554537361
 30
0.0
  0
VERTEX
  5
3A3
  8
0
  6
SLD-SOLID
 62
     7
 10
44.4155312954
 20
161.3280200069
 30
0.0
  0
VERTEX
  5
3A4
  8
0
  6
SLD-SOLID
 62
     7
 10
45.0399495541
 20
163.9587306087
 30
0.0
  0
VERTEX
  5
3A5
  8
0
  6
SLD-SOLID
 62
     7
 10
45.3504301487
 20
166.6234754627
 30
0.0
  0
VERTEX
  5
3A6
  8
0
  6
SLD-SOLID
 62
     7
 10
45.3872658192
 20
167.9139756268
 30
0.0
  0
SEQEND
  5
3A7
  8
0
  6
SLD-SOLID
 62
     7
  0
LINE
  5
8C
  8
0
  6
SLD-SOLID
 62
     7
 10
-4.2627476277
 20
142.4051844185
 30
0.0
 11
-4.2627476277
 21
99.854322583
 31
0.0
  0
LINE
  5
8D
  8
0
  6
SLD-SOLID
 62
     7
 10
25.0372566162
 20
99.854322583
 30
0.0
 11
25.0372566162
 21
142.4054526394
 31
0.0
  0
POLYLINE
  5
8E
  8
0
  6
SLD-SOLID
 62
     7
 66
     1
 10
0.0
 20
0.0
 30
0.0
  0
VERTEX
  5
3A8
  8
0
  6
SLD-SOLID
 62
     7
 10
-4.2284749569
 20
99.8849295681
 30
0.0
  0
VERTEX
  5
3A9
  8
0
  6
SLD-SOLID
 62
     7
 10
-4.2490385594
 20
99.3019961422
 30
0.0
  0
VERTEX
  5
3AA
  8
0
  6
SLD-SOLID
 62
     7
 10
-3.999593121
 20
97.4443279808
 30
0.0
  0
VERTEX
  5
3AB
  8
0
  6
SLD-SOLID
 62
     7
 10
-3.4477733196
 20
95.6556223934
 30
0.0
  0
VERTEX
  5
3AC
  8
0
  6
SLD-SOLID
 62
     7
 10
-2.6096128048
 20
93.9668737953
 30
0.0
  0
VERTEX
  5
3AD
  8
0
  6
SLD-SOLID
 62
     7
 10
-1.5016816677
 20
92.4056493347
 30
0.0
  0
VERTEX
  5
3AE
  8
0
  6
SLD-SOLID
 62
     7
 10
-0.1424275459
 20
90.9988605087
 30
0.0
  0
VERTEX
  5
3AF
  8
0
  6
SLD-SOLID
 62
     7
 10
1.4456190048
 20
89.7739552563
 30
0.0
  0
VERTEX
  5
3B0
  8
0
  6
SLD-SOLID
 62
     7
 10
3.2334603248
 20
88.7579046791
 30
0.0
  0
VERTEX
  5
3B1
  8
0
  6
SLD-SOLID
 62
     7
 10
5.1849461971
 20
87.9753552978
 30
0.0
  0
VERTEX
  5
3B2
  8
0
  6
SLD-SOLID
 62
     7
 10
7.2579063354
 20
87.4462448662
 30
0.0
  0
VERTEX
  5
3B3
  8
0
  6
SLD-SOLID
 62
     7
 10
9.4069220005
 20
87.1845506733
 30
0.0
  0
VERTEX
  5
3B4
  8
0
  6
SLD-SOLID
 62
     7
 10
11.5852929531
 20
87.1984385555
 30
0.0
  0
VERTEX
  5
3B5
  8
0
  6
SLD-SOLID
 62
     7
 10
13.7464679657
 20
87.4910079544
 30
0.0
  0
VERTEX
  5
3B6
  8
0
  6
SLD-SOLID
 62
     7
 10
15.8436871944
 20
88.0605899399
 30
0.0
  0
VERTEX
  5
3B7
  8
0
  6
SLD-SOLID
 62
     7
 10
17.829684156
 20
88.9005981987
 30
0.0
  0
VERTEX
  5
3B8
  8
0
  6
SLD-SOLID
 62
     7
 10
19.6562684952
 20
89.9979793137
 30
0.0
  0
VERTEX
  5
3B9
  8
0
  6
SLD-SOLID
 62
     7
 10
21.2753988682
 20
91.3309775894
 30
0.0
  0
VERTEX
  5
3BA
  8
0
  6
SLD-SOLID
 62
     7
 10
22.6422525822
 20
92.8674661224
 30
0.0
  0
VERTEX
  5
3BB
  8
0
  6
SLD-SOLID
 62
     7
 10
23.7198449551
 20
94.5654236382
 30
0.0
  0
VERTEX
  5
3BC
  8
0
  6
SLD-SOLID
 62
     7
 10
24.4833506523
 20
96.3762425487
 30
0.0
  0
VERTEX
  5
3BD
  8
0
  6
SLD-SOLID
 62
     7
 10
24.9212659775
 20
98.2500039642
 30
0.0
  0
VERTEX
  5
3BE
  8
0
  6
SLD-SOLID
 62
     7
 10
25.0175572811
 20
99.8699389999
 30
0.0
  0
SEQEND
  5
3BF
  8
0
  6
SLD-SOLID
 62
     7
  0
LINE
  5
8F
  8
0
  6
SLD-SOLID
 62
     7
 10
549.7372574983
 20
142.4051844185
 30
0.0
 11
549.7372574983
 21
99.854322583
 31
0.0
  0
LINE
  5
90
  8
0
  6
SLD-SOLID
 62
     7
 10
579.037246841
 20
99.854322583
 30
0.0
 11
579.037246841
 21
142.4054526394
 31
0.0
  0
POLYLINE
  5
91
  8
0
  6
SLD-SOLID
 62
     7
 66
     1
 10
0.0
 20
0.0
 30
0.0
  0
VERTEX
  5
3C0
  8
0
  6
SLD-SOLID
 62
     7
 10
549.7653461872
 20
99.9416731899
 30
0.0
  0
VERTEX
  5
3C1
  8
0
  6
SLD-SOLID
 62
     7
 10
549.7421897827
 20
99.5227419441
 30
0.0
  0
VERTEX
  5
3C2
  8
0
  6
SLD-SOLID
 62
     7
 10
549.9551571785
 20
97.6595007484
 30
0.0
  0
VERTEX
  5
3C3
  8
0
  6
SLD-SOLID
 62
     7
 10
550.4722870766
 20
95.860990197
 30
0.0
  0
VERTEX
  5
3C4
  8
0
  6
SLD-SOLID
 62
     7
 10
551.2776948391
 20
94.1590391701
 30
0.0
  0
VERTEX
  5
3C5
  8
0
  6
SLD-SOLID
 62
     7
 10
552.3548401771
 20
92.5814234322
 30
0.0
  0
VERTEX
  5
3C6
  8
0
  6
SLD-SOLID
 62
     7
 10
553.6856628834
 20
91.155114085
 30
0.0
  0
VERTEX
  5
3C7
  8
0
  6
SLD-SOLID
 62
     7
 10
555.2482135473
 20
89.9074398582
 30
0.0
  0
VERTEX
  5
3C8
  8
0
  6
SLD-SOLID
 62
     7
 10
557.0143587767
 20
88.8655208652
 30
0.0
  0
VERTEX
  5
3C9
  8
0
  6
SLD-SOLID
 62
     7
 10
558.9486934124
 20
88.0544506615
 30
0.0
  0
VERTEX
  5
3CA
  8
0
  6
SLD-SOLID
 62
     7
 10
561.0097177206
 20
87.4947034424
 30
0.0
  0
VERTEX
  5
3CB
  8
0
  6
SLD-SOLID
 62
     7
 10
563.152206677
 20
87.2010909622
 30
0.0
  0
VERTEX
  5
3CC
  8
0
  6
SLD-SOLID
 62
     7
 10
565.3295643507
 20
87.1824049061
 30
0.0
  0
VERTEX
  5
3CD
  8
0
  6
SLD-SOLID
 62
     7
 10
567.4951650082
 20
87.442251355
 30
0.0
  0
VERTEX
  5
3CE
  8
0
  6
SLD-SOLID
 62
     7
 10
569.6023233114
 20
87.979527623
 30
0.0
  0
VERTEX
  5
3CF
  8
0
  6
SLD-SOLID
 62
     7
 10
571.6038621841
 20
88.7883328503
 30
0.0
  0
VERTEX
  5
3D0
  8
0
  6
SLD-SOLID
 62
     7
 10
573.451680678
 20
89.8564182823
 30
0.0
  0
VERTEX
  5
3D1
  8
0
  6
SLD-SOLID
 62
     7
 10
575.0975884376
 20
91.1632203167
 30
0.0
  0
VERTEX
  5
3D2
  8
0
  6
SLD-SOLID
 62
     7
 10
576.4961667238
 20
92.6778637474
 30
0.0
  0
VERTEX
  5
3D3
  8
0
  6
SLD-SOLID
 62
     7
 10
577.6092536627
 20
94.3592809742
 30
0.0
  0
VERTEX
  5
3D4
  8
0
  6
SLD-SOLID
 62
     7
 10
578.4104741989
 20
96.1594604557
 30
0.0
  0
VERTEX
  5
3D5
  8
0
  6
SLD-SOLID
 62
     7
 10
578.8868047176
 20
98.0283640926
 30
0.0
  0
VERTEX
  5
3D6
  8
0
  6
SLD-SOLID
 62
     7
 10
579.0291555105
 20
99.8191558426
 30
0.0
  0
SEQEND
  5
3D7
  8
0
  6
SLD-SOLID
 62
     7
  0
LINE
  5
92
  8
0
  6
SLD-SOLID
 62
     7
 10
671.9249762474
 20
218.8741587704
 30
0.0
 11
671.9249762474
 21
220.8741628235
 31
0.0
  0
LINE
  5
93
  8
0
  6
SLD-SOLID
 62
     7
 10
666.8495364366
 20
220.8741628235
 30
0.0
 11
666.8495364366
 21
218.8741587704
 31
0.0
  0
LINE
  5
94
  8
0
  6
SLD-SOLID
 62
     7
 10
669.3872488914
 20
218.8741587704
 30
0.0
 11
701.8872476993
 21
218.8741587704
 31
0.0
  0
LINE
  5
95
  8
0
  6
SLD-SOLID
 62
     7
 10
636.8872500835
 20
218.8741587704
 30
0.0
 11
669.3872488914
 21
218.8741587704
 31
0.0
  0
LINE
  5
96
  8
0
  6
SLD-SOLID
 62
     7
 10
653.5578347622
 20
208.8741683071
 30
0.0
 11
685.2166630207
 21
208.8741683071
 31
0.0
  0
LINE
  5
97
  8
0
  6
SLD-SOLID
 62
     7
 10
644.8523528753
 20
215.5677699154
 30
0.0
 11
645.65740301
 21
215.5670546597
 31
0.0
  0
LINE
  5
98
  8
0
  6
SLD-SOLID
 62
     7
 10
645.65740301
 20
215.5670546597
 30
0.0
 11
646.9386346517
 21
211.4234291618
 31
0.0
  0
LINE
  5
99
  8
0
  6
SLD-SOLID
 62
     7
 10
692.460206884
 20
213.6019789284
 30
0.0
 11
693.8419319569
 21
215.6838201588
 31
0.0
  0
POLYLINE
  5
9A
  8
0
  6
SLD-SOLID
 62
     7
 66
     1
 10
0.0
 20
0.0
 30
0.0
  0
VERTEX
  5
3D8
  8
0
  6
SLD-SOLID
 62
     7
 10
691.9243015228
 20
212.6225852077
 30
0.0
  0
VERTEX
  5
3D9
  8
0
  6
SLD-SOLID
 62
     7
 10
692.1555973469
 20
213.1316684788
 30
0.0
  0
VERTEX
  5
3DA
  8
0
  6
SLD-SOLID
 62
     7
 10
692.460206884
 20
213.6019789284
 30
0.0
  0
SEQEND
  5
3DB
  8
0
  6
SLD-SOLID
 62
     7
  0
ARC
  5
9B
  8
0
  6
SLD-SOLID
 62
     7
 10
692.8755985942
 20
212.1541910417
 30
0.0
 40
1.060358058797264
 50
153.7855533149
 51
224.059476674
  0
LINE
  5
9C
  8
0
  6
SLD-SOLID
 62
     7
 10
693.2601906238
 20
213.9373146599
 30
0.0
 11
693.4753037868
 21
213.8676964348
 31
0.0
  0
ARC
  5
9D
  8
0
  6
SLD-SOLID
 62
     7
 10
669.3391218186
 20
214.1511319163
 30
0.0
 40
1.532303349949928
 50
359.0755745172
 51
90.7222660456
  0
ARC
  5
9E
  8
0
  6
SLD-SOLID
 62
     7
 10
669.269555498
 20
214.2816102129
 30
0.0
 40
1.402603755843591
 50
87.9468388924
 51
143.2255869744
  0
POLYLINE
  5
9F
  8
0
  6
SLD-SOLID
 62
     7
 66
     1
 10
0.0
 20
0.0
 30
0.0
  0
VERTEX
  5
3DC
  8
0
  6
SLD-SOLID
 62
     7
 10
667.8255475937
 20
214.1461991375
 30
0.0
  0
VERTEX
  5
3DD
  8
0
  6
SLD-SOLID
 62
     7
 10
667.8386606155
 20
214.322718293
 30
0.0
  0
VERTEX
  5
3DE
  8
0
  6
SLD-SOLID
 62
     7
 10
668.146071571
 20
215.1213013237
 30
0.0
  0
SEQEND
  5
3DF
  8
0
  6
SLD-SOLID
 62
     7
  0
LINE
  5
A0
  8
0
  6
SLD-SOLID
 62
     7
 10
669.3198062359
 20
215.679588229
 30
0.0
 11
669.3198062359
 21
215.6833135193
 31
0.0
  0
POLYLINE
  5
A1
  8
0
  6
SLD-SOLID
 62
     7
 66
     1
 10
0.0
 20
0.0
 30
0.0
  0
VERTEX
  5
3E0
  8
0
  6
SLD-SOLID
 62
     7
 10
669.3198062359
 20
215.679588229
 30
0.0
  0
VERTEX
  5
3E1
  8
0
  6
SLD-SOLID
 62
     7
 10
669.7201706348
 20
215.6402193611
 30
0.0
  0
VERTEX
  5
3E2
  8
0
  6
SLD-SOLID
 62
     7
 10
670.0897492348
 20
215.5068241661
 30
0.0
  0
VERTEX
  5
3E3
  8
0
  6
SLD-SOLID
 62
     7
 10
670.3986503063
 20
215.2777039116
 30
0.0
  0
VERTEX
  5
3E4
  8
0
  6
SLD-SOLID
 62
     7
 10
670.6269360958
 20
214.971574456
 30
0.0
  0
VERTEX
  5
3E5
  8
0
  6
SLD-SOLID
 62
     7
 10
670.861390966
 20
214.26198116
 30
0.0
  0
VERTEX
  5
3E6
  8
0
  6
SLD-SOLID
 62
     7
 10
670.9163464485
 20
213.5177575653
 30
0.0
  0
SEQEND
  5
3E7
  8
0
  6
SLD-SOLID
 62
     7
  0
ARC
  5
A2
  8
0
  6
SLD-SOLID
 62
     7
 10
669.2832854499
 20
214.2483804186
 30
0.0
 40
1.431673693402477
 50
88.5382745298
 51
142.6170554024
  0
POLYLINE
  5
A3
  8
0
  6
SLD-SOLID
 62
     7
 66
     1
 10
0.0
 20
0.0
 30
0.0
  0
VERTEX
  5
3E8
  8
0
  6
SLD-SOLID
 62
     7
 10
668.1456841408
 20
215.1176058357
 30
0.0
  0
VERTEX
  5
3E9
  8
0
  6
SLD-SOLID
 62
     7
 10
668.145892757
 20
215.1194535797
 30
0.0
  0
VERTEX
  5
3EA
  8
0
  6
SLD-SOLID
 62
     7
 10
668.146071571
 20
215.1213013237
 30
0.0
  0
SEQEND
  5
3EB
  8
0
  6
SLD-SOLID
 62
     7
  0
POLYLINE
  5
A4
  8
0
  6
SLD-SOLID
 62
     7
 66
     1
 10
0.0
 20
0.0
 30
0.0
  0
VERTEX
  5
3EC
  8
0
  6
SLD-SOLID
 62
     7
 10
670.9163464485
 20
213.5177575653
 30
0.0
  0
VERTEX
  5
3ED
  8
0
  6
SLD-SOLID
 62
     7
 10
670.870540279
 20
212.7756499355
 30
0.0
  0
VERTEX
  5
3EE
  8
0
  6
SLD-SOLID
 62
     7
 10
670.6497944771
 20
212.0612882679
 30
0.0
  0
VERTEX
  5
3EF
  8
0
  6
SLD-SOLID
 62
     7
 10
670.4314924656
 20
211.7410623138
 30
0.0
  0
VERTEX
  5
3F0
  8
0
  6
SLD-SOLID
 62
     7
 10
670.1354063927
 20
211.499335677
 30
0.0
  0
VERTEX
  5
3F1
  8
0
  6
SLD-SOLID
 62
     7
 10
669.7656191765
 20
211.358638913
 30
0.0
  0
VERTEX
  5
3F2
  8
0
  6
SLD-SOLID
 62
     7
 10
669.3684734283
 20
211.3167964523
 30
0.0
  0
SEQEND
  5
3F3
  8
0
  6
SLD-SOLID
 62
     7
  0
POLYLINE
  5
A5
  8
0
  6
SLD-SOLID
 62
     7
 66
     1
 10
0.0
 20
0.0
 30
0.0
  0
VERTEX
  5
3F4
  8
0
  6
SLD-SOLID
 62
     7
 10
669.3684734283
 20
211.3167964523
 30
0.0
  0
VERTEX
  5
3F5
  8
0
  6
SLD-SOLID
 62
     7
 10
668.9734734474
 20
211.3536321228
 30
0.0
  0
VERTEX
  5
3F6
  8
0
  6
SLD-SOLID
 62
     7
 10
668.6029411732
 20
211.4860736435
 30
0.0
  0
VERTEX
  5
3F7
  8
0
  6
SLD-SOLID
 62
     7
 10
668.2949341713
 20
211.7166244095
 30
0.0
  0
VERTEX
  5
3F8
  8
0
  6
SLD-SOLID
 62
     7
 10
668.0657245098
 20
212.0228134697
 30
0.0
  0
VERTEX
  5
3F9
  8
0
  6
SLD-SOLID
 62
     7
 10
667.8287960468
 20
212.7273105686
 30
0.0
  0
VERTEX
  5
3FA
  8
0
  6
SLD-SOLID
 62
     7
 10
667.7747048317
 20
213.464023978
 30
0.0
  0
SEQEND
  5
3FB
  8
0
  6
SLD-SOLID
 62
     7
  0
POLYLINE
  5
A6
  8
0
  6
SLD-SOLID
 62
     7
 66
     1
 10
0.0
 20
0.0
 30
0.0
  0
VERTEX
  5
3FC
  8
0
  6
SLD-SOLID
 62
     7
 10
667.7747048317
 20
213.464023978
 30
0.0
  0
VERTEX
  5
3FD
  8
0
  6
SLD-SOLID
 62
     7
 10
667.8381837784
 20
214.3189930027
 30
0.0
  0
VERTEX
  5
3FE
  8
0
  6
SLD-SOLID
 62
     7
 10
668.1456841408
 20
215.1176058357
 30
0.0
  0
SEQEND
  5
3FF
  8
0
  6
SLD-SOLID
 62
     7
  0
ARC
  5
A7
  8
0
  6
SLD-SOLID
 62
     7
 10
669.3591968257
 20
212.6167594247
 30
0.0
 40
0.5654289012861953
 50
270.2091934081
 51
330.7358719745
  0
POLYLINE
  5
A8
  8
0
  6
SLD-SOLID
 62
     7
 66
     1
 10
0.0
 20
0.0
 30
0.0
  0
VERTEX
  5
400
  8
0
  6
SLD-SOLID
 62
     7
 10
669.8524631439
 20
212.3403572147
 30
0.0
  0
VERTEX
  5
401
  8
0
  6
SLD-SOLID
 62
     7
 10
670.0333930431
 20
212.9044555729
 30
0.0
  0
VERTEX
  5
402
  8
0
  6
SLD-SOLID
 62
     7
 10
670.0678147255
 20
213.4945415562
 30
0.0
  0
SEQEND
  5
403
  8
0
  6
SLD-SOLID
 62
     7
  0
POLYLINE
  5
A9
  8
0
  6
SLD-SOLID
 62
     7
 66
     1
 10
0.0
 20
0.0
 30
0.0
  0
VERTEX
  5
404
  8
0
  6
SLD-SOLID
 62
     7
 10
670.0678147255
 20
213.4945415562
 30
0.0
  0
VERTEX
  5
405
  8
0
  6
SLD-SOLID
 62
     7
 10
669.9732817589
 20
214.3647991722
 30
0.0
  0
VERTEX
  5
406
  8
0
  6
SLD-SOLID
 62
     7
 10
669.8923982559
 20
214.5700775688
 30
0.0
  0
VERTEX
  5
407
  8
0
  6
SLD-SOLID
 62
     7
 10
669.7603441654
 20
214.7505008285
 30
0.0
  0
VERTEX
  5
408
  8
0
  6
SLD-SOLID
 62
     7
 10
669.5729173599
 20
214.8828529423
 30
0.0
  0
VERTEX
  5
409
  8
0
  6
SLD-SOLID
 62
     7
 10
669.4613970695
 20
214.9178110664
 30
0.0
  0
VERTEX
  5
40A
  8
0
  6
SLD-SOLID
 62
     7
 10
669.3450190006
 20
214.9283312862
 30
0.0
  0
SEQEND
  5
40B
  8
0
  6
SLD-SOLID
 62
     7
  0
POLYLINE
  5
AA
  8
0
  6
SLD-SOLID
 62
     7
 66
     1
 10
0.0
 20
0.0
 30
0.0
  0
VERTEX
  5
40C
  8
0
  6
SLD-SOLID
 62
     7
 10
669.3450190006
 20
214.9283312862
 30
0.0
  0
VERTEX
  5
40D
  8
0
  6
SLD-SOLID
 62
     7
 10
669.1068090378
 20
214.8830317562
 30
0.0
  0
VERTEX
  5
40E
  8
0
  6
SLD-SOLID
 62
     7
 10
669.000802177
 20
214.8268245762
 30
0.0
  0
VERTEX
  5
40F
  8
0
  6
SLD-SOLID
 62
     7
 10
668.9094580589
 20
214.7518419331
 30
0.0
  0
VERTEX
  5
410
  8
0
  6
SLD-SOLID
 62
     7
 10
668.7828279911
 20
214.5590805119
 30
0.0
  0
VERTEX
  5
411
  8
0
  6
SLD-SOLID
 62
     7
 10
668.7060274063
 20
214.3439971512
 30
0.0
  0
VERTEX
  5
412
  8
0
  6
SLD-SOLID
 62
     7
 10
668.6258591591
 20
213.4400033062
 30
0.0
  0
SEQEND
  5
413
  8
0
  6
SLD-SOLID
 62
     7
  0
POLYLINE
  5
AB
  8
0
  6
SLD-SOLID
 62
     7
 66
     1
 10
0.0
 20
0.0
 30
0.0
  0
VERTEX
  5
414
  8
0
  6
SLD-SOLID
 62
     7
 10
668.6258591591
 20
213.4400033062
 30
0.0
  0
VERTEX
  5
415
  8
0
  6
SLD-SOLID
 62
     7
 10
668.7258459507
 20
212.5886105602
 30
0.0
  0
VERTEX
  5
416
  8
0
  6
SLD-SOLID
 62
     7
 10
668.8125111042
 20
212.3880707329
 30
0.0
  0
VERTEX
  5
417
  8
0
  6
SLD-SOLID
 62
     7
 10
668.9479626594
 20
212.2159325188
 30
0.0
  0
VERTEX
  5
418
  8
0
  6
SLD-SOLID
 62
     7
 10
669.1359855114
 20
212.0926701134
 30
0.0
  0
VERTEX
  5
419
  8
0
  6
SLD-SOLID
 62
     7
 10
669.3612612663
 20
212.0513342922
 30
0.0
  0
SEQEND
  5
41A
  8
0
  6
SLD-SOLID
 62
     7
  0
LINE
  5
AC
  8
0
  6
SLD-SOLID
 62
     7
 10
670.0676061092
 20
213.4982668465
 30
0.0
 11
670.0363136707
 21
213.7865745132
 31
0.0
  0
POLYLINE
  5
AD
  8
0
  6
SLD-SOLID
 62
     7
 66
     1
 10
0.0
 20
0.0
 30
0.0
  0
VERTEX
  5
41B
  8
0
  6
SLD-SOLID
 62
     7
 10
670.0676061092
 20
213.4982668465
 30
0.0
  0
VERTEX
  5
41C
  8
0
  6
SLD-SOLID
 62
     7
 10
670.0677253185
 20
213.4964191025
 30
0.0
  0
VERTEX
  5
41D
  8
0
  6
SLD-SOLID
 62
     7
 10
670.0678147255
 20
213.4945415562
 30
0.0
  0
SEQEND
  5
41E
  8
0
  6
SLD-SOLID
 62
     7
  0
LINE
  5
AE
  8
0
  6
SLD-SOLID
 62
     7
 10
668.6260975777
 20
213.4436987942
 30
0.0
 11
668.6258591591
 21
213.4400033062
 31
0.0
  0
LINE
  5
AF
  8
0
  6
SLD-SOLID
 62
     7
 10
668.662367004
 20
213.8530038898
 30
0.0
 11
668.6260975777
 21
213.4436987942
 31
0.0
  0
POLYLINE
  5
B0
  8
0
  6
SLD-SOLID
 62
     7
 66
     1
 10
0.0
 20
0.0
 30
0.0
  0
VERTEX
  5
41F
  8
0
  6
SLD-SOLID
 62
     7
 10
669.8523141323
 20
212.344082505
 30
0.0
  0
VERTEX
  5
420
  8
0
  6
SLD-SOLID
 62
     7
 10
670.0331844269
 20
212.9081808632
 30
0.0
  0
VERTEX
  5
421
  8
0
  6
SLD-SOLID
 62
     7
 10
670.0676061092
 20
213.4982668465
 30
0.0
  0
SEQEND
  5
422
  8
0
  6
SLD-SOLID
 62
     7
  0
ARC
  5
B1
  8
0
  6
SLD-SOLID
 62
     7
 10
669.3590689835
 20
212.6203893502
 30
0.0
 40
0.5653638204980536
 50
270.2221735173
 51
330.7432543755
  0
POLYLINE
  5
B2
  8
0
  6
SLD-SOLID
 62
     7
 66
     1
 10
0.0
 20
0.0
 30
0.0
  0
VERTEX
  5
423
  8
0
  6
SLD-SOLID
 62
     7
 10
668.6260975777
 20
213.4436987942
 30
0.0
  0
VERTEX
  5
424
  8
0
  6
SLD-SOLID
 62
     7
 10
668.7260545669
 20
212.5923060482
 30
0.0
  0
VERTEX
  5
425
  8
0
  6
SLD-SOLID
 62
     7
 10
668.8126899181
 20
212.3917662209
 30
0.0
  0
VERTEX
  5
426
  8
0
  6
SLD-SOLID
 62
     7
 10
668.9481116711
 20
212.2196578091
 30
0.0
  0
VERTEX
  5
427
  8
0
  6
SLD-SOLID
 62
     7
 10
669.136045116
 20
212.0963656013
 30
0.0
  0
VERTEX
  5
428
  8
0
  6
SLD-SOLID
 62
     7
 10
669.3612612663
 20
212.0550297802
 30
0.0
  0
SEQEND
  5
429
  8
0
  6
SLD-SOLID
 62
     7
  0
POLYLINE
  5
B3
  8
0
  6
SLD-SOLID
 62
     7
 66
     1
 10
0.0
 20
0.0
 30
0.0
  0
VERTEX
  5
42A
  8
0
  6
SLD-SOLID
 62
     7
 10
669.8523141323
 20
212.344082505
 30
0.0
  0
VERTEX
  5
42B
  8
0
  6
SLD-SOLID
 62
     7
 10
669.8523737369
 20
212.3422049587
 30
0.0
  0
VERTEX
  5
42C
  8
0
  6
SLD-SOLID
 62
     7
 10
669.8524631439
 20
212.3403572147
 30
0.0
  0
SEQEND
  5
42D
  8
0
  6
SLD-SOLID
 62
     7
  0
LINE
  5
B4
  8
0
  6
SLD-SOLID
 62
     7
 10
669.3612612663
 20
212.0550297802
 30
0.0
 11
669.3612612663
 21
212.0513342922
 31
0.0
  0
POLYLINE
  5
B5
  8
0
  6
SLD-SOLID
 62
     7
 66
     1
 10
0.0
 20
0.0
 30
0.0
  0
VERTEX
  5
42E
  8
0
  6
SLD-SOLID
 62
     7
 10
685.2475978313
 20
208.8611148899
 30
0.0
  0
VERTEX
  5
42F
  8
0
  6
SLD-SOLID
 62
     7
 10
685.2433957039
 20
208.867134959
 30
0.0
  0
VERTEX
  5
430
  8
0
  6
SLD-SOLID
 62
     7
 10
685.2351106583
 20
208.8717245167
 30
0.0
  0
VERTEX
  5
431
  8
0
  6
SLD-SOLID
 62
     7
 10
685.2166630207
 20
208.8741683071
 30
0.0
  0
SEQEND
  5
432
  8
0
  6
SLD-SOLID
 62
     7
  0
LINE
  5
B6
  8
0
  6
SLD-SOLID
 62
     7
 10
670.8872593819
 20
189.4637965267
 30
0.0
 11
670.8872593819
 21
190.8116661613
 31
0.0
  0
LINE
  5
B7
  8
0
  6
SLD-SOLID
 62
     7
 10
669.6523703514
 20
208.2054041927
 30
0.0
 11
670.8872593819
 21
190.8116661613
 31
0.0
  0
ARC
  5
B8
  8
0
  6
SLD-SOLID
 62
     7
 10
669.4149387051
 20
208.1796749974
 30
0.0
 40
0.2388216451098333
 50
6.1847031887
 51
92.890608763
  0
LINE
  5
B9
  8
0
  6
SLD-SOLID
 62
     7
 10
669.4028951107
 20
208.4181927746
 30
0.0
 11
669.3716026722
 21
208.4181927746
 31
0.0
  0
ARC
  5
BA
  8
0
  6
SLD-SOLID
 62
     7
 10
669.363619067
 20
208.1749150297
 30
0.0
 40
0.2434087079361732
 50
88.1204085081
 51
172.8042795402
  0
LINE
  5
BB
  8
0
  6
SLD-SOLID
 62
     7
 10
669.1221274315
 20
208.2054041927
 30
0.0
 11
667.887238401
 21
190.8116661613
 31
0.0
  0
LINE
  5
BC
  8
0
  6
SLD-SOLID
 62
     7
 10
667.887238401
 20
190.8116661613
 30
0.0
 11
667.887238401
 21
189.4637965267
 31
0.0
  0
POLYLINE
  5
BD
  8
0
  6
SLD-SOLID
 62
     7
 66
     1
 10
0.0
 20
0.0
 30
0.0
  0
VERTEX
  5
433
  8
0
  6
SLD-SOLID
 62
     7
 10
653.5578347622
 20
208.8741683071
 30
0.0
  0
VERTEX
  5
434
  8
0
  6
SLD-SOLID
 62
     7
 10
653.5442896067
 20
208.8730060165
 30
0.0
  0
VERTEX
  5
435
  8
0
  6
SLD-SOLID
 62
     7
 10
653.5322494684
 20
208.8680886333
 30
0.0
  0
VERTEX
  5
436
  8
0
  6
SLD-SOLID
 62
     7
 10
653.5277493177
 20
208.8629030292
 30
0.0
  0
VERTEX
  5
437
  8
0
  6
SLD-SOLID
 62
     7
 10
653.5268999515
 20
208.8611148899
 30
0.0
  0
SEQEND
  5
438
  8
0
  6
SLD-SOLID
 62
     7
  0
ARC
  5
BE
  8
0
  6
SLD-SOLID
 62
     7
 10
669.4124251262
 20
208.2843082085
 30
0.0
 40
0.2415695975910306
 50
6.6481827314
 51
92.2609277192
  0
ARC
  5
BF
  8
0
  6
SLD-SOLID
 62
     7
 10
669.362101315
 20
208.2842747077
 30
0.0
 40
0.2416019435273882
 50
87.7461767173
 51
173.3447128321
  0
POLYLINE
  5
C0
  8
0
  6
SLD-SOLID
 62
     7
 66
     1
 10
0.0
 20
0.0
 30
0.0
  0
VERTEX
  5
439
  8
0
  6
SLD-SOLID
 62
     7
 10
668.854651588
 20
190.9488462513
 30
0.0
  0
VERTEX
  5
43A
  8
0
  6
SLD-SOLID
 62
     7
 10
668.7939442573
 20
190.980436713
 30
0.0
  0
VERTEX
  5
43B
  8
0
  6
SLD-SOLID
 62
     7
 10
668.5742117344
 20
191.0188519066
 30
0.0
  0
VERTEX
  5
43C
  8
0
  6
SLD-SOLID
 62
     7
 10
668.2745791851
 20
191.01324907
 30
0.0
  0
VERTEX
  5
43D
  8
0
  6
SLD-SOLID
 62
     7
 10
668.04429664
 20
190.9737609928
 30
0.0
  0
VERTEX
  5
43E
  8
0
  6
SLD-SOLID
 62
     7
 10
667.9132856308
 20
190.9385048454
 30
0.0
  0
VERTEX
  5
43F
  8
0
  6
SLD-SOLID
 62
     7
 10
667.8887881218
 20
190.9518860882
 30
0.0
  0
VERTEX
  5
440
  8
0
  6
SLD-SOLID
 62
     7
 10
667.887238401
 20
190.9698866909
 30
0.0
  0
SEQEND
  5
441
  8
0
  6
SLD-SOLID
 62
     7
  0
POLYLINE
  5
C1
  8
0
  6
SLD-SOLID
 62
     7
 66
     1
 10
0.0
 20
0.0
 30
0.0
  0
VERTEX
  5
442
  8
0
  6
SLD-SOLID
 62
     7
 10
670.8872593819
 20
190.9698866909
 30
0.0
  0
VERTEX
  5
443
  8
0
  6
SLD-SOLID
 62
     7
 10
670.8807028709
 20
190.9420215195
 30
0.0
  0
VERTEX
  5
444
  8
0
  6
SLD-SOLID
 62
     7
 10
670.8284593998
 20
190.9463726585
 30
0.0
  0
VERTEX
  5
445
  8
0
  6
SLD-SOLID
 62
     7
 10
670.6687487541
 20
190.9876786774
 30
0.0
  0
VERTEX
  5
446
  8
0
  6
SLD-SOLID
 62
     7
 10
670.4229093967
 20
191.019447953
 30
0.0
  0
VERTEX
  5
447
  8
0
  6
SLD-SOLID
 62
     7
 10
670.1120413719
 20
191.0097920006
 30
0.0
  0
VERTEX
  5
448
  8
0
  6
SLD-SOLID
 62
     7
 10
669.9930705009
 20
190.9845792358
 30
0.0
  0
VERTEX
  5
449
  8
0
  6
SLD-SOLID
 62
     7
 10
669.9324525772
 20
190.9582637852
 30
0.0
  0
VERTEX
  5
44A
  8
0
  6
SLD-SOLID
 62
     7
 10
669.9198461948
 20
190.9488462513
 30
0.0
  0
SEQEND
  5
44B
  8
0
  6
SLD-SOLID
 62
     7
  0
POLYLINE
  5
C2
  8
0
  6
SLD-SOLID
 62
     7
 66
     1
 10
0.0
 20
0.0
 30
0.0
  0
VERTEX
  5
44C
  8
0
  6
SLD-SOLID
 62
     7
 10
669.8872424541
 20
190.919788987
 30
0.0
  0
VERTEX
  5
44D
  8
0
  6
SLD-SOLID
 62
     7
 10
669.8917128025
 20
190.9237824982
 30
0.0
  0
VERTEX
  5
44E
  8
0
  6
SLD-SOLID
 62
     7
 10
669.9198461948
 20
190.9488462513
 30
0.0
  0
SEQEND
  5
44F
  8
0
  6
SLD-SOLID
 62
     7
  0
POLYLINE
  5
C3
  8
0
  6
SLD-SOLID
 62
     7
 66
     1
 10
0.0
 20
0.0
 30
0.0
  0
VERTEX
  5
450
  8
0
  6
SLD-SOLID
 62
     7
 10
668.854651588
 20
190.9488462513
 30
0.0
  0
VERTEX
  5
451
  8
0
  6
SLD-SOLID
 62
     7
 10
668.8827849804
 20
190.9237824982
 30
0.0
  0
VERTEX
  5
452
  8
0
  6
SLD-SOLID
 62
     7
 10
668.8872553287
 20
190.919788987
 30
0.0
  0
SEQEND
  5
453
  8
0
  6
SLD-SOLID
 62
     7
  0
POLYLINE
  5
C4
  8
0
  6
SLD-SOLID
 62
     7
 66
     1
 10
0.0
 20
0.0
 30
0.0
  0
VERTEX
  5
454
  8
0
  6
SLD-SOLID
 62
     7
 10
685.2210737644
 20
208.4174477165
 30
0.0
  0
VERTEX
  5
455
  8
0
  6
SLD-SOLID
 62
     7
 10
685.232041019
 20
208.4169112747
 30
0.0
  0
VERTEX
  5
456
  8
0
  6
SLD-SOLID
 62
     7
 10
685.2514423309
 20
208.4185504024
 30
0.0
  0
VERTEX
  5
457
  8
0
  6
SLD-SOLID
 62
     7
 10
685.3161431728
 20
208.4837280815
 30
0.0
  0
VERTEX
  5
458
  8
0
  6
SLD-SOLID
 62
     7
 10
685.3148020683
 20
208.6370014255
 30
0.0
  0
VERTEX
  5
459
  8
0
  6
SLD-SOLID
 62
     7
 10
685.2475978313
 20
208.8611148899
 30
0.0
  0
SEQEND
  5
45A
  8
0
  6
SLD-SOLID
 62
     7
  0
POLYLINE
  5
C5
  8
0
  6
SLD-SOLID
 62
     7
 66
     1
 10
0.0
 20
0.0
 30
0.0
  0
VERTEX
  5
45B
  8
0
  6
SLD-SOLID
 62
     7
 10
653.5534091173
 20
208.4174477165
 30
0.0
  0
VERTEX
  5
45C
  8
0
  6
SLD-SOLID
 62
     7
 10
653.5424418627
 20
208.4169112747
 30
0.0
  0
VERTEX
  5
45D
  8
0
  6
SLD-SOLID
 62
     7
 10
653.523055452
 20
208.4185504024
 30
0.0
  0
VERTEX
  5
45E
  8
0
  6
SLD-SOLID
 62
     7
 10
653.4583546101
 20
208.4837280815
 30
0.0
  0
VERTEX
  5
45F
  8
0
  6
SLD-SOLID
 62
     7
 10
653.4596957146
 20
208.6370014255
 30
0.0
  0
VERTEX
  5
460
  8
0
  6
SLD-SOLID
 62
     7
 10
653.5268999515
 20
208.8611148899
 30
0.0
  0
SEQEND
  5
461
  8
0
  6
SLD-SOLID
 62
     7
  0
POLYLINE
  5
C6
  8
0
  6
SLD-SOLID
 62
     7
 66
     1
 10
0.0
 20
0.0
 30
0.0
  0
VERTEX
  5
462
  8
0
  6
SLD-SOLID
 62
     7
 10
653.5534091173
 20
208.4174477165
 30
0.0
  0
VERTEX
  5
463
  8
0
  6
SLD-SOLID
 62
     7
 10
652.8947777925
 20
208.7467037743
 30
0.0
  0
VERTEX
  5
464
  8
0
  6
SLD-SOLID
 62
     7
 10
652.1819658457
 20
208.8741683071
 30
0.0
  0
SEQEND
  5
465
  8
0
  6
SLD-SOLID
 62
     7
  0
POLYLINE
  5
C7
  8
0
  6
SLD-SOLID
 62
     7
 66
     1
 10
0.0
 20
0.0
 30
0.0
  0
VERTEX
  5
466
  8
0
  6
SLD-SOLID
 62
     7
 10
686.5925468384
 20
208.8741683071
 30
0.0
  0
VERTEX
  5
467
  8
0
  6
SLD-SOLID
 62
     7
 10
685.8797348915
 20
208.7467037743
 30
0.0
  0
VERTEX
  5
468
  8
0
  6
SLD-SOLID
 62
     7
 10
685.2210737644
 20
208.4174477165
 30
0.0
  0
SEQEND
  5
469
  8
0
  6
SLD-SOLID
 62
     7
  0
LINE
  5
C8
  8
0
  6
SLD-SOLID
 62
     7
 10
657.7613778292
 20
189.740868718
 30
0.0
 11
657.7603198467
 21
189.7509717052
 31
0.0
  0
LINE
  5
C9
  8
0
  6
SLD-SOLID
 62
     7
 10
697.2102202354
 20
208.8741683071
 30
0.0
 11
686.5925468384
 21
208.8741683071
 31
0.0
  0
LINE
  5
CA
  8
0
  6
SLD-SOLID
 62
     7
 10
652.1819658457
 20
208.8741683071
 30
0.0
 11
641.5642775474
 21
208.8741683071
 31
0.0
  0
LINE
  5
CB
  8
0
  6
SLD-SOLID
 62
     7
 10
693.8492037235
 20
215.6801246708
 30
0.0
 11
693.8419319569
 21
215.6838201588
 31
0.0
  0
LINE
  5
CC
  8
0
  6
SLD-SOLID
 62
     7
 10
692.4672402321
 20
213.5982536381
 30
0.0
 11
693.8492037235
 21
215.6801246708
 31
0.0
  0
LINE
  5
CD
  8
0
  6
SLD-SOLID
 62
     7
 10
693.8492037235
 20
215.6801246708
 30
0.0
 11
694.1888905941
 21
215.3471731251
 31
0.0
  0
LINE
  5
CE
  8
0
  6
SLD-SOLID
 62
     7
 10
694.1888905941
 20
215.3471731251
 30
0.0
 11
693.2674623905
 21
213.9335893696
 31
0.0
  0
POLYLINE
  5
CF
  8
0
  6
SLD-SOLID
 62
     7
 66
     1
 10
0.0
 20
0.0
 30
0.0
  0
VERTEX
  5
46A
  8
0
  6
SLD-SOLID
 62
     7
 10
693.2674623905
 20
213.9335893696
 30
0.0
  0
VERTEX
  5
46B
  8
0
  6
SLD-SOLID
 62
     7
 10
693.5668863235
 20
213.8367616241
 30
0.0
  0
VERTEX
  5
46C
  8
0
  6
SLD-SOLID
 62
     7
 10
693.6727143703
 20
213.7145124977
 30
0.0
  0
VERTEX
  5
46D
  8
0
  6
SLD-SOLID
 62
     7
 10
693.7455214439
 20
213.5483645504
 30
0.0
  0
VERTEX
  5
46E
  8
0
  6
SLD-SOLID
 62
     7
 10
693.7842346607
 20
213.3501493042
 30
0.0
  0
VERTEX
  5
46F
  8
0
  6
SLD-SOLID
 62
     7
 10
693.7860824047
 20
213.1242477005
 30
0.0
  0
VERTEX
  5
470
  8
0
  6
SLD-SOLID
 62
     7
 10
693.6843968807
 20
212.6257442539
 30
0.0
  0
SEQEND
  5
471
  8
0
  6
SLD-SOLID
 62
     7
  0
ARC
  5
D0
  8
0
  6
SLD-SOLID
 62
     7
 10
692.0435766559
 20
212.9462856298
 30
0.0
 40
1.671836649845249
 50
283.3856223695
 51
348.9462330232
  0
POLYLINE
  5
D1
  8
0
  6
SLD-SOLID
 62
     7
 66
     1
 10
0.0
 20
0.0
 30
0.0
  0
VERTEX
  5
472
  8
0
  6
SLD-SOLID
 62
     7
 10
692.4306131779
 20
211.3198660915
 30
0.0
  0
VERTEX
  5
473
  8
0
  6
SLD-SOLID
 62
     7
 10
692.120758432
 20
211.413087756
 30
0.0
  0
VERTEX
  5
474
  8
0
  6
SLD-SOLID
 62
     7
 10
692.0059598862
 20
211.5316413944
 30
0.0
  0
VERTEX
  5
475
  8
0
  6
SLD-SOLID
 62
     7
 10
691.9193543373
 20
211.7003523415
 30
0.0
  0
VERTEX
  5
476
  8
0
  6
SLD-SOLID
 62
     7
 10
691.8476201473
 20
212.1211909359
 30
0.0
  0
VERTEX
  5
477
  8
0
  6
SLD-SOLID
 62
     7
 10
691.9312752663
 20
212.6188599174
 30
0.0
  0
SEQEND
  5
478
  8
0
  6
SLD-SOLID
 62
     7
  0
POLYLINE
  5
D2
  8
0
  6
SLD-SOLID
 62
     7
 66
     1
 10
0.0
 20
0.0
 30
0.0
  0
VERTEX
  5
479
  8
0
  6
SLD-SOLID
 62
     7
 10
691.9312752663
 20
212.6188599174
 30
0.0
  0
VERTEX
  5
47A
  8
0
  6
SLD-SOLID
 62
     7
 10
692.1626008926
 20
213.1279431885
 30
0.0
  0
VERTEX
  5
47B
  8
0
  6
SLD-SOLID
 62
     7
 10
692.4672402321
 20
213.5982536381
 30
0.0
  0
SEQEND
  5
47C
  8
0
  6
SLD-SOLID
 62
     7
  0
ARC
  5
D3
  8
0
  6
SLD-SOLID
 62
     7
 10
692.4638973129
 20
212.7719264945
 30
0.0
 40
0.7369839782396564
 50
284.8053476892
 51
348.7767920564
  0
POLYLINE
  5
D4
  8
0
  6
SLD-SOLID
 62
     7
 66
     1
 10
0.0
 20
0.0
 30
0.0
  0
VERTEX
  5
47D
  8
0
  6
SLD-SOLID
 62
     7
 10
693.1867875038
 20
212.6284860676
 30
0.0
  0
VERTEX
  5
47E
  8
0
  6
SLD-SOLID
 62
     7
 10
693.2300008713
 20
212.8413640564
 30
0.0
  0
VERTEX
  5
47F
  8
0
  6
SLD-SOLID
 62
     7
 10
693.22895779
 20
212.9374169414
 30
0.0
  0
VERTEX
  5
480
  8
0
  6
SLD-SOLID
 62
     7
 10
693.2115234314
 20
213.0233966415
 30
0.0
  0
VERTEX
  5
481
  8
0
  6
SLD-SOLID
 62
     7
 10
693.1787408768
 20
213.0951606338
 30
0.0
  0
VERTEX
  5
482
  8
0
  6
SLD-SOLID
 62
     7
 10
693.1325472771
 20
213.1460033958
 30
0.0
  0
VERTEX
  5
483
  8
0
  6
SLD-SOLID
 62
     7
 10
693.0723465858
 20
213.1758057182
 30
0.0
  0
VERTEX
  5
484
  8
0
  6
SLD-SOLID
 62
     7
 10
693.002936977
 20
213.1856702869
 30
0.0
  0
SEQEND
  5
485
  8
0
  6
SLD-SOLID
 62
     7
  0
ARC
  5
D5
  8
0
  6
SLD-SOLID
 62
     7
 10
693.1708862255
 20
212.4975761614
 30
0.0
 40
0.7082940601907152
 50
103.7165027101
 51
169.3294900039
  0
POLYLINE
  5
D6
  8
0
  6
SLD-SOLID
 62
     7
 66
     1
 10
0.0
 20
0.0
 30
0.0
  0
VERTEX
  5
486
  8
0
  6
SLD-SOLID
 62
     7
 10
692.4748398243
 20
212.6287244862
 30
0.0
  0
VERTEX
  5
487
  8
0
  6
SLD-SOLID
 62
     7
 10
692.4332655846
 20
212.4183796947
 30
0.0
  0
VERTEX
  5
488
  8
0
  6
SLD-SOLID
 62
     7
 10
692.4525476871
 20
212.2363471096
 30
0.0
  0
VERTEX
  5
489
  8
0
  6
SLD-SOLID
 62
     7
 10
692.5265766559
 20
212.1057235306
 30
0.0
  0
VERTEX
  5
48A
  8
0
  6
SLD-SOLID
 62
     7
 10
692.6522232471
 20
212.0594107216
 30
0.0
  0
SEQEND
  5
48B
  8
0
  6
SLD-SOLID
 62
     7
  0
LINE
  5
D7
  8
0
  6
SLD-SOLID
 62
     7
 10
646.9315715013
 20
211.4197038715
 30
0.0
 11
646.9386346517
 21
211.4234291618
 31
0.0
  0
LINE
  5
D8
  8
0
  6
SLD-SOLID
 62
     7
 10
645.6503398596
 20
215.5633591717
 30
0.0
 11
646.9315715013
 21
211.4197038715
 31
0.0
  0
LINE
  5
D9
  8
0
  6
SLD-SOLID
 62
     7
 10
645.6503398596
 20
215.5633591717
 30
0.0
 11
645.65740301
 21
215.5670546597
 31
0.0
  0
LINE
  5
DA
  8
0
  6
SLD-SOLID
 62
     7
 10
644.8450364052
 20
215.5640446251
 30
0.0
 11
645.6503398596
 21
215.5633591717
 31
0.0
  0
LINE
  5
DB
  8
0
  6
SLD-SOLID
 62
     7
 10
646.9315715013
 20
211.4197038715
 30
0.0
 11
646.3934458671
 21
211.4186905926
 31
0.0
  0
LINE
  5
DC
  8
0
  6
SLD-SOLID
 62
     7
 10
646.3934458671
 20
211.4186905926
 30
0.0
 11
645.3417964159
 21
214.8216389721
 31
0.0
  0
LINE
  5
DD
  8
0
  6
SLD-SOLID
 62
     7
 10
645.3417964159
 20
214.8216389721
 30
0.0
 11
644.7728700815
 21
214.8290001457
 31
0.0
  0
LINE
  5
DE
  8
0
  6
SLD-SOLID
 62
     7
 10
644.7728700815
 20
214.8290001457
 30
0.0
 11
644.8450364052
 21
215.5640446251
 31
0.0
  0
LINE
  5
DF
  8
0
  6
SLD-SOLID
 62
     7
 10
644.8450364052
 20
215.5640446251
 30
0.0
 11
644.8523528753
 21
215.5677699154
 31
0.0
  0
POLYLINE
  5
E0
  8
0
  6
SLD-SOLID
 62
     7
 66
     1
 10
0.0
 20
0.0
 30
0.0
  0
VERTEX
  5
48C
  8
0
  6
SLD-SOLID
 62
     7
 10
691.9312752663
 20
212.6188599174
 30
0.0
  0
VERTEX
  5
48D
  8
0
  6
SLD-SOLID
 62
     7
 10
691.9277883945
 20
212.6207076614
 30
0.0
  0
VERTEX
  5
48E
  8
0
  6
SLD-SOLID
 62
     7
 10
691.9243015228
 20
212.6225852077
 30
0.0
  0
SEQEND
  5
48F
  8
0
  6
SLD-SOLID
 62
     7
  0
ARC
  5
E1
  8
0
  6
SLD-SOLID
 62
     7
 10
668.8872516556
 20
189.3741655631
 30
0.0
 40
1.0
 50
90.0
 51
180.0
  0
ARC
  5
E2
  8
0
  6
SLD-SOLID
 62
     7
 10
669.8872516556
 20
189.3741655631
 30
0.0
 40
1.0
 50
0.0
 51
90.0
  0
LINE
  5
E3
  8
0
  6
SLD-SOLID
 62
     7
 10
680.0220586239
 20
188.8741575783
 30
0.0
 11
670.8872593819
 21
188.8741575783
 31
0.0
  0
LINE
  5
E4
  8
0
  6
SLD-SOLID
 62
     7
 10
670.8872593819
 20
188.8741575783
 30
0.0
 11
670.8872593819
 21
189.4637965267
 31
0.0
  0
LINE
  5
E5
  8
0
  6
SLD-SOLID
 62
     7
 10
667.887238401
 20
188.8741575783
 30
0.0
 11
658.7524540602
 21
188.8741575783
 31
0.0
  0
LINE
  5
E6
  8
0
  6
SLD-SOLID
 62
     7
 10
667.887238401
 20
189.4637965267
 30
0.0
 11
667.887238401
 21
188.8741575783
 31
0.0
  0
POLYLINE
  5
E7
  8
0
  6
SLD-SOLID
 62
     7
 66
     1
 10
0.0
 20
0.0
 30
0.0
  0
VERTEX
  5
490
  8
0
  6
SLD-SOLID
 62
     7
 10
693.1794263302
 20
212.6322113579
 30
0.0
  0
VERTEX
  5
491
  8
0
  6
SLD-SOLID
 62
     7
 10
693.2226695
 20
212.8450893467
 30
0.0
  0
VERTEX
  5
492
  8
0
  6
SLD-SOLID
 62
     7
 10
693.2216264187
 20
212.9411124294
 30
0.0
  0
VERTEX
  5
493
  8
0
  6
SLD-SOLID
 62
     7
 10
693.2041920601
 20
213.0271219318
 30
0.0
  0
VERTEX
  5
494
  8
0
  6
SLD-SOLID
 62
     7
 10
693.1714393078
 20
213.0988561218
 30
0.0
  0
VERTEX
  5
495
  8
0
  6
SLD-SOLID
 62
     7
 10
693.1252755104
 20
213.1496988838
 30
0.0
  0
VERTEX
  5
496
  8
0
  6
SLD-SOLID
 62
     7
 10
693.0650748192
 20
213.1795012062
 30
0.0
  0
VERTEX
  5
497
  8
0
  6
SLD-SOLID
 62
     7
 10
692.9956950127
 20
213.1893657749
 30
0.0
  0
SEQEND
  5
498
  8
0
  6
SLD-SOLID
 62
     7
  0
ARC
  5
E8
  8
0
  6
SLD-SOLID
 62
     7
 10
692.4565488754
 20
212.775600361
 30
0.0
 40
0.7369614785575545
 50
284.8143723538
 51
348.780520877
  0
POLYLINE
  5
E9
  8
0
  6
SLD-SOLID
 62
     7
 66
     1
 10
0.0
 20
0.0
 30
0.0
  0
VERTEX
  5
499
  8
0
  6
SLD-SOLID
 62
     7
 10
692.6449812828
 20
212.0631360119
 30
0.0
  0
VERTEX
  5
49A
  8
0
  6
SLD-SOLID
 62
     7
 10
692.6485873638
 20
212.0612882679
 30
0.0
  0
VERTEX
  5
49B
  8
0
  6
SLD-SOLID
 62
     7
 10
692.6522232471
 20
212.0594107216
 30
0.0
  0
SEQEND
  5
49C
  8
0
  6
SLD-SOLID
 62
     7
  0
POLYLINE
  5
EA
  8
0
  6
SLD-SOLID
 62
     7
 66
     1
 10
0.0
 20
0.0
 30
0.0
  0
VERTEX
  5
49D
  8
0
  6
SLD-SOLID
 62
     7
 10
693.1794263302
 20
212.6322113579
 30
0.0
  0
VERTEX
  5
49E
  8
0
  6
SLD-SOLID
 62
     7
 10
693.1830920158
 20
212.6303338116
 30
0.0
  0
VERTEX
  5
49F
  8
0
  6
SLD-SOLID
 62
     7
 10
693.1867875038
 20
212.6284860676
 30
0.0
  0
SEQEND
  5
4A0
  8
0
  6
SLD-SOLID
 62
     7
  0
LINE
  5
EB
  8
0
  6
SLD-SOLID
 62
     7
 10
669.8872424541
 20
190.3741680687
 30
0.0
 11
668.8872553287
 21
190.3741680687
 31
0.0
  0
LINE
  5
EC
  8
0
  6
SLD-SOLID
 62
     7
 10
672.1967138229
 20
218.8741587704
 30
0.0
 11
672.1967138229
 21
220.8741628235
 31
0.0
  0
LINE
  5
ED
  8
0
  6
SLD-SOLID
 62
     7
 10
666.5777839599
 20
220.8741628235
 30
0.0
 11
666.5777839599
 21
218.8741587704
 31
0.0
  0
POLYLINE
  5
EE
  8
0
  6
SLD-SOLID
 62
     7
 66
     1
 10
0.0
 20
0.0
 30
0.0
  0
VERTEX
  5
4A1
  8
0
  6
SLD-SOLID
 62
     7
 10
676.4970995365
 20
218.8741587704
 30
0.0
  0
VERTEX
  5
4A2
  8
0
  6
SLD-SOLID
 62
     7
 10
676.3620056091
 20
220.6645630901
 30
0.0
  0
VERTEX
  5
4A3
  8
0
  6
SLD-SOLID
 62
     7
 10
676.340547937
 20
220.7864992922
 30
0.0
  0
VERTEX
  5
4A4
  8
0
  6
SLD-SOLID
 62
     7
 10
676.3235606132
 20
220.846103937
 30
0.0
  0
VERTEX
  5
4A5
  8
0
  6
SLD-SOLID
 62
     7
 10
676.3164676605
 20
220.8611988132
 30
0.0
  0
VERTEX
  5
4A6
  8
0
  6
SLD-SOLID
 62
     7
 10
676.311520475
 20
220.8683066671
 30
0.0
  0
VERTEX
  5
4A7
  8
0
  6
SLD-SOLID
 62
     7
 10
676.3072587429
 20
220.8722107714
 30
0.0
  0
VERTEX
  5
4A8
  8
0
  6
SLD-SOLID
 62
     7
 10
676.3040102898
 20
220.8737753933
 30
0.0
  0
VERTEX
  5
4A9
  8
0
  6
SLD-SOLID
 62
     7
 10
676.3014174877
 20
220.8741628235
 30
0.0
  0
SEQEND
  5
4AA
  8
0
  6
SLD-SOLID
 62
     7
  0
POLYLINE
  5
EF
  8
0
  6
SLD-SOLID
 62
     7
 66
     1
 10
0.0
 20
0.0
 30
0.0
  0
VERTEX
  5
4AB
  8
0
  6
SLD-SOLID
 62
     7
 10
662.4730951963
 20
220.8741628235
 30
0.0
  0
VERTEX
  5
4AC
  8
0
  6
SLD-SOLID
 62
     7
 10
662.4704874931
 20
220.8737753933
 30
0.0
  0
VERTEX
  5
4AD
  8
0
  6
SLD-SOLID
 62
     7
 10
662.4672092377
 20
220.872180969
 30
0.0
  0
VERTEX
  5
4AE
  8
0
  6
SLD-SOLID
 62
     7
 10
662.4630518137
 20
220.8683960741
 30
0.0
  0
VERTEX
  5
4AF
  8
0
  6
SLD-SOLID
 62
     7
 10
662.4580152212
 20
220.8611392086
 30
0.0
  0
VERTEX
  5
4B0
  8
0
  6
SLD-SOLID
 62
     7
 10
662.4509818731
 20
220.8461635416
 30
0.0
  0
VERTEX
  5
4B1
  8
0
  6
SLD-SOLID
 62
     7
 10
662.433964747
 20
220.786573798
 30
0.0
  0
VERTEX
  5
4B2
  8
0
  6
SLD-SOLID
 62
     7
 10
662.4125070749
 20
220.6646226948
 30
0.0
  0
VERTEX
  5
4B3
  8
0
  6
SLD-SOLID
 62
     7
 10
662.2773982464
 20
218.8741587704
 30
0.0
  0
SEQEND
  5
4B4
  8
0
  6
SLD-SOLID
 62
     7
  0
LINE
  5
F0
  8
0
  6
SLD-SOLID
 62
     7
 10
661.777345079
 20
218.8741587704
 30
0.0
 11
661.8122584997
 21
220.8741628235
 31
0.0
  0
LINE
  5
F1
  8
0
  6
SLD-SOLID
 62
     7
 10
676.9971527038
 20
218.8741587704
 30
0.0
 11
676.9622541843
 21
220.8741628235
 31
0.0
  0
LINE
  5
F2
  8
0
  6
SLD-SOLID
 62
     7
 10
667.887238401
 20
188.8741575783
 30
0.0
 11
670.8872593819
 21
188.8741575783
 31
0.0
  0
LINE
  5
F3
  8
0
  6
SLD-SOLID
 62
     7
 10
651.3872571169
 20
427.1282688385
 30
0.0
 11
651.3872571169
 21
420.4200640922
 31
0.0
  0
LINE
  5
F4
  8
0
  6
SLD-SOLID
 62
     7
 10
662.3872496067
 20
450.774165303
 30
0.0
 11
662.3872496067
 21
416.7741671806
 31
0.0
  0
LINE
  5
F5
  8
0
  6
SLD-SOLID
 62
     7
 10
662.3872496067
 20
416.7741671806
 30
0.0
 11
660.3872455536
 21
416.7741671806
 31
0.0
  0
LINE
  5
F6
  8
0
  6
SLD-SOLID
 62
     7
 10
653.3872462688
 20
416.7741671806
 30
0.0
 11
643.3872558056
 21
416.7741671806
 31
0.0
  0
ARC
  5
F7
  8
0
  6
SLD-SOLID
 62
     7
 10
648.3872516556
 20
443.7741655631
 30
0.0
 40
4.500000000000077
 50
48.1896851042
 51
311.8103148958
  0
LINE
  5
F8
  8
0
  6
SLD-SOLID
 62
     7
 10
662.3872496067
 20
450.774165303
 30
0.0
 11
660.3872455536
 21
450.774165303
 31
0.0
  0
LINE
  5
F9
  8
0
  6
SLD-SOLID
 62
     7
 10
653.3872462688
 20
450.774165303
 30
0.0
 11
643.3872558056
 21
450.774165303
 31
0.0
  0
ARC
  5
FA
  8
0
  6
SLD-SOLID
 62
     7
 10
648.3872516556
 20
423.7741655631
 30
0.0
 40
4.499999999999968
 50
48.1896851042
 51
311.8103148958
  0
LINE
  5
FB
  8
0
  6
SLD-SOLID
 62
     7
 10
651.3872571169
 20
447.1282683914
 30
0.0
 11
651.3872571169
 21
440.4200636452
 31
0.0
  0
LINE
  5
FC
  8
0
  6
SLD-SOLID
 62
     7
 10
651.8872506796
 20
220.7741611307
 30
0.0
 11
636.8872500835
 21
220.7741611307
 31
0.0
  0
LINE
  5
FD
  8
0
  6
SLD-SOLID
 62
     7
 10
721.3872648655
 20
277.681233794
 30
0.0
 11
721.3872648655
 21
277.6741706436
 31
0.0
  0
LINE
  5
FE
  8
0
  6
SLD-SOLID
 62
     7
 10
593.687248963
 20
394.7288342422
 30
0.0
 11
593.687248963
 21
453.6783848559
 31
0.0
  0
LINE
  5
FF
  8
0
  6
SLD-SOLID
 62
     7
 10
609.4872482
 20
453.6783848559
 30
0.0
 11
609.4872482
 21
394.7288342422
 31
0.0
  0
LINE
  5
100
  8
0
  6
SLD-SOLID
 62
     7
 10
-48.8127492489
 20
274.8241596525
 30
0.0
 11
-48.8127492489
 21
276.8741720026
 31
0.0
  0
LINE
  5
101
  8
0
  6
SLD-SOLID
 62
     7
 10
733.5872627674
 20
276.8741720026
 30
0.0
 11
732.8372575222
 21
276.8741720026
 31
0.0
  0
LINE
  5
102
  8
0
  6
SLD-SOLID
 62
     7
 10
718.0872537075
 20
276.8741720026
 30
0.0
 11
-33.312740189
 21
276.8741720026
 31
0.0
  0
LINE
  5
103
  8
0
  6
SLD-SOLID
 62
     7
 10
-48.0627440037
 20
276.8741720026
 30
0.0
 11
-48.8127492489
 21
276.8741720026
 31
0.0
  0
LINE
  5
104
  8
0
  6
SLD-SOLID
 62
     7
 10
733.5872627674
 20
276.8741720026
 30
0.0
 11
733.5872627674
 21
274.8241596525
 31
0.0
  0
LINE
  5
105
  8
0
  6
SLD-SOLID
 62
     7
 10
733.5872627674
 20
274.8241596525
 30
0.0
 11
733.5872627674
 21
246.674167425
 31
0.0
  0
LINE
  5
106
  8
0
  6
SLD-SOLID
 62
     7
 10
-48.8127492489
 20
246.674167425
 30
0.0
 11
-48.8127492489
 21
274.8241596525
 31
0.0
  0
LINE
  5
107
  8
0
  6
SLD-SOLID
 62
     7
 10
732.3372639595
 20
220.8741628235
 30
0.0
 11
-47.562750441
 21
220.8741628235
 31
0.0
  0
LINE
  5
108
  8
0
  6
SLD-SOLID
 62
     7
 10
-48.8127492489
 20
220.8741628235
 30
0.0
 11
-47.562750441
 21
220.8741628235
 31
0.0
  0
LINE
  5
109
  8
0
  6
SLD-SOLID
 62
     7
 10
-48.8127492489
 20
220.8741628235
 30
0.0
 11
-48.8127492489
 21
246.674167425
 31
0.0
  0
LINE
  5
10A
  8
0
  6
SLD-SOLID
 62
     7
 10
733.5872627674
 20
246.674167425
 30
0.0
 11
733.5872627674
 21
220.8741628235
 31
0.0
  0
LINE
  5
10B
  8
0
  6
SLD-SOLID
 62
     7
 10
733.5872627674
 20
220.8741628235
 30
0.0
 11
732.3372639595
 21
220.8741628235
 31
0.0
  0
LINE
  5
10C
  8
0
  6
SLD-SOLID
 62
     7
 10
734.3872465073
 20
274.8241596525
 30
0.0
 11
734.3872465073
 21
246.674167425
 31
0.0
  0
LINE
  5
10D
  8
0
  6
SLD-SOLID
 62
     7
 10
734.3872465073
 20
275.9741716688
 30
0.0
 11
733.5872627674
 21
275.9741716688
 31
0.0
  0
LINE
  5
10E
  8
0
  6
SLD-SOLID
 62
     7
 10
734.3872465073
 20
275.9741716688
 30
0.0
 11
734.3872465073
 21
274.8241596525
 31
0.0
  0
LINE
  5
10F
  8
0
  6
SLD-SOLID
 62
     7
 10
734.3872465073
 20
221.7791848486
 30
0.0
 11
733.5872627674
 21
221.7791848486
 31
0.0
  0
LINE
  5
110
  8
0
  6
SLD-SOLID
 62
     7
 10
734.3872465073
 20
246.674167425
 30
0.0
 11
734.3872465073
 21
221.7791848486
 31
0.0
  0
LINE
  5
111
  8
0
  6
SLD-SOLID
 62
     7
 10
-49.6127627911
 20
274.8241596525
 30
0.0
 11
-49.6127627911
 21
275.9741716688
 31
0.0
  0
LINE
  5
112
  8
0
  6
SLD-SOLID
 62
     7
 10
-49.6127627911
 20
275.9741716688
 30
0.0
 11
-48.8127492489
 21
275.9741716688
 31
0.0
  0
LINE
  5
113
  8
0
  6
SLD-SOLID
 62
     7
 10
-49.6127627911
 20
246.674167425
 30
0.0
 11
-49.6127627911
 21
274.8241596525
 31
0.0
  0
LINE
  5
114
  8
0
  6
SLD-SOLID
 62
     7
 10
-49.6127627911
 20
221.7791848486
 30
0.0
 11
-48.8127492489
 21
221.7791848486
 31
0.0
  0
LINE
  5
115
  8
0
  6
SLD-SOLID
 62
     7
 10
-49.6127627911
 20
221.7791848486
 30
0.0
 11
-49.6127627911
 21
246.674167425
 31
0.0
  0
POLYLINE
  5
116
  8
0
  6
SLD-SOLID
 62
     7
 66
     1
 10
0.0
 20
0.0
 30
0.0
  0
VERTEX
  5
4B5
  8
0
  6
SLD-SOLID
 62
     7
 10
734.0342976032
 20
275.9741716688
 30
0.0
  0
VERTEX
  5
4B6
  8
0
  6
SLD-SOLID
 62
     7
 10
733.7868191181
 20
276.2737297123
 30
0.0
  0
VERTEX
  5
4B7
  8
0
  6
SLD-SOLID
 62
     7
 10
733.5872627674
 20
276.4489673679
 30
0.0
  0
SEQEND
  5
4B8
  8
0
  6
SLD-SOLID
 62
     7
  0
POLYLINE
  5
117
  8
0
  6
SLD-SOLID
 62
     7
 66
     1
 10
0.0
 20
0.0
 30
0.0
  0
VERTEX
  5
4B9
  8
0
  6
SLD-SOLID
 62
     7
 10
-48.8127492489
 20
276.4489673679
 30
0.0
  0
VERTEX
  5
4BA
  8
0
  6
SLD-SOLID
 62
     7
 10
-49.0123055996
 20
276.2737297123
 30
0.0
  0
VERTEX
  5
4BB
  8
0
  6
SLD-SOLID
 62
     7
 10
-49.259813887
 20
275.9741716688
 30
0.0
  0
SEQEND
  5
4BC
  8
0
  6
SLD-SOLID
 62
     7
  0
ARC
  5
118
  8
0
  6
SLD-SOLID
 62
     7
 10
-47.5627483444
 20
222.9241655631
 30
0.0
 40
2.04999999999997
 50
213.9539595147
 51
232.4281306803
  0
ARC
  5
119
  8
0
  6
SLD-SOLID
 62
     7
 10
732.3372516556
 20
222.9241655631
 30
0.0
 40
2.049999999999918
 50
307.5718693197
 51
326.0460404852
  0
LINE
  5
11A
  8
0
  6
SLD-SOLID
 62
     7
 10
649.3872530638
 20
219.2741655415
 30
0.0
 11
651.389581698
 21
219.2741655415
 31
0.0
  0
LINE
  5
11B
  8
0
  6
SLD-SOLID
 62
     7
 10
649.3872530638
 20
220.7741611307
 30
0.0
 11
649.3872530638
 21
219.2741655415
 31
0.0
  0
LINE
  5
11C
  8
0
  6
SLD-SOLID
 62
     7
 10
651.389581698
 20
219.2741655415
 30
0.0
 11
661.7843188225
 21
219.2741655415
 31
0.0
  0
LINE
  5
11D
  8
0
  6
SLD-SOLID
 62
     7
 10
676.9901789604
 20
219.2741655415
 30
0.0
 11
687.3888946949
 21
219.2741655415
 31
0.0
  0
LINE
  5
11E
  8
0
  6
SLD-SOLID
 62
     7
 10
689.3872596203
 20
220.8741628235
 30
0.0
 11
689.3872596203
 21
219.2741655415
 31
0.0
  0
LINE
  5
11F
  8
0
  6
SLD-SOLID
 62
     7
 10
687.3888946949
 20
219.2741655415
 30
0.0
 11
689.3872596203
 21
219.2741655415
 31
0.0
  0
LINE
  5
120
  8
0
  6
SLD-SOLID
 62
     7
 10
649.3872530638
 20
219.2741655415
 30
0.0
 11
649.7126646219
 21
218.8741587704
 31
0.0
  0
LINE
  5
121
  8
0
  6
SLD-SOLID
 62
     7
 10
651.389581698
 20
219.2741655415
 30
0.0
 11
649.3872530638
 21
219.2741655415
 31
0.0
  0
LINE
  5
122
  8
0
  6
SLD-SOLID
 62
     7
 10
689.0618480621
 20
218.8741587704
 30
0.0
 11
689.3872596203
 21
219.2741655415
 31
0.0
  0
LINE
  5
123
  8
0
  6
SLD-SOLID
 62
     7
 10
689.3872596203
 20
219.2741655415
 30
0.0
 11
687.3888946949
 21
219.2741655415
 31
0.0
  0
LINE
  5
124
  8
0
  6
SLD-SOLID
 62
     7
 10
-32.162757975
 20
577.0670943563
 30
0.0
 11
-30.1127456249
 21
577.0670943563
 31
0.0
  0
LINE
  5
125
  8
0
  6
SLD-SOLID
 62
     7
 10
-30.1127456249
 20
577.0670943563
 30
0.0
 11
-30.1127456249
 21
277.681233794
 31
0.0
  0
LINE
  5
126
  8
0
  6
SLD-SOLID
 62
     7
 10
-30.1127456249
 20
277.681233794
 30
0.0
 11
-32.162757975
 21
277.681233794
 31
0.0
  0
LINE
  5
127
  8
0
  6
SLD-SOLID
 62
     7
 10
-48.0627440037
 20
577.0670943563
 30
0.0
 11
-32.162757975
 21
577.0670943563
 31
0.0
  0
LINE
  5
128
  8
0
  6
SLD-SOLID
 62
     7
 10
-48.0627440037
 20
277.681233794
 30
0.0
 11
-32.162757975
 21
277.681233794
 31
0.0
  0
POLYLINE
  5
129
  8
0
  6
SLD-SOLID
 62
     7
 66
     1
 10
0.0
 20
0.0
 30
0.0
  0
VERTEX
  5
4BD
  8
0
  6
SLD-SOLID
 62
     7
 10
-48.0627440037
 20
277.681233794
 30
0.0
  0
VERTEX
  5
4BE
  8
0
  6
SLD-SOLID
 62
     7
 10
-48.7881027283
 20
277.9674105947
 30
0.0
  0
VERTEX
  5
4BF
  8
0
  6
SLD-SOLID
 62
     7
 10
-49.4198225559
 20
278.2536917036
 30
0.0
  0
VERTEX
  5
4C0
  8
0
  6
SLD-SOLID
 62
     7
 10
-49.8758278908
 20
278.5399728125
 30
0.0
  0
VERTEX
  5
4C1
  8
0
  6
SLD-SOLID
 62
     7
 10
-50.0970803322
 20
278.8262688225
 30
0.0
  0
VERTEX
  5
4C2
  8
0
  6
SLD-SOLID
 62
     7
 10
-50.1127563538
 20
278.9241694515
 30
0.0
  0
SEQEND
  5
4C3
  8
0
  6
SLD-SOLID
 62
     7
  0
LINE
  5
12A
  8
0
  6
SLD-SOLID
 62
     7
 10
-50.1127563538
 20
278.9241694515
 30
0.0
 11
-50.1127563538
 21
575.8241661494
 31
0.0
  0
POLYLINE
  5
12B
  8
0
  6
SLD-SOLID
 62
     7
 66
     1
 10
0.0
 20
0.0
 30
0.0
  0
VERTEX
  5
4C4
  8
0
  6
SLD-SOLID
 62
     7
 10
-50.1127563538
 20
575.8241661494
 30
0.0
  0
VERTEX
  5
4C5
  8
0
  6
SLD-SOLID
 62
     7
 10
-49.9801360191
 20
576.1103429502
 30
0.0
  0
VERTEX
  5
4C6
  8
0
  6
SLD-SOLID
 62
     7
 10
-49.599262339
 20
576.396624059
 30
0.0
  0
VERTEX
  5
4C7
  8
0
  6
SLD-SOLID
 62
     7
 10
-49.0194283547
 20
576.6829051679
 30
0.0
  0
VERTEX
  5
4C8
  8
0
  6
SLD-SOLID
 62
     7
 10
-48.3157359184
 20
576.9691937273
 30
0.0
  0
VERTEX
  5
4C9
  8
0
  6
SLD-SOLID
 62
     7
 10
-48.0627440037
 20
577.0670943563
 30
0.0
  0
SEQEND
  5
4CA
  8
0
  6
SLD-SOLID
 62
     7
  0
ARC
  5
12C
  8
0
  6
SLD-SOLID
 62
     7
 10
-48.1465889786
 20
278.7144934175
 30
0.0
 40
1.043696054295048
 50
220.5384401901
 51
274.6078026541
  0
LINE
  5
12D
  8
0
  6
SLD-SOLID
 62
     7
 10
-48.0627440037
 20
276.8741720026
 30
0.0
 11
-48.0627440037
 21
277.6741706436
 31
0.0
  0
ARC
  5
12E
  8
0
  6
SLD-SOLID
 62
     7
 10
-48.0627788789
 20
278.9241494773
 30
0.0
 40
2.049977474993047
 50
179.999441731
 51
270.0009747429
  0
LINE
  5
12F
  8
0
  6
SLD-SOLID
 62
     7
 10
-48.0627440037
 20
577.8741635983
 30
0.0
 11
-48.0627440037
 21
577.0741649573
 31
0.0
  0
POLYLINE
  5
130
  8
0
  6
SLD-SOLID
 62
     7
 66
     1
 10
0.0
 20
0.0
 30
0.0
  0
VERTEX
  5
4CB
  8
0
  6
SLD-SOLID
 62
     7
 10
-48.0627440037
 20
577.0741649573
 30
0.0
  0
VERTEX
  5
4CC
  8
0
  6
SLD-SOLID
 62
     7
 10
-48.5489688934
 20
576.9757278865
 30
0.0
  0
VERTEX
  5
4CD
  8
0
  6
SLD-SOLID
 62
     7
 10
-48.915835482
 20
576.7250531023
 30
0.0
  0
SEQEND
  5
4CE
  8
0
  6
SLD-SOLID
 62
     7
  0
ARC
  5
131
  8
0
  6
SLD-SOLID
 62
     7
 10
-48.0627296084
 20
575.8241368528
 30
0.0
 40
2.050026745587794
 50
90.0004023312
 51
179.9991811949
  0
LINE
  5
132
  8
0
  6
SLD-SOLID
 62
     7
 10
-48.0627440037
 20
277.6741706436
 30
0.0
 11
-33.312740189
 21
277.6741706436
 31
0.0
  0
LINE
  5
133
  8
0
  6
SLD-SOLID
 62
     7
 10
-33.312740189
 20
276.8741720026
 30
0.0
 11
-33.312740189
 21
277.6741706436
 31
0.0
  0
LINE
  5
134
  8
0
  6
SLD-SOLID
 62
     7
 10
-33.312740189
 20
276.8741720026
 30
0.0
 11
-48.0627440037
 21
276.8741720026
 31
0.0
  0
LINE
  5
135
  8
0
  6
SLD-SOLID
 62
     7
 10
-30.9940301003
 20
577.8741635983
 30
0.0
 11
-30.9940301003
 21
577.0741649573
 31
0.0
  0
LINE
  5
136
  8
0
  6
SLD-SOLID
 62
     7
 10
-48.0627440037
 20
577.0741649573
 30
0.0
 11
-30.9940301003
 21
577.0741649573
 31
0.0
  0
LINE
  5
137
  8
0
  6
SLD-SOLID
 62
     7
 10
-48.0627440037
 20
577.8741635983
 30
0.0
 11
-30.9940301003
 21
577.8741635983
 31
0.0
  0
LINE
  5
138
  8
0
  6
SLD-SOLID
 62
     7
 10
-30.1127456249
 20
577.8741635983
 30
0.0
 11
-30.1127456249
 21
577.0741649573
 31
0.0
  0
LINE
  5
139
  8
0
  6
SLD-SOLID
 62
     7
 10
-30.9940301003
 20
577.0741649573
 30
0.0
 11
-30.1127456249
 21
577.0741649573
 31
0.0
  0
LINE
  5
13A
  8
0
  6
SLD-SOLID
 62
     7
 10
-30.9940301003
 20
577.8741635983
 30
0.0
 11
-30.1127456249
 21
577.8741635983
 31
0.0
  0
LINE
  5
13B
  8
0
  6
SLD-SOLID
 62
     7
 10
-29.5127354683
 20
577.0670943563
 30
0.0
 11
-30.1127456249
 21
577.0670943563
 31
0.0
  0
LINE
  5
13C
  8
0
  6
SLD-SOLID
 62
     7
 10
-30.1127456249
 20
277.681233794
 30
0.0
 11
-29.5127354683
 21
277.681233794
 31
0.0
  0
POLYLINE
  5
13D
  8
0
  6
SLD-SOLID
 62
     7
 66
     1
 10
0.0
 20
0.0
 30
0.0
  0
VERTEX
  5
4CF
  8
0
  6
SLD-SOLID
 62
     7
 10
-33.312740189
 20
277.2993617361
 30
0.0
  0
VERTEX
  5
4D0
  8
0
  6
SLD-SOLID
 62
     7
 10
-33.1131838383
 20
277.4745993917
 30
0.0
  0
VERTEX
  5
4D1
  8
0
  6
SLD-SOLID
 62
     7
 10
-32.93252216
 20
277.681233794
 30
0.0
  0
SEQEND
  5
4D2
  8
0
  6
SLD-SOLID
 62
     7
  0
LINE
  5
13E
  8
0
  6
SLD-SOLID
 62
     7
 10
-34.5627389969
 20
277.6741706436
 30
0.0
 11
-34.4299696507
 21
277.681233794
 31
0.0
  0
ARC
  5
13F
  8
0
  6
SLD-SOLID
 62
     7
 10
626.8872516556
 20
400.2741655631
 30
0.0
 40
3.25000000000005
 50
261.1501169016
 51
98.8498830984
  0
ARC
  5
140
  8
0
  6
SLD-SOLID
 62
     7
 10
626.8872516556
 20
400.2741655631
 30
0.0
 40
2.524999999999979
 50
258.578813725
 51
101.421186275
  0
ARC
  5
141
  8
0
  6
SLD-SOLID
 62
     7
 10
626.8872516556
 20
400.2741655631
 30
0.0
 40
3.499999999999999
 50
261.7867892982
 51
98.2132107018
  0
ARC
  5
142
  8
0
  6
SLD-SOLID
 62
     7
 10
626.8872516556
 20
400.2741655631
 30
0.0
 40
2.10000000000001
 50
256.2258530019
 51
103.7741469981
  0
ARC
  5
143
  8
0
  6
SLD-SOLID
 62
     7
 10
626.8872516556
 20
400.2741655631
 30
0.0
 40
4.850000000000021
 50
264.0827052482
 51
95.9172947518
  0
ARC
  5
144
  8
0
  6
SLD-SOLID
 62
     7
 10
708.6872516556
 20
444.7741655631
 30
0.0
 40
4.850000000000009
 50
152.4488101064
 51
207.5511898936
  0
ARC
  5
145
  8
0
  6
SLD-SOLID
 62
     7
 10
626.8872516556
 20
444.7741655631
 30
0.0
 40
3.249999999999972
 50
261.1501169016
 51
98.8498830984
  0
ARC
  5
146
  8
0
  6
SLD-SOLID
 62
     7
 10
626.8872516556
 20
444.7741655631
 30
0.0
 40
2.525000000000024
 50
258.578813725
 51
101.421186275
  0
ARC
  5
147
  8
0
  6
SLD-SOLID
 62
     7
 10
626.8872516556
 20
444.7741655631
 30
0.0
 40
3.499999999999975
 50
261.7867892982
 51
98.2132107018
  0
ARC
  5
148
  8
0
  6
SLD-SOLID
 62
     7
 10
626.8872516556
 20
444.7741655631
 30
0.0
 40
2.100000000000009
 50
256.2258530019
 51
103.7741469981
  0
ARC
  5
149
  8
0
  6
SLD-SOLID
 62
     7
 10
626.8872516556
 20
444.7741655631
 30
0.0
 40
4.850000000000044
 50
264.0827052482
 51
95.9172947518
  0
ARC
  5
14A
  8
0
  6
SLD-SOLID
 62
     7
 10
708.6872516556
 20
400.2741655631
 30
0.0
 40
4.850000000000017
 50
152.4488101064
 51
207.5511898936
  0
LINE
  5
14B
  8
0
  6
SLD-SOLID
 62
     7
 10
668.2872451721
 20
397.7741622036
 30
0.0
 11
668.2872451721
 21
394.7288342422
 31
0.0
  0
LINE
  5
14C
  8
0
  6
SLD-SOLID
 62
     7
 10
660.3872455536
 20
397.7741622036
 30
0.0
 11
668.2872451721
 21
397.7741622036
 31
0.0
  0
LINE
  5
14D
  8
0
  6
SLD-SOLID
 62
     7
 10
681.2872566162
 20
397.7741622036
 30
0.0
 11
681.2872566162
 21
394.7288342422
 31
0.0
  0
LINE
  5
14E
  8
0
  6
SLD-SOLID
 62
     7
 10
677.3872651039
 20
397.7741622036
 30
0.0
 11
681.2872566162
 21
397.7741622036
 31
0.0
  0
LINE
  5
14F
  8
0
  6
SLD-SOLID
 62
     7
 10
668.2872451721
 20
410.7741661971
 30
0.0
 11
668.2872451721
 21
400.7741682833
 31
0.0
  0
LINE
  5
150
  8
0
  6
SLD-SOLID
 62
     7
 10
660.3872455536
 20
410.7741661971
 30
0.0
 11
668.2872451721
 21
410.7741661971
 31
0.0
  0
LINE
  5
151
  8
0
  6
SLD-SOLID
 62
     7
 10
668.2872451721
 20
400.7741682833
 30
0.0
 11
660.3872455536
 21
400.7741682833
 31
0.0
  0
LINE
  5
152
  8
0
  6
SLD-SOLID
 62
     7
 10
681.2872566162
 20
410.7741661971
 30
0.0
 11
681.2872566162
 21
400.7741682833
 31
0.0
  0
LINE
  5
153
  8
0
  6
SLD-SOLID
 62
     7
 10
677.3872651039
 20
410.7741661971
 30
0.0
 11
681.2872566162
 21
410.7741661971
 31
0.0
  0
LINE
  5
154
  8
0
  6
SLD-SOLID
 62
     7
 10
681.2872566162
 20
400.7741682833
 30
0.0
 11
677.3872651039
 21
400.7741682833
 31
0.0
  0
LINE
  5
155
  8
0
  6
SLD-SOLID
 62
     7
 10
668.2872451721
 20
423.7741664653
 30
0.0
 11
668.2872451721
 21
413.7741648262
 31
0.0
  0
LINE
  5
156
  8
0
  6
SLD-SOLID
 62
     7
 10
662.3872496067
 20
423.7741664653
 30
0.0
 11
668.2872451721
 21
423.7741664653
 31
0.0
  0
LINE
  5
157
  8
0
  6
SLD-SOLID
 62
     7
 10
668.2872451721
 20
413.7741648262
 30
0.0
 11
660.3872455536
 21
413.7741648262
 31
0.0
  0
LINE
  5
158
  8
0
  6
SLD-SOLID
 62
     7
 10
681.2872566162
 20
423.7741664653
 30
0.0
 11
681.2872566162
 21
413.7741648262
 31
0.0
  0
LINE
  5
159
  8
0
  6
SLD-SOLID
 62
     7
 10
677.3872651039
 20
423.7741664653
 30
0.0
 11
681.2872566162
 21
423.7741664653
 31
0.0
  0
LINE
  5
15A
  8
0
  6
SLD-SOLID
 62
     7
 10
681.2872566162
 20
413.7741648262
 30
0.0
 11
677.3872651039
 21
413.7741648262
 31
0.0
  0
LINE
  5
15B
  8
0
  6
SLD-SOLID
 62
     7
 10
668.2872451721
 20
436.7741667335
 30
0.0
 11
668.2872451721
 21
426.7741650944
 31
0.0
  0
LINE
  5
15C
  8
0
  6
SLD-SOLID
 62
     7
 10
662.3872496067
 20
436.7741667335
 30
0.0
 11
668.2872451721
 21
436.7741667335
 31
0.0
  0
LINE
  5
15D
  8
0
  6
SLD-SOLID
 62
     7
 10
668.2872451721
 20
426.7741650944
 30
0.0
 11
662.3872496067
 21
426.7741650944
 31
0.0
  0
LINE
  5
15E
  8
0
  6
SLD-SOLID
 62
     7
 10
681.2872566162
 20
436.7741667335
 30
0.0
 11
681.2872566162
 21
426.7741650944
 31
0.0
  0
LINE
  5
15F
  8
0
  6
SLD-SOLID
 62
     7
 10
677.3872651039
 20
436.7741667335
 30
0.0
 11
681.2872566162
 21
436.7741667335
 31
0.0
  0
LINE
  5
160
  8
0
  6
SLD-SOLID
 62
     7
 10
681.2872566162
 20
426.7741650944
 30
0.0
 11
677.3872651039
 21
426.7741650944
 31
0.0
  0
LINE
  5
161
  8
0
  6
SLD-SOLID
 62
     7
 10
668.2872451721
 20
449.7741651391
 30
0.0
 11
668.2872451721
 21
439.7741653626
 31
0.0
  0
LINE
  5
162
  8
0
  6
SLD-SOLID
 62
     7
 10
662.3872496067
 20
449.7741651391
 30
0.0
 11
668.2872451721
 21
449.7741651391
 31
0.0
  0
LINE
  5
163
  8
0
  6
SLD-SOLID
 62
     7
 10
668.2872451721
 20
439.7741653626
 30
0.0
 11
662.3872496067
 21
439.7741653626
 31
0.0
  0
LINE
  5
164
  8
0
  6
SLD-SOLID
 62
     7
 10
681.2872566162
 20
449.7741651391
 30
0.0
 11
681.2872566162
 21
439.7741653626
 31
0.0
  0
LINE
  5
165
  8
0
  6
SLD-SOLID
 62
     7
 10
677.3872651039
 20
449.7741651391
 30
0.0
 11
681.2872566162
 21
449.7741651391
 31
0.0
  0
LINE
  5
166
  8
0
  6
SLD-SOLID
 62
     7
 10
681.2872566162
 20
439.7741653626
 30
0.0
 11
677.3872651039
 21
439.7741653626
 31
0.0
  0
LINE
  5
167
  8
0
  6
SLD-SOLID
 62
     7
 10
687.3872555672
 20
452.7741656309
 30
0.0
 11
684.2872477947
 21
452.7741656309
 31
0.0
  0
LINE
  5
168
  8
0
  6
SLD-SOLID
 62
     7
 10
684.2872477947
 20
452.7741656309
 30
0.0
 11
684.2872477947
 21
453.6783848559
 31
0.0
  0
LINE
  5
169
  8
0
  6
SLD-SOLID
 62
     7
 10
681.2872566162
 20
452.7741656309
 30
0.0
 11
677.3872651039
 21
452.7741656309
 31
0.0
  0
LINE
  5
16A
  8
0
  6
SLD-SOLID
 62
     7
 10
681.2872566162
 20
453.6783848559
 30
0.0
 11
681.2872566162
 21
452.7741656309
 31
0.0
  0
LINE
  5
16B
  8
0
  6
SLD-SOLID
 62
     7
 10
668.2872451721
 20
452.7741656309
 30
0.0
 11
660.3872455536
 21
452.7741656309
 31
0.0
  0
LINE
  5
16C
  8
0
  6
SLD-SOLID
 62
     7
 10
668.2872451721
 20
453.6783848559
 30
0.0
 11
668.2872451721
 21
452.7741656309
 31
0.0
  0
LINE
  5
16D
  8
0
  6
SLD-SOLID
 62
     7
 10
653.3872462688
 20
452.7741656309
 30
0.0
 11
645.2872581659
 21
452.7741656309
 31
0.0
  0
LINE
  5
16E
  8
0
  6
SLD-SOLID
 62
     7
 10
645.2872581659
 20
452.7741656309
 30
0.0
 11
645.2872581659
 21
453.6783848559
 31
0.0
  0
LINE
  5
16F
  8
0
  6
SLD-SOLID
 62
     7
 10
687.3872555672
 20
439.7741653626
 30
0.0
 11
684.2872477947
 21
439.7741653626
 31
0.0
  0
LINE
  5
170
  8
0
  6
SLD-SOLID
 62
     7
 10
684.2872477947
 20
449.7741651391
 30
0.0
 11
687.3872555672
 21
449.7741651391
 31
0.0
  0
LINE
  5
171
  8
0
  6
SLD-SOLID
 62
     7
 10
684.2872477947
 20
439.7741653626
 30
0.0
 11
684.2872477947
 21
449.7741651391
 31
0.0
  0
LINE
  5
172
  8
0
  6
SLD-SOLID
 62
     7
 10
645.2872581659
 20
440.5122645801
 30
0.0
 11
645.2872581659
 21
447.0360674565
 31
0.0
  0
LINE
  5
173
  8
0
  6
SLD-SOLID
 62
     7
 10
650.4488117872
 20
439.7741653626
 30
0.0
 11
646.3257051884
 21
439.7741653626
 31
0.0
  0
LINE
  5
174
  8
0
  6
SLD-SOLID
 62
     7
 10
687.3872555672
 20
426.7741650944
 30
0.0
 11
684.2872477947
 21
426.7741650944
 31
0.0
  0
LINE
  5
175
  8
0
  6
SLD-SOLID
 62
     7
 10
684.2872477947
 20
436.7741667335
 30
0.0
 11
687.3872555672
 21
436.7741667335
 31
0.0
  0
LINE
  5
176
  8
0
  6
SLD-SOLID
 62
     7
 10
684.2872477947
 20
426.7741650944
 30
0.0
 11
684.2872477947
 21
436.7741667335
 31
0.0
  0
LINE
  5
177
  8
0
  6
SLD-SOLID
 62
     7
 10
645.2872581659
 20
426.7741650944
 30
0.0
 11
645.2872581659
 21
427.0360679036
 31
0.0
  0
LINE
  5
178
  8
0
  6
SLD-SOLID
 62
     7
 10
651.3872571169
 20
426.7741650944
 30
0.0
 11
645.2872581659
 21
426.7741650944
 31
0.0
  0
LINE
  5
179
  8
0
  6
SLD-SOLID
 62
     7
 10
687.3872555672
 20
413.7741648262
 30
0.0
 11
684.2872477947
 21
413.7741648262
 31
0.0
  0
LINE
  5
17A
  8
0
  6
SLD-SOLID
 62
     7
 10
684.2872477947
 20
423.7741664653
 30
0.0
 11
687.3872555672
 21
423.7741664653
 31
0.0
  0
LINE
  5
17B
  8
0
  6
SLD-SOLID
 62
     7
 10
684.2872477947
 20
413.7741648262
 30
0.0
 11
684.2872477947
 21
423.7741664653
 31
0.0
  0
LINE
  5
17C
  8
0
  6
SLD-SOLID
 62
     7
 10
645.2872581659
 20
423.7741664653
 30
0.0
 11
651.3872571169
 21
423.7741664653
 31
0.0
  0
LINE
  5
17D
  8
0
  6
SLD-SOLID
 62
     7
 10
645.2872581659
 20
413.7741648262
 30
0.0
 11
645.2872581659
 21
416.7741671806
 31
0.0
  0
LINE
  5
17E
  8
0
  6
SLD-SOLID
 62
     7
 10
645.2872581659
 20
420.5122650271
 30
0.0
 11
645.2872581659
 21
423.7741664653
 31
0.0
  0
LINE
  5
17F
  8
0
  6
SLD-SOLID
 62
     7
 10
653.3872462688
 20
413.7741648262
 30
0.0
 11
645.2872581659
 21
413.7741648262
 31
0.0
  0
LINE
  5
180
  8
0
  6
SLD-SOLID
 62
     7
 10
687.3872555672
 20
400.7741682833
 30
0.0
 11
684.2872477947
 21
400.7741682833
 31
0.0
  0
LINE
  5
181
  8
0
  6
SLD-SOLID
 62
     7
 10
684.2872477947
 20
410.7741661971
 30
0.0
 11
687.3872555672
 21
410.7741661971
 31
0.0
  0
LINE
  5
182
  8
0
  6
SLD-SOLID
 62
     7
 10
684.2872477947
 20
400.7741682833
 30
0.0
 11
684.2872477947
 21
410.7741661971
 31
0.0
  0
LINE
  5
183
  8
0
  6
SLD-SOLID
 62
     7
 10
645.2872581659
 20
410.7741661971
 30
0.0
 11
653.3872462688
 21
410.7741661971
 31
0.0
  0
LINE
  5
184
  8
0
  6
SLD-SOLID
 62
     7
 10
645.2872581659
 20
400.7741682833
 30
0.0
 11
645.2872581659
 21
410.7741661971
 31
0.0
  0
LINE
  5
185
  8
0
  6
SLD-SOLID
 62
     7
 10
653.3872462688
 20
400.7741682833
 30
0.0
 11
645.2872581659
 21
400.7741682833
 31
0.0
  0
LINE
  5
186
  8
0
  6
SLD-SOLID
 62
     7
 10
684.2872477947
 20
397.7741622036
 30
0.0
 11
687.3872555672
 21
397.7741622036
 31
0.0
  0
LINE
  5
187
  8
0
  6
SLD-SOLID
 62
     7
 10
684.2872477947
 20
394.7288342422
 30
0.0
 11
684.2872477947
 21
397.7741622036
 31
0.0
  0
LINE
  5
188
  8
0
  6
SLD-SOLID
 62
     7
 10
645.2872581659
 20
397.7741622036
 30
0.0
 11
653.3872462688
 21
397.7741622036
 31
0.0
  0
LINE
  5
189
  8
0
  6
SLD-SOLID
 62
     7
 10
645.2872581659
 20
394.7288342422
 30
0.0
 11
645.2872581659
 21
397.7741622036
 31
0.0
  0
LINE
  5
18A
  8
0
  6
SLD-SOLID
 62
     7
 10
-30.0127588333
 20
539.0741624539
 30
0.0
 11
-30.0127588333
 21
546.0741691893
 31
0.0
  0
LINE
  5
18B
  8
0
  6
SLD-SOLID
 62
     7
 10
-30.0127588333
 20
307.0741616791
 30
0.0
 11
-30.0127588333
 21
314.0741609638
 31
0.0
  0
LINE
  5
18C
  8
0
  6
SLD-SOLID
 62
     7
 10
714.7872425495
 20
314.0741609638
 30
0.0
 11
714.7872425495
 21
307.0741616791
 31
0.0
  0
LINE
  5
18D
  8
0
  6
SLD-SOLID
 62
     7
 10
714.7872425495
 20
546.0741691893
 30
0.0
 11
714.7872425495
 21
539.0741624539
 31
0.0
  0
LINE
  5
18E
  8
0
  6
SLD-SOLID
 62
     7
 10
-27.4627529205
 20
387.9050933426
 30
0.0
 11
-28.7127517285
 21
387.9050933426
 31
0.0
  0
LINE
  5
18F
  8
0
  6
SLD-SOLID
 62
     7
 10
713.487265247
 20
387.9050933426
 30
0.0
 11
712.237266439
 21
387.9050933426
 31
0.0
  0
LINE
  5
190
  8
0
  6
SLD-SOLID
 62
     7
 10
713.487265247
 20
385.6227420872
 30
0.0
 11
713.487265247
 21
387.9050933426
 31
0.0
  0
LINE
  5
191
  8
0
  6
SLD-SOLID
 62
     7
 10
-28.7127517285
 20
385.6227420872
 30
0.0
 11
-28.7127517285
 21
387.9050933426
 31
0.0
  0
ARC
  5
192
  8
0
  6
SLD-SOLID
 62
     7
 10
712.2888385521
 20
450.896134446
 30
0.0
 40
9.745051299532442
 50
82.9359985456
 51
90.3032183331
  0
ARC
  5
193
  8
0
  6
SLD-SOLID
 62
     7
 10
713.5717304409
 20
459.5315098022
 30
0.0
 40
1.039143657301874
 50
46.4833316167
 51
94.6623429768
  0
LINE
  5
194
  8
0
  6
SLD-SOLID
 62
     7
 10
714.2872489868
 20
387.5491120522
 30
0.0
 11
714.2872489868
 21
460.2850698536
 31
0.0
  0
ARC
  5
195
  8
0
  6
SLD-SOLID
 62
     7
 10
713.5717319181
 20
386.7955596081
 30
0.0
 40
1.039137123589944
 50
46.4831018681
 51
94.6624540789
  0
LINE
  5
196
  8
0
  6
SLD-SOLID
 62
     7
 10
-9.6127413334
 20
453.8173027938
 30
0.0
 11
-19.612761599
 21
453.8173027938
 31
0.0
  0
LINE
  5
197
  8
0
  6
SLD-SOLID
 62
     7
 10
-19.612761599
 20
453.8173027938
 30
0.0
 11
-19.612761599
 21
394.7288342422
 31
0.0
  0
LINE
  5
198
  8
0
  6
SLD-SOLID
 62
     7
 10
-19.612761599
 20
394.7288342422
 30
0.0
 11
-9.6127413334
 21
394.7288342422
 31
0.0
  0
LINE
  5
199
  8
0
  6
SLD-SOLID
 62
     7
 10
-9.6127413334
 20
394.7288342422
 30
0.0
 11
-9.6127413334
 21
453.8173027938
 31
0.0
  0
LINE
  5
19A
  8
0
  6
SLD-SOLID
 62
     7
 10
7.3872484146
 20
453.8173027938
 30
0.0
 11
-2.6127420487
 21
453.8173027938
 31
0.0
  0
LINE
  5
19B
  8
0
  6
SLD-SOLID
 62
     7
 10
-2.6127420487
 20
453.8173027938
 30
0.0
 11
-2.6127420487
 21
394.7288342422
 31
0.0
  0
LINE
  5
19C
  8
0
  6
SLD-SOLID
 62
     7
 10
-2.6127420487
 20
394.7288342422
 30
0.0
 11
7.3872484146
 21
394.7288342422
 31
0.0
  0
LINE
  5
19D
  8
0
  6
SLD-SOLID
 62
     7
 10
7.3872484146
 20
394.7288342422
 30
0.0
 11
7.3872484146
 21
453.8173027938
 31
0.0
  0
LINE
  5
19E
  8
0
  6
SLD-SOLID
 62
     7
 10
24.3872381626
 20
453.8173027938
 30
0.0
 11
14.3872476993
 21
453.8173027938
 31
0.0
  0
LINE
  5
19F
  8
0
  6
SLD-SOLID
 62
     7
 10
14.3872476993
 20
453.8173027938
 30
0.0
 11
14.3872476993
 21
394.7288342422
 31
0.0
  0
LINE
  5
1A0
  8
0
  6
SLD-SOLID
 62
     7
 10
14.3872476993
 20
394.7288342422
 30
0.0
 11
24.3872381626
 21
394.7288342422
 31
0.0
  0
LINE
  5
1A1
  8
0
  6
SLD-SOLID
 62
     7
 10
24.3872381626
 20
394.7288342422
 30
0.0
 11
24.3872381626
 21
453.8173027938
 31
0.0
  0
LINE
  5
1A2
  8
0
  6
SLD-SOLID
 62
     7
 10
41.3872577129
 20
453.8173027938
 30
0.0
 11
31.3872374473
 21
453.8173027938
 31
0.0
  0
LINE
  5
1A3
  8
0
  6
SLD-SOLID
 62
     7
 10
31.3872374473
 20
453.8173027938
 30
0.0
 11
31.3872374473
 21
394.7288342422
 31
0.0
  0
LINE
  5
1A4
  8
0
  6
SLD-SOLID
 62
     7
 10
31.3872374473
 20
394.7288342422
 30
0.0
 11
41.3872577129
 21
394.7288342422
 31
0.0
  0
LINE
  5
1A5
  8
0
  6
SLD-SOLID
 62
     7
 10
41.3872577129
 20
394.7288342422
 30
0.0
 11
41.3872577129
 21
453.8173027938
 31
0.0
  0
LINE
  5
1A6
  8
0
  6
SLD-SOLID
 62
     7
 10
58.3872474609
 20
453.8173027938
 30
0.0
 11
48.3872569977
 21
453.8173027938
 31
0.0
  0
LINE
  5
1A7
  8
0
  6
SLD-SOLID
 62
     7
 10
48.3872569977
 20
453.8173027938
 30
0.0
 11
48.3872569977
 21
394.7288342422
 31
0.0
  0
LINE
  5
1A8
  8
0
  6
SLD-SOLID
 62
     7
 10
48.3872569977
 20
394.7288342422
 30
0.0
 11
58.3872474609
 21
394.7288342422
 31
0.0
  0
LINE
  5
1A9
  8
0
  6
SLD-SOLID
 62
     7
 10
58.3872474609
 20
394.7288342422
 30
0.0
 11
58.3872474609
 21
453.8173027938
 31
0.0
  0
LINE
  5
1AA
  8
0
  6
SLD-SOLID
 62
     7
 10
75.3872372089
 20
453.8173027938
 30
0.0
 11
65.3872467457
 21
453.8173027938
 31
0.0
  0
LINE
  5
1AB
  8
0
  6
SLD-SOLID
 62
     7
 10
65.3872467457
 20
453.8173027938
 30
0.0
 11
65.3872467457
 21
394.7288342422
 31
0.0
  0
LINE
  5
1AC
  8
0
  6
SLD-SOLID
 62
     7
 10
65.3872467457
 20
394.7288342422
 30
0.0
 11
75.3872372089
 21
394.7288342422
 31
0.0
  0
LINE
  5
1AD
  8
0
  6
SLD-SOLID
 62
     7
 10
75.3872372089
 20
394.7288342422
 30
0.0
 11
75.3872372089
 21
453.8173027938
 31
0.0
  0
LINE
  5
1AE
  8
0
  6
SLD-SOLID
 62
     7
 10
92.3872567593
 20
453.8173027938
 30
0.0
 11
82.387266296
 21
453.8173027938
 31
0.0
  0
LINE
  5
1AF
  8
0
  6
SLD-SOLID
 62
     7
 10
82.387266296
 20
453.8173027938
 30
0.0
 11
82.387266296
 21
394.7288342422
 31
0.0
  0
LINE
  5
1B0
  8
0
  6
SLD-SOLID
 62
     7
 10
82.387266296
 20
394.7288342422
 30
0.0
 11
92.3872567593
 21
394.7288342422
 31
0.0
  0
LINE
  5
1B1
  8
0
  6
SLD-SOLID
 62
     7
 10
92.3872567593
 20
394.7288342422
 30
0.0
 11
92.3872567593
 21
453.8173027938
 31
0.0
  0
LINE
  5
1B2
  8
0
  6
SLD-SOLID
 62
     7
 10
109.3872465073
 20
453.8173027938
 30
0.0
 11
99.387256044
 21
453.8173027938
 31
0.0
  0
LINE
  5
1B3
  8
0
  6
SLD-SOLID
 62
     7
 10
99.387256044
 20
453.8173027938
 30
0.0
 11
99.387256044
 21
394.7288342422
 31
0.0
  0
LINE
  5
1B4
  8
0
  6
SLD-SOLID
 62
     7
 10
99.387256044
 20
394.7288342422
 30
0.0
 11
109.3872465073
 21
394.7288342422
 31
0.0
  0
LINE
  5
1B5
  8
0
  6
SLD-SOLID
 62
     7
 10
109.3872465073
 20
394.7288342422
 30
0.0
 11
109.3872465073
 21
453.8173027938
 31
0.0
  0
LINE
  5
1B6
  8
0
  6
SLD-SOLID
 62
     7
 10
126.3872660576
 20
453.8173027938
 30
0.0
 11
116.387245792
 21
453.8173027938
 31
0.0
  0
LINE
  5
1B7
  8
0
  6
SLD-SOLID
 62
     7
 10
116.387245792
 20
453.8173027938
 30
0.0
 11
116.387245792
 21
394.7288342422
 31
0.0
  0
LINE
  5
1B8
  8
0
  6
SLD-SOLID
 62
     7
 10
116.387245792
 20
394.7288342422
 30
0.0
 11
126.3872660576
 21
394.7288342422
 31
0.0
  0
LINE
  5
1B9
  8
0
  6
SLD-SOLID
 62
     7
 10
126.3872660576
 20
394.7288342422
 30
0.0
 11
126.3872660576
 21
453.8173027938
 31
0.0
  0
LINE
  5
1BA
  8
0
  6
SLD-SOLID
 62
     7
 10
143.3872558056
 20
453.8173027938
 30
0.0
 11
133.3872653423
 21
453.8173027938
 31
0.0
  0
LINE
  5
1BB
  8
0
  6
SLD-SOLID
 62
     7
 10
133.3872653423
 20
453.8173027938
 30
0.0
 11
133.3872653423
 21
394.7288342422
 31
0.0
  0
LINE
  5
1BC
  8
0
  6
SLD-SOLID
 62
     7
 10
133.3872653423
 20
394.7288342422
 30
0.0
 11
143.3872558056
 21
394.7288342422
 31
0.0
  0
LINE
  5
1BD
  8
0
  6
SLD-SOLID
 62
     7
 10
143.3872558056
 20
394.7288342422
 30
0.0
 11
143.3872558056
 21
453.8173027938
 31
0.0
  0
LINE
  5
1BE
  8
0
  6
SLD-SOLID
 62
     7
 10
160.3872455536
 20
453.8173027938
 30
0.0
 11
150.3872550903
 21
453.8173027938
 31
0.0
  0
LINE
  5
1BF
  8
0
  6
SLD-SOLID
 62
     7
 10
150.3872550903
 20
453.8173027938
 30
0.0
 11
150.3872550903
 21
394.7288342422
 31
0.0
  0
LINE
  5
1C0
  8
0
  6
SLD-SOLID
 62
     7
 10
150.3872550903
 20
394.7288342422
 30
0.0
 11
160.3872455536
 21
394.7288342422
 31
0.0
  0
LINE
  5
1C1
  8
0
  6
SLD-SOLID
 62
     7
 10
160.3872455536
 20
394.7288342422
 30
0.0
 11
160.3872455536
 21
453.8173027938
 31
0.0
  0
LINE
  5
1C2
  8
0
  6
SLD-SOLID
 62
     7
 10
177.3872502027
 20
453.8173027938
 30
0.0
 11
167.3872448383
 21
453.8173027938
 31
0.0
  0
LINE
  5
1C3
  8
0
  6
SLD-SOLID
 62
     7
 10
167.3872448383
 20
453.8173027938
 30
0.0
 11
167.3872448383
 21
394.7288342422
 31
0.0
  0
LINE
  5
1C4
  8
0
  6
SLD-SOLID
 62
     7
 10
167.3872448383
 20
394.7288342422
 30
0.0
 11
177.3872502027
 21
394.7288342422
 31
0.0
  0
LINE
  5
1C5
  8
0
  6
SLD-SOLID
 62
     7
 10
177.3872502027
 20
394.7288342422
 30
0.0
 11
177.3872502027
 21
453.8173027938
 31
0.0
  0
LINE
  5
1C6
  8
0
  6
SLD-SOLID
 62
     7
 10
194.3872548519
 20
453.8173027938
 30
0.0
 11
184.3872494875
 21
453.8173027938
 31
0.0
  0
LINE
  5
1C7
  8
0
  6
SLD-SOLID
 62
     7
 10
184.3872494875
 20
453.8173027938
 30
0.0
 11
184.3872494875
 21
394.7288342422
 31
0.0
  0
LINE
  5
1C8
  8
0
  6
SLD-SOLID
 62
     7
 10
184.3872494875
 20
394.7288342422
 30
0.0
 11
194.3872548519
 21
394.7288342422
 31
0.0
  0
LINE
  5
1C9
  8
0
  6
SLD-SOLID
 62
     7
 10
194.3872548519
 20
394.7288342422
 30
0.0
 11
194.3872548519
 21
453.8173027938
 31
0.0
  0
LINE
  5
1CA
  8
0
  6
SLD-SOLID
 62
     7
 10
211.3872445999
 20
453.8173027938
 30
0.0
 11
201.3872541366
 21
453.8173027938
 31
0.0
  0
LINE
  5
1CB
  8
0
  6
SLD-SOLID
 62
     7
 10
201.3872541366
 20
453.8173027938
 30
0.0
 11
201.3872541366
 21
394.7288342422
 31
0.0
  0
LINE
  5
1CC
  8
0
  6
SLD-SOLID
 62
     7
 10
201.3872541366
 20
394.7288342422
 30
0.0
 11
211.3872445999
 21
394.7288342422
 31
0.0
  0
LINE
  5
1CD
  8
0
  6
SLD-SOLID
 62
     7
 10
211.3872445999
 20
394.7288342422
 30
0.0
 11
211.3872445999
 21
453.8173027938
 31
0.0
  0
LINE
  5
1CE
  8
0
  6
SLD-SOLID
 62
     7
 10
228.3872492491
 20
453.8173027938
 30
0.0
 11
218.3872587858
 21
453.8173027938
 31
0.0
  0
LINE
  5
1CF
  8
0
  6
SLD-SOLID
 62
     7
 10
218.3872587858
 20
453.8173027938
 30
0.0
 11
218.3872587858
 21
394.7288342422
 31
0.0
  0
LINE
  5
1D0
  8
0
  6
SLD-SOLID
 62
     7
 10
218.3872587858
 20
394.7288342422
 30
0.0
 11
228.3872492491
 21
394.7288342422
 31
0.0
  0
LINE
  5
1D1
  8
0
  6
SLD-SOLID
 62
     7
 10
228.3872492491
 20
394.7288342422
 30
0.0
 11
228.3872492491
 21
453.8173027938
 31
0.0
  0
LINE
  5
1D2
  8
0
  6
SLD-SOLID
 62
     7
 10
245.3872538982
 20
453.8173027938
 30
0.0
 11
235.3872485338
 21
453.8173027938
 31
0.0
  0
LINE
  5
1D3
  8
0
  6
SLD-SOLID
 62
     7
 10
235.3872485338
 20
453.8173027938
 30
0.0
 11
235.3872485338
 21
394.7288342422
 31
0.0
  0
LINE
  5
1D4
  8
0
  6
SLD-SOLID
 62
     7
 10
235.3872485338
 20
394.7288342422
 30
0.0
 11
245.3872538982
 21
394.7288342422
 31
0.0
  0
LINE
  5
1D5
  8
0
  6
SLD-SOLID
 62
     7
 10
245.3872538982
 20
394.7288342422
 30
0.0
 11
245.3872538982
 21
453.8173027938
 31
0.0
  0
LINE
  5
1D6
  8
0
  6
SLD-SOLID
 62
     7
 10
262.3872585474
 20
453.8173027938
 30
0.0
 11
252.387253183
 21
453.8173027938
 31
0.0
  0
LINE
  5
1D7
  8
0
  6
SLD-SOLID
 62
     7
 10
252.387253183
 20
453.8173027938
 30
0.0
 11
252.387253183
 21
394.7288342422
 31
0.0
  0
LINE
  5
1D8
  8
0
  6
SLD-SOLID
 62
     7
 10
252.387253183
 20
394.7288342422
 30
0.0
 11
262.3872585474
 21
394.7288342422
 31
0.0
  0
LINE
  5
1D9
  8
0
  6
SLD-SOLID
 62
     7
 10
262.3872585474
 20
394.7288342422
 30
0.0
 11
262.3872585474
 21
453.8173027938
 31
0.0
  0
LINE
  5
1DA
  8
0
  6
SLD-SOLID
 62
     7
 10
279.3872482954
 20
453.8173027938
 30
0.0
 11
269.3872578321
 21
453.8173027938
 31
0.0
  0
LINE
  5
1DB
  8
0
  6
SLD-SOLID
 62
     7
 10
269.3872578321
 20
453.8173027938
 30
0.0
 11
269.3872578321
 21
394.7288342422
 31
0.0
  0
LINE
  5
1DC
  8
0
  6
SLD-SOLID
 62
     7
 10
269.3872578321
 20
394.7288342422
 30
0.0
 11
279.3872482954
 21
394.7288342422
 31
0.0
  0
LINE
  5
1DD
  8
0
  6
SLD-SOLID
 62
     7
 10
279.3872482954
 20
394.7288342422
 30
0.0
 11
279.3872482954
 21
453.8173027938
 31
0.0
  0
LINE
  5
1DE
  8
0
  6
SLD-SOLID
 62
     7
 10
296.3872529446
 20
453.8173027938
 30
0.0
 11
286.3872475801
 21
453.8173027938
 31
0.0
  0
LINE
  5
1DF
  8
0
  6
SLD-SOLID
 62
     7
 10
286.3872475801
 20
453.8173027938
 30
0.0
 11
286.3872475801
 21
394.7288342422
 31
0.0
  0
LINE
  5
1E0
  8
0
  6
SLD-SOLID
 62
     7
 10
286.3872475801
 20
394.7288342422
 30
0.0
 11
296.3872529446
 21
394.7288342422
 31
0.0
  0
LINE
  5
1E1
  8
0
  6
SLD-SOLID
 62
     7
 10
296.3872529446
 20
394.7288342422
 30
0.0
 11
296.3872529446
 21
453.8173027938
 31
0.0
  0
LINE
  5
1E2
  8
0
  6
SLD-SOLID
 62
     7
 10
313.3872501431
 20
453.8173027938
 30
0.0
 11
303.3872522293
 21
453.8173027938
 31
0.0
  0
LINE
  5
1E3
  8
0
  6
SLD-SOLID
 62
     7
 10
303.3872522293
 20
453.8173027938
 30
0.0
 11
303.3872522293
 21
394.7288342422
 31
0.0
  0
LINE
  5
1E4
  8
0
  6
SLD-SOLID
 62
     7
 10
303.3872522293
 20
394.7288342422
 30
0.0
 11
313.3872501431
 21
394.7288342422
 31
0.0
  0
LINE
  5
1E5
  8
0
  6
SLD-SOLID
 62
     7
 10
313.3872501431
 20
394.7288342422
 30
0.0
 11
313.3872501431
 21
453.8173027938
 31
0.0
  0
LINE
  5
1E6
  8
0
  6
SLD-SOLID
 62
     7
 10
330.3872547923
 20
453.8173027938
 30
0.0
 11
320.3872494279
 21
453.8173027938
 31
0.0
  0
LINE
  5
1E7
  8
0
  6
SLD-SOLID
 62
     7
 10
320.3872494279
 20
453.8173027938
 30
0.0
 11
320.3872494279
 21
394.7288342422
 31
0.0
  0
LINE
  5
1E8
  8
0
  6
SLD-SOLID
 62
     7
 10
320.3872494279
 20
394.7288342422
 30
0.0
 11
330.3872547923
 21
394.7288342422
 31
0.0
  0
LINE
  5
1E9
  8
0
  6
SLD-SOLID
 62
     7
 10
330.3872547923
 20
394.7288342422
 30
0.0
 11
330.3872547923
 21
453.8173027938
 31
0.0
  0
LINE
  5
1EA
  8
0
  6
SLD-SOLID
 62
     7
 10
347.3872519909
 20
453.8173027938
 30
0.0
 11
337.387254077
 21
453.8173027938
 31
0.0
  0
LINE
  5
1EB
  8
0
  6
SLD-SOLID
 62
     7
 10
337.387254077
 20
453.8173027938
 30
0.0
 11
337.387254077
 21
394.7288342422
 31
0.0
  0
LINE
  5
1EC
  8
0
  6
SLD-SOLID
 62
     7
 10
337.387254077
 20
394.7288342422
 30
0.0
 11
347.3872519909
 21
394.7288342422
 31
0.0
  0
LINE
  5
1ED
  8
0
  6
SLD-SOLID
 62
     7
 10
347.3872519909
 20
394.7288342422
 30
0.0
 11
347.3872519909
 21
453.8173027938
 31
0.0
  0
LINE
  5
1EE
  8
0
  6
SLD-SOLID
 62
     7
 10
364.3872529148
 20
453.8173027938
 30
0.0
 11
354.3872512756
 21
453.8173027938
 31
0.0
  0
LINE
  5
1EF
  8
0
  6
SLD-SOLID
 62
     7
 10
354.3872512756
 20
453.8173027938
 30
0.0
 11
354.3872512756
 21
394.7288342422
 31
0.0
  0
LINE
  5
1F0
  8
0
  6
SLD-SOLID
 62
     7
 10
354.3872512756
 20
394.7288342422
 30
0.0
 11
364.3872529148
 21
394.7288342422
 31
0.0
  0
LINE
  5
1F1
  8
0
  6
SLD-SOLID
 62
     7
 10
364.3872529148
 20
394.7288342422
 30
0.0
 11
364.3872529148
 21
453.8173027938
 31
0.0
  0
LINE
  5
1F2
  8
0
  6
SLD-SOLID
 62
     7
 10
381.3872501133
 20
453.8173027938
 30
0.0
 11
371.3872521995
 21
453.8173027938
 31
0.0
  0
LINE
  5
1F3
  8
0
  6
SLD-SOLID
 62
     7
 10
371.3872521995
 20
453.8173027938
 30
0.0
 11
371.3872521995
 21
394.7288342422
 31
0.0
  0
LINE
  5
1F4
  8
0
  6
SLD-SOLID
 62
     7
 10
371.3872521995
 20
394.7288342422
 30
0.0
 11
381.3872501133
 21
394.7288342422
 31
0.0
  0
LINE
  5
1F5
  8
0
  6
SLD-SOLID
 62
     7
 10
381.3872501133
 20
394.7288342422
 30
0.0
 11
381.3872501133
 21
453.8173027938
 31
0.0
  0
LINE
  5
1F6
  8
0
  6
SLD-SOLID
 62
     7
 10
398.3872510372
 20
453.8173027938
 30
0.0
 11
388.3872512607
 21
453.8173027938
 31
0.0
  0
LINE
  5
1F7
  8
0
  6
SLD-SOLID
 62
     7
 10
388.3872512607
 20
453.8173027938
 30
0.0
 11
388.3872512607
 21
394.7288342422
 31
0.0
  0
LINE
  5
1F8
  8
0
  6
SLD-SOLID
 62
     7
 10
388.3872512607
 20
394.7288342422
 30
0.0
 11
398.3872510372
 21
394.7288342422
 31
0.0
  0
LINE
  5
1F9
  8
0
  6
SLD-SOLID
 62
     7
 10
398.3872510372
 20
394.7288342422
 30
0.0
 11
398.3872510372
 21
453.8173027938
 31
0.0
  0
LINE
  5
1FA
  8
0
  6
SLD-SOLID
 62
     7
 10
415.3872516118
 20
453.8173027938
 30
0.0
 11
405.3872512533
 21
453.8173027938
 31
0.0
  0
LINE
  5
1FB
  8
0
  6
SLD-SOLID
 62
     7
 10
405.3872512533
 20
453.8173027938
 30
0.0
 11
405.3872512533
 21
394.7288342422
 31
0.0
  0
LINE
  5
1FC
  8
0
  6
SLD-SOLID
 62
     7
 10
405.3872512533
 20
394.7288342422
 30
0.0
 11
415.3872516118
 21
394.7288342422
 31
0.0
  0
LINE
  5
1FD
  8
0
  6
SLD-SOLID
 62
     7
 10
415.3872516118
 20
394.7288342422
 30
0.0
 11
415.3872516118
 21
453.8173027938
 31
0.0
  0
LINE
  5
1FE
  8
0
  6
SLD-SOLID
 62
     7
 10
432.3872519536
 20
453.8173027938
 30
0.0
 11
422.3872517115
 21
453.8173027938
 31
0.0
  0
LINE
  5
1FF
  8
0
  6
SLD-SOLID
 62
     7
 10
422.3872517115
 20
453.8173027938
 30
0.0
 11
422.3872517115
 21
394.7288342422
 31
0.0
  0
LINE
  5
200
  8
0
  6
SLD-SOLID
 62
     7
 10
422.3872517115
 20
394.7288342422
 30
0.0
 11
432.3872519536
 21
394.7288342422
 31
0.0
  0
LINE
  5
201
  8
0
  6
SLD-SOLID
 62
     7
 10
432.3872519536
 20
394.7288342422
 30
0.0
 11
432.3872519536
 21
453.8173027938
 31
0.0
  0
LINE
  5
202
  8
0
  6
SLD-SOLID
 62
     7
 10
449.3872500835
 20
453.8173027938
 30
0.0
 11
439.3872521697
 21
453.8173027938
 31
0.0
  0
LINE
  5
203
  8
0
  6
SLD-SOLID
 62
     7
 10
439.3872521697
 20
453.8173027938
 30
0.0
 11
439.3872521697
 21
394.7288342422
 31
0.0
  0
LINE
  5
204
  8
0
  6
SLD-SOLID
 62
     7
 10
439.3872521697
 20
394.7288342422
 30
0.0
 11
449.3872500835
 21
394.7288342422
 31
0.0
  0
LINE
  5
205
  8
0
  6
SLD-SOLID
 62
     7
 10
449.3872500835
 20
394.7288342422
 30
0.0
 11
449.3872500835
 21
453.8173027938
 31
0.0
  0
LINE
  5
206
  8
0
  6
SLD-SOLID
 62
     7
 10
466.3872510074
 20
453.8173027938
 30
0.0
 11
456.3872530936
 21
453.8173027938
 31
0.0
  0
LINE
  5
207
  8
0
  6
SLD-SOLID
 62
     7
 10
456.3872530936
 20
453.8173027938
 30
0.0
 11
456.3872530936
 21
394.7288342422
 31
0.0
  0
LINE
  5
208
  8
0
  6
SLD-SOLID
 62
     7
 10
456.3872530936
 20
394.7288342422
 30
0.0
 11
466.3872510074
 21
394.7288342422
 31
0.0
  0
LINE
  5
209
  8
0
  6
SLD-SOLID
 62
     7
 10
466.3872510074
 20
394.7288342422
 30
0.0
 11
466.3872510074
 21
453.8173027938
 31
0.0
  0
LINE
  5
20A
  8
0
  6
SLD-SOLID
 62
     7
 10
483.3872519313
 20
453.8173027938
 30
0.0
 11
473.3872502921
 21
453.8173027938
 31
0.0
  0
LINE
  5
20B
  8
0
  6
SLD-SOLID
 62
     7
 10
473.3872502921
 20
453.8173027938
 30
0.0
 11
473.3872502921
 21
394.7288342422
 31
0.0
  0
LINE
  5
20C
  8
0
  6
SLD-SOLID
 62
     7
 10
473.3872502921
 20
394.7288342422
 30
0.0
 11
483.3872519313
 21
394.7288342422
 31
0.0
  0
LINE
  5
20D
  8
0
  6
SLD-SOLID
 62
     7
 10
483.3872519313
 20
394.7288342422
 30
0.0
 11
483.3872519313
 21
453.8173027938
 31
0.0
  0
LINE
  5
20E
  8
0
  6
SLD-SOLID
 62
     7
 10
500.3872491299
 20
453.8173027938
 30
0.0
 11
490.387251216
 21
453.8173027938
 31
0.0
  0
LINE
  5
20F
  8
0
  6
SLD-SOLID
 62
     7
 10
490.387251216
 20
453.8173027938
 30
0.0
 11
490.387251216
 21
394.7288342422
 31
0.0
  0
LINE
  5
210
  8
0
  6
SLD-SOLID
 62
     7
 10
490.387251216
 20
394.7288342422
 30
0.0
 11
500.3872491299
 21
394.7288342422
 31
0.0
  0
LINE
  5
211
  8
0
  6
SLD-SOLID
 62
     7
 10
500.3872491299
 20
394.7288342422
 30
0.0
 11
500.3872491299
 21
453.8173027938
 31
0.0
  0
LINE
  5
212
  8
0
  6
SLD-SOLID
 62
     7
 10
517.387253779
 20
453.8173027938
 30
0.0
 11
507.3872484146
 21
453.8173027938
 31
0.0
  0
LINE
  5
213
  8
0
  6
SLD-SOLID
 62
     7
 10
507.3872484146
 20
453.8173027938
 30
0.0
 11
507.3872484146
 21
394.7288342422
 31
0.0
  0
LINE
  5
214
  8
0
  6
SLD-SOLID
 62
     7
 10
507.3872484146
 20
394.7288342422
 30
0.0
 11
517.387253779
 21
394.7288342422
 31
0.0
  0
LINE
  5
215
  8
0
  6
SLD-SOLID
 62
     7
 10
517.387253779
 20
394.7288342422
 30
0.0
 11
517.387253779
 21
453.8173027938
 31
0.0
  0
LINE
  5
216
  8
0
  6
SLD-SOLID
 62
     7
 10
534.3872509776
 20
453.8173027938
 30
0.0
 11
524.3872530638
 21
453.8173027938
 31
0.0
  0
LINE
  5
217
  8
0
  6
SLD-SOLID
 62
     7
 10
524.3872530638
 20
453.8173027938
 30
0.0
 11
524.3872530638
 21
394.7288342422
 31
0.0
  0
LINE
  5
218
  8
0
  6
SLD-SOLID
 62
     7
 10
524.3872530638
 20
394.7288342422
 30
0.0
 11
534.3872509776
 21
394.7288342422
 31
0.0
  0
LINE
  5
219
  8
0
  6
SLD-SOLID
 62
     7
 10
534.3872509776
 20
394.7288342422
 30
0.0
 11
534.3872509776
 21
453.8173027938
 31
0.0
  0
LINE
  5
21A
  8
0
  6
SLD-SOLID
 62
     7
 10
551.3872481762
 20
453.8173027938
 30
0.0
 11
541.3872502623
 21
453.8173027938
 31
0.0
  0
LINE
  5
21B
  8
0
  6
SLD-SOLID
 62
     7
 10
541.3872502623
 20
453.8173027938
 30
0.0
 11
541.3872502623
 21
394.7288342422
 31
0.0
  0
LINE
  5
21C
  8
0
  6
SLD-SOLID
 62
     7
 10
541.3872502623
 20
394.7288342422
 30
0.0
 11
551.3872481762
 21
394.7288342422
 31
0.0
  0
LINE
  5
21D
  8
0
  6
SLD-SOLID
 62
     7
 10
551.3872481762
 20
394.7288342422
 30
0.0
 11
551.3872481762
 21
453.8173027938
 31
0.0
  0
LINE
  5
21E
  8
0
  6
SLD-SOLID
 62
     7
 10
568.3872528253
 20
453.8173027938
 30
0.0
 11
558.3872474609
 21
453.8173027938
 31
0.0
  0
LINE
  5
21F
  8
0
  6
SLD-SOLID
 62
     7
 10
558.3872474609
 20
453.8173027938
 30
0.0
 11
558.3872474609
 21
394.7288342422
 31
0.0
  0
LINE
  5
220
  8
0
  6
SLD-SOLID
 62
     7
 10
558.3872474609
 20
394.7288342422
 30
0.0
 11
568.3872528253
 21
394.7288342422
 31
0.0
  0
LINE
  5
221
  8
0
  6
SLD-SOLID
 62
     7
 10
568.3872528253
 20
394.7288342422
 30
0.0
 11
568.3872528253
 21
453.8173027938
 31
0.0
  0
LINE
  5
222
  8
0
  6
SLD-SOLID
 62
     7
 10
585.3872574745
 20
453.8173027938
 30
0.0
 11
575.3872521101
 21
453.8173027938
 31
0.0
  0
LINE
  5
223
  8
0
  6
SLD-SOLID
 62
     7
 10
575.3872521101
 20
453.8173027938
 30
0.0
 11
575.3872521101
 21
394.7288342422
 31
0.0
  0
LINE
  5
224
  8
0
  6
SLD-SOLID
 62
     7
 10
575.3872521101
 20
394.7288342422
 30
0.0
 11
585.3872574745
 21
394.7288342422
 31
0.0
  0
LINE
  5
225
  8
0
  6
SLD-SOLID
 62
     7
 10
585.3872574745
 20
394.7288342422
 30
0.0
 11
585.3872574745
 21
453.8173027938
 31
0.0
  0
LINE
  5
226
  8
0
  6
SLD-SOLID
 62
     7
 10
602.3872472225
 20
453.8173027938
 30
0.0
 11
592.3872567593
 21
453.8173027938
 31
0.0
  0
LINE
  5
227
  8
0
  6
SLD-SOLID
 62
     7
 10
592.3872567593
 20
453.8173027938
 30
0.0
 11
592.3872567593
 21
394.7288342422
 31
0.0
  0
LINE
  5
228
  8
0
  6
SLD-SOLID
 62
     7
 10
592.3872567593
 20
394.7288342422
 30
0.0
 11
602.3872472225
 21
394.7288342422
 31
0.0
  0
LINE
  5
229
  8
0
  6
SLD-SOLID
 62
     7
 10
602.3872472225
 20
394.7288342422
 30
0.0
 11
602.3872472225
 21
453.8173027938
 31
0.0
  0
LINE
  5
22A
  8
0
  6
SLD-SOLID
 62
     7
 10
619.3872518717
 20
453.8173027938
 30
0.0
 11
609.3872465073
 21
453.8173027938
 31
0.0
  0
LINE
  5
22B
  8
0
  6
SLD-SOLID
 62
     7
 10
609.3872465073
 20
453.8173027938
 30
0.0
 11
609.3872465073
 21
394.7288342422
 31
0.0
  0
LINE
  5
22C
  8
0
  6
SLD-SOLID
 62
     7
 10
609.3872465073
 20
394.7288342422
 30
0.0
 11
619.3872518717
 21
394.7288342422
 31
0.0
  0
LINE
  5
22D
  8
0
  6
SLD-SOLID
 62
     7
 10
619.3872518717
 20
394.7288342422
 30
0.0
 11
619.3872518717
 21
453.8173027938
 31
0.0
  0
LINE
  5
22E
  8
0
  6
SLD-SOLID
 62
     7
 10
636.3872565208
 20
453.8173027938
 30
0.0
 11
626.3872511564
 21
453.8173027938
 31
0.0
  0
LINE
  5
22F
  8
0
  6
SLD-SOLID
 62
     7
 10
626.3872511564
 20
453.8173027938
 30
0.0
 11
626.3872511564
 21
394.7288342422
 31
0.0
  0
LINE
  5
230
  8
0
  6
SLD-SOLID
 62
     7
 10
626.3872511564
 20
394.7288342422
 30
0.0
 11
636.3872565208
 21
394.7288342422
 31
0.0
  0
LINE
  5
231
  8
0
  6
SLD-SOLID
 62
     7
 10
636.3872565208
 20
394.7288342422
 30
0.0
 11
636.3872565208
 21
453.8173027938
 31
0.0
  0
LINE
  5
232
  8
0
  6
SLD-SOLID
 62
     7
 10
653.3872462688
 20
453.8173027938
 30
0.0
 11
643.3872558056
 21
453.8173027938
 31
0.0
  0
LINE
  5
233
  8
0
  6
SLD-SOLID
 62
     7
 10
643.3872558056
 20
453.8173027938
 30
0.0
 11
643.3872558056
 21
394.7288342422
 31
0.0
  0
LINE
  5
234
  8
0
  6
SLD-SOLID
 62
     7
 10
643.3872558056
 20
394.7288342422
 30
0.0
 11
653.3872462688
 21
394.7288342422
 31
0.0
  0
LINE
  5
235
  8
0
  6
SLD-SOLID
 62
     7
 10
653.3872462688
 20
394.7288342422
 30
0.0
 11
653.3872462688
 21
453.8173027938
 31
0.0
  0
LINE
  5
236
  8
0
  6
SLD-SOLID
 62
     7
 10
670.3872658192
 20
453.8173027938
 30
0.0
 11
660.3872455536
 21
453.8173027938
 31
0.0
  0
LINE
  5
237
  8
0
  6
SLD-SOLID
 62
     7
 10
660.3872455536
 20
453.8173027938
 30
0.0
 11
660.3872455536
 21
394.7288342422
 31
0.0
  0
LINE
  5
238
  8
0
  6
SLD-SOLID
 62
     7
 10
660.3872455536
 20
394.7288342422
 30
0.0
 11
670.3872658192
 21
394.7288342422
 31
0.0
  0
LINE
  5
239
  8
0
  6
SLD-SOLID
 62
     7
 10
670.3872658192
 20
394.7288342422
 30
0.0
 11
670.3872658192
 21
453.8173027938
 31
0.0
  0
LINE
  5
23A
  8
0
  6
SLD-SOLID
 62
     7
 10
687.3872555672
 20
453.8173027938
 30
0.0
 11
677.3872651039
 21
453.8173027938
 31
0.0
  0
LINE
  5
23B
  8
0
  6
SLD-SOLID
 62
     7
 10
677.3872651039
 20
453.8173027938
 30
0.0
 11
677.3872651039
 21
394.7288342422
 31
0.0
  0
LINE
  5
23C
  8
0
  6
SLD-SOLID
 62
     7
 10
677.3872651039
 20
394.7288342422
 30
0.0
 11
687.3872555672
 21
394.7288342422
 31
0.0
  0
LINE
  5
23D
  8
0
  6
SLD-SOLID
 62
     7
 10
687.3872555672
 20
394.7288342422
 30
0.0
 11
687.3872555672
 21
453.8173027938
 31
0.0
  0
LINE
  5
23E
  8
0
  6
SLD-SOLID
 62
     7
 10
704.3872453152
 20
453.8173027938
 30
0.0
 11
694.3872548519
 21
453.8173027938
 31
0.0
  0
LINE
  5
23F
  8
0
  6
SLD-SOLID
 62
     7
 10
694.3872548519
 20
453.8173027938
 30
0.0
 11
694.3872548519
 21
394.7288342422
 31
0.0
  0
LINE
  5
240
  8
0
  6
SLD-SOLID
 62
     7
 10
694.3872548519
 20
394.7288342422
 30
0.0
 11
704.3872453152
 21
394.7288342422
 31
0.0
  0
LINE
  5
241
  8
0
  6
SLD-SOLID
 62
     7
 10
704.3872453152
 20
394.7288342422
 30
0.0
 11
704.3872453152
 21
453.8173027938
 31
0.0
  0
ARC
  5
242
  8
0
  6
SLD-SOLID
 62
     7
 10
-28.7972629059
 20
386.7956857991
 30
0.0
 40
1.03901496933589
 50
85.3345341328
 51
133.5199099201
  0
LINE
  5
243
  8
0
  6
SLD-SOLID
 62
     7
 10
-29.5127354683
 20
460.2850698536
 30
0.0
 11
-29.5127354683
 21
387.5491120522
 31
0.0
  0
ARC
  5
244
  8
0
  6
SLD-SOLID
 62
     7
 10
-28.797261429
 20
459.5316359946
 30
0.0
 40
1.039021501633278
 50
85.334645243
 51
133.5196801635
  0
ARC
  5
245
  8
0
  6
SLD-SOLID
 62
     7
 10
-27.51435962
 20
450.8967199859
 30
0.0
 40
9.744465950922201
 50
89.6965600876
 51
97.0642230337
  0
LINE
  5
246
  8
0
  6
SLD-SOLID
 62
     7
 10
713.487265247
 20
377.4133571094
 30
0.0
 11
712.237266439
 21
377.4133571094
 31
0.0
  0
LINE
  5
247
  8
0
  6
SLD-SOLID
 62
     7
 10
-27.4627529205
 20
377.4133571094
 30
0.0
 11
-28.7127517285
 21
377.4133571094
 31
0.0
  0
LINE
  5
248
  8
0
  6
SLD-SOLID
 62
     7
 10
-28.7127517285
 20
377.4133571094
 30
0.0
 11
-28.7127517285
 21
385.6227420872
 31
0.0
  0
LINE
  5
249
  8
0
  6
SLD-SOLID
 62
     7
 10
713.487265247
 20
377.4133571094
 30
0.0
 11
713.487265247
 21
385.6227420872
 31
0.0
  0
LINE
  5
24A
  8
0
  6
SLD-SOLID
 62
     7
 10
-29.5127354683
 20
378.2590799635
 30
0.0
 11
-28.7127517285
 21
378.2590799635
 31
0.0
  0
LINE
  5
24B
  8
0
  6
SLD-SOLID
 62
     7
 10
-29.5127354683
 20
386.4684649413
 30
0.0
 11
-29.5127354683
 21
378.2590799635
 31
0.0
  0
LINE
  5
24C
  8
0
  6
SLD-SOLID
 62
     7
 10
-29.5127354683
 20
386.4684649413
 30
0.0
 11
-28.7127517285
 21
386.4684649413
 31
0.0
  0
LINE
  5
24D
  8
0
  6
SLD-SOLID
 62
     7
 10
-29.5127354683
 20
387.5404321259
 30
0.0
 11
-28.7127517285
 21
387.5404321259
 31
0.0
  0
LINE
  5
24E
  8
0
  6
SLD-SOLID
 62
     7
 10
-29.5127354683
 20
387.5404321259
 30
0.0
 11
-29.5127354683
 21
386.4684649413
 31
0.0
  0
LINE
  5
24F
  8
0
  6
SLD-SOLID
 62
     7
 10
714.2872489868
 20
386.4684649413
 30
0.0
 11
713.487265247
 21
386.4684649413
 31
0.0
  0
LINE
  5
250
  8
0
  6
SLD-SOLID
 62
     7
 10
714.2872489868
 20
386.4684649413
 30
0.0
 11
714.2872489868
 21
378.2590799635
 31
0.0
  0
LINE
  5
251
  8
0
  6
SLD-SOLID
 62
     7
 10
714.2872489868
 20
378.2590799635
 30
0.0
 11
713.487265247
 21
378.2590799635
 31
0.0
  0
LINE
  5
252
  8
0
  6
SLD-SOLID
 62
     7
 10
714.2872489868
 20
387.5404321259
 30
0.0
 11
713.487265247
 21
387.5404321259
 31
0.0
  0
LINE
  5
253
  8
0
  6
SLD-SOLID
 62
     7
 10
714.2872489868
 20
387.5404321259
 30
0.0
 11
714.2872489868
 21
386.4684649413
 31
0.0
  0
LINE
  5
254
  8
0
  6
SLD-SOLID
 62
     7
 10
714.2872489868
 20
387.5491120522
 30
0.0
 11
714.2872489868
 21
387.5404321259
 31
0.0
  0
LINE
  5
255
  8
0
  6
SLD-SOLID
 62
     7
 10
-29.5127354683
 20
387.5491120522
 30
0.0
 11
-29.5127354683
 21
387.5404321259
 31
0.0
  0
LINE
  5
256
  8
0
  6
SLD-SOLID
 62
     7
 10
24.3872381626
 20
453.6783848559
 30
0.0
 11
14.3872476993
 21
453.6783848559
 31
0.0
  0
LINE
  5
257
  8
0
  6
SLD-SOLID
 62
     7
 10
500.3872491299
 20
453.6783848559
 30
0.0
 11
490.387251216
 21
453.6783848559
 31
0.0
  0
LINE
  5
258
  8
0
  6
SLD-SOLID
 62
     7
 10
296.3872529446
 20
453.6783848559
 30
0.0
 11
286.3872475801
 21
453.6783848559
 31
0.0
  0
LINE
  5
259
  8
0
  6
SLD-SOLID
 62
     7
 10
194.3872548519
 20
453.6783848559
 30
0.0
 11
184.3872494875
 21
453.6783848559
 31
0.0
  0
LINE
  5
25A
  8
0
  6
SLD-SOLID
 62
     7
 10
619.3872518717
 20
453.6783848559
 30
0.0
 11
609.3872465073
 21
453.6783848559
 31
0.0
  0
LINE
  5
25B
  8
0
  6
SLD-SOLID
 62
     7
 10
262.3872585474
 20
453.6783848559
 30
0.0
 11
252.387253183
 21
453.6783848559
 31
0.0
  0
LINE
  5
25C
  8
0
  6
SLD-SOLID
 62
     7
 10
330.3872547923
 20
453.6783848559
 30
0.0
 11
320.3872494279
 21
453.6783848559
 31
0.0
  0
LINE
  5
25D
  8
0
  6
SLD-SOLID
 62
     7
 10
75.3872372089
 20
453.6783848559
 30
0.0
 11
65.3872467457
 21
453.6783848559
 31
0.0
  0
LINE
  5
25E
  8
0
  6
SLD-SOLID
 62
     7
 10
143.3872558056
 20
453.6783848559
 30
0.0
 11
133.3872653423
 21
453.6783848559
 31
0.0
  0
LINE
  5
25F
  8
0
  6
SLD-SOLID
 62
     7
 10
534.3872509776
 20
453.6783848559
 30
0.0
 11
524.3872530638
 21
453.6783848559
 31
0.0
  0
LINE
  5
260
  8
0
  6
SLD-SOLID
 62
     7
 10
449.3872500835
 20
453.6783848559
 30
0.0
 11
439.3872521697
 21
453.6783848559
 31
0.0
  0
LINE
  5
261
  8
0
  6
SLD-SOLID
 62
     7
 10
-9.6127413334
 20
453.6783848559
 30
0.0
 11
-19.612761599
 21
453.6783848559
 31
0.0
  0
LINE
  5
262
  8
0
  6
SLD-SOLID
 62
     7
 10
7.3872484146
 20
453.6783848559
 30
0.0
 11
-2.6127420487
 21
453.6783848559
 31
0.0
  0
LINE
  5
263
  8
0
  6
SLD-SOLID
 62
     7
 10
313.3872501431
 20
453.6783848559
 30
0.0
 11
303.3872522293
 21
453.6783848559
 31
0.0
  0
LINE
  5
264
  8
0
  6
SLD-SOLID
 62
     7
 10
228.3872492491
 20
453.6783848559
 30
0.0
 11
218.3872587858
 21
453.6783848559
 31
0.0
  0
LINE
  5
265
  8
0
  6
SLD-SOLID
 62
     7
 10
109.3872465073
 20
453.6783848559
 30
0.0
 11
99.387256044
 21
453.6783848559
 31
0.0
  0
LINE
  5
266
  8
0
  6
SLD-SOLID
 62
     7
 10
381.3872501133
 20
453.6783848559
 30
0.0
 11
371.3872521995
 21
453.6783848559
 31
0.0
  0
LINE
  5
267
  8
0
  6
SLD-SOLID
 62
     7
 10
568.3872528253
 20
453.6783848559
 30
0.0
 11
558.3872474609
 21
453.6783848559
 31
0.0
  0
LINE
  5
268
  8
0
  6
SLD-SOLID
 62
     7
 10
245.3872538982
 20
453.6783848559
 30
0.0
 11
235.3872485338
 21
453.6783848559
 31
0.0
  0
LINE
  5
269
  8
0
  6
SLD-SOLID
 62
     7
 10
126.3872660576
 20
453.6783848559
 30
0.0
 11
116.387245792
 21
453.6783848559
 31
0.0
  0
LINE
  5
26A
  8
0
  6
SLD-SOLID
 62
     7
 10
551.3872481762
 20
453.6783848559
 30
0.0
 11
541.3872502623
 21
453.6783848559
 31
0.0
  0
LINE
  5
26B
  8
0
  6
SLD-SOLID
 62
     7
 10
466.3872510074
 20
453.6783848559
 30
0.0
 11
456.3872530936
 21
453.6783848559
 31
0.0
  0
LINE
  5
26C
  8
0
  6
SLD-SOLID
 62
     7
 10
347.3872519909
 20
453.6783848559
 30
0.0
 11
337.387254077
 21
453.6783848559
 31
0.0
  0
LINE
  5
26D
  8
0
  6
SLD-SOLID
 62
     7
 10
653.3872462688
 20
453.6783848559
 30
0.0
 11
643.3872558056
 21
453.6783848559
 31
0.0
  0
LINE
  5
26E
  8
0
  6
SLD-SOLID
 62
     7
 10
58.3872474609
 20
453.6783848559
 30
0.0
 11
48.3872569977
 21
453.6783848559
 31
0.0
  0
LINE
  5
26F
  8
0
  6
SLD-SOLID
 62
     7
 10
483.3872519313
 20
453.6783848559
 30
0.0
 11
473.3872502921
 21
453.6783848559
 31
0.0
  0
LINE
  5
270
  8
0
  6
SLD-SOLID
 62
     7
 10
364.3872529148
 20
453.6783848559
 30
0.0
 11
354.3872512756
 21
453.6783848559
 31
0.0
  0
LINE
  5
271
  8
0
  6
SLD-SOLID
 62
     7
 10
670.3872658192
 20
453.6783848559
 30
0.0
 11
660.3872455536
 21
453.6783848559
 31
0.0
  0
LINE
  5
272
  8
0
  6
SLD-SOLID
 62
     7
 10
704.3872453152
 20
453.6783848559
 30
0.0
 11
694.3872548519
 21
453.6783848559
 31
0.0
  0
LINE
  5
273
  8
0
  6
SLD-SOLID
 62
     7
 10
92.3872567593
 20
453.6783848559
 30
0.0
 11
82.387266296
 21
453.6783848559
 31
0.0
  0
LINE
  5
274
  8
0
  6
SLD-SOLID
 62
     7
 10
398.3872510372
 20
453.6783848559
 30
0.0
 11
388.3872512607
 21
453.6783848559
 31
0.0
  0
LINE
  5
275
  8
0
  6
SLD-SOLID
 62
     7
 10
687.3872555672
 20
453.6783848559
 30
0.0
 11
677.3872651039
 21
453.6783848559
 31
0.0
  0
LINE
  5
276
  8
0
  6
SLD-SOLID
 62
     7
 10
585.3872574745
 20
453.6783848559
 30
0.0
 11
575.3872521101
 21
453.6783848559
 31
0.0
  0
LINE
  5
277
  8
0
  6
SLD-SOLID
 62
     7
 10
602.3872472225
 20
453.6783848559
 30
0.0
 11
592.3872567593
 21
453.6783848559
 31
0.0
  0
LINE
  5
278
  8
0
  6
SLD-SOLID
 62
     7
 10
41.3872577129
 20
453.6783848559
 30
0.0
 11
31.3872374473
 21
453.6783848559
 31
0.0
  0
LINE
  5
279
  8
0
  6
SLD-SOLID
 62
     7
 10
177.3872502027
 20
453.6783848559
 30
0.0
 11
167.3872448383
 21
453.6783848559
 31
0.0
  0
LINE
  5
27A
  8
0
  6
SLD-SOLID
 62
     7
 10
415.3872516118
 20
453.6783848559
 30
0.0
 11
405.3872512533
 21
453.6783848559
 31
0.0
  0
LINE
  5
27B
  8
0
  6
SLD-SOLID
 62
     7
 10
432.3872519536
 20
453.6783848559
 30
0.0
 11
422.3872517115
 21
453.6783848559
 31
0.0
  0
LINE
  5
27C
  8
0
  6
SLD-SOLID
 62
     7
 10
279.3872482954
 20
453.6783848559
 30
0.0
 11
269.3872578321
 21
453.6783848559
 31
0.0
  0
LINE
  5
27D
  8
0
  6
SLD-SOLID
 62
     7
 10
160.3872455536
 20
453.6783848559
 30
0.0
 11
150.3872550903
 21
453.6783848559
 31
0.0
  0
LINE
  5
27E
  8
0
  6
SLD-SOLID
 62
     7
 10
211.3872445999
 20
453.6783848559
 30
0.0
 11
201.3872541366
 21
453.6783848559
 31
0.0
  0
LINE
  5
27F
  8
0
  6
SLD-SOLID
 62
     7
 10
517.387253779
 20
453.6783848559
 30
0.0
 11
507.3872484146
 21
453.6783848559
 31
0.0
  0
LINE
  5
280
  8
0
  6
SLD-SOLID
 62
     7
 10
636.3872565208
 20
453.6783848559
 30
0.0
 11
626.3872511564
 21
453.6783848559
 31
0.0
  0
LINE
  5
281
  8
0
  6
SLD-SOLID
 62
     7
 10
713.487265247
 20
460.5672149589
 30
0.0
 11
713.487265247
 21
460.6410492813
 31
0.0
  0
LINE
  5
282
  8
0
  6
SLD-SOLID
 62
     7
 10
713.487265247
 20
460.6410492813
 30
0.0
 11
712.237266439
 21
460.6410492813
 31
0.0
  0
LINE
  5
283
  8
0
  6
SLD-SOLID
 62
     7
 10
713.487265247
 20
462.3350700965
 30
0.0
 11
-28.7127517285
 21
462.3350700965
 31
0.0
  0
LINE
  5
284
  8
0
  6
SLD-SOLID
 62
     7
 10
-28.7127517285
 20
460.6410492813
 30
0.0
 11
-27.4627529205
 21
460.6410492813
 31
0.0
  0
LINE
  5
285
  8
0
  6
SLD-SOLID
 62
     7
 10
-28.7127517285
 20
460.6410492813
 30
0.0
 11
-28.7127517285
 21
462.3350700965
 31
0.0
  0
LINE
  5
286
  8
0
  6
SLD-SOLID
 62
     7
 10
713.487265247
 20
460.6410492813
 30
0.0
 11
713.487265247
 21
462.3350700965
 31
0.0
  0
LINE
  5
287
  8
0
  6
SLD-SOLID
 62
     7
 10
-28.7127517285
 20
460.6410492813
 30
0.0
 11
-28.7127517285
 21
460.5672149589
 31
0.0
  0
LINE
  5
288
  8
0
  6
SLD-SOLID
 62
     7
 10
-29.5127354683
 20
461.435070694
 30
0.0
 11
-28.7127517285
 21
461.435070694
 31
0.0
  0
LINE
  5
289
  8
0
  6
SLD-SOLID
 62
     7
 10
-29.5127354683
 20
461.435070694
 30
0.0
 11
-29.5127354683
 21
460.2850698536
 31
0.0
  0
LINE
  5
28A
  8
0
  6
SLD-SOLID
 62
     7
 10
714.2872489868
 20
461.435070694
 30
0.0
 11
713.487265247
 21
461.435070694
 31
0.0
  0
LINE
  5
28B
  8
0
  6
SLD-SOLID
 62
     7
 10
714.2872489868
 20
461.435070694
 30
0.0
 11
714.2872489868
 21
460.2850698536
 31
0.0
  0
LINE
  5
28C
  8
0
  6
SLD-SOLID
 62
     7
 10
-27.4627529205
 20
463.5850703014
 30
0.0
 11
-27.4627529205
 21
462.3350700965
 31
0.0
  0
LINE
  5
28D
  8
0
  6
SLD-SOLID
 62
     7
 10
712.237266439
 20
462.3350700965
 30
0.0
 11
712.237266439
 21
463.5850703014
 31
0.0
  0
LINE
  5
28E
  8
0
  6
SLD-SOLID
 62
     7
 10
712.237266439
 20
376.2387432759
 30
0.0
 11
712.237266439
 21
377.4133571094
 31
0.0
  0
LINE
  5
28F
  8
0
  6
SLD-SOLID
 62
     7
 10
-27.4627529205
 20
377.4133571094
 30
0.0
 11
-27.4627529205
 21
376.2387432759
 31
0.0
  0
POLYLINE
  5
290
  8
0
  6
SLD-SOLID
 62
     7
 66
     1
 10
0.0
 20
0.0
 30
0.0
  0
VERTEX
  5
4D3
  8
0
  6
SLD-SOLID
 62
     7
 10
-27.4627529205
 20
577.7850695556
 30
0.0
  0
VERTEX
  5
4D4
  8
0
  6
SLD-SOLID
 62
     7
 10
-27.7489148201
 20
578.5104282802
 30
0.0
  0
VERTEX
  5
4D5
  8
0
  6
SLD-SOLID
 62
     7
 10
-28.035195929
 20
579.1421481078
 30
0.0
  0
VERTEX
  5
4D6
  8
0
  6
SLD-SOLID
 62
     7
 10
-28.3214770378
 20
579.5981534427
 30
0.0
  0
VERTEX
  5
4D7
  8
0
  6
SLD-SOLID
 62
     7
 10
-28.607787949
 20
579.8193984335
 30
0.0
  0
VERTEX
  5
4D8
  8
0
  6
SLD-SOLID
 62
     7
 10
-28.705688578
 20
579.8350670045
 30
0.0
  0
SEQEND
  5
4D9
  8
0
  6
SLD-SOLID
 62
     7
  0
LINE
  5
291
  8
0
  6
SLD-SOLID
 62
     7
 10
713.4801722942
 20
579.8350670045
 30
0.0
 11
-28.705688578
 21
579.8350670045
 31
0.0
  0
POLYLINE
  5
292
  8
0
  6
SLD-SOLID
 62
     7
 66
     1
 10
0.0
 20
0.0
 30
0.0
  0
VERTEX
  5
4DA
  8
0
  6
SLD-SOLID
 62
     7
 10
713.4801722942
 20
579.8350670045
 30
0.0
  0
VERTEX
  5
4DB
  8
0
  6
SLD-SOLID
 62
     7
 10
713.1940103947
 20
579.7024541204
 30
0.0
  0
VERTEX
  5
4DC
  8
0
  6
SLD-SOLID
 62
     7
 10
712.9077292858
 20
579.3215729897
 30
0.0
  0
VERTEX
  5
4DD
  8
0
  6
SLD-SOLID
 62
     7
 10
712.6214481769
 20
578.7417539065
 30
0.0
  0
VERTEX
  5
4DE
  8
0
  6
SLD-SOLID
 62
     7
 10
712.3351670681
 20
578.0380614703
 30
0.0
  0
VERTEX
  5
4DF
  8
0
  6
SLD-SOLID
 62
     7
 10
712.237266439
 20
577.7850695556
 30
0.0
  0
SEQEND
  5
4E0
  8
0
  6
SLD-SOLID
 62
     7
  0
POLYLINE
  5
293
  8
0
  6
SLD-SOLID
 62
     7
 66
     1
 10
0.0
 20
0.0
 30
0.0
  0
VERTEX
  5
4E1
  8
0
  6
SLD-SOLID
 62
     7
 10
712.237266439
 20
577.7850695556
 30
0.0
  0
VERTEX
  5
4E2
  8
0
  6
SLD-SOLID
 62
     7
 10
712.9626251636
 20
578.0712463563
 30
0.0
  0
VERTEX
  5
4E3
  8
0
  6
SLD-SOLID
 62
     7
 10
713.594315189
 20
578.3575274652
 30
0.0
  0
VERTEX
  5
4E4
  8
0
  6
SLD-SOLID
 62
     7
 10
714.0503205238
 20
578.6438160246
 30
0.0
  0
VERTEX
  5
4E5
  8
0
  6
SLD-SOLID
 62
     7
 10
714.2715729652
 20
578.9300971334
 30
0.0
  0
VERTEX
  5
4E6
  8
0
  6
SLD-SOLID
 62
     7
 10
714.2872489868
 20
579.0279977625
 30
0.0
  0
SEQEND
  5
4E7
  8
0
  6
SLD-SOLID
 62
     7
  0
ARC
  5
294
  8
0
  6
SLD-SOLID
 62
     7
 10
711.4536197749
 20
579.8231930413
 30
0.0
 40
2.183586370468547
 50
291.031462298
 51
338.6435265754
  0
LINE
  5
295
  8
0
  6
SLD-SOLID
 62
     7
 10
714.2872489868
 20
579.0279977625
 30
0.0
 11
713.487265247
 21
579.0279977625
 31
0.0
  0
POLYLINE
  5
296
  8
0
  6
SLD-SOLID
 62
     7
 66
     1
 10
0.0
 20
0.0
 30
0.0
  0
VERTEX
  5
4E8
  8
0
  6
SLD-SOLID
 62
     7
 10
714.2872489868
 20
277.681233794
 30
0.0
  0
VERTEX
  5
4E9
  8
0
  6
SLD-SOLID
 62
     7
 10
714.1546286522
 20
277.9674105947
 30
0.0
  0
VERTEX
  5
4EA
  8
0
  6
SLD-SOLID
 62
     7
 10
713.7737549721
 20
278.2536917036
 30
0.0
  0
VERTEX
  5
4EB
  8
0
  6
SLD-SOLID
 62
     7
 10
713.1939209877
 20
278.5399728125
 30
0.0
  0
VERTEX
  5
4EC
  8
0
  6
SLD-SOLID
 62
     7
 10
712.4902583538
 20
278.8262688225
 30
0.0
  0
VERTEX
  5
4ED
  8
0
  6
SLD-SOLID
 62
     7
 10
712.237266439
 20
278.9241694515
 30
0.0
  0
SEQEND
  5
4EE
  8
0
  6
SLD-SOLID
 62
     7
  0
LINE
  5
297
  8
0
  6
SLD-SOLID
 62
     7
 10
714.2872489868
 20
277.681233794
 30
0.0
 11
713.487265247
 21
277.681233794
 31
0.0
  0
ARC
  5
298
  8
0
  6
SLD-SOLID
 62
     7
 10
711.4155618366
 20
276.8477765247
 30
0.0
 40
2.23307098867925
 50
21.9151845513
 51
68.4094831293
  0
LINE
  5
299
  8
0
  6
SLD-SOLID
 62
     7
 10
714.2872489868
 20
277.681233794
 30
0.0
 11
714.2872489868
 21
376.2387432759
 31
0.0
  0
LINE
  5
29A
  8
0
  6
SLD-SOLID
 62
     7
 10
712.237266439
 20
376.2387432759
 30
0.0
 11
714.2872489868
 21
376.2387432759
 31
0.0
  0
ARC
  5
29B
  8
0
  6
SLD-SOLID
 62
     7
 10
-29.5005669741
 20
577.0017258354
 30
0.0
 40
2.183188837662706
 50
21.0269558293
 51
68.6483764901
  0
LINE
  5
29C
  8
0
  6
SLD-SOLID
 62
     7
 10
-28.705688578
 20
579.8350670045
 30
0.0
 11
-28.705688578
 21
579.0350683635
 31
0.0
  0
POLYLINE
  5
29D
  8
0
  6
SLD-SOLID
 62
     7
 66
     1
 10
0.0
 20
0.0
 30
0.0
  0
VERTEX
  5
4EF
  8
0
  6
SLD-SOLID
 62
     7
 10
-28.705688578
 20
276.8741720026
 30
0.0
  0
VERTEX
  5
4F0
  8
0
  6
SLD-SOLID
 62
     7
 10
-28.4194968762
 20
277.0067774361
 30
0.0
  0
VERTEX
  5
4F1
  8
0
  6
SLD-SOLID
 62
     7
 10
-28.1332157673
 20
277.3876660173
 30
0.0
  0
VERTEX
  5
4F2
  8
0
  6
SLD-SOLID
 62
     7
 10
-27.8469346584
 20
277.9674851006
 30
0.0
  0
VERTEX
  5
4F3
  8
0
  6
SLD-SOLID
 62
     7
 10
-27.5606535496
 20
278.6711775368
 30
0.0
  0
VERTEX
  5
4F4
  8
0
  6
SLD-SOLID
 62
     7
 10
-27.4627529205
 20
278.9241694515
 30
0.0
  0
SEQEND
  5
4F5
  8
0
  6
SLD-SOLID
 62
     7
  0
LINE
  5
29E
  8
0
  6
SLD-SOLID
 62
     7
 10
-28.705688578
 20
276.8741720026
 30
0.0
 11
-28.705688578
 21
277.6741706436
 31
0.0
  0
ARC
  5
29F
  8
0
  6
SLD-SOLID
 62
     7
 10
-29.5389161955
 20
279.7456456998
 30
0.0
 40
2.232773425796255
 50
291.9119043459
 51
338.4127633348
  0
POLYLINE
  5
2A0
  8
0
  6
SLD-SOLID
 62
     7
 66
     1
 10
0.0
 20
0.0
 30
0.0
  0
VERTEX
  5
4F6
  8
0
  6
SLD-SOLID
 62
     7
 10
712.237266439
 20
278.9241694515
 30
0.0
  0
VERTEX
  5
4F7
  8
0
  6
SLD-SOLID
 62
     7
 10
712.5234283386
 20
278.1988107269
 30
0.0
  0
VERTEX
  5
4F8
  8
0
  6
SLD-SOLID
 62
     7
 10
712.8097094475
 20
277.5670908993
 30
0.0
  0
VERTEX
  5
4F9
  8
0
  6
SLD-SOLID
 62
     7
 10
713.0959905563
 20
277.1110855644
 30
0.0
  0
VERTEX
  5
4FA
  8
0
  6
SLD-SOLID
 62
     7
 10
713.3822716652
 20
276.889833123
 30
0.0
  0
VERTEX
  5
4FB
  8
0
  6
SLD-SOLID
 62
     7
 10
713.4801722942
 20
276.8741720026
 30
0.0
  0
SEQEND
  5
4FC
  8
0
  6
SLD-SOLID
 62
     7
  0
ARC
  5
2A1
  8
0
  6
SLD-SOLID
 62
     7
 10
714.2751175987
 20
279.7075311154
 30
0.0
 40
2.183229911197615
 50
201.0270459753
 51
248.6469125479
  0
LINE
  5
2A2
  8
0
  6
SLD-SOLID
 62
     7
 10
713.4801722942
 20
276.8741720026
 30
0.0
 11
713.4801722942
 21
277.6741706436
 31
0.0
  0
LINE
  5
2A3
  8
0
  6
SLD-SOLID
 62
     7
 10
-27.4627529205
 20
463.5850703014
 30
0.0
 11
-29.5127354683
 21
463.5850703014
 31
0.0
  0
LINE
  5
2A4
  8
0
  6
SLD-SOLID
 62
     7
 10
-29.5127354683
 20
463.5850703014
 30
0.0
 11
-29.5127354683
 21
579.0279977625
 31
0.0
  0
POLYLINE
  5
2A5
  8
0
  6
SLD-SOLID
 62
     7
 66
     1
 10
0.0
 20
0.0
 30
0.0
  0
VERTEX
  5
4FD
  8
0
  6
SLD-SOLID
 62
     7
 10
-29.5127354683
 20
579.0279977625
 30
0.0
  0
VERTEX
  5
4FE
  8
0
  6
SLD-SOLID
 62
     7
 10
-29.3801151337
 20
578.7418209618
 30
0.0
  0
VERTEX
  5
4FF
  8
0
  6
SLD-SOLID
 62
     7
 10
-28.9992414536
 20
578.4555398529
 30
0.0
  0
VERTEX
  5
500
  8
0
  6
SLD-SOLID
 62
     7
 10
-28.4194372715
 20
578.169258744
 30
0.0
  0
VERTEX
  5
501
  8
0
  6
SLD-SOLID
 62
     7
 10
-27.7157448353
 20
577.8829701846
 30
0.0
  0
VERTEX
  5
502
  8
0
  6
SLD-SOLID
 62
     7
 10
-27.4627529205
 20
577.7850695556
 30
0.0
  0
SEQEND
  5
503
  8
0
  6
SLD-SOLID
 62
     7
  0
LINE
  5
2A6
  8
0
  6
SLD-SOLID
 62
     7
 10
714.2872489868
 20
463.5850703014
 30
0.0
 11
714.2872489868
 21
579.0279977625
 31
0.0
  0
LINE
  5
2A7
  8
0
  6
SLD-SOLID
 62
     7
 10
714.2872489868
 20
463.5850703014
 30
0.0
 11
712.237266439
 21
463.5850703014
 31
0.0
  0
LINE
  5
2A8
  8
0
  6
SLD-SOLID
 62
     7
 10
-29.5127354683
 20
579.0279977625
 30
0.0
 11
-28.7127517285
 21
579.0279977625
 31
0.0
  0
ARC
  5
2A9
  8
0
  6
SLD-SOLID
 62
     7
 10
-26.6412098043
 20
579.8613050737
 30
0.0
 40
2.232865203825401
 50
201.913161251
 51
248.4118498756
  0
POLYLINE
  5
2AA
  8
0
  6
SLD-SOLID
 62
     7
 66
     1
 10
0.0
 20
0.0
 30
0.0
  0
VERTEX
  5
504
  8
0
  6
SLD-SOLID
 62
     7
 10
-27.4627529205
 20
278.9241694515
 30
0.0
  0
VERTEX
  5
505
  8
0
  6
SLD-SOLID
 62
     7
 10
-28.1881116451
 20
278.6379926508
 30
0.0
  0
VERTEX
  5
506
  8
0
  6
SLD-SOLID
 62
     7
 10
-28.8198314728
 20
278.3517115419
 30
0.0
  0
VERTEX
  5
507
  8
0
  6
SLD-SOLID
 62
     7
 10
-29.2758368076
 20
278.0654304331
 30
0.0
  0
VERTEX
  5
508
  8
0
  6
SLD-SOLID
 62
     7
 10
-29.497089249
 20
277.7791344231
 30
0.0
  0
VERTEX
  5
509
  8
0
  6
SLD-SOLID
 62
     7
 10
-29.5127354683
 20
277.681233794
 30
0.0
  0
SEQEND
  5
50A
  8
0
  6
SLD-SOLID
 62
     7
  0
LINE
  5
2AB
  8
0
  6
SLD-SOLID
 62
     7
 10
-29.5127354683
 20
376.2387432759
 30
0.0
 11
-29.5127354683
 21
277.681233794
 31
0.0
  0
LINE
  5
2AC
  8
0
  6
SLD-SOLID
 62
     7
 10
-29.5127354683
 20
376.2387432759
 30
0.0
 11
-27.4627529205
 21
376.2387432759
 31
0.0
  0
ARC
  5
2AD
  8
0
  6
SLD-SOLID
 62
     7
 10
-26.67934292
 20
276.8862887408
 30
0.0
 40
2.183274838410066
 50
111.0279517504
 51
158.6473805689
  0
LINE
  5
2AE
  8
0
  6
SLD-SOLID
 62
     7
 10
-29.5127354683
 20
277.681233794
 30
0.0
 11
-28.7127517285
 21
277.681233794
 31
0.0
  0
LINE
  5
2AF
  8
0
  6
SLD-SOLID
 62
     7
 10
-28.705688578
 20
276.8741720026
 30
0.0
 11
713.4801722942
 21
276.8741720026
 31
0.0
  0
LINE
  5
2B0
  8
0
  6
SLD-SOLID
 62
     7
 10
713.4801722942
 20
579.8350670045
 30
0.0
 11
713.4801722942
 21
579.0350683635
 31
0.0
  0
ARC
  5
2B1
  8
0
  6
SLD-SOLID
 62
     7
 10
714.3133627706
 20
576.9636797369
 30
0.0
 40
2.232679379641016
 50
111.9118477832
 51
158.4141936936
  0
LINE
  5
2B2
  8
0
  6
SLD-SOLID
 62
     7
 10
-29.5127354683
 20
377.7387388652
 30
0.0
 11
-28.7127517285
 21
377.7387388652
 31
0.0
  0
LINE
  5
2B3
  8
0
  6
SLD-SOLID
 62
     7
 10
-29.5127354683
 20
376.2387432759
 30
0.0
 11
-29.5127354683
 21
377.7387388652
 31
0.0
  0
LINE
  5
2B4
  8
0
  6
SLD-SOLID
 62
     7
 10
-28.7127517285
 20
376.2387432759
 30
0.0
 11
-28.7127517285
 21
377.4133571094
 31
0.0
  0
LINE
  5
2B5
  8
0
  6
SLD-SOLID
 62
     7
 10
-29.5127354683
 20
462.0850705212
 30
0.0
 11
-28.7127517285
 21
462.0850705212
 31
0.0
  0
LINE
  5
2B6
  8
0
  6
SLD-SOLID
 62
     7
 10
-29.5127354683
 20
462.0850705212
 30
0.0
 11
-29.5127354683
 21
463.5850703014
 31
0.0
  0
LINE
  5
2B7
  8
0
  6
SLD-SOLID
 62
     7
 10
-28.7127517285
 20
462.3350700965
 30
0.0
 11
-28.7127517285
 21
463.5850703014
 31
0.0
  0
LINE
  5
2B8
  8
0
  6
SLD-SOLID
 62
     7
 10
714.2872489868
 20
377.7387388652
 30
0.0
 11
713.487265247
 21
377.7387388652
 31
0.0
  0
LINE
  5
2B9
  8
0
  6
SLD-SOLID
 62
     7
 10
713.487265247
 20
377.4133571094
 30
0.0
 11
713.487265247
 21
376.2387432759
 31
0.0
  0
LINE
  5
2BA
  8
0
  6
SLD-SOLID
 62
     7
 10
714.2872489868
 20
377.7387388652
 30
0.0
 11
714.2872489868
 21
376.2387432759
 31
0.0
  0
LINE
  5
2BB
  8
0
  6
SLD-SOLID
 62
     7
 10
714.2872489868
 20
462.0850705212
 30
0.0
 11
713.487265247
 21
462.0850705212
 31
0.0
  0
LINE
  5
2BC
  8
0
  6
SLD-SOLID
 62
     7
 10
714.2872489868
 20
463.5850703014
 30
0.0
 11
714.2872489868
 21
462.0850705212
 31
0.0
  0
LINE
  5
2BD
  8
0
  6
SLD-SOLID
 62
     7
 10
713.487265247
 20
463.5850703014
 30
0.0
 11
713.487265247
 21
462.3350700965
 31
0.0
  0
LINE
  5
2BE
  8
0
  6
SLD-SOLID
 62
     7
 10
730.387238401
 20
578.6741622394
 30
0.0
 11
728.3872641502
 21
578.6741622394
 31
0.0
  0
LINE
  5
2BF
  8
0
  6
SLD-SOLID
 62
     7
 10
730.387238401
 20
578.6741622394
 30
0.0
 11
730.387238401
 21
577.8741635983
 31
0.0
  0
LINE
  5
2C0
  8
0
  6
SLD-SOLID
 62
     7
 10
714.8872591434
 20
577.8741635983
 30
0.0
 11
714.2872489868
 21
577.8741635983
 31
0.0
  0
LINE
  5
2C1
  8
0
  6
SLD-SOLID
 62
     7
 10
-29.5127354683
 20
577.8741635983
 30
0.0
 11
-30.1127456249
 21
577.8741635983
 31
0.0
  0
LINE
  5
2C2
  8
0
  6
SLD-SOLID
 62
     7
 10
728.3872641502
 20
578.6741622394
 30
0.0
 11
714.2872489868
 21
578.6741622394
 31
0.0
  0
LINE
  5
2C3
  8
0
  6
SLD-SOLID
 62
     7
 10
713.3511878429
 20
578.6741622394
 30
0.0
 11
712.8675855575
 21
578.6741622394
 31
0.0
  0
LINE
  5
2C4
  8
0
  6
SLD-SOLID
 62
     7
 10
-28.0898235859
 20
578.6741622394
 30
0.0
 11
-28.5809360565
 21
578.6741622394
 31
0.0
  0
LINE
  5
2C5
  8
0
  6
SLD-SOLID
 62
     7
 10
-29.5127354683
 20
578.6741622394
 30
0.0
 11
-43.6127506317
 21
578.6741622394
 31
0.0
  0
LINE
  5
2C6
  8
0
  6
SLD-SOLID
 62
     7
 10
-45.6127546848
 20
578.6741622394
 30
0.0
 11
-45.6127546848
 21
577.8741635983
 31
0.0
  0
LINE
  5
2C7
  8
0
  6
SLD-SOLID
 62
     7
 10
-43.6127506317
 20
578.6741622394
 30
0.0
 11
-45.6127546848
 21
578.6741622394
 31
0.0
  0
POLYLINE
  5
2C8
  8
0
  6
SLD-SOLID
 62
     7
 66
     1
 10
0.0
 20
0.0
 30
0.0
  0
VERTEX
  5
50B
  8
0
  6
SLD-SOLID
 62
     7
 10
662.8436572729
 20
592.4241640275
 30
0.0
  0
VERTEX
  5
50C
  8
0
  6
SLD-SOLID
 62
     7
 10
662.8414220987
 20
592.4965017145
 30
0.0
  0
VERTEX
  5
50D
  8
0
  6
SLD-SOLID
 62
     7
 10
662.8352232157
 20
592.5604202455
 30
0.0
  0
VERTEX
  5
50E
  8
0
  6
SLD-SOLID
 62
     7
 10
662.8255374609
 20
592.613952667
 30
0.0
  0
VERTEX
  5
50F
  8
0
  6
SLD-SOLID
 62
     7
 10
662.8118730961
 20
592.6550202673
 30
0.0
  0
VERTEX
  5
510
  8
0
  6
SLD-SOLID
 62
     7
 10
662.7931274353
 20
592.6741533583
 30
0.0
  0
VERTEX
  5
511
  8
0
  6
SLD-SOLID
 62
     7
 10
662.7925909935
 20
592.6741682594
 30
0.0
  0
SEQEND
  5
512
  8
0
  6
SLD-SOLID
 62
     7
  0
LINE
  5
2C9
  8
0
  6
SLD-SOLID
 62
     7
 10
662.7925909935
 20
592.6741682594
 30
0.0
 11
669.3872488914
 21
592.6741682594
 31
0.0
  0
POLYLINE
  5
2CA
  8
0
  6
SLD-SOLID
 62
     7
 66
     1
 10
0.0
 20
0.0
 30
0.0
  0
VERTEX
  5
513
  8
0
  6
SLD-SOLID
 62
     7
 10
662.7925909935
 20
591.4741628473
 30
0.0
  0
VERTEX
  5
514
  8
0
  6
SLD-SOLID
 62
     7
 10
662.7931274353
 20
591.4741777485
 30
0.0
  0
VERTEX
  5
515
  8
0
  6
SLD-SOLID
 62
     7
 10
662.8118730961
 20
591.4933108395
 30
0.0
  0
VERTEX
  5
516
  8
0
  6
SLD-SOLID
 62
     7
 10
662.8255374609
 20
591.5343784397
 30
0.0
  0
VERTEX
  5
517
  8
0
  6
SLD-SOLID
 62
     7
 10
662.8352232157
 20
591.5879108613
 30
0.0
  0
VERTEX
  5
518
  8
0
  6
SLD-SOLID
 62
     7
 10
662.8414220987
 20
591.6518293922
 30
0.0
  0
VERTEX
  5
519
  8
0
  6
SLD-SOLID
 62
     7
 10
662.8436572729
 20
591.7241670793
 30
0.0
  0
SEQEND
  5
51A
  8
0
  6
SLD-SOLID
 62
     7
  0
LINE
  5
2CB
  8
0
  6
SLD-SOLID
 62
     7
 10
669.2104913174
 20
591.4741628473
 30
0.0
 11
662.7925909935
 21
591.4741628473
 31
0.0
  0
LINE
  5
2CC
  8
0
  6
SLD-SOLID
 62
     7
 10
662.8436572729
 20
591.7241670793
 30
0.0
 11
662.8436572729
 21
592.4241640275
 31
0.0
  0
ARC
  5
2CD
  8
0
  6
SLD-SOLID
 62
     7
 10
658.6056092055
 20
591.338036274
 30
0.0
 40
1.353048326872368
 50
99.0695912422
 51
184.8276239267
  0
LINE
  5
2CE
  8
0
  6
SLD-SOLID
 62
     7
 10
658.3923227964
 20
592.6741682594
 30
0.0
 11
662.5624276577
 21
592.6741682594
 31
0.0
  0
LINE
  5
2CF
  8
0
  6
SLD-SOLID
 62
     7
 10
661.6512216507
 20
585.8741649096
 30
0.0
 11
657.4811316906
 21
585.8741649096
 31
0.0
  0
LINE
  5
2D0
  8
0
  6
SLD-SOLID
 62
     7
 10
662.1811069427
 20
585.8741649096
 30
0.0
 11
661.6512216507
 21
585.8741649096
 31
0.0
  0
LINE
  5
2D1
  8
0
  6
SLD-SOLID
 62
     7
 10
662.5624276577
 20
592.6741682594
 30
0.0
 11
662.7925909935
 21
592.6741682594
 31
0.0
  0
LINE
  5
2D2
  8
0
  6
SLD-SOLID
 62
     7
 10
662.7925909935
 20
591.4741628473
 30
0.0
 11
662.5624276577
 21
591.4741628473
 31
0.0
  0
LINE
  5
2D3
  8
0
  6
SLD-SOLID
 62
     7
 10
657.2573609529
 20
591.224166066
 30
0.0
 11
657.2311349092
 21
591.224166066
 31
0.0
  0
LINE
  5
2D4
  8
0
  6
SLD-SOLID
 62
     7
 10
657.9372562347
 20
592.6741682594
 30
0.0
 11
658.3923227964
 21
592.6741682594
 31
0.0
  0
ARC
  5
2D5
  8
0
  6
SLD-SOLID
 62
     7
 10
674.1041740506
 20
591.3255083154
 30
0.0
 40
1.416595148719362
 50
355.8975947148
 51
47.8450066098
  0
ARC
  5
2D6
  8
0
  6
SLD-SOLID
 62
     7
 10
674.775920378
 20
586.1129077302
 30
0.0
 40
0.2390657625319067
 50
177.3000307472
 51
267.0215513818
  0
LINE
  5
2D7
  8
0
  6
SLD-SOLID
 62
     7
 10
675.2933837353
 20
585.8741649096
 30
0.0
 11
674.7634984432
 21
585.8741649096
 31
0.0
  0
LINE
  5
2D8
  8
0
  6
SLD-SOLID
 62
     7
 10
674.7634984432
 20
585.8741649096
 30
0.0
 11
672.0274366318
 21
585.8741649096
 31
0.0
  0
POLYLINE
  5
2D9
  8
0
  6
SLD-SOLID
 62
     7
 66
     1
 10
0.0
 20
0.0
 30
0.0
  0
VERTEX
  5
51B
  8
0
  6
SLD-SOLID
 62
     7
 10
669.1182531296
 20
591.224166066
 30
0.0
  0
VERTEX
  5
51C
  8
0
  6
SLD-SOLID
 62
     7
 10
669.1217698036
 20
591.296503753
 30
0.0
  0
VERTEX
  5
51D
  8
0
  6
SLD-SOLID
 62
     7
 10
669.1314555584
 20
591.3604222839
 30
0.0
  0
VERTEX
  5
51E
  8
0
  6
SLD-SOLID
 62
     7
 10
669.1466845451
 20
591.4139472549
 30
0.0
  0
VERTEX
  5
51F
  8
0
  6
SLD-SOLID
 62
     7
 10
669.1682316242
 20
591.4550223058
 30
0.0
  0
VERTEX
  5
520
  8
0
  6
SLD-SOLID
 62
     7
 10
669.1980637489
 20
591.4741479462
 30
0.0
  0
VERTEX
  5
521
  8
0
  6
SLD-SOLID
 62
     7
 10
669.1988982139
 20
591.4741628473
 30
0.0
  0
SEQEND
  5
522
  8
0
  6
SLD-SOLID
 62
     7
  0
LINE
  5
2DA
  8
0
  6
SLD-SOLID
 62
     7
 10
662.7925909935
 20
591.4741628473
 30
0.0
 11
669.1988982139
 21
591.4741628473
 31
0.0
  0
POLYLINE
  5
2DB
  8
0
  6
SLD-SOLID
 62
     7
 66
     1
 10
0.0
 20
0.0
 30
0.0
  0
VERTEX
  5
523
  8
0
  6
SLD-SOLID
 62
     7
 10
669.1988982139
 20
590.2741648858
 30
0.0
  0
VERTEX
  5
524
  8
0
  6
SLD-SOLID
 62
     7
 10
669.1980637489
 20
590.274179787
 30
0.0
  0
VERTEX
  5
525
  8
0
  6
SLD-SOLID
 62
     7
 10
669.1682316242
 20
590.2933054274
 30
0.0
  0
VERTEX
  5
526
  8
0
  6
SLD-SOLID
 62
     7
 10
669.1466845451
 20
590.3343804782
 30
0.0
  0
VERTEX
  5
527
  8
0
  6
SLD-SOLID
 62
     7
 10
669.1314555584
 20
590.3879054492
 30
0.0
  0
VERTEX
  5
528
  8
0
  6
SLD-SOLID
 62
     7
 10
669.1217698036
 20
590.4518239801
 30
0.0
  0
VERTEX
  5
529
  8
0
  6
SLD-SOLID
 62
     7
 10
669.1182531296
 20
590.5241691177
 30
0.0
  0
SEQEND
  5
52A
  8
0
  6
SLD-SOLID
 62
     7
  0
LINE
  5
2DC
  8
0
  6
SLD-SOLID
 62
     7
 10
669.1988982139
 20
590.2741648858
 30
0.0
 11
662.4311037241
 21
590.2741648858
 31
0.0
  0
LINE
  5
2DD
  8
0
  6
SLD-SOLID
 62
     7
 10
669.1182531296
 20
591.224166066
 30
0.0
 11
669.1182531296
 21
590.5241691177
 31
0.0
  0
POLYLINE
  5
2DE
  8
0
  6
SLD-SOLID
 62
     7
 66
     1
 10
0.0
 20
0.0
 30
0.0
  0
VERTEX
  5
52B
  8
0
  6
SLD-SOLID
 62
     7
 10
673.9863730846
 20
590.2741648858
 30
0.0
  0
VERTEX
  5
52C
  8
0
  6
SLD-SOLID
 62
     7
 10
674.3445969997
 20
590.3633110826
 30
0.0
  0
VERTEX
  5
52D
  8
0
  6
SLD-SOLID
 62
     7
 10
674.6614850937
 20
590.6259589498
 30
0.0
  0
VERTEX
  5
52E
  8
0
  6
SLD-SOLID
 62
     7
 10
674.8881019531
 20
591.0203181808
 30
0.0
  0
VERTEX
  5
52F
  8
0
  6
SLD-SOLID
 62
     7
 10
675.0020362316
 20
591.4815687244
 30
0.0
  0
VERTEX
  5
530
  8
0
  6
SLD-SOLID
 62
     7
 10
675.016400951
 20
591.7241670793
 30
0.0
  0
SEQEND
  5
531
  8
0
  6
SLD-SOLID
 62
     7
  0
LINE
  5
2DF
  8
0
  6
SLD-SOLID
 62
     7
 10
673.9863730846
 20
590.2741648858
 30
0.0
 11
669.4056667267
 21
590.2741648858
 31
0.0
  0
LINE
  5
2E0
  8
0
  6
SLD-SOLID
 62
     7
 10
670.2241875111
 20
597.0741682356
 30
0.0
 11
674.804893869
 21
597.0741682356
 31
0.0
  0
LINE
  5
2E1
  8
0
  6
SLD-SOLID
 62
     7
 10
669.7482146202
 20
597.0741682356
 30
0.0
 11
670.2241875111
 21
597.0741682356
 31
0.0
  0
LINE
  5
2E2
  8
0
  6
SLD-SOLID
 62
     7
 10
669.1988982139
 20
591.4741628473
 30
0.0
 11
669.4056667267
 21
591.4741628473
 31
0.0
  0
LINE
  5
2E3
  8
0
  6
SLD-SOLID
 62
     7
 10
669.4056667267
 20
590.2741648858
 30
0.0
 11
669.1988982139
 21
590.2741648858
 31
0.0
  0
LINE
  5
2E4
  8
0
  6
SLD-SOLID
 62
     7
 10
675.016400951
 20
591.7241670793
 30
0.0
 11
675.0549055515
 21
591.7241670793
 31
0.0
  0
LINE
  5
2E5
  8
0
  6
SLD-SOLID
 62
     7
 10
674.8372591911
 20
590.2741648858
 30
0.0
 11
673.9863730846
 21
590.2741648858
 31
0.0
  0
ARC
  5
2E6
  8
0
  6
SLD-SOLID
 62
     7
 10
658.426445759
 20
596.8405897846
 30
0.0
 40
0.2343608214114733
 50
355.9828089154
 51
85.3170209308
  0
LINE
  5
2E7
  8
0
  6
SLD-SOLID
 62
     7
 10
658.4455795465
 20
597.0741682356
 30
0.0
 11
660.6574632107
 21
597.0741682356
 31
0.0
  0
LINE
  5
2E8
  8
0
  6
SLD-SOLID
 62
     7
 10
657.9696066557
 20
597.0741682356
 30
0.0
 11
658.4455795465
 21
597.0741682356
 31
0.0
  0
LINE
  5
2E9
  8
0
  6
SLD-SOLID
 62
     7
 10
670.2756263195
 20
585.520746619
 30
0.0
 11
667.4555219589
 21
585.0741662686
 31
0.0
  0
POLYLINE
  5
2EA
  8
0
  6
SLD-SOLID
 62
     7
 66
     1
 10
0.0
 20
0.0
 30
0.0
  0
VERTEX
  5
532
  8
0
  6
SLD-SOLID
 62
     7
 10
667.4555219589
 20
585.0741662686
 30
0.0
  0
VERTEX
  5
533
  8
0
  6
SLD-SOLID
 62
     7
 10
667.2550715385
 20
585.0765951579
 30
0.0
  0
VERTEX
  5
534
  8
0
  6
SLD-SOLID
 62
     7
 10
664.6354474007
 20
585.520746619
 30
0.0
  0
SEQEND
  5
535
  8
0
  6
SLD-SOLID
 62
     7
  0
LINE
  5
2EB
  8
0
  6
SLD-SOLID
 62
     7
 10
664.6354474007
 20
585.520746619
 30
0.0
 11
664.6354474007
 21
589.8275845354
 31
0.0
  0
POLYLINE
  5
2EC
  8
0
  6
SLD-SOLID
 62
     7
 66
     1
 10
0.0
 20
0.0
 30
0.0
  0
VERTEX
  5
536
  8
0
  6
SLD-SOLID
 62
     7
 10
667.4555219589
 20
590.2741648858
 30
0.0
  0
VERTEX
  5
537
  8
0
  6
SLD-SOLID
 62
     7
 10
667.2550715385
 20
590.2717359965
 30
0.0
  0
VERTEX
  5
538
  8
0
  6
SLD-SOLID
 62
     7
 10
664.6354474007
 20
589.8275845354
 30
0.0
  0
SEQEND
  5
539
  8
0
  6
SLD-SOLID
 62
     7
  0
LINE
  5
2ED
  8
0
  6
SLD-SOLID
 62
     7
 10
670.2756263195
 20
589.8275845354
 30
0.0
 11
667.4555219589
 21
590.2741648858
 31
0.0
  0
LINE
  5
2EE
  8
0
  6
SLD-SOLID
 62
     7
 10
670.2756263195
 20
585.520746619
 30
0.0
 11
670.2756263195
 21
589.8275845354
 31
0.0
  0
LINE
  5
2EF
  8
0
  6
SLD-SOLID
 62
     7
 10
664.6354474007
 20
589.8275845354
 30
0.0
 11
662.6912481962
 21
590.2741648858
 31
0.0
  0
LINE
  5
2F0
  8
0
  6
SLD-SOLID
 62
     7
 10
664.6354474007
 20
585.520746619
 30
0.0
 11
662.6912481962
 21
585.0741662686
 31
0.0
  0
LINE
  5
2F1
  8
0
  6
SLD-SOLID
 62
     7
 10
667.4555219589
 20
585.0741662686
 30
0.0
 11
662.6912481962
 21
585.0741662686
 31
0.0
  0
POLYLINE
  5
2F2
  8
0
  6
SLD-SOLID
 62
     7
 66
     1
 10
0.0
 20
0.0
 30
0.0
  0
VERTEX
  5
53A
  8
0
  6
SLD-SOLID
 62
     7
 10
671.1515463768
 20
585.0741662686
 30
0.0
  0
VERTEX
  5
53B
  8
0
  6
SLD-SOLID
 62
     7
 10
670.9131576
 20
585.1095788782
 30
0.0
  0
VERTEX
  5
53C
  8
0
  6
SLD-SOLID
 62
     7
 10
670.2756263195
 20
585.520746619
 30
0.0
  0
SEQEND
  5
53D
  8
0
  6
SLD-SOLID
 62
     7
  0
LINE
  5
2F3
  8
0
  6
SLD-SOLID
 62
     7
 10
671.1515463768
 20
585.0741662686
 30
0.0
 11
667.4555219589
 21
585.0741662686
 31
0.0
  0
POLYLINE
  5
2F4
  8
0
  6
SLD-SOLID
 62
     7
 66
     1
 10
0.0
 20
0.0
 30
0.0
  0
VERTEX
  5
53E
  8
0
  6
SLD-SOLID
 62
     7
 10
671.1515463768
 20
590.2741648858
 30
0.0
  0
VERTEX
  5
53F
  8
0
  6
SLD-SOLID
 62
     7
 10
670.9131576
 20
590.2387522762
 30
0.0
  0
VERTEX
  5
540
  8
0
  6
SLD-SOLID
 62
     7
 10
670.2756263195
 20
589.8275845354
 30
0.0
  0
SEQEND
  5
541
  8
0
  6
SLD-SOLID
 62
     7
  0
POLYLINE
  5
2F5
  8
0
  6
SLD-SOLID
 62
     7
 66
     1
 10
0.0
 20
0.0
 30
0.0
  0
VERTEX
  5
542
  8
0
  6
SLD-SOLID
 62
     7
 10
662.6912481962
 20
585.0741662686
 30
0.0
  0
VERTEX
  5
543
  8
0
  6
SLD-SOLID
 62
     7
 10
662.5530548273
 20
585.0765951579
 30
0.0
  0
VERTEX
  5
544
  8
0
  6
SLD-SOLID
 62
     7
 10
660.7470638929
 20
585.520746619
 30
0.0
  0
SEQEND
  5
545
  8
0
  6
SLD-SOLID
 62
     7
  0
LINE
  5
2F6
  8
0
  6
SLD-SOLID
 62
     7
 10
660.7470638929
 20
585.520746619
 30
0.0
 11
660.7470638929
 21
585.8741649096
 31
0.0
  0
POLYLINE
  5
2F7
  8
0
  6
SLD-SOLID
 62
     7
 66
     1
 10
0.0
 20
0.0
 30
0.0
  0
VERTEX
  5
546
  8
0
  6
SLD-SOLID
 62
     7
 10
662.6912481962
 20
590.2741648858
 30
0.0
  0
VERTEX
  5
547
  8
0
  6
SLD-SOLID
 62
     7
 10
662.5530548273
 20
590.2717359965
 30
0.0
  0
VERTEX
  5
548
  8
0
  6
SLD-SOLID
 62
     7
 10
662.4311037241
 20
590.241739959
 30
0.0
  0
SEQEND
  5
549
  8
0
  6
SLD-SOLID
 62
     7
  0
POLYLINE
  5
2F8
  8
0
  6
SLD-SOLID
 62
     7
 66
     1
 10
0.0
 20
0.0
 30
0.0
  0
VERTEX
  5
54A
  8
0
  6
SLD-SOLID
 62
     7
 10
672.0274366318
 20
585.520746619
 30
0.0
  0
VERTEX
  5
54B
  8
0
  6
SLD-SOLID
 62
     7
 10
671.8060947834
 20
585.3313975637
 30
0.0
  0
VERTEX
  5
54C
  8
0
  6
SLD-SOLID
 62
     7
 10
671.1515463768
 20
585.0741662686
 30
0.0
  0
SEQEND
  5
54D
  8
0
  6
SLD-SOLID
 62
     7
  0
POLYLINE
  5
2F9
  8
0
  6
SLD-SOLID
 62
     7
 66
     1
 10
0.0
 20
0.0
 30
0.0
  0
VERTEX
  5
54E
  8
0
  6
SLD-SOLID
 62
     7
 10
672.0274366318
 20
589.8275845354
 30
0.0
  0
VERTEX
  5
54F
  8
0
  6
SLD-SOLID
 62
     7
 10
671.8060947834
 20
590.0169335907
 30
0.0
  0
VERTEX
  5
550
  8
0
  6
SLD-SOLID
 62
     7
 10
671.6254629074
 20
590.0879227226
 30
0.0
  0
SEQEND
  5
551
  8
0
  6
SLD-SOLID
 62
     7
  0
LINE
  5
2FA
  8
0
  6
SLD-SOLID
 62
     7
 10
672.0274366318
 20
585.520746619
 30
0.0
 11
672.0274366318
 21
589.8275845354
 31
0.0
  0
LINE
  5
2FB
  8
0
  6
SLD-SOLID
 62
     7
 10
661.1509896694
 20
585.260244519
 30
0.0
 11
660.7470638929
 21
585.520746619
 31
0.0
  0
LINE
  5
2FC
  8
0
  6
SLD-SOLID
 62
     7
 10
661.3872475801
 20
585.0741662686
 30
0.0
 11
662.6912481962
 21
585.0741662686
 31
0.0
  0
LINE
  5
2FD
  8
0
  6
SLD-SOLID
 62
     7
 10
671.3872529446
 20
585.0741662686
 30
0.0
 11
671.1515463768
 21
585.0741662686
 31
0.0
  0
LINE
  5
2FE
  8
0
  6
SLD-SOLID
 62
     7
 10
667.4637772022
 20
580.0707512205
 30
0.0
 11
666.0255469261
 21
579.8350670045
 31
0.0
  0
LINE
  5
2FF
  8
0
  6
SLD-SOLID
 62
     7
 10
663.3564956365
 20
579.8350670045
 30
0.0
 11
662.0132006584
 21
580.0707512205
 31
0.0
  0
LINE
  5
300
  8
0
  6
SLD-SOLID
 62
     7
 10
662.0132006584
 20
580.0707512205
 30
0.0
 11
662.0132006584
 21
584.3775816863
 31
0.0
  0
POLYLINE
  5
301
  8
0
  6
SLD-SOLID
 62
     7
 66
     1
 10
0.0
 20
0.0
 30
0.0
  0
VERTEX
  5
552
  8
0
  6
SLD-SOLID
 62
     7
 10
664.7384889303
 20
584.8241620367
 30
0.0
  0
VERTEX
  5
553
  8
0
  6
SLD-SOLID
 62
     7
 10
664.5447589336
 20
584.8217331474
 30
0.0
  0
VERTEX
  5
554
  8
0
  6
SLD-SOLID
 62
     7
 10
662.0132006584
 20
584.3775816863
 30
0.0
  0
SEQEND
  5
555
  8
0
  6
SLD-SOLID
 62
     7
  0
LINE
  5
302
  8
0
  6
SLD-SOLID
 62
     7
 10
667.4637772022
 20
584.3775816863
 30
0.0
 11
664.7384889303
 21
584.8241620367
 31
0.0
  0
LINE
  5
303
  8
0
  6
SLD-SOLID
 62
     7
 10
667.4637772022
 20
580.0707512205
 30
0.0
 11
667.4637772022
 21
584.3775816863
 31
0.0
  0
LINE
  5
304
  8
0
  6
SLD-SOLID
 62
     7
 10
668.5417570053
 20
579.8350670045
 30
0.0
 11
667.4637772022
 21
580.0707512205
 31
0.0
  0
POLYLINE
  5
305
  8
0
  6
SLD-SOLID
 62
     7
 66
     1
 10
0.0
 20
0.0
 30
0.0
  0
VERTEX
  5
556
  8
0
  6
SLD-SOLID
 62
     7
 10
669.6507908283
 20
584.8241620367
 30
0.0
  0
VERTEX
  5
557
  8
0
  6
SLD-SOLID
 62
     7
 10
669.4953419147
 20
584.8217331474
 30
0.0
  0
VERTEX
  5
558
  8
0
  6
SLD-SOLID
 62
     7
 10
667.4637772022
 20
584.3775816863
 30
0.0
  0
SEQEND
  5
559
  8
0
  6
SLD-SOLID
 62
     7
  0
LINE
  5
306
  8
0
  6
SLD-SOLID
 62
     7
 10
664.7384889303
 20
584.8241620367
 30
0.0
 11
669.6507908283
 21
584.8241620367
 31
0.0
  0
LINE
  5
307
  8
0
  6
SLD-SOLID
 62
     7
 10
671.8378342567
 20
580.0707512205
 30
0.0
 11
670.6836499153
 21
579.8350670045
 31
0.0
  0
LINE
  5
308
  8
0
  6
SLD-SOLID
 62
     7
 10
671.8378342567
 20
584.3775816863
 30
0.0
 11
669.6507908283
 21
584.8241620367
 31
0.0
  0
LINE
  5
309
  8
0
  6
SLD-SOLID
 62
     7
 10
671.8378342567
 20
580.0707512205
 30
0.0
 11
671.8378342567
 21
584.3775816863
 31
0.0
  0
LINE
  5
30A
  8
0
  6
SLD-SOLID
 62
     7
 10
661.7886401592
 20
579.8350670045
 30
0.0
 11
662.0132006584
 21
580.0707512205
 31
0.0
  0
POLYLINE
  5
30B
  8
0
  6
SLD-SOLID
 62
     7
 66
     1
 10
0.0
 20
0.0
 30
0.0
  0
VERTEX
  5
55A
  8
0
  6
SLD-SOLID
 62
     7
 10
661.4749409138
 20
584.8241620367
 30
0.0
  0
VERTEX
  5
55B
  8
0
  6
SLD-SOLID
 62
     7
 10
661.6214193283
 20
584.7887494271
 30
0.0
  0
VERTEX
  5
55C
  8
0
  6
SLD-SOLID
 62
     7
 10
662.0132006584
 20
584.3775816863
 30
0.0
  0
SEQEND
  5
55D
  8
0
  6
SLD-SOLID
 62
     7
  0
LINE
  5
30C
  8
0
  6
SLD-SOLID
 62
     7
 10
661.4749409138
 20
584.8241620367
 30
0.0
 11
664.7384889303
 21
584.8241620367
 31
0.0
  0
POLYLINE
  5
30D
  8
0
  6
SLD-SOLID
 62
     7
 66
     1
 10
0.0
 20
0.0
 30
0.0
  0
VERTEX
  5
55E
  8
0
  6
SLD-SOLID
 62
     7
 10
671.2995745121
 20
584.8241620367
 30
0.0
  0
VERTEX
  5
55F
  8
0
  6
SLD-SOLID
 62
     7
 10
671.4460529266
 20
584.7887494271
 30
0.0
  0
VERTEX
  5
560
  8
0
  6
SLD-SOLID
 62
     7
 10
671.8378342567
 20
584.3775816863
 30
0.0
  0
SEQEND
  5
561
  8
0
  6
SLD-SOLID
 62
     7
  0
LINE
  5
30E
  8
0
  6
SLD-SOLID
 62
     7
 10
669.6507908283
 20
584.8241620367
 30
0.0
 11
671.3792361198
 21
584.8241620367
 31
0.0
  0
LINE
  5
30F
  8
0
  6
SLD-SOLID
 62
     7
 10
671.6132737575
 20
579.8350670045
 30
0.0
 11
671.8378342567
 21
580.0707512205
 31
0.0
  0
POLYLINE
  5
310
  8
0
  6
SLD-SOLID
 62
     7
 66
     1
 10
0.0
 20
0.0
 30
0.0
  0
VERTEX
  5
562
  8
0
  6
SLD-SOLID
 62
     7
 10
660.9366811691
 20
580.0707512205
 30
0.0
  0
VERTEX
  5
563
  8
0
  6
SLD-SOLID
 62
     7
 10
661.0726989685
 20
579.8813947146
 30
0.0
  0
VERTEX
  5
564
  8
0
  6
SLD-SOLID
 62
     7
 10
661.1451335131
 20
579.8350670045
 30
0.0
  0
SEQEND
  5
565
  8
0
  6
SLD-SOLID
 62
     7
  0
LINE
  5
311
  8
0
  6
SLD-SOLID
 62
     7
 10
660.9366811691
 20
580.0707512205
 30
0.0
 11
660.9366811691
 21
584.3775816863
 31
0.0
  0
POLYLINE
  5
312
  8
0
  6
SLD-SOLID
 62
     7
 66
     1
 10
0.0
 20
0.0
 30
0.0
  0
VERTEX
  5
566
  8
0
  6
SLD-SOLID
 62
     7
 10
660.9366811691
 20
584.3775816863
 30
0.0
  0
VERTEX
  5
567
  8
0
  6
SLD-SOLID
 62
     7
 10
661.0726989685
 20
584.5669381922
 30
0.0
  0
VERTEX
  5
568
  8
0
  6
SLD-SOLID
 62
     7
 10
661.4749409138
 20
584.8241620367
 30
0.0
  0
SEQEND
  5
569
  8
0
  6
SLD-SOLID
 62
     7
  0
LINE
  5
313
  8
0
  6
SLD-SOLID
 62
     7
 10
660.9366811691
 20
584.3775816863
 30
0.0
 11
663.1237096964
 21
584.8241620367
 31
0.0
  0
LINE
  5
314
  8
0
  6
SLD-SOLID
 62
     7
 10
668.6380185066
 20
593.1207486098
 30
0.0
 11
665.7731361566
 21
592.6741682594
 31
0.0
  0
POLYLINE
  5
315
  8
0
  6
SLD-SOLID
 62
     7
 66
     1
 10
0.0
 20
0.0
 30
0.0
  0
VERTEX
  5
56A
  8
0
  6
SLD-SOLID
 62
     7
 10
665.7731361566
 20
592.6741682594
 30
0.0
  0
VERTEX
  5
56B
  8
0
  6
SLD-SOLID
 62
     7
 10
665.5694819866
 20
592.6765971487
 30
0.0
  0
VERTEX
  5
56C
  8
0
  6
SLD-SOLID
 62
     7
 10
662.9082389055
 20
593.1207486098
 30
0.0
  0
SEQEND
  5
56D
  8
0
  6
SLD-SOLID
 62
     7
  0
LINE
  5
316
  8
0
  6
SLD-SOLID
 62
     7
 10
662.9082389055
 20
593.1207486098
 30
0.0
 11
662.9082389055
 21
597.4275790756
 31
0.0
  0
POLYLINE
  5
317
  8
0
  6
SLD-SOLID
 62
     7
 66
     1
 10
0.0
 20
0.0
 30
0.0
  0
VERTEX
  5
56E
  8
0
  6
SLD-SOLID
 62
     7
 10
665.7731361566
 20
597.8741668766
 30
0.0
  0
VERTEX
  5
56F
  8
0
  6
SLD-SOLID
 62
     7
 10
665.5694819866
 20
597.8717379873
 30
0.0
  0
VERTEX
  5
570
  8
0
  6
SLD-SOLID
 62
     7
 10
662.9082389055
 20
597.4275790756
 30
0.0
  0
SEQEND
  5
571
  8
0
  6
SLD-SOLID
 62
     7
  0
LINE
  5
318
  8
0
  6
SLD-SOLID
 62
     7
 10
668.6380185066
 20
597.4275790756
 30
0.0
 11
665.7731361566
 21
597.8741668766
 31
0.0
  0
LINE
  5
319
  8
0
  6
SLD-SOLID
 62
     7
 10
668.6380185066
 20
593.1207486098
 30
0.0
 11
668.6380185066
 21
597.4275790756
 31
0.0
  0
POLYLINE
  5
31A
  8
0
  6
SLD-SOLID
 62
     7
 66
     1
 10
0.0
 20
0.0
 30
0.0
  0
VERTEX
  5
572
  8
0
  6
SLD-SOLID
 62
     7
 10
670.3775204597
 20
597.8741668766
 30
0.0
  0
VERTEX
  5
573
  8
0
  6
SLD-SOLID
 62
     7
 10
669.9041403709
 20
597.8387468164
 30
0.0
  0
VERTEX
  5
574
  8
0
  6
SLD-SOLID
 62
     7
 10
668.6380185066
 20
597.4275790756
 30
0.0
  0
SEQEND
  5
575
  8
0
  6
SLD-SOLID
 62
     7
  0
LINE
  5
31B
  8
0
  6
SLD-SOLID
 62
     7
 10
665.7731361566
 20
597.8741668766
 30
0.0
 11
670.3775204597
 21
597.8741668766
 31
0.0
  0
LINE
  5
31C
  8
0
  6
SLD-SOLID
 62
     7
 10
669.4982029377
 20
592.8414039915
 30
0.0
 11
668.6380185066
 21
593.1207486098
 31
0.0
  0
LINE
  5
31D
  8
0
  6
SLD-SOLID
 62
     7
 10
662.9082389055
 20
593.1207486098
 30
0.0
 11
661.7828436075
 21
592.6741682594
 31
0.0
  0
LINE
  5
31E
  8
0
  6
SLD-SOLID
 62
     7
 10
662.9082389055
 20
597.4275790756
 30
0.0
 11
661.7828436075
 21
597.8741668766
 31
0.0
  0
LINE
  5
31F
  8
0
  6
SLD-SOLID
 62
     7
 10
661.7828436075
 20
597.8741668766
 30
0.0
 11
665.7731361566
 21
597.8741668766
 31
0.0
  0
POLYLINE
  5
320
  8
0
  6
SLD-SOLID
 62
     7
 66
     1
 10
0.0
 20
0.0
 30
0.0
  0
VERTEX
  5
576
  8
0
  6
SLD-SOLID
 62
     7
 10
672.1170522152
 20
597.4275790756
 30
0.0
  0
VERTEX
  5
577
  8
0
  6
SLD-SOLID
 62
     7
 10
671.67746796
 20
597.6169430321
 30
0.0
  0
VERTEX
  5
578
  8
0
  6
SLD-SOLID
 62
     7
 10
670.3775204597
 20
597.8741668766
 30
0.0
  0
SEQEND
  5
579
  8
0
  6
SLD-SOLID
 62
     7
  0
LINE
  5
321
  8
0
  6
SLD-SOLID
 62
     7
 10
672.1170522152
 20
597.0741682356
 30
0.0
 11
672.1170522152
 21
597.4275790756
 31
0.0
  0
LINE
  5
322
  8
0
  6
SLD-SOLID
 62
     7
 10
660.6574632107
 20
593.1207486098
 30
0.0
 11
660.6574632107
 21
597.4275790756
 31
0.0
  0
POLYLINE
  5
323
  8
0
  6
SLD-SOLID
 62
     7
 66
     1
 10
0.0
 20
0.0
 30
0.0
  0
VERTEX
  5
57A
  8
0
  6
SLD-SOLID
 62
     7
 10
661.7828436075
 20
597.8741668766
 30
0.0
  0
VERTEX
  5
57B
  8
0
  6
SLD-SOLID
 62
     7
 10
661.7028541742
 20
597.8717379873
 30
0.0
  0
VERTEX
  5
57C
  8
0
  6
SLD-SOLID
 62
     7
 10
660.6574632107
 20
597.4275790756
 30
0.0
  0
SEQEND
  5
57D
  8
0
  6
SLD-SOLID
 62
     7
  0
LINE
  5
324
  8
0
  6
SLD-SOLID
 62
     7
 10
671.8182839332
 20
597.5545071667
 30
0.0
 11
672.1170522152
 21
597.4275790756
 31
0.0
  0
LINE
  5
325
  8
0
  6
SLD-SOLID
 62
     7
 10
670.3775204597
 20
597.8741668766
 30
0.0
 11
671.3872529446
 21
597.8741668766
 31
0.0
  0
LINE
  5
326
  8
0
  6
SLD-SOLID
 62
     7
 10
661.3872475801
 20
597.8741668766
 30
0.0
 11
661.7828436075
 21
597.8741668766
 31
0.0
  0
LINE
  5
327
  8
0
  6
SLD-SOLID
 62
     7
 10
716.9372416912
 20
277.681233794
 30
0.0
 11
714.8872591434
 21
277.681233794
 31
0.0
  0
LINE
  5
328
  8
0
  6
SLD-SOLID
 62
     7
 10
714.8872591434
 20
577.0670943563
 30
0.0
 11
714.8872591434
 21
277.681233794
 31
0.0
  0
LINE
  5
329
  8
0
  6
SLD-SOLID
 62
     7
 10
714.8872591434
 20
577.0670943563
 30
0.0
 11
716.9372416912
 21
577.0670943563
 31
0.0
  0
POLYLINE
  5
32A
  8
0
  6
SLD-SOLID
 62
     7
 66
     1
 10
0.0
 20
0.0
 30
0.0
  0
VERTEX
  5
57E
  8
0
  6
SLD-SOLID
 62
     7
 10
732.8372575222
 20
577.0670943563
 30
0.0
  0
VERTEX
  5
57F
  8
0
  6
SLD-SOLID
 62
     7
 10
733.5626162468
 20
576.7809175556
 30
0.0
  0
VERTEX
  5
580
  8
0
  6
SLD-SOLID
 62
     7
 10
734.1943360744
 20
576.4946364468
 30
0.0
  0
VERTEX
  5
581
  8
0
  6
SLD-SOLID
 62
     7
 10
734.6503414093
 20
576.2083553379
 30
0.0
  0
VERTEX
  5
582
  8
0
  6
SLD-SOLID
 62
     7
 10
734.8715938507
 20
575.9220667785
 30
0.0
  0
VERTEX
  5
583
  8
0
  6
SLD-SOLID
 62
     7
 10
734.88724007
 20
575.8241661494
 30
0.0
  0
SEQEND
  5
584
  8
0
  6
SLD-SOLID
 62
     7
  0
LINE
  5
32B
  8
0
  6
SLD-SOLID
 62
     7
 10
734.88724007
 20
575.8241661494
 30
0.0
 11
734.88724007
 21
278.9241694515
 31
0.0
  0
POLYLINE
  5
32C
  8
0
  6
SLD-SOLID
 62
     7
 66
     1
 10
0.0
 20
0.0
 30
0.0
  0
VERTEX
  5
585
  8
0
  6
SLD-SOLID
 62
     7
 10
734.88724007
 20
278.9241694515
 30
0.0
  0
VERTEX
  5
586
  8
0
  6
SLD-SOLID
 62
     7
 10
734.7546197353
 20
278.6379926508
 30
0.0
  0
VERTEX
  5
587
  8
0
  6
SLD-SOLID
 62
     7
 10
734.3737460552
 20
278.3517115419
 30
0.0
  0
VERTEX
  5
588
  8
0
  6
SLD-SOLID
 62
     7
 10
733.7939418732
 20
278.0654304331
 30
0.0
  0
VERTEX
  5
589
  8
0
  6
SLD-SOLID
 62
     7
 10
733.0902494369
 20
277.7791344231
 30
0.0
  0
VERTEX
  5
58A
  8
0
  6
SLD-SOLID
 62
     7
 10
732.8372575222
 20
277.681233794
 30
0.0
  0
SEQEND
  5
58B
  8
0
  6
SLD-SOLID
 62
     7
  0
LINE
  5
32D
  8
0
  6
SLD-SOLID
 62
     7
 10
716.9372416912
 20
577.0670943563
 30
0.0
 11
732.8372575222
 21
577.0670943563
 31
0.0
  0
LINE
  5
32E
  8
0
  6
SLD-SOLID
 62
     7
 10
716.9372416912
 20
277.681233794
 30
0.0
 11
732.8372575222
 21
277.681233794
 31
0.0
  0
ARC
  5
32F
  8
0
  6
SLD-SOLID
 62
     7
 10
732.9213306741
 20
576.0344229482
 30
0.0
 40
1.043135533095597
 50
40.5217215091
 51
94.6228577374
  0
LINE
  5
330
  8
0
  6
SLD-SOLID
 62
     7
 10
732.8372575222
 20
577.8741635983
 30
0.0
 11
732.8372575222
 21
577.0741649573
 31
0.0
  0
ARC
  5
331
  8
0
  6
SLD-SOLID
 62
     7
 10
732.837258845
 20
575.8241823733
 30
0.0
 40
2.049981225035333
 50
359.9995465518
 51
90.0000369712
  0
LINE
  5
332
  8
0
  6
SLD-SOLID
 62
     7
 10
732.8372575222
 20
276.8741720026
 30
0.0
 11
732.8372575222
 21
277.6741706436
 31
0.0
  0
POLYLINE
  5
333
  8
0
  6
SLD-SOLID
 62
     7
 66
     1
 10
0.0
 20
0.0
 30
0.0
  0
VERTEX
  5
58C
  8
0
  6
SLD-SOLID
 62
     7
 10
732.8372575222
 20
277.6741706436
 30
0.0
  0
VERTEX
  5
58D
  8
0
  6
SLD-SOLID
 62
     7
 10
733.3234824119
 20
277.7726077145
 30
0.0
  0
VERTEX
  5
58E
  8
0
  6
SLD-SOLID
 62
     7
 10
733.6903490005
 20
278.0232750481
 30
0.0
  0
SEQEND
  5
58F
  8
0
  6
SLD-SOLID
 62
     7
  0
ARC
  5
334
  8
0
  6
SLD-SOLID
 62
     7
 10
732.8373517213
 20
278.924060352
 30
0.0
 40
2.049888351561558
 50
269.9973670708
 51
0.0030494062
  0
LINE
  5
335
  8
0
  6
SLD-SOLID
 62
     7
 10
714.8872591434
 20
577.8741635983
 30
0.0
 11
714.8872591434
 21
577.0741649573
 31
0.0
  0
LINE
  5
336
  8
0
  6
SLD-SOLID
 62
     7
 10
715.7685436188
 20
577.8741635983
 30
0.0
 11
714.8872591434
 21
577.8741635983
 31
0.0
  0
LINE
  5
337
  8
0
  6
SLD-SOLID
 62
     7
 10
715.7685436188
 20
577.0741649573
 30
0.0
 11
715.7685436188
 21
577.8741635983
 31
0.0
  0
LINE
  5
338
  8
0
  6
SLD-SOLID
 62
     7
 10
715.7685436188
 20
577.0741649573
 30
0.0
 11
714.8872591434
 21
577.0741649573
 31
0.0
  0
LINE
  5
339
  8
0
  6
SLD-SOLID
 62
     7
 10
715.7685436188
 20
577.8741635983
 30
0.0
 11
732.8372575222
 21
577.8741635983
 31
0.0
  0
LINE
  5
33A
  8
0
  6
SLD-SOLID
 62
     7
 10
732.8372575222
 20
577.0741649573
 30
0.0
 11
715.7685436188
 21
577.0741649573
 31
0.0
  0
LINE
  5
33B
  8
0
  6
SLD-SOLID
 62
     7
 10
718.0872537075
 20
277.6741706436
 30
0.0
 11
718.0872537075
 21
276.8741720026
 31
0.0
  0
LINE
  5
33C
  8
0
  6
SLD-SOLID
 62
     7
 10
732.8372575222
 20
277.6741706436
 30
0.0
 11
718.0872537075
 21
277.6741706436
 31
0.0
  0
LINE
  5
33D
  8
0
  6
SLD-SOLID
 62
     7
 10
732.8372575222
 20
276.8741720026
 30
0.0
 11
718.0872537075
 21
276.8741720026
 31
0.0
  0
LINE
  5
33E
  8
0
  6
SLD-SOLID
 62
     7
 10
714.2872489868
 20
277.681233794
 30
0.0
 11
714.8872591434
 21
277.681233794
 31
0.0
  0
LINE
  5
33F
  8
0
  6
SLD-SOLID
 62
     7
 10
714.8872591434
 20
577.0670943563
 30
0.0
 11
714.2872489868
 21
577.0670943563
 31
0.0
  0
LINE
  5
340
  8
0
  6
SLD-SOLID
 62
     7
 10
713.487265247
 20
277.681233794
 30
0.0
 11
713.4558237968
 21
277.681233794
 31
0.0
  0
POLYLINE
  5
341
  8
0
  6
SLD-SOLID
 62
     7
 66
     1
 10
0.0
 20
0.0
 30
0.0
  0
VERTEX
  5
590
  8
0
  6
SLD-SOLID
 62
     7
 10
717.7070356785
 20
277.681233794
 30
0.0
  0
VERTEX
  5
591
  8
0
  6
SLD-SOLID
 62
     7
 10
717.8876973568
 20
277.4745993917
 30
0.0
  0
VERTEX
  5
592
  8
0
  6
SLD-SOLID
 62
     7
 10
718.0872537075
 20
277.2993617361
 30
0.0
  0
SEQEND
  5
593
  8
0
  6
SLD-SOLID
 62
     7
  0
LINE
  5
342
  8
0
  6
SLD-SOLID
 62
     7
 10
719.2044831692
 20
277.681233794
 30
0.0
 11
719.3372525154
 21
277.6741706436
 31
0.0
  0
LINE
  5
343
  8
0
  6
SLD-SOLID
 62
     7
 10
714.8872591434
 20
577.0741649573
 30
0.0
 11
714.2872489868
 21
577.0741649573
 31
0.0
  0
POLYLINE
  5
344
  8
0
  6
SLD-SOLID
 62
     7
 66
     1
 10
0.0
 20
0.0
 30
0.0
  0
VERTEX
  5
594
  8
0
  6
SLD-SOLID
 62
     7
 10
599.387256044
 20
169.203760535
 30
0.0
  0
VERTEX
  5
595
  8
0
  6
SLD-SOLID
 62
     7
 10
599.2076821504
 20
172.0283650463
 30
0.0
  0
VERTEX
  5
596
  8
0
  6
SLD-SOLID
 62
     7
 10
598.6707933126
 20
174.8240017002
 30
0.0
  0
VERTEX
  5
597
  8
0
  6
SLD-SOLID
 62
     7
 10
597.7821327625
 20
177.561941058
 30
0.0
  0
VERTEX
  5
598
  8
0
  6
SLD-SOLID
 62
     7
 10
596.5507753073
 20
180.2141391342
 30
0.0
  0
VERTEX
  5
599
  8
0
  6
SLD-SOLID
 62
     7
 10
594.9893869339
 20
182.7533566063
 30
0.0
  0
VERTEX
  5
59A
  8
0
  6
SLD-SOLID
 62
     7
 10
593.1139714895
 20
185.1535164421
 30
0.0
  0
VERTEX
  5
59B
  8
0
  6
SLD-SOLID
 62
     7
 10
590.9437812744
 20
187.3900317257
 30
0.0
  0
VERTEX
  5
59C
  8
0
  6
SLD-SOLID
 62
     7
 10
588.5010935245
 20
189.4399248665
 30
0.0
  0
VERTEX
  5
59D
  8
0
  6
SLD-SOLID
 62
     7
 10
585.8109570919
 20
191.2821554249
 30
0.0
  0
VERTEX
  5
59E
  8
0
  6
SLD-SOLID
 62
     7
 10
582.9009987293
 20
192.8978287285
 30
0.0
  0
VERTEX
  5
59F
  8
0
  6
SLD-SOLID
 62
     7
 10
579.8010505615
 20
194.270374686
 30
0.0
  0
VERTEX
  5
5A0
  8
0
  6
SLD-SOLID
 62
     7
 10
576.5429414688
 20
195.3857266014
 30
0.0
  0
VERTEX
  5
5A1
  8
0
  6
SLD-SOLID
 62
     7
 10
573.1600947557
 20
196.2323807781
 30
0.0
  0
VERTEX
  5
5A2
  8
0
  6
SLD-SOLID
 62
     7
 10
569.6872301279
 20
196.801724345
 30
0.0
  0
VERTEX
  5
5A3
  8
0
  6
SLD-SOLID
 62
     7
 10
568.3872528253
 20
196.940752179
 30
0.0
  0
SEQEND
  5
5A4
  8
0
  6
SLD-SOLID
 62
     7
  0
POLYLINE
  5
345
  8
0
  6
SLD-SOLID
 62
     7
 66
     1
 10
0.0
 20
0.0
 30
0.0
  0
VERTEX
  5
5A5
  8
0
  6
SLD-SOLID
 62
     7
 10
560.387251514
 20
196.940752179
 30
0.0
  0
VERTEX
  5
5A6
  8
0
  6
SLD-SOLID
 62
     7
 10
559.0872742115
 20
196.801724345
 30
0.0
  0
VERTEX
  5
5A7
  8
0
  6
SLD-SOLID
 62
     7
 10
555.6144095837
 20
196.2323807781
 30
0.0
  0
VERTEX
  5
5A8
  8
0
  6
SLD-SOLID
 62
     7
 10
552.2315628706
 20
195.3857266014
 30
0.0
  0
VERTEX
  5
5A9
  8
0
  6
SLD-SOLID
 62
     7
 10
548.9734537779
 20
194.270374686
 30
0.0
  0
VERTEX
  5
5AA
  8
0
  6
SLD-SOLID
 62
     7
 10
545.8735056101
 20
192.8978287285
 30
0.0
  0
VERTEX
  5
5AB
  8
0
  6
SLD-SOLID
 62
     7
 10
542.9635472475
 20
191.2821554249
 30
0.0
  0
VERTEX
  5
5AC
  8
0
  6
SLD-SOLID
 62
     7
 10
540.2734108148
 20
189.4399248665
 30
0.0
  0
VERTEX
  5
5AD
  8
0
  6
SLD-SOLID
 62
     7
 10
537.8307156144
 20
187.3900317257
 30
0.0
  0
VERTEX
  5
5AE
  8
0
  6
SLD-SOLID
 62
     7
 10
535.6605328499
 20
185.1535164421
 30
0.0
  0
VERTEX
  5
5AF
  8
0
  6
SLD-SOLID
 62
     7
 10
533.7851174055
 20
182.7533566063
 30
0.0
  0
VERTEX
  5
5B0
  8
0
  6
SLD-SOLID
 62
     7
 10
532.2237290321
 20
180.2141391342
 30
0.0
  0
VERTEX
  5
5B1
  8
0
  6
SLD-SOLID
 62
     7
 10
530.9923790275
 20
177.561941058
 30
0.0
  0
VERTEX
  5
5B2
  8
0
  6
SLD-SOLID
 62
     7
 10
530.1037035762
 20
174.8240017002
 30
0.0
  0
VERTEX
  5
5B3
  8
0
  6
SLD-SOLID
 62
     7
 10
529.5668221889
 20
172.0283650463
 30
0.0
  0
VERTEX
  5
5B4
  8
0
  6
SLD-SOLID
 62
     7
 10
529.3872482954
 20
169.203760535
 30
0.0
  0
VERTEX
  5
5B5
  8
0
  6
SLD-SOLID
 62
     7
 10
529.5668221889
 20
166.3791560238
 30
0.0
  0
VERTEX
  5
5B6
  8
0
  6
SLD-SOLID
 62
     7
 10
530.1037035762
 20
163.5835193699
 30
0.0
  0
VERTEX
  5
5B7
  8
0
  6
SLD-SOLID
 62
     7
 10
530.9923790275
 20
160.8455502098
 30
0.0
  0
VERTEX
  5
5B8
  8
0
  6
SLD-SOLID
 62
     7
 10
532.2237290321
 20
158.1933819359
 30
0.0
  0
VERTEX
  5
5B9
  8
0
  6
SLD-SOLID
 62
     7
 10
533.7851174055
 20
155.6541644638
 30
0.0
  0
VERTEX
  5
5BA
  8
0
  6
SLD-SOLID
 62
     7
 10
535.6605328499
 20
153.254004628
 30
0.0
  0
VERTEX
  5
5BB
  8
0
  6
SLD-SOLID
 62
     7
 10
537.8307156144
 20
151.0174893444
 30
0.0
  0
VERTEX
  5
5BC
  8
0
  6
SLD-SOLID
 62
     7
 10
540.2734108148
 20
148.9675962036
 30
0.0
  0
VERTEX
  5
5BD
  8
0
  6
SLD-SOLID
 62
     7
 10
542.9635472475
 20
147.1253656452
 30
0.0
  0
VERTEX
  5
5BE
  8
0
  6
SLD-SOLID
 62
     7
 10
545.8735056101
 20
145.5096625393
 30
0.0
  0
VERTEX
  5
5BF
  8
0
  6
SLD-SOLID
 62
     7
 10
548.9734537779
 20
144.1371165817
 30
0.0
  0
VERTEX
  5
5C0
  8
0
  6
SLD-SOLID
 62
     7
 10
552.2315628706
 20
143.0217944687
 30
0.0
  0
VERTEX
  5
5C1
  8
0
  6
SLD-SOLID
 62
     7
 10
555.6144095837
 20
142.1751104897
 30
0.0
  0
VERTEX
  5
5C2
  8
0
  6
SLD-SOLID
 62
     7
 10
559.0872742115
 20
141.6057967251
 30
0.0
  0
VERTEX
  5
5C3
  8
0
  6
SLD-SOLID
 62
     7
 10
562.6145280777
 20
141.3196646278
 30
0.0
  0
VERTEX
  5
5C4
  8
0
  6
SLD-SOLID
 62
     7
 10
566.1599762617
 20
141.3196646278
 30
0.0
  0
VERTEX
  5
5C5
  8
0
  6
SLD-SOLID
 62
     7
 10
569.6872301279
 20
141.6057967251
 30
0.0
  0
VERTEX
  5
5C6
  8
0
  6
SLD-SOLID
 62
     7
 10
573.1600947557
 20
142.1751104897
 30
0.0
  0
VERTEX
  5
5C7
  8
0
  6
SLD-SOLID
 62
     7
 10
576.5429414688
 20
143.0217944687
 30
0.0
  0
VERTEX
  5
5C8
  8
0
  6
SLD-SOLID
 62
     7
 10
579.8010505615
 20
144.1371165817
 30
0.0
  0
VERTEX
  5
5C9
  8
0
  6
SLD-SOLID
 62
     7
 10
582.9009987293
 20
145.5096625393
 30
0.0
  0
VERTEX
  5
5CA
  8
0
  6
SLD-SOLID
 62
     7
 10
585.8109570919
 20
147.1253656452
 30
0.0
  0
VERTEX
  5
5CB
  8
0
  6
SLD-SOLID
 62
     7
 10
588.5010935245
 20
148.9675962036
 30
0.0
  0
VERTEX
  5
5CC
  8
0
  6
SLD-SOLID
 62
     7
 10
590.9437812744
 20
151.0174893444
 30
0.0
  0
VERTEX
  5
5CD
  8
0
  6
SLD-SOLID
 62
     7
 10
593.1139714895
 20
153.254004628
 30
0.0
  0
VERTEX
  5
5CE
  8
0
  6
SLD-SOLID
 62
     7
 10
594.9893869339
 20
155.6541644638
 30
0.0
  0
VERTEX
  5
5CF
  8
0
  6
SLD-SOLID
 62
     7
 10
596.5507753073
 20
158.1933819359
 30
0.0
  0
VERTEX
  5
5D0
  8
0
  6
SLD-SOLID
 62
     7
 10
597.7821327625
 20
160.8455502098
 30
0.0
  0
VERTEX
  5
5D1
  8
0
  6
SLD-SOLID
 62
     7
 10
598.6707933126
 20
163.5835193699
 30
0.0
  0
VERTEX
  5
5D2
  8
0
  6
SLD-SOLID
 62
     7
 10
599.2076821504
 20
166.3791560238
 30
0.0
  0
VERTEX
  5
5D3
  8
0
  6
SLD-SOLID
 62
     7
 10
599.387256044
 20
169.203760535
 30
0.0
  0
VERTEX
  5
5D4
  8
0
  6
SLD-SOLID
 62
     7
 10
599.387256044
 20
169.203760535
 30
0.0
  0
SEQEND
  5
5D5
  8
0
  6
SLD-SOLID
 62
     7
  0
POLYLINE
  5
346
  8
0
  6
SLD-SOLID
 62
     7
 66
     1
 10
0.0
 20
0.0
 30
0.0
  0
VERTEX
  5
5D6
  8
0
  6
SLD-SOLID
 62
     7
 10
568.887246388
 20
169.203760535
 30
0.0
  0
VERTEX
  5
5D7
  8
0
  6
SLD-SOLID
 62
     7
 10
568.7049753843
 20
170.2151023453
 30
0.0
  0
VERTEX
  5
5D8
  8
0
  6
SLD-SOLID
 62
     7
 10
568.3872528253
 20
170.8482824867
 30
0.0
  0
SEQEND
  5
5D9
  8
0
  6
SLD-SOLID
 62
     7
  0
POLYLINE
  5
347
  8
0
  6
SLD-SOLID
 62
     7
 66
     1
 10
0.0
 20
0.0
 30
0.0
  0
VERTEX
  5
5DA
  8
0
  6
SLD-SOLID
 62
     7
 10
560.387251514
 20
170.8482824867
 30
0.0
  0
VERTEX
  5
5DB
  8
0
  6
SLD-SOLID
 62
     7
 10
560.0695289551
 20
170.2151023453
 30
0.0
  0
VERTEX
  5
5DC
  8
0
  6
SLD-SOLID
 62
     7
 10
559.8872579513
 20
169.203760535
 30
0.0
  0
VERTEX
  5
5DD
  8
0
  6
SLD-SOLID
 62
     7
 10
560.0695289551
 20
168.1924187248
 30
0.0
  0
VERTEX
  5
5DE
  8
0
  6
SLD-SOLID
 62
     7
 10
560.6016047178
 20
167.2630034988
 30
0.0
  0
VERTEX
  5
5DF
  8
0
  6
SLD-SOLID
 62
     7
 10
561.4403761803
 20
166.4908253258
 30
0.0
  0
VERTEX
  5
5E0
  8
0
  6
SLD-SOLID
 62
     7
 10
562.5178791462
 20
165.9384392803
 30
0.0
  0
VERTEX
  5
5E1
  8
0
  6
SLD-SOLID
 62
     7
 10
563.7468375145
 20
165.6505786484
 30
0.0
  0
VERTEX
  5
5E2
  8
0
  6
SLD-SOLID
 62
     7
 10
565.0276668249
 20
165.6505786484
 30
0.0
  0
VERTEX
  5
5E3
  8
0
  6
SLD-SOLID
 62
     7
 10
566.2566251932
 20
165.9384392803
 30
0.0
  0
VERTEX
  5
5E4
  8
0
  6
SLD-SOLID
 62
     7
 10
567.3341281591
 20
166.4908253258
 30
0.0
  0
VERTEX
  5
5E5
  8
0
  6
SLD-SOLID
 62
     7
 10
568.1728996216
 20
167.2630034988
 30
0.0
  0
VERTEX
  5
5E6
  8
0
  6
SLD-SOLID
 62
     7
 10
568.7049753843
 20
168.1924187248
 30
0.0
  0
VERTEX
  5
5E7
  8
0
  6
SLD-SOLID
 62
     7
 10
568.887246388
 20
169.203760535
 30
0.0
  0
VERTEX
  5
5E8
  8
0
  6
SLD-SOLID
 62
     7
 10
568.887246388
 20
169.203760535
 30
0.0
  0
SEQEND
  5
5E9
  8
0
  6
SLD-SOLID
 62
     7
  0
ARC
  5
348
  8
0
  6
SLD-SOLID
 62
     7
 10
553.2771571637
 20
168.1779170157
 30
0.0
 40
23.8913668673789
 50
180.6329916301
 51
215.575565717
  0
POLYLINE
  5
349
  8
0
  6
SLD-SOLID
 62
     7
 66
     1
 10
0.0
 20
0.0
 30
0.0
  0
VERTEX
  5
5EA
  8
0
  6
SLD-SOLID
 62
     7
 10
560.0324697672
 20
168.2992004459
 30
0.0
  0
VERTEX
  5
5EB
  8
0
  6
SLD-SOLID
 62
     7
 10
560.0695289551
 20
168.4059821671
 30
0.0
  0
VERTEX
  5
5EC
  8
0
  6
SLD-SOLID
 62
     7
 10
560.387251514
 20
169.0391623085
 30
0.0
  0
SEQEND
  5
5ED
  8
0
  6
SLD-SOLID
 62
     7
  0
POLYLINE
  5
34A
  8
0
  6
SLD-SOLID
 62
     7
 66
     1
 10
0.0
 20
0.0
 30
0.0
  0
VERTEX
  5
5EE
  8
0
  6
SLD-SOLID
 62
     7
 10
568.3872528253
 20
169.0391623085
 30
0.0
  0
VERTEX
  5
5EF
  8
0
  6
SLD-SOLID
 62
     7
 10
568.7049753843
 20
168.4059821671
 30
0.0
  0
VERTEX
  5
5F0
  8
0
  6
SLD-SOLID
 62
     7
 10
568.7420345722
 20
168.2992004459
 30
0.0
  0
SEQEND
  5
5F1
  8
0
  6
SLD-SOLID
 62
     7
  0
ARC
  5
34B
  8
0
  6
SLD-SOLID
 62
     7
 10
-0.7227427138
 20
168.1779514249
 30
0.0
 40
23.89147248960205
 50
180.6330713557
 51
215.5754859914
  0
POLYLINE
  5
34C
  8
0
  6
SLD-SOLID
 62
     7
 66
     1
 10
0.0
 20
0.0
 30
0.0
  0
VERTEX
  5
5F2
  8
0
  6
SLD-SOLID
 62
     7
 10
45.3872658192
 20
169.203760535
 30
0.0
  0
VERTEX
  5
5F3
  8
0
  6
SLD-SOLID
 62
     7
 10
45.2076770244
 20
172.0283650463
 30
0.0
  0
VERTEX
  5
5F4
  8
0
  6
SLD-SOLID
 62
     7
 10
44.6707881866
 20
174.8240017002
 30
0.0
  0
VERTEX
  5
5F5
  8
0
  6
SLD-SOLID
 62
     7
 10
43.7821127354
 20
177.561941058
 30
0.0
  0
VERTEX
  5
5F6
  8
0
  6
SLD-SOLID
 62
     7
 10
42.5507701813
 20
180.2141391342
 30
0.0
  0
VERTEX
  5
5F7
  8
0
  6
SLD-SOLID
 62
     7
 10
40.989396709
 20
182.7533566063
 30
0.0
  0
VERTEX
  5
5F8
  8
0
  6
SLD-SOLID
 62
     7
 10
39.1139663635
 20
185.1535164421
 30
0.0
  0
VERTEX
  5
5F9
  8
0
  6
SLD-SOLID
 62
     7
 10
36.9437910496
 20
187.3900317257
 30
0.0
  0
VERTEX
  5
5FA
  8
0
  6
SLD-SOLID
 62
     7
 10
34.5011032997
 20
189.4399248665
 30
0.0
  0
VERTEX
  5
5FB
  8
0
  6
SLD-SOLID
 62
     7
 10
31.8109668671
 20
191.2821554249
 30
0.0
  0
VERTEX
  5
5FC
  8
0
  6
SLD-SOLID
 62
     7
 10
28.9009787022
 20
192.8978287285
 30
0.0
  0
VERTEX
  5
5FD
  8
0
  6
SLD-SOLID
 62
     7
 10
25.8010603367
 20
194.270374686
 30
0.0
  0
VERTEX
  5
5FE
  8
0
  6
SLD-SOLID
 62
     7
 10
22.5429214416
 20
195.3857266014
 30
0.0
  0
VERTEX
  5
5FF
  8
0
  6
SLD-SOLID
 62
     7
 10
19.1600896297
 20
196.2323807781
 30
0.0
  0
VERTEX
  5
600
  8
0
  6
SLD-SOLID
 62
     7
 10
15.6872250019
 20
196.801724345
 30
0.0
  0
VERTEX
  5
601
  8
0
  6
SLD-SOLID
 62
     7
 10
14.3872476993
 20
196.940752179
 30
0.0
  0
SEQEND
  5
602
  8
0
  6
SLD-SOLID
 62
     7
  0
POLYLINE
  5
34D
  8
0
  6
SLD-SOLID
 62
     7
 66
     1
 10
0.0
 20
0.0
 30
0.0
  0
VERTEX
  5
603
  8
0
  6
SLD-SOLID
 62
     7
 10
6.3872612892
 20
196.940752179
 30
0.0
  0
VERTEX
  5
604
  8
0
  6
SLD-SOLID
 62
     7
 10
5.0872839867
 20
196.801724345
 30
0.0
  0
VERTEX
  5
605
  8
0
  6
SLD-SOLID
 62
     7
 10
1.6144193588
 20
196.2323807781
 30
0.0
  0
VERTEX
  5
606
  8
0
  6
SLD-SOLID
 62
     7
 10
-1.7684422554
 20
195.3857266014
 30
0.0
  0
VERTEX
  5
607
  8
0
  6
SLD-SOLID
 62
     7
 10
-5.0265513481
 20
194.270374686
 30
0.0
  0
VERTEX
  5
608
  8
0
  6
SLD-SOLID
 62
     7
 10
-8.1264995159
 20
192.8978287285
 30
0.0
  0
VERTEX
  5
609
  8
0
  6
SLD-SOLID
 62
     7
 10
-11.0364578785
 20
191.2821554249
 30
0.0
  0
VERTEX
  5
60A
  8
0
  6
SLD-SOLID
 62
     7
 10
-13.7265943112
 20
189.4399248665
 30
0.0
  0
VERTEX
  5
60B
  8
0
  6
SLD-SOLID
 62
     7
 10
-16.169282061
 20
187.3900317257
 30
0.0
  0
VERTEX
  5
60C
  8
0
  6
SLD-SOLID
 62
     7
 10
-18.339457375
 20
185.1535164421
 30
0.0
  0
VERTEX
  5
60D
  8
0
  6
SLD-SOLID
 62
     7
 10
-20.2148877205
 20
182.7533566063
 30
0.0
  0
VERTEX
  5
60E
  8
0
  6
SLD-SOLID
 62
     7
 10
-21.7762611927
 20
180.2141391342
 30
0.0
  0
VERTEX
  5
60F
  8
0
  6
SLD-SOLID
 62
     7
 10
-23.0076335491
 20
177.561941058
 30
0.0
  0
VERTEX
  5
610
  8
0
  6
SLD-SOLID
 62
     7
 10
-23.8963090004
 20
174.8240017002
 30
0.0
  0
VERTEX
  5
611
  8
0
  6
SLD-SOLID
 62
     7
 10
-24.4331680359
 20
172.0283650463
 30
0.0
  0
VERTEX
  5
612
  8
0
  6
SLD-SOLID
 62
     7
 10
-24.6127568306
 20
169.203760535
 30
0.0
  0
VERTEX
  5
613
  8
0
  6
SLD-SOLID
 62
     7
 10
-24.4331680359
 20
166.3791560238
 30
0.0
  0
VERTEX
  5
614
  8
0
  6
SLD-SOLID
 62
     7
 10
-23.8963090004
 20
163.5835193699
 30
0.0
  0
VERTEX
  5
615
  8
0
  6
SLD-SOLID
 62
     7
 10
-23.0076335491
 20
160.8455502098
 30
0.0
  0
VERTEX
  5
616
  8
0
  6
SLD-SOLID
 62
     7
 10
-21.7762611927
 20
158.1933819359
 30
0.0
  0
VERTEX
  5
617
  8
0
  6
SLD-SOLID
 62
     7
 10
-20.2148877205
 20
155.6541644638
 30
0.0
  0
VERTEX
  5
618
  8
0
  6
SLD-SOLID
 62
     7
 10
-18.339457375
 20
153.254004628
 30
0.0
  0
VERTEX
  5
619
  8
0
  6
SLD-SOLID
 62
     7
 10
-16.169282061
 20
151.0174893444
 30
0.0
  0
VERTEX
  5
61A
  8
0
  6
SLD-SOLID
 62
     7
 10
-13.7265943112
 20
148.9675962036
 30
0.0
  0
VERTEX
  5
61B
  8
0
  6
SLD-SOLID
 62
     7
 10
-11.0364578785
 20
147.1253656452
 30
0.0
  0
VERTEX
  5
61C
  8
0
  6
SLD-SOLID
 62
     7
 10
-8.1264995159
 20
145.5096625393
 30
0.0
  0
VERTEX
  5
61D
  8
0
  6
SLD-SOLID
 62
     7
 10
-5.0265513481
 20
144.1371165817
 30
0.0
  0
VERTEX
  5
61E
  8
0
  6
SLD-SOLID
 62
     7
 10
-1.7684422554
 20
143.0217944687
 30
0.0
  0
VERTEX
  5
61F
  8
0
  6
SLD-SOLID
 62
     7
 10
1.6144193588
 20
142.1751104897
 30
0.0
  0
VERTEX
  5
620
  8
0
  6
SLD-SOLID
 62
     7
 10
5.0872839867
 20
141.6057967251
 30
0.0
  0
VERTEX
  5
621
  8
0
  6
SLD-SOLID
 62
     7
 10
8.6145378528
 20
141.3196646278
 30
0.0
  0
VERTEX
  5
622
  8
0
  6
SLD-SOLID
 62
     7
 10
12.1599711357
 20
141.3196646278
 30
0.0
  0
VERTEX
  5
623
  8
0
  6
SLD-SOLID
 62
     7
 10
15.6872250019
 20
141.6057967251
 30
0.0
  0
VERTEX
  5
624
  8
0
  6
SLD-SOLID
 62
     7
 10
19.1600896297
 20
142.1751104897
 30
0.0
  0
VERTEX
  5
625
  8
0
  6
SLD-SOLID
 62
     7
 10
22.5429214416
 20
143.0217944687
 30
0.0
  0
VERTEX
  5
626
  8
0
  6
SLD-SOLID
 62
     7
 10
25.8010603367
 20
144.1371165817
 30
0.0
  0
VERTEX
  5
627
  8
0
  6
SLD-SOLID
 62
     7
 10
28.9009787022
 20
145.5096625393
 30
0.0
  0
VERTEX
  5
628
  8
0
  6
SLD-SOLID
 62
     7
 10
31.8109668671
 20
147.1253656452
 30
0.0
  0
VERTEX
  5
629
  8
0
  6
SLD-SOLID
 62
     7
 10
34.5011032997
 20
148.9675962036
 30
0.0
  0
VERTEX
  5
62A
  8
0
  6
SLD-SOLID
 62
     7
 10
36.9437910496
 20
151.0174893444
 30
0.0
  0
VERTEX
  5
62B
  8
0
  6
SLD-SOLID
 62
     7
 10
39.1139663635
 20
153.254004628
 30
0.0
  0
VERTEX
  5
62C
  8
0
  6
SLD-SOLID
 62
     7
 10
40.989396709
 20
155.6541644638
 30
0.0
  0
VERTEX
  5
62D
  8
0
  6
SLD-SOLID
 62
     7
 10
42.5507701813
 20
158.1933819359
 30
0.0
  0
VERTEX
  5
62E
  8
0
  6
SLD-SOLID
 62
     7
 10
43.7821127354
 20
160.8455502098
 30
0.0
  0
VERTEX
  5
62F
  8
0
  6
SLD-SOLID
 62
     7
 10
44.6707881866
 20
163.5835193699
 30
0.0
  0
VERTEX
  5
630
  8
0
  6
SLD-SOLID
 62
     7
 10
45.2076770244
 20
166.3791560238
 30
0.0
  0
VERTEX
  5
631
  8
0
  6
SLD-SOLID
 62
     7
 10
45.3872658192
 20
169.203760535
 30
0.0
  0
SEQEND
  5
632
  8
0
  6
SLD-SOLID
 62
     7
  0
POLYLINE
  5
34E
  8
0
  6
SLD-SOLID
 62
     7
 66
     1
 10
0.0
 20
0.0
 30
0.0
  0
VERTEX
  5
633
  8
0
  6
SLD-SOLID
 62
     7
 10
14.887241262
 20
169.203760535
 30
0.0
  0
VERTEX
  5
634
  8
0
  6
SLD-SOLID
 62
     7
 10
14.7049702583
 20
170.2151023453
 30
0.0
  0
VERTEX
  5
635
  8
0
  6
SLD-SOLID
 62
     7
 10
14.3872476993
 20
170.8482824867
 30
0.0
  0
SEQEND
  5
636
  8
0
  6
SLD-SOLID
 62
     7
  0
POLYLINE
  5
34F
  8
0
  6
SLD-SOLID
 62
     7
 66
     1
 10
0.0
 20
0.0
 30
0.0
  0
VERTEX
  5
637
  8
0
  6
SLD-SOLID
 62
     7
 10
6.3872612892
 20
170.8482824867
 30
0.0
  0
VERTEX
  5
638
  8
0
  6
SLD-SOLID
 62
     7
 10
6.0695387302
 20
170.2151023453
 30
0.0
  0
VERTEX
  5
639
  8
0
  6
SLD-SOLID
 62
     7
 10
5.8872379242
 20
169.203760535
 30
0.0
  0
VERTEX
  5
63A
  8
0
  6
SLD-SOLID
 62
     7
 10
6.0695387302
 20
168.1924187248
 30
0.0
  0
VERTEX
  5
63B
  8
0
  6
SLD-SOLID
 62
     7
 10
6.6015995918
 20
167.2630034988
 30
0.0
  0
VERTEX
  5
63C
  8
0
  6
SLD-SOLID
 62
     7
 10
7.4403859554
 20
166.4908253258
 30
0.0
  0
VERTEX
  5
63D
  8
0
  6
SLD-SOLID
 62
     7
 10
8.5178889213
 20
165.9384392803
 30
0.0
  0
VERTEX
  5
63E
  8
0
  6
SLD-SOLID
 62
     7
 10
9.7468472896
 20
165.6505786484
 30
0.0
  0
VERTEX
  5
63F
  8
0
  6
SLD-SOLID
 62
     7
 10
11.0276616989
 20
165.6505786484
 30
0.0
  0
VERTEX
  5
640
  8
0
  6
SLD-SOLID
 62
     7
 10
12.2566200672
 20
165.9384392803
 30
0.0
  0
VERTEX
  5
641
  8
0
  6
SLD-SOLID
 62
     7
 10
13.3341230331
 20
166.4908253258
 30
0.0
  0
VERTEX
  5
642
  8
0
  6
SLD-SOLID
 62
     7
 10
14.1728795944
 20
167.2630034988
 30
0.0
  0
VERTEX
  5
643
  8
0
  6
SLD-SOLID
 62
     7
 10
14.7049702583
 20
168.1924187248
 30
0.0
  0
VERTEX
  5
644
  8
0
  6
SLD-SOLID
 62
     7
 10
14.887241262
 20
169.203760535
 30
0.0
  0
VERTEX
  5
645
  8
0
  6
SLD-SOLID
 62
     7
 10
14.887241262
 20
169.203760535
 30
0.0
  0
SEQEND
  5
646
  8
0
  6
SLD-SOLID
 62
     7
  0
POLYLINE
  5
350
  8
0
  6
SLD-SOLID
 62
     7
 66
     1
 10
0.0
 20
0.0
 30
0.0
  0
VERTEX
  5
647
  8
0
  6
SLD-SOLID
 62
     7
 10
6.0324646412
 20
168.2992004459
 30
0.0
  0
VERTEX
  5
648
  8
0
  6
SLD-SOLID
 62
     7
 10
6.0695387302
 20
168.4059821671
 30
0.0
  0
VERTEX
  5
649
  8
0
  6
SLD-SOLID
 62
     7
 10
6.3872612892
 20
169.0391623085
 30
0.0
  0
SEQEND
  5
64A
  8
0
  6
SLD-SOLID
 62
     7
  0
POLYLINE
  5
351
  8
0
  6
SLD-SOLID
 62
     7
 66
     1
 10
0.0
 20
0.0
 30
0.0
  0
VERTEX
  5
64B
  8
0
  6
SLD-SOLID
 62
     7
 10
14.3872476993
 20
169.0391623085
 30
0.0
  0
VERTEX
  5
64C
  8
0
  6
SLD-SOLID
 62
     7
 10
14.7049702583
 20
168.4059821671
 30
0.0
  0
VERTEX
  5
64D
  8
0
  6
SLD-SOLID
 62
     7
 10
14.7420443474
 20
168.2992004459
 30
0.0
  0
SEQEND
  5
64E
  8
0
  6
SLD-SOLID
 62
     7
  0
LINE
  5
352
  8
0
  6
SLD-SOLID
 62
     7
 10
547.5872583567
 20
213.6508547371
 30
0.0
 11
547.5872583567
 21
213.6622690266
 31
0.0
  0
LINE
  5
353
  8
0
  6
SLD-SOLID
 62
     7
 10
547.5872583567
 20
213.6508547371
 30
0.0
 11
27.1872557579
 21
213.6508547371
 31
0.0
  0
LINE
  5
354
  8
0
  6
SLD-SOLID
 62
     7
 10
27.1872557579
 20
213.6508547371
 30
0.0
 11
27.1872557579
 21
213.6622690266
 31
0.0
  0
LINE
  5
355
  8
0
  6
SLD-SOLID
 62
     7
 10
26.3872422157
 20
213.6622690266
 30
0.0
 11
27.1872557579
 21
213.6622690266
 31
0.0
  0
LINE
  5
356
  8
0
  6
SLD-SOLID
 62
     7
 10
26.3872422157
 20
213.6622690266
 30
0.0
 11
26.3872422157
 21
220.8741628235
 31
0.0
  0
LINE
  5
357
  8
0
  6
SLD-SOLID
 62
     7
 10
27.1872557579
 20
213.6622690266
 30
0.0
 11
27.1872557579
 21
220.8741628235
 31
0.0
  0
LINE
  5
358
  8
0
  6
SLD-SOLID
 62
     7
 10
548.3872569977
 20
213.6622690266
 30
0.0
 11
547.5872583567
 21
213.6622690266
 31
0.0
  0
LINE
  5
359
  8
0
  6
SLD-SOLID
 62
     7
 10
548.3872569977
 20
213.6622690266
 30
0.0
 11
548.3872569977
 21
220.8741628235
 31
0.0
  0
LINE
  5
35A
  8
0
  6
SLD-SOLID
 62
     7
 10
547.5872583567
 20
213.6622690266
 30
0.0
 11
547.5872583567
 21
220.8741628235
 31
0.0
  0
LINE
  5
35B
  8
0
  6
SLD-SOLID
 62
     7
 10
547.5872583567
 20
213.0188070839
 30
0.0
 11
27.1872557579
 21
213.0188070839
 31
0.0
  0
LINE
  5
35C
  8
0
  6
SLD-SOLID
 62
     7
 10
547.5872583567
 20
213.0188070839
 30
0.0
 11
547.5872583567
 21
213.6508547371
 31
0.0
  0
LINE
  5
35D
  8
0
  6
SLD-SOLID
 62
     7
 10
27.1872557579
 20
213.0188070839
 30
0.0
 11
27.1872557579
 21
213.6508547371
 31
0.0
  0
ENDSEC
  0
EOF
