  0
SECTION
  2
HEADER
  9
$ACADVER
  1
AC1015
  9
$ACADMAINTVER
 70
     6
  9
$DWGCODEPAGE
  3
ANSI_1252
  9
$INSBASE
 10
0.0
 20
0.0
 30
0.0
  9
$EXTMIN
 10
0.0
 20
0.0
 30
0.0
  9
$EXTMAX
 10
841.0
 20
594.0
 30
0.0
  9
$LIMMIN
 10
0.0
 20
0.0
  9
$LIMMAX
 10
841.0
 20
594.0
  9
$ORTHOMODE
 70
     0
  9
$REGENMODE
 70
     1
  9
$FILLMODE
 70
     1
  9
$QTEXTMODE
 70
     0
  9
$MIRRTEXT
 70
     1
  9
$LTSCALE
 40
1.0
  9
$ATTMODE
 70
     1
  9
$TEXTSIZE
 40
3.5
  9
$TRACEWID
 40
1.0
  9
$TEXTSTYLE
  7
Standard
  9
$CLAYER
  8
0
  9
$CELTYPE
  6
ByLayer
  9
$CECOLOR
 62
   256
  9
$CELTSCALE
 40
1.0
  9
$DISPSILH
 70
     0
  9
$DIMSCALE
 40
1.0
  9
$DIMASZ
 40
3.302
  9
$DIMEXO
 40
1.0
  9
$DIMDLI
 40
3.75
  9
$DIMRND
 40
0.0
  9
$DIMDLE
 40
0.0
  9
$DIMEXE
 40
1.0
  9
$DIMTP
 40
0.0
  9
$DIMTM
 40
0.0
  9
$DIMTXT
 40
3.5
  9
$DIMCEN
 40
2.5
  9
$DIMTSZ
 40
0.0
  9
$DIMTOL
 70
     0
  9
$DIMLIM
 70
     0
  9
$DIMTIH
 70
     1
  9
$DIMTOH
 70
     1
  9
$DIMSE1
 70
     0
  9
$DIMSE2
 70
     0
  9
$DIMTAD
 70
     1
  9
$DIMZIN
 70
     0
  9
$DIMBLK
  1

  9
$DIMASO
 70
     1
  9
$DIMSHO
 70
     1
  9
$DIMPOST
  1

  9
$DIMAPOST
  1

  9
$DIMALT
 70
     0
  9
$DIMALTD
 70
     3
  9
$DIMALTF
 40
0.0393700787
  9
$DIMLFAC
 40
2.0
  9
$DIMTOFL
 70
     1
  9
$DIMTVP
 40
0.0
  9
$DIMTIX
 70
     0
  9
$DIMSOXD
 70
     0
  9
$DIMSAH
 70
     0
  9
$DIMBLK1
  1

  9
$DIMBLK2
  1

  9
$DIMSTYLE
  2
ISO-25
  9
$DIMCLRD
 70
     0
  9
$DIMCLRE
 70
     0
  9
$DIMCLRT
 70
     0
  9
$DIMTFAC
 40
1.0
  9
$DIMGAP
 40
1.524
  9
$DIMJUST
 70
     0
  9
$DIMSD1
 70
     0
  9
$DIMSD2
 70
     0
  9
$DIMTOLJ
 70
     0
  9
$DIMTZIN
 70
     0
  9
$DIMALTZ
 70
     0
  9
$DIMALTTZ
 70
     0
  9
$DIMUPT
 70
     0
  9
$DIMDEC
 70
     1
  9
$DIMTDEC
 70
     1
  9
$DIMALTU
 70
     2
  9
$DIMALTTD
 70
     3
  9
$DIMTXSTY
  7
Standard
  9
$DIMAUNIT
 70
     0
  9
$DIMADEC
 70
     1
  9
$DIMALTRND
 40
0.0
  9
$DIMAZIN
 70
     0
  9
$DIMDSEP
 70
    44
  9
$DIMATFIT
 70
     3
  9
$DIMFRAC
 70
     0
  9
$DIMLDRBLK
  1

  9
$DIMLUNIT
 70
     2
  9
$DIMLWD
 70
    -2
  9
$DIMLWE
 70
    -2
  9
$DIMTMOVE
 70
     0
  9
$LUNITS
 70
     2
  9
$LUPREC
 70
     1
  9
$SKETCHINC
 40
1.0
  9
$FILLETRAD
 40
10.0
  9
$AUNITS
 70
     0
  9
$AUPREC
 70
     1
  9
$MENU
  1
.
  9
$ELEVATION
 40
0.0
  9
$PELEVATION
 40
0.0
  9
$THICKNESS
 40
0.0
  9
$LIMCHECK
 70
     0
  9
$CHAMFERA
 40
10.0
  9
$CHAMFERB
 40
10.0
  9
$CHAMFERC
 40
20.0
  9
$CHAMFERD
 40
0.0
  9
$SKPOLY
 70
     0
  9
$TDCREATE
 40
2455860.398695289
  9
$TDUCREATE
 40
2455860.357028623
  9
$TDUPDATE
 40
2455860.398695301
  9
$TDUUPDATE
 40
2455860.357028634
  9
$TDINDWG
 40
0.0000000116
  9
$TDUSRTIMER
 40
0.0000000116
  9
$USRTIMER
 70
     1
  9
$ANGBASE
 50
0.0
  9
$ANGDIR
 70
     0
  9
$PDMODE
 70
     0
  9
$PDSIZE
 40
-1.0
  9
$PLINEWID
 40
0.0
  9
$SPLFRAME
 70
     0
  9
$SPLINETYPE
 70
     6
  9
$SPLINESEGS
 70
     8
  9
$HANDSEED
  5
2E3
  9
$SURFTAB1
 70
     6
  9
$SURFTAB2
 70
     6
  9
$SURFTYPE
 70
     6
  9
$SURFU
 70
     6
  9
$SURFV
 70
     6
  9
$UCSBASE
  2

  9
$UCSNAME
  2

  9
$UCSORG
 10
0.0
 20
0.0
 30
0.0
  9
$UCSXDIR
 10
1.0
 20
0.0
 30
0.0
  9
$UCSYDIR
 10
0.0
 20
1.0
 30
0.0
  9
$UCSORTHOREF
  2

  9
$UCSORTHOVIEW
 70
     0
  9
$UCSORGTOP
 10
0.0
 20
0.0
 30
0.0
  9
$UCSORGBOTTOM
 10
0.0
 20
0.0
 30
0.0
  9
$UCSORGLEFT
 10
0.0
 20
0.0
 30
0.0
  9
$UCSORGRIGHT
 10
0.0
 20
0.0
 30
0.0
  9
$UCSORGFRONT
 10
0.0
 20
0.0
 30
0.0
  9
$UCSORGBACK
 10
0.0
 20
0.0
 30
0.0
  9
$PUCSBASE
  2

  9
$PUCSNAME
  2

  9
$PUCSORG
 10
0.0
 20
0.0
 30
0.0
  9
$PUCSXDIR
 10
1.0
 20
0.0
 30
0.0
  9
$PUCSYDIR
 10
0.0
 20
1.0
 30
0.0
  9
$PUCSORTHOREF
  2

  9
$PUCSORTHOVIEW
 70
     0
  9
$PUCSORGTOP
 10
0.0
 20
0.0
 30
0.0
  9
$PUCSORGBOTTOM
 10
0.0
 20
0.0
 30
0.0
  9
$PUCSORGLEFT
 10
0.0
 20
0.0
 30
0.0
  9
$PUCSORGRIGHT
 10
0.0
 20
0.0
 30
0.0
  9
$PUCSORGFRONT
 10
0.0
 20
0.0
 30
0.0
  9
$PUCSORGBACK
 10
0.0
 20
0.0
 30
0.0
  9
$USERI1
 70
     0
  9
$USERI2
 70
     0
  9
$USERI3
 70
     0
  9
$USERI4
 70
     0
  9
$USERI5
 70
     0
  9
$USERR1
 40
0.0
  9
$USERR2
 40
0.0
  9
$USERR3
 40
0.0
  9
$USERR4
 40
0.0
  9
$USERR5
 40
0.0
  9
$WORLDVIEW
 70
     1
  9
$SHADEDGE
 70
     3
  9
$SHADEDIF
 70
    70
  9
$TILEMODE
 70
     1
  9
$MAXACTVP
 70
    64
  9
$PINSBASE
 10
0.0
 20
0.0
 30
0.0
  9
$PLIMCHECK
 70
     0
  9
$PEXTMIN
 10
1.0000000000E+20
 20
1.0000000000E+20
 30
1.0000000000E+20
  9
$PEXTMAX
 10
-1.0000000000E+20
 20
-1.0000000000E+20
 30
-1.0000000000E+20
  9
$PLIMMIN
 10
0.0
 20
0.0
  9
$PLIMMAX
 10
420.0
 20
297.0
  9
$UNITMODE
 70
     0
  9
$VISRETAIN
 70
     1
  9
$PLINEGEN
 70
     0
  9
$PSLTSCALE
 70
     1
  9
$TREEDEPTH
 70
  3020
  9
$CMLSTYLE
  2
Standard
  9
$CMLJUST
 70
     0
  9
$CMLSCALE
 40
20.0
  9
$PROXYGRAPHICS
 70
     1
  9
$MEASUREMENT
 70
     1
  9
$CELWEIGHT
370
    -1
  9
$ENDCAPS
280
     0
  9
$JOINSTYLE
280
     0
  9
$LWDISPLAY
290
     1
  9
$INSUNITS
 70
     4
  9
$HYPERLINKBASE
  1

  9
$STYLESHEET
  1

  9
$XEDIT
290
     1
  9
$CEPSNTYPE
380
     0
  9
$PSTYLEMODE
290
     1
  9
$FINGERPRINTGUID
  2
{74C14D0A-BB62-4240-94CE-F526C7F414AA}
  9
$VERSIONGUID
  2
{FAEB1C32-E019-11D5-929B-00C0DF256EC4}
  9
$EXTNAMES
290
     1
  9
$PSVPSCALE
 40
0.0
  9
$OLESTARTUP
290
     0
  0
ENDSEC
  0
SECTION
  2
CLASSES
  0
CLASS
  1
ACDBDICTIONARYWDFLT
  2
AcDbDictionaryWithDefault
  3
ObjectDBX Classes
 90
        0
280
     0
281
     0
  0
CLASS
  1
VISUALSTYLE
  2
AcDbVisualStyle
  3
ObjectDBX Classes
 90
     4095
280
     0
281
     0
  0
CLASS
  1
MATERIAL
  2
AcDbMaterial
  3
ObjectDBX Classes
 90
     1153
280
     0
281
     0
  0
CLASS
  1
ACDBPLACEHOLDER
  2
AcDbPlaceHolder
  3
ObjectDBX Classes
 90
        0
280
     0
281
     0
  0
CLASS
  1
LAYOUT
  2
AcDbLayout
  3
ObjectDBX Classes
 90
        0
280
     0
281
     0
  0
ENDSEC
  0
SECTION
  2
TABLES
  0
TABLE
  2
VPORT
  5
8
330
0
100
AcDbSymbolTable
 70
     1
  0
VPORT
  5
29
330
8
100
AcDbSymbolTableRecord
100
AcDbViewportTableRecord
  2
*Active
 70
     0
 10
0.0
 20
0.0
 11
1.0
 21
1.0
 12
420.5
 22
297.0
 13
0.0
 23
0.0
 14
10.0
 24
10.0
 15
10.0
 25
10.0
 16
0.0
 26
0.0
 36
1.0
 17
0.0
 27
0.0
 37
0.0
 40
594.0
 41
1.4158249158
 42
50.0
 43
0.0
 44
0.0
 50
0.0
 51
0.0
 71
     0
 72
  2000
 73
     1
 74
     3
 75
     0
 76
     0
 77
     0
 78
     0
281
     0
 65
     1
110
0.0
120
0.0
130
0.0
111
1.0
121
0.0
131
0.0
112
0.0
122
1.0
132
0.0
 79
     0
146
0.0
  0
ENDTAB
  0
TABLE
  2
LTYPE
  5
5
330
0
100
AcDbSymbolTable
 70
     6
  0
LTYPE
  5
14
330
5
100
AcDbSymbolTableRecord
100
AcDbLinetypeTableRecord
  2
ByBlock
 70
     0
  3

 72
    65
 73
     0
 40
0.0
  0
LTYPE
  5
15
330
5
100
AcDbSymbolTableRecord
100
AcDbLinetypeTableRecord
  2
ByLayer
 70
     0
  3

 72
    65
 73
     0
 40
0.0
  0
LTYPE
  5
16
330
5
100
AcDbSymbolTableRecord
100
AcDbLinetypeTableRecord
  2
Continuous
 70
     0
  3
Solid line
 72
    65
 73
     0
 40
0.0
  0
LTYPE
  5
3F
330
5
100
AcDbSymbolTableRecord
100
AcDbLinetypeTableRecord
  2
HIDDEN
 70
     0
  3
Hidden __ __ __ __ __ __ __ __ __ __ __ __ __ __
 72
    65
 73
     2
 40
1.905
 49
1.27
 74
     0
 49
-0.635
 74
     0
  0
LTYPE
  5
40
330
5
100
AcDbSymbolTableRecord
100
AcDbLinetypeTableRecord
  2
PHANTOM
 70
     0
  3
Phantom ______  __  __  ______  __  __  ______
 72
    65
 73
     6
 40
12.7
 49
6.35
 74
     0
 49
-1.27
 74
     0
 49
1.27
 74
     0
 49
-1.27
 74
     0
 49
1.27
 74
     0
 49
-1.27
 74
     0
  0
LTYPE
  5
41
330
5
100
AcDbSymbolTableRecord
100
AcDbLinetypeTableRecord
  2
CENTER
 70
     0
  3
Center ____ _ ____ _ ____ _ ____ _ ____ _ ____
 72
    65
 73
     4
 40
10.16
 49
6.35
 74
     0
 49
-1.27
 74
     0
 49
1.27
 74
     0
 49
-1.27
 74
     0
  0
LTYPE
  5
42
330
5
100
AcDbSymbolTableRecord
100
AcDbLinetypeTableRecord
  2
CENTERX2
 70
     0
  3
Center (2x) ________  __  ________  __  _____
 72
    65
 73
     4
 40
20.32
 49
12.7
 74
     0
 49
-2.54
 74
     0
 49
2.54
 74
     0
 49
-2.54
 74
     0
  0
LTYPE
  5
43
330
5
100
AcDbSymbolTableRecord
100
AcDbLinetypeTableRecord
  2
DOT2
 70
     0
  3
Dot (.5x) ........................................
 72
    65
 73
     2
 40
0.635
 49
0.0
 74
     0
 49
-0.635
 74
     0
  0
ENDTAB
  0
TABLE
  2
LAYER
  5
2
330
0
100
AcDbSymbolTable
 70
     1
  0
LAYER
  5
10
330
2
100
AcDbSymbolTableRecord
100
AcDbLayerTableRecord
  2
0
 70
     0
 62
     7
  6
Continuous
370
    -3
390
F
  0
ENDTAB
  0
TABLE
  2
STYLE
  5
3
330
0
100
AcDbSymbolTable
 70
     1
  0
STYLE
  5
11
330
3
100
AcDbSymbolTableRecord
100
AcDbTextStyleTableRecord
  2
Standard
 70
     0
 40
0.0
 41
1.0
 50
0.0
 71
     0
 42
2.5
  3
txt
  4

  0
ENDTAB
  0
TABLE
  2
VIEW
  5
6
330
0
100
AcDbSymbolTable
 70
     0
  0
ENDTAB
  0
TABLE
  2
UCS
  5
7
330
0
100
AcDbSymbolTable
 70
     0
  0
ENDTAB
  0
TABLE
  2
APPID
  5
9
330
0
100
AcDbSymbolTable
 70
     1
  0
APPID
  5
12
330
9
100
AcDbSymbolTableRecord
100
AcDbRegAppTableRecord
  2
ACAD
 70
     0
  0
ENDTAB
  0
TABLE
  2
DIMSTYLE
  5
A
330
0
100
AcDbSymbolTable
 70
     1
100
AcDbDimStyleTable
  0
DIMSTYLE
105
27
330
A
100
AcDbSymbolTableRecord
100
AcDbDimStyleTableRecord
  2
ISO-25
 70
     0
 41
2.5
 42
0.625
 43
3.75
 44
1.25
 73
     0
 74
     0
 77
     1
 78
     8
140
2.5
141
2.5
143
0.0393700787
147
0.625
171
     3
172
     1
178
     0
271
     2
272
     2
274
     3
278
    44
283
     0
284
     8
340
11
  0
ENDTAB
  0
TABLE
  2
BLOCK_RECORD
  5
1
330
0
100
AcDbSymbolTable
 70
     1
  0
BLOCK_RECORD
  5
1F
330
1
100
AcDbSymbolTableRecord
100
AcDbBlockTableRecord
  2
*Model_Space
340
22
  0
BLOCK_RECORD
  5
1B
330
1
100
AcDbSymbolTableRecord
100
AcDbBlockTableRecord
  2
*Paper_Space
340
1E
  0
BLOCK_RECORD
  5
23
330
1
100
AcDbSymbolTableRecord
100
AcDbBlockTableRecord
  2
*Paper_Space0
340
26
  0
ENDTAB
  0
ENDSEC
  0
SECTION
  2
BLOCKS
  0
BLOCK
  5
20
330
1F
100
AcDbEntity
  8
0
100
AcDbBlockBegin
  2
*Model_Space
 70
     0
 10
0.0
 20
0.0
 30
0.0
  3
*Model_Space
  1

  0
ENDBLK
  5
21
330
1F
100
AcDbEntity
  8
0
100
AcDbBlockEnd
  0
BLOCK
  5
1C
330
1B
100
AcDbEntity
 67
     1
  8
0
100
AcDbBlockBegin
  2
*Paper_Space
 70
     0
 10
0.0
 20
0.0
 30
0.0
  3
*Paper_Space
  1

  0
ENDBLK
  5
1D
330
1B
100
AcDbEntity
 67
     1
  8
0
100
AcDbBlockEnd
  0
BLOCK
  5
24
330
23
100
AcDbEntity
  8
0
100
AcDbBlockBegin
  2
*Paper_Space0
 70
     0
 10
0.0
 20
0.0
 30
0.0
  3
*Paper_Space0
  1

  0
ENDBLK
  5
25
330
23
100
AcDbEntity
  8
0
100
AcDbBlockEnd
  0
ENDSEC
  0
SECTION
  2
ENTITIES
  0
CIRCLE
  5
44
330
1F
100
AcDbEntity
  8
0
  6
Continuous
 62
     7
100
AcDbCircle
 10
308.6185680021
 20
308.664760256
 30
0.0
 40
1.999999999999978
  0
ARC
  5
45
330
1F
100
AcDbEntity
  8
0
  6
Continuous
 62
     7
370
    15
100
AcDbCircle
 10
439.9715659748
 20
246.0426472177
 30
0.0
 40
6.502997972761682
100
AcDbArc
 50
115.0458189161
 51
180.0
  0
ARC
  5
46
330
1F
100
AcDbEntity
  8
0
  6
Continuous
 62
     7
370
    15
100
AcDbCircle
 10
401.4655700293
 20
246.0426472177
 30
0.0
 40
6.502997972761682
100
AcDbArc
 50
0.0
 51
64.9541810839
  0
ARC
  5
47
330
1F
100
AcDbEntity
  8
0
  6
Continuous
 62
     7
370
    15
100
AcDbCircle
 10
439.9715659748
 20
107.8256832943
 30
0.0
 40
6.50299797276167
100
AcDbArc
 50
180.0
 51
244.9541810839
  0
ARC
  5
48
330
1F
100
AcDbEntity
  8
0
  6
Continuous
 62
     7
370
    15
100
AcDbCircle
 10
401.4655700293
 20
107.8256832943
 30
0.0
 40
6.50299797276167
100
AcDbArc
 50
295.0458189161
 51
0.0
  0
LINE
  5
49
330
1F
100
AcDbEntity
  8
0
  6
Continuous
 62
     7
370
    15
100
AcDbLine
 10
433.4685653414
 20
219.898519145
 30
0.0
 11
433.4685653414
 21
246.0426474378
 31
0.0
  0
LINE
  5
4A
330
1F
100
AcDbEntity
  8
0
  6
Continuous
 62
     7
370
    15
100
AcDbLine
 10
407.9685658182
 20
246.0426474378
 30
0.0
 11
407.9685658182
 21
219.898519145
 31
0.0
  0
LINE
  5
4B
330
1F
100
AcDbEntity
  8
0
  6
Continuous
 62
     7
370
    15
100
AcDbLine
 10
433.4685653414
 20
134.8985257015
 30
0.0
 11
433.4685653414
 21
218.9698117242
 31
0.0
  0
LINE
  5
4C
330
1F
100
AcDbEntity
  8
0
  6
Continuous
 62
     7
370
    15
100
AcDbLine
 10
407.9685658182
 20
218.9698117242
 30
0.0
 11
407.9685658182
 21
134.8985257015
 31
0.0
  0
ARC
  5
4D
330
1F
100
AcDbEntity
  8
0
  6
Continuous
 62
     7
370
    15
100
AcDbCircle
 10
433.3685680021
 20
218.9698108655
 30
0.0
 40
0.1000000000000227
100
AcDbArc
 50
0.0
 51
77.846802531
  0
ARC
  5
4E
330
1F
100
AcDbEntity
  8
0
  6
Continuous
 62
     7
370
    15
100
AcDbCircle
 10
408.0685680021
 20
218.9698108655
 30
0.0
 40
0.1000000000000227
100
AcDbArc
 50
102.153197469
 51
180.0
  0
ARC
  5
4F
330
1F
100
AcDbEntity
  8
0
  6
Continuous
 62
     7
370
    15
100
AcDbCircle
 10
433.3685680021
 20
133.9698108655
 30
0.0
 40
0.1000000000000227
100
AcDbArc
 50
0.0
 51
77.846802531
  0
ARC
  5
50
330
1F
100
AcDbEntity
  8
0
  6
Continuous
 62
     7
370
    15
100
AcDbCircle
 10
408.0685680021
 20
133.9698108655
 30
0.0
 40
0.1000000000000227
100
AcDbArc
 50
102.153197469
 51
180.0
  0
ARC
  5
51
330
1F
100
AcDbEntity
  8
0
  6
Continuous
 62
     7
370
    15
100
AcDbCircle
 10
433.3685680021
 20
219.8985196465
 30
0.0
 40
0.1000000000000228
100
AcDbArc
 50
282.153197469
 51
0.0
  0
ARC
  5
52
330
1F
100
AcDbEntity
  8
0
  6
Continuous
 62
     7
370
    15
100
AcDbCircle
 10
408.0685680021
 20
219.8985196465
 30
0.0
 40
0.1000000000000228
100
AcDbArc
 50
180.0
 51
257.846802531
  0
LINE
  5
53
330
1F
100
AcDbEntity
  8
0
  6
Continuous
 62
     7
370
    15
100
AcDbLine
 10
433.4685653414
 20
107.825678812
 30
0.0
 11
433.4685653414
 21
133.9698108301
 31
0.0
  0
LINE
  5
54
330
1F
100
AcDbEntity
  8
0
  6
Continuous
 62
     7
370
    15
100
AcDbLine
 10
407.9685658182
 20
133.9698108301
 30
0.0
 11
407.9685658182
 21
107.825678812
 31
0.0
  0
ARC
  5
55
330
1F
100
AcDbEntity
  8
0
  6
Continuous
 62
     7
370
    15
100
AcDbCircle
 10
433.3685680021
 20
134.8985196465
 30
0.0
 40
0.1000000000000228
100
AcDbArc
 50
282.153197469
 51
0.0
  0
ARC
  5
56
330
1F
100
AcDbEntity
  8
0
  6
Continuous
 62
     7
370
    15
100
AcDbCircle
 10
408.0685680021
 20
134.8985196465
 30
0.0
 40
0.1000000000000228
100
AcDbArc
 50
180.0
 51
257.846802531
  0
ARC
  5
57
330
1F
100
AcDbEntity
  8
0
  6
Continuous
 62
     7
370
    15
100
AcDbCircle
 10
433.4685680021
 20
219.434165256
 30
0.0
 40
0.3749999999999495
100
AcDbArc
 50
102.153197469
 51
257.846802531
  0
ARC
  5
58
330
1F
100
AcDbEntity
  8
0
  6
Continuous
 62
     7
370
    15
100
AcDbCircle
 10
407.9685680021
 20
219.434165256
 30
0.0
 40
0.3749999999999495
100
AcDbArc
 50
282.153197469
 51
77.846802531
  0
ARC
  5
59
330
1F
100
AcDbEntity
  8
0
  6
Continuous
 62
     7
370
    15
100
AcDbCircle
 10
433.4685680021
 20
134.434165256
 30
0.0
 40
0.3750000000000013
100
AcDbArc
 50
102.153197469
 51
257.846802531
  0
ARC
  5
5A
330
1F
100
AcDbEntity
  8
0
  6
Continuous
 62
     7
370
    15
100
AcDbCircle
 10
407.9685680021
 20
134.434165256
 30
0.0
 40
0.3750000000000013
100
AcDbArc
 50
282.153197469
 51
77.846802531
  0
LINE
  5
5B
330
1F
100
AcDbEntity
  8
0
  6
Continuous
 62
     7
370
    15
100
AcDbLine
 10
417.7185669507
 20
92.1841683254
 30
0.0
 11
417.9685711827
 21
91.9341715441
 31
0.0
  0
LINE
  5
5C
330
1F
100
AcDbEntity
  8
0
  6
Continuous
 62
     7
370
    15
100
AcDbLine
 10
423.4685674276
 20
91.9341715441
 30
0.0
 11
423.7185716595
 21
92.1841683254
 31
0.0
  0
LINE
  5
5D
330
1F
100
AcDbEntity
  8
0
  6
Continuous
 62
     7
370
    15
100
AcDbLine
 10
423.7185716595
 20
92.1841683254
 30
0.0
 11
423.7185716595
 21
101.9341620073
 31
0.0
  0
LINE
  5
5E
330
1F
100
AcDbEntity
  8
0
  6
Continuous
 62
     7
370
    15
100
AcDbLine
 10
417.7185669507
 20
101.9341620073
 30
0.0
 11
417.7185669507
 21
92.1841683254
 31
0.0
  0
ARC
  5
5F
330
1F
100
AcDbEntity
  8
0
  6
Continuous
 62
     7
370
    15
100
AcDbCircle
 10
284.9715659748
 20
246.0426472177
 30
0.0
 40
6.502997972761658
100
AcDbArc
 50
115.0458189161
 51
180.0
  0
ARC
  5
60
330
1F
100
AcDbEntity
  8
0
  6
Continuous
 62
     7
370
    15
100
AcDbCircle
 10
246.4655700293
 20
246.0426472177
 30
0.0
 40
6.502997972761682
100
AcDbArc
 50
0.0
 51
64.9541810839
  0
ARC
  5
61
330
1F
100
AcDbEntity
  8
0
  6
Continuous
 62
     7
370
    15
100
AcDbCircle
 10
284.9715659748
 20
107.8256832943
 30
0.0
 40
6.502997972761648
100
AcDbArc
 50
180.0
 51
244.9541810839
  0
ARC
  5
62
330
1F
100
AcDbEntity
  8
0
  6
Continuous
 62
     7
370
    15
100
AcDbCircle
 10
246.4655700293
 20
107.8256832943
 30
0.0
 40
6.502997972761676
100
AcDbArc
 50
295.0458189161
 51
0.0
  0
ARC
  5
63
330
1F
100
AcDbEntity
  8
0
  6
Continuous
 62
     7
370
    15
100
AcDbCircle
 10
278.3685680021
 20
219.8985196465
 30
0.0
 40
0.1000000000000228
100
AcDbArc
 50
282.153197469
 51
0.0
  0
ARC
  5
64
330
1F
100
AcDbEntity
  8
0
  6
Continuous
 62
     7
370
    15
100
AcDbCircle
 10
253.0685680021
 20
219.8985196465
 30
0.0
 40
0.1000000000000512
100
AcDbArc
 50
180.0
 51
257.846802531
  0
ARC
  5
65
330
1F
100
AcDbEntity
  8
0
  6
Continuous
 62
     7
370
    15
100
AcDbCircle
 10
278.3685680021
 20
133.9698108655
 30
0.0
 40
0.099999999999995
100
AcDbArc
 50
0.0
 51
77.846802531
  0
ARC
  5
66
330
1F
100
AcDbEntity
  8
0
  6
Continuous
 62
     7
370
    15
100
AcDbCircle
 10
253.0685680021
 20
133.9698108655
 30
0.0
 40
0.100000000000007
100
AcDbArc
 50
102.153197469
 51
180.0
  0
LINE
  5
67
330
1F
100
AcDbEntity
  8
0
  6
Continuous
 62
     7
370
    15
100
AcDbLine
 10
278.4685715999
 20
107.825678812
 30
0.0
 11
278.4685715999
 21
133.9698108301
 31
0.0
  0
LINE
  5
68
330
1F
100
AcDbEntity
  8
0
  6
Continuous
 62
     7
370
    15
100
AcDbLine
 10
252.9685646261
 20
133.9698108301
 30
0.0
 11
252.9685646261
 21
107.825678812
 31
0.0
  0
ARC
  5
69
330
1F
100
AcDbEntity
  8
0
  6
Continuous
 62
     7
370
    15
100
AcDbCircle
 10
278.3685680021
 20
134.8985196465
 30
0.0
 40
0.1000000000000228
100
AcDbArc
 50
282.153197469
 51
0.0
  0
ARC
  5
6A
330
1F
100
AcDbEntity
  8
0
  6
Continuous
 62
     7
370
    15
100
AcDbCircle
 10
253.0685680021
 20
134.8985196465
 30
0.0
 40
0.1000000000000348
100
AcDbArc
 50
180.0
 51
257.846802531
  0
ARC
  5
6B
330
1F
100
AcDbEntity
  8
0
  6
Continuous
 62
     7
370
    15
100
AcDbCircle
 10
278.3685680021
 20
218.9698108655
 30
0.0
 40
0.099999999999995
100
AcDbArc
 50
0.0
 51
77.846802531
  0
ARC
  5
6C
330
1F
100
AcDbEntity
  8
0
  6
Continuous
 62
     7
370
    15
100
AcDbCircle
 10
253.0685680021
 20
218.9698108655
 30
0.0
 40
0.100000000000007
100
AcDbArc
 50
102.153197469
 51
180.0
  0
LINE
  5
6D
330
1F
100
AcDbEntity
  8
0
  6
Continuous
 62
     7
370
    15
100
AcDbLine
 10
278.4685715999
 20
219.898519145
 30
0.0
 11
278.4685715999
 21
246.0426474378
 31
0.0
  0
LINE
  5
6E
330
1F
100
AcDbEntity
  8
0
  6
Continuous
 62
     7
370
    15
100
AcDbLine
 10
252.9685646261
 20
246.0426474378
 30
0.0
 11
252.9685646261
 21
219.898519145
 31
0.0
  0
LINE
  5
6F
330
1F
100
AcDbEntity
  8
0
  6
Continuous
 62
     7
370
    15
100
AcDbLine
 10
278.4685715999
 20
134.8985257015
 30
0.0
 11
278.4685715999
 21
218.9698117242
 31
0.0
  0
LINE
  5
70
330
1F
100
AcDbEntity
  8
0
  6
Continuous
 62
     7
370
    15
100
AcDbLine
 10
252.9685646261
 20
218.9698117242
 30
0.0
 11
252.9685646261
 21
134.8985257015
 31
0.0
  0
ARC
  5
71
330
1F
100
AcDbEntity
  8
0
  6
Continuous
 62
     7
370
    15
100
AcDbCircle
 10
278.4685680021
 20
219.434165256
 30
0.0
 40
0.3749999999999375
100
AcDbArc
 50
102.153197469
 51
257.846802531
  0
ARC
  5
72
330
1F
100
AcDbEntity
  8
0
  6
Continuous
 62
     7
370
    15
100
AcDbCircle
 10
252.9685680021
 20
219.434165256
 30
0.0
 40
0.3749999999999435
100
AcDbArc
 50
282.153197469
 51
77.846802531
  0
ARC
  5
73
330
1F
100
AcDbEntity
  8
0
  6
Continuous
 62
     7
370
    15
100
AcDbCircle
 10
278.4685680021
 20
134.434165256
 30
0.0
 40
0.3749999999999893
100
AcDbArc
 50
102.153197469
 51
257.846802531
  0
ARC
  5
74
330
1F
100
AcDbEntity
  8
0
  6
Continuous
 62
     7
370
    15
100
AcDbCircle
 10
252.9685680021
 20
134.434165256
 30
0.0
 40
0.3749999999999833
100
AcDbArc
 50
282.153197469
 51
77.846802531
  0
LINE
  5
75
330
1F
100
AcDbEntity
  8
0
  6
Continuous
 62
     7
370
    15
100
AcDbLine
 10
262.7185657586
 20
92.1841683254
 30
0.0
 11
262.9685699906
 21
91.9341715441
 31
0.0
  0
LINE
  5
76
330
1F
100
AcDbEntity
  8
0
  6
Continuous
 62
     7
370
    15
100
AcDbLine
 10
268.4685662355
 20
91.9341715441
 30
0.0
 11
268.7185704674
 21
92.1841683254
 31
0.0
  0
LINE
  5
77
330
1F
100
AcDbEntity
  8
0
  6
Continuous
 62
     7
370
    15
100
AcDbLine
 10
268.7185704674
 20
92.1841683254
 30
0.0
 11
268.7185704674
 21
101.9341620073
 31
0.0
  0
LINE
  5
78
330
1F
100
AcDbEntity
  8
0
  6
Continuous
 62
     7
370
    15
100
AcDbLine
 10
262.7185657586
 20
101.9341620073
 30
0.0
 11
262.7185657586
 21
92.1841683254
 31
0.0
  0
ARC
  5
79
330
1F
100
AcDbEntity
  8
0
  6
Continuous
 62
     7
370
    15
100
AcDbCircle
 10
543.5671405967
 20
270.674557101
 30
0.0
 40
0.5000000000000844
100
AcDbArc
 50
225.0
 51
306.46923439
  0
ARC
  5
7A
330
1F
100
AcDbEntity
  8
0
  6
Continuous
 62
     7
370
    15
100
AcDbCircle
 10
567.608771157
 20
294.7161876613
 30
0.0
 40
0.5000000000000268
100
AcDbArc
 50
323.5307656099
 51
45.0
  0
LINE
  5
7B
330
1F
100
AcDbEntity
  8
0
  6
Continuous
 62
     7
370
    15
100
AcDbLine
 10
542.4574091996
 20
271.0771877707
 30
0.0
 11
543.2135835256
 21
270.3210041315
 31
0.0
  0
LINE
  5
7C
330
1F
100
AcDbEntity
  8
0
  6
Continuous
 62
     7
370
    15
100
AcDbLine
 10
567.962326106
 20
295.069741124
 30
0.0
 11
567.2061368789
 21
295.8259256945
 31
0.0
  0
LINE
  5
7D
330
1F
100
AcDbEntity
  8
0
  6
Continuous
 62
     7
370
    15
100
AcDbLine
 10
543.8643321361
 20
270.2724691868
 30
0.0
 11
550.9572401609
 21
275.5150534601
 31
0.0
  0
LINE
  5
7E
330
1F
100
AcDbEntity
  8
0
  6
Continuous
 62
     7
370
    15
100
AcDbLine
 10
562.7682730521
 20
287.3260835574
 30
0.0
 11
568.010859188
 21
294.4189925135
 31
0.0
  0
ARC
  5
7F
330
1F
100
AcDbEntity
  8
0
  6
Continuous
 62
     7
370
    15
100
AcDbCircle
 10
551.5516356063
 20
274.7108773716
 30
0.0
 40
0.9999999999999679
100
AcDbArc
 50
45.0
 51
126.46923439
  0
ARC
  5
80
330
1F
100
AcDbEntity
  8
0
  6
Continuous
 62
     7
370
    15
100
AcDbCircle
 10
563.5724508864
 20
286.7316926518
 30
0.0
 40
0.9999999999999679
100
AcDbArc
 50
143.5307656099
 51
225.0
  0
LINE
  5
81
330
1F
100
AcDbEntity
  8
0
  6
Continuous
 62
     7
370
    15
100
AcDbLine
 10
552.2587373819
 20
275.4179840364
 30
0.0
 11
553.0640110339
 21
274.6127220259
 31
0.0
  0
LINE
  5
82
330
1F
100
AcDbEntity
  8
0
  6
Continuous
 62
     7
370
    15
100
AcDbLine
 10
563.6706128682
 20
285.2193238602
 30
0.0
 11
562.8653392162
 21
286.0245858707
 31
0.0
  0
LINE
  5
83
330
1F
100
AcDbEntity
  8
0
  6
Continuous
 62
     7
370
    15
100
AcDbLine
 10
553.7711158361
 20
273.9056153611
 30
0.0
 11
553.8219585981
 21
273.891970554
 31
0.0
  0
LINE
  5
84
330
1F
100
AcDbEntity
  8
0
  6
Continuous
 62
     7
370
    15
100
AcDbLine
 10
564.3913522329
 20
284.4613679141
 30
0.0
 11
564.3777176704
 21
284.5122169626
 31
0.0
  0
LINE
  5
85
330
1F
100
AcDbEntity
  8
0
  6
Continuous
 62
     7
370
    15
100
AcDbLine
 10
553.0640110339
 20
274.6127220259
 30
0.0
 11
553.7711158361
 21
273.9056153611
 31
0.0
  0
LINE
  5
86
330
1F
100
AcDbEntity
  8
0
  6
Continuous
 62
     7
370
    15
100
AcDbLine
 10
564.3777176704
 20
284.5122169626
 30
0.0
 11
563.6706128682
 21
285.2193238602
 31
0.0
  0
ARC
  5
87
330
1F
100
AcDbEntity
  8
0
  6
Continuous
 62
     7
370
    15
100
AcDbCircle
 10
554.7610607595
 20
267.9659183124
 30
0.0
 40
6.000000000000089
100
AcDbArc
 50
1.5913213036
 51
99.0047717622
  0
ARC
  5
88
330
1F
100
AcDbEntity
  8
0
  6
Continuous
 62
     7
370
    15
100
AcDbCircle
 10
570.3174099456
 20
283.5222674985
 30
0.0
 40
6.000000000000034
100
AcDbArc
 50
170.9952282378
 51
268.4086786964
  0
LINE
  5
89
330
1F
100
AcDbEntity
  8
0
  6
Continuous
 62
     7
370
    15
100
AcDbLine
 10
561.4900216426
 20
266.4341973529
 30
0.0
 11
590.310849246
 21
237.6133585737
 31
0.0
  0
LINE
  5
8A
330
1F
100
AcDbEntity
  8
0
  6
Continuous
 62
     7
370
    15
100
AcDbLine
 10
600.669957694
 20
247.9724744723
 30
0.0
 11
571.8491300906
 21
276.7933127858
 31
0.0
  0
ARC
  5
8B
330
1F
100
AcDbEntity
  8
0
  6
Continuous
 62
     7
370
    15
100
AcDbCircle
 10
592.0786211367
 20
239.3811266829
 30
0.0
 40
2.49999999999998
100
AcDbArc
 50
225.0
 51
315.0
  0
ARC
  5
8C
330
1F
100
AcDbEntity
  8
0
  6
Continuous
 62
     7
370
    15
100
AcDbCircle
 10
598.9022015751
 20
246.2047071214
 30
0.0
 40
2.49999999999998
100
AcDbArc
 50
315.0
 51
45.0
  0
ARC
  5
8D
330
1F
100
AcDbEntity
  8
0
  6
Continuous
 62
     7
370
    15
100
AcDbCircle
 10
563.2577825893
 20
268.2019652303
 30
0.0
 40
2.5
100
AcDbArc
 50
181.5913213036
 51
225.0
  0
ARC
  5
8E
330
1F
100
AcDbEntity
  8
0
  6
Continuous
 62
     7
370
    15
100
AcDbCircle
 10
570.0813630278
 20
275.0255456687
 30
0.0
 40
2.5
100
AcDbArc
 50
45.0
 51
88.4086786964
  0
LINE
  5
8F
330
1F
100
AcDbEntity
  8
0
  6
Continuous
 62
     7
370
    15
100
AcDbLine
 10
498.3760789003
 20
325.0341648624
 30
0.0
 11
503.3760890331
 21
327.0341651902
 31
0.0
  0
LINE
  5
90
330
1F
100
AcDbEntity
  8
0
  6
Continuous
 62
     7
370
    15
100
AcDbLine
 10
499.971516427
 20
356.8959879146
 30
0.0
 11
498.3760789003
 21
357.5341673956
 31
0.0
  0
LINE
  5
91
330
1F
100
AcDbEntity
  8
0
  6
Continuous
 62
     7
370
    15
100
AcDbLine
 10
503.3760890331
 20
355.5341633425
 30
0.0
 11
502.1529123153
 21
356.0234355197
 31
0.0
  0
LINE
  5
92
330
1F
100
AcDbEntity
  8
0
  6
Continuous
 62
     7
370
    15
100
AcDbLine
 10
503.3760890331
 20
327.0341651902
 30
0.0
 11
513.0812600221
 21
331.4014980957
 31
0.0
  0
LINE
  5
93
330
1F
100
AcDbEntity
  8
0
  6
Continuous
 62
     7
370
    15
100
AcDbLine
 10
503.6040618982
 20
355.4315762982
 30
0.0
 11
503.3760890331
 21
355.5341633425
 31
0.0
  0
ARC
  5
94
330
1F
100
AcDbEntity
  8
0
  6
Continuous
 62
     7
370
    15
100
AcDbCircle
 10
512.8760847279
 20
331.8574580608
 30
0.0
 40
0.5000000000001137
100
AcDbArc
 50
294.227745318
 51
0.0
  0
LINE
  5
95
330
1F
100
AcDbEntity
  8
0
  6
Continuous
 62
     7
370
    15
100
AcDbLine
 10
497.3760917749
 20
337.7282591925
 30
0.0
 11
498.3760789003
 21
337.7108062074
 31
0.0
  0
LINE
  5
96
330
1F
100
AcDbEntity
  8
0
  6
Continuous
 62
     7
370
    15
100
AcDbLine
 10
500.3509148921
 20
356.7496138081
 30
0.0
 11
499.9708607759
 21
356.9016354546
 31
0.0
  0
LINE
  5
97
330
1F
100
AcDbEntity
  8
0
  6
Continuous
 62
     7
370
    15
100
AcDbLine
 10
502.1572634544
 20
356.0270788536
 30
0.0
 11
501.7858073081
 21
356.1756583319
 31
0.0
  0
LINE
  5
98
330
1F
100
AcDbEntity
  8
0
  6
Continuous
 62
     7
370
    15
100
AcDbLine
 10
499.1260841455
 20
314.8591639862
 30
0.0
 11
497.3760917749
 21
315.4341662691
 31
0.0
  0
LINE
  5
99
330
1F
100
AcDbEntity
  8
0
  6
Continuous
 62
     7
370
    15
100
AcDbLine
 10
556.2459900941
 20
284.8657702949
 30
0.0
 11
535.7650145854
 21
305.3467413799
 31
0.0
  0
LINE
  5
9A
330
1F
100
AcDbEntity
  8
0
  6
Continuous
 62
     7
370
    15
100
AcDbLine
 10
532.9365804757
 20
302.5183128581
 30
0.0
 11
553.4175559844
 21
282.0373432575
 31
0.0
  0
ARC
  5
9B
330
1F
100
AcDbEntity
  8
0
  6
Continuous
 62
     7
370
    15
100
AcDbCircle
 10
532.5830340961
 20
302.164760256
 30
0.0
 40
0.5
100
AcDbArc
 50
45.0
 51
90.0
  0
ARC
  5
9C
330
1F
100
AcDbEntity
  8
0
  6
Continuous
 62
     7
370
    15
100
AcDbCircle
 10
532.5830340961
 20
302.164760256
 30
0.0
 40
4.5
100
AcDbArc
 50
45.0
 51
90.0
  0
LINE
  5
9D
330
1F
100
AcDbEntity
  8
0
  6
Continuous
 62
     7
370
    15
100
AcDbLine
 10
532.5830355252
 20
306.6647602633
 30
0.0
 11
511.1208483543
 21
306.6647602633
 31
0.0
  0
LINE
  5
9E
330
1F
100
AcDbEntity
  8
0
  6
Continuous
 62
     7
370
    15
100
AcDbLine
 10
486.1162975396
 20
306.6647602633
 30
0.0
 11
469.5185646381
 21
306.6647602633
 31
0.0
  0
LINE
  5
9F
330
1F
100
AcDbEntity
  8
0
  6
Continuous
 62
     7
370
    15
100
AcDbLine
 10
469.5185646381
 20
302.6647596077
 30
0.0
 11
532.5830355252
 21
302.6647596077
 31
0.0
  0
LINE
  5
A0
330
1F
100
AcDbEntity
  8
0
  6
Continuous
 62
     7
370
    15
100
AcDbLine
 10
475.1185700263
 20
308.9147610978
 30
0.0
 11
471.4935645427
 21
308.9147610978
 31
0.0
  0
LINE
  5
A1
330
1F
100
AcDbEntity
  8
0
  6
Continuous
 62
     7
370
    15
100
AcDbLine
 10
496.6185614433
 20
312.6647593841
 30
0.0
 11
496.6185614433
 21
307.0647595838
 31
0.0
  0
LINE
  5
A2
330
1F
100
AcDbEntity
  8
0
  6
Continuous
 62
     7
370
    15
100
AcDbLine
 10
500.6185695495
 20
307.0647595838
 30
0.0
 11
500.6185695495
 21
312.6647593841
 31
0.0
  0
LINE
  5
A3
330
1F
100
AcDbEntity
  8
0
  6
Continuous
 62
     7
370
    15
100
AcDbLine
 10
471.4935645427
 20
306.6647602633
 30
0.0
 11
471.4935645427
 21
315.9091668591
 31
0.0
  0
LINE
  5
A4
330
1F
100
AcDbEntity
  8
0
  6
Continuous
 62
     7
370
    15
100
AcDbLine
 10
471.4935645427
 20
315.9091668591
 30
0.0
 11
471.4935645427
 21
319.6591670082
 31
0.0
  0
LINE
  5
A5
330
1F
100
AcDbEntity
  8
0
  6
Continuous
 62
     7
370
    15
100
AcDbLine
 10
437.2185692157
 20
101.9341620073
 30
0.0
 11
404.2185693945
 21
101.9341620073
 31
0.0
  0
LINE
  5
A6
330
1F
100
AcDbEntity
  8
0
  6
Continuous
 62
     7
370
    15
100
AcDbLine
 10
423.7185716595
 20
92.1841683254
 30
0.0
 11
417.7185669507
 21
92.1841683254
 31
0.0
  0
LINE
  5
A7
330
1F
100
AcDbEntity
  8
0
  6
Continuous
 62
     7
370
    15
100
AcDbLine
 10
423.4685674276
 20
91.9341715441
 30
0.0
 11
417.9685711827
 21
91.9341715441
 31
0.0
  0
LINE
  5
A8
330
1F
100
AcDbEntity
  8
0
  6
Continuous
 62
     7
370
    15
100
AcDbLine
 10
282.2185680236
 20
101.9341620073
 30
0.0
 11
249.2185682024
 21
101.9341620073
 31
0.0
  0
LINE
  5
A9
330
1F
100
AcDbEntity
  8
0
  6
Continuous
 62
     7
370
    15
100
AcDbLine
 10
268.7185704674
 20
92.1841683254
 30
0.0
 11
262.7185657586
 21
92.1841683254
 31
0.0
  0
LINE
  5
AA
330
1F
100
AcDbEntity
  8
0
  6
Continuous
 62
     7
370
    15
100
AcDbLine
 10
268.4685662355
 20
91.9341715441
 30
0.0
 11
262.9685699906
 21
91.9341715441
 31
0.0
  0
SPLINE
  5
AB
330
1F
100
AcDbEntity
  8
0
  6
Continuous
 62
     7
370
    15
100
AcDbSpline
210
0.0
220
0.0
230
1.0
 70
     8
 71
     3
 72
     9
 73
     5
 74
     0
 42
0.00000001
 43
0.00000001
 40
0.0
 40
0.0
 40
0.0
 40
0.0
 40
0.3007849926564635
 40
1.0
 40
1.0
 40
1.0
 40
1.0
 10
468.4935659136041
 20
492.3231574163368
 30
0.0
 10
468.5057367878419
 20
492.2882199945169
 30
0.0
 10
468.5462004896053
 20
492.1720658556042
 30
0.0
 10
468.5586114669767
 20
492.017342998532
 30
0.0
 10
468.5672894086107
 20
491.9091584548881
 30
0.0
  0
LINE
  5
AC
330
1F
100
AcDbEntity
  8
0
  6
Continuous
 62
     7
370
    15
100
AcDbLine
 10
300.4300184514
 20
506.7533525095
 30
0.0
 11
299.8896948959
 21
506.5566869841
 31
0.0
  0
LINE
  5
AD
330
1F
100
AcDbEntity
  8
0
  6
Continuous
 62
     7
370
    15
100
AcDbLine
 10
254.3685659732
 20
499.4379105434
 30
0.0
 11
254.3685659732
 21
492.9341646299
 31
0.0
  0
LINE
  5
AE
330
1F
100
AcDbEntity
  8
0
  6
Continuous
 62
     7
370
    15
100
AcDbLine
 10
254.9435645308
 20
499.4379105434
 30
0.0
 11
254.3685659732
 21
499.4379105434
 31
0.0
  0
LINE
  5
AF
330
1F
100
AcDbEntity
  8
0
  6
Continuous
 62
     7
370
    15
100
AcDbLine
 10
305.4597899284
 20
492.9341646299
 30
0.0
 11
300.4300184514
 21
506.7533525095
 31
0.0
  0
LWPOLYLINE
  5
B0
330
1F
100
AcDbEntity
  8
0
  6
Continuous
 62
     7
370
    15
100
AcDbPolyline
 90
        9
 70
   128
 43
0.0
 10
254.9435645308
 20
499.4379105434
 10
254.9061849679
 20
499.6739598379
 10
254.8702359165
 20
499.9009343252
 10
254.8371031846
 20
500.1101168261
 10
254.8080608215
 20
500.2934607134
 10
254.7842338647
 20
500.4439326391
 10
254.7665238346
 20
500.5557360516
 10
254.7556161846
 20
500.6245794163
 10
254.7519355978
 20
500.6478401289
  0
LINE
  5
B1
330
1F
100
AcDbEntity
  8
0
  6
Continuous
 62
     7
370
    15
100
AcDbLine
 10
254.7519355978
 20
500.6478401289
 30
0.0
 11
299.698065963
 21
507.7666016684
 31
0.0
  0
LWPOLYLINE
  5
B2
330
1F
100
AcDbEntity
  8
0
  6
Continuous
 62
     7
370
    15
100
AcDbPolyline
 90
        9
 70
   128
 43
0.0
 10
299.698065963
 20
507.7666016684
 10
299.7017465498
 20
507.7433558569
 10
299.7126504745
 20
507.674497591
 10
299.7303605046
 20
507.5626941786
 10
299.7541911866
 20
507.4122222528
 10
299.7832298245
 20
507.2288783655
 10
299.8163625564
 20
507.0196958647
 10
299.8523116078
 20
506.7927213774
 10
299.8896948959
 20
506.5566869841
  0
LINE
  5
B3
330
1F
100
AcDbEntity
  8
0
  6
Continuous
 62
     7
370
    15
100
AcDbLine
 10
253.7185698714
 20
493.5591640339
 30
0.0
 11
253.7185698714
 21
499.4379105434
 31
0.0
  0
LINE
  5
B4
330
1F
100
AcDbEntity
  8
0
  6
Continuous
 62
     7
370
    15
100
AcDbLine
 10
254.3185651268
 20
499.4379105434
 30
0.0
 11
253.7185698714
 21
499.4379105434
 31
0.0
  0
LINE
  5
B5
330
1F
100
AcDbEntity
  8
0
  6
Continuous
 62
     7
370
    15
100
AcDbLine
 10
254.3185651268
 20
493.5591640339
 30
0.0
 11
254.3185651268
 21
499.4379105434
 31
0.0
  0
LINE
  5
B6
330
1F
100
AcDbEntity
  8
0
  6
Continuous
 62
     7
370
    15
100
AcDbLine
 10
253.7185698714
 20
493.5591640339
 30
0.0
 11
254.3185651268
 21
493.5591640339
 31
0.0
  0
LINE
  5
B7
330
1F
100
AcDbEntity
  8
0
  6
Continuous
 62
     7
370
    15
100
AcDbLine
 10
306.0093596544
 20
493.3247091637
 30
0.0
 11
305.4455444183
 21
493.1195052729
 31
0.0
  0
LINE
  5
B8
330
1F
100
AcDbEntity
  8
0
  6
Continuous
 62
     7
370
    15
100
AcDbLine
 10
305.4455444183
 20
493.1195052729
 30
0.0
 11
300.4770055379
 21
506.7704441414
 31
0.0
  0
LINE
  5
B9
330
1F
100
AcDbEntity
  8
0
  6
Continuous
 62
     7
370
    15
100
AcDbLine
 10
300.4770055379
 20
506.7704441414
 30
0.0
 11
301.040820774
 21
506.9756629333
 31
0.0
  0
LINE
  5
BA
330
1F
100
AcDbEntity
  8
0
  6
Continuous
 62
     7
370
    15
100
AcDbLine
 10
306.0093596544
 20
493.3247091637
 30
0.0
 11
301.040820774
 21
506.9756629333
 31
0.0
  0
ARC
  5
BB
330
1F
100
AcDbEntity
  8
0
  6
Continuous
 62
     7
370
    15
100
AcDbCircle
 10
299.8896963574
 20
506.5566838006
 30
0.0
 40
1.225000000000148
100
AcDbArc
 50
20.0
 51
99.0
  0
ARC
  5
BC
330
1F
100
AcDbEntity
  8
0
  6
Continuous
 62
     7
370
    15
100
AcDbCircle
 10
299.8896963574
 20
506.5566838006
 30
0.0
 40
0.6250000000000169
100
AcDbArc
 50
20.0
 51
99.0
  0
LWPOLYLINE
  5
BD
330
1F
100
AcDbEntity
  8
0
  6
Continuous
 62
     7
370
    15
100
AcDbPolyline
 90
        3
 70
   128
 43
0.0
 10
305.4455444183
 20
493.1195052729
 10
305.5226765539
 20
492.9492595062
 10
305.53109571
 20
492.9341646299
  0
ARC
  5
BE
330
1F
100
AcDbEntity
  8
0
  6
Continuous
 62
     7
370
    15
100
AcDbCircle
 10
306.596666478
 20
493.5384729814
 30
0.0
 40
0.6249999999999705
100
AcDbArc
 50
200.0
 51
255.2154781694
  0
ARC
  5
BF
330
1F
100
AcDbEntity
  8
0
  6
Continuous
 62
     7
370
    15
100
AcDbCircle
 10
253.0935680021
 20
493.559165256
 30
0.0
 40
0.6250000000001137
100
AcDbArc
 50
270.0
 51
0.0
  0
ARC
  5
C0
330
1F
100
AcDbEntity
  8
0
  6
Continuous
 62
     7
370
    15
100
AcDbCircle
 10
253.0935680021
 20
493.559165256
 30
0.0
 40
1.224999999999966
100
AcDbArc
 50
329.3225755274
 51
0.0
  0
ARC
  5
C1
330
1F
100
AcDbEntity
  8
0
  6
Continuous
 62
     7
370
    15
100
AcDbCircle
 10
254.9435680021
 20
499.4379164163
 30
0.0
 40
1.22500000000004
100
AcDbArc
 50
99.0
 51
180.0
  0
ARC
  5
C2
330
1F
100
AcDbEntity
  8
0
  6
Continuous
 62
     7
370
    15
100
AcDbCircle
 10
254.9435680021
 20
499.4379164163
 30
0.0
 40
0.6250000000000401
100
AcDbArc
 50
99.0
 51
180.0
  0
LINE
  5
C3
330
1F
100
AcDbEntity
  8
0
  6
Continuous
 62
     7
370
    15
100
AcDbLine
 10
233.6539253558
 20
252.9591648296
 30
0.0
 11
233.6539253558
 21
255.3341659174
 31
0.0
  0
LINE
  5
C4
330
1F
100
AcDbEntity
  8
0
  6
Continuous
 62
     7
370
    15
100
AcDbLine
 10
453.7832140888
 20
252.9591648296
 30
0.0
 11
453.7832140888
 21
254.9341647342
 31
0.0
  0
SPLINE
  5
C5
330
1F
100
AcDbEntity
  8
0
  6
Continuous
 62
     7
370
    15
100
AcDbSpline
210
0.0
220
0.0
230
1.0
 70
     8
 71
     3
 72
    11
 73
     7
 74
     0
 42
0.00000001
 43
0.00000001
 40
0.0
 40
0.0
 40
0.0
 40
0.0
 40
0.2500001143409479
 40
0.5000007109140765
 40
0.7499998856590521
 40
1.0
 40
1.0
 40
1.0
 40
1.0
 10
234.2435643042787
 20
251.9341661051443
 30
0.0
 10
234.1944276765954
 20
251.9495729854583
 30
0.0
 10
234.0961543264478
 20
251.980386775805
 30
0.0
 10
233.94874540893
 20
252.2174184906451
 30
0.0
 10
233.8013346949141
 20
252.5562259918393
 30
0.0
 10
233.7030618637548
 20
252.8248517154163
 30
0.0
 10
233.6539253558382
 20
252.9591648296049
 30
0.0
  0
SPLINE
  5
C6
330
1F
100
AcDbEntity
  8
0
  6
Continuous
 62
     7
370
    15
100
AcDbSpline
210
0.0
220
0.0
230
1.0
 70
     8
 71
     3
 72
    12
 73
     8
 74
     0
 42
0.00000001
 43
0.00000001
 40
0.0
 40
0.0
 40
0.0
 40
0.0
 40
0.2286716176361137
 40
0.4574154564297375
 40
0.686160281162072
 40
0.914904167796356
 40
0.9999999999999999
 40
0.9999999999999999
 40
0.9999999999999999
 40
0.9999999999999999
 10
453.7832140888437
 20
252.9591648296049
 30
0.0
 10
453.7382531479328
 20
252.8364288937811
 30
0.0
 10
453.648317066136
 20
252.5909182585499
 30
0.0
 10
453.5133907137144
 20
252.2693319632386
 30
0.0
 10
453.3785419872639
 20
252.0372526664253
 30
0.0
 10
453.2716450583278
 20
251.9428603796017
 30
0.0
 10
453.2102221560186
 20
251.9360206566337
 30
0.0
 10
453.1935676898225
 20
251.9341661051443
 30
0.0
  0
LINE
  5
C7
330
1F
100
AcDbEntity
  8
0
  6
Continuous
 62
     7
370
    15
100
AcDbLine
 10
453.1935676898
 20
251.9341661051
 30
0.0
 11
234.2435643043
 21
251.9341661051
 31
0.0
  0
SPLINE
  5
C8
330
1F
100
AcDbEntity
  8
0
  6
Continuous
 62
     7
370
    15
100
AcDbSpline
210
0.0
220
0.0
230
1.0
 70
     8
 71
     3
 72
    10
 73
     6
 74
     0
 42
0.00000001
 43
0.00000001
 40
0.0
 40
0.0
 40
0.0
 40
0.0
 40
0.4656050096761138
 40
0.9314910544383748
 40
1.0
 40
1.0
 40
1.0
 40
1.0
 10
233.6185649003252
 20
252.9591648296049
 30
0.0
 10
233.6289997110283
 20
252.8785663520249
 30
0.0
 10
233.6498756307946
 20
252.7173207483332
 30
0.0
 10
233.7433054195172
 20
252.55283503276
 30
0.0
 10
233.8224909238889
 20
252.5027104028879
 30
0.0
 10
233.8326424326166
 20
252.496284471505
 30
0.0
  0
LINE
  5
C9
330
1F
100
AcDbEntity
  8
0
  6
Continuous
 62
     7
370
    15
100
AcDbLine
 10
233.2185655798
 20
252.9591648296
 30
0.0
 11
233.6185649003
 21
252.9591648296
 31
0.0
  0
SPLINE
  5
CA
330
1F
100
AcDbEntity
  8
0
  6
Continuous
 62
     7
370
    15
100
AcDbSpline
210
0.0
220
0.0
230
1.0
 70
     8
 71
     3
 72
    12
 73
     8
 74
     0
 42
0.00000001
 43
0.00000001
 40
0.0
 40
0.0
 40
0.0
 40
0.0
 40
0.2286704530500888
 40
0.4574146353925675
 40
0.6861598036752375
 40
0.914905541898116
 40
1.0
 40
1.0
 40
1.0
 40
1.0
 10
233.2185655798181
 20
252.9591648296049
 30
0.0
 10
233.2314342105186
 20
252.8364287012378
 30
0.0
 10
233.2571756211003
 20
252.5909168711887
 30
0.0
 10
233.4569801694245
 20
252.269332205215
 30
0.0
 10
233.7476703108012
 20
252.0372518692
 30
0.0
 10
234.0304156111125
 20
251.9428608191782
 30
0.0
 10
234.1980987816954
 20
251.9360207246186
 30
0.0
 10
234.2435643042787
 20
251.9341661051443
 30
0.0
  0
SPLINE
  5
CB
330
1F
100
AcDbEntity
  8
0
  6
Continuous
 62
     7
370
    15
100
AcDbSpline
210
0.0
220
0.0
230
1.0
 70
     8
 71
     3
 72
    10
 73
     6
 74
     0
 42
0.00000001
 43
0.00000001
 40
0.0
 40
0.0
 40
0.0
 40
0.0
 40
0.0711208867529857
 40
0.5355630356269135
 40
1.0
 40
1.0
 40
1.0
 40
1.0
 10
453.6044597591623
 20
252.4964744613102
 30
0.0
 10
453.6149807230195
 20
252.5031700132855
 30
0.0
 10
453.6942069475278
 20
252.5535896622077
 30
0.0
 10
453.7874691745537
 20
252.7179540822456
 30
0.0
 10
453.8082011592736
 20
252.8787615463319
 30
0.0
 10
453.8185670937761
 20
252.9591648296049
 30
0.0
  0
LINE
  5
CC
330
1F
100
AcDbEntity
  8
0
  6
Continuous
 62
     7
370
    15
100
AcDbLine
 10
454.2185664143
 20
252.9591648296
 30
0.0
 11
453.8185670938
 21
252.9591648296
 31
0.0
  0
SPLINE
  5
CD
330
1F
100
AcDbEntity
  8
0
  6
Continuous
 62
     7
370
    15
100
AcDbSpline
210
0.0
220
0.0
230
1.0
 70
     8
 71
     3
 72
    11
 73
     7
 74
     0
 42
0.00000001
 43
0.00000001
 40
0.0
 40
0.0
 40
0.0
 40
0.0
 40
0.2500001143409479
 40
0.5000007109140765
 40
0.7499998856590521
 40
1.0
 40
1.0
 40
1.0
 40
1.0
 10
453.1935676898225
 20
251.9341661051443
 30
0.0
 10
453.3278807698161
 20
251.9495729854583
 30
0.0
 10
453.5965071888835
 20
251.980386775805
 30
0.0
 10
453.9353150206338
 20
252.2174184906451
 30
0.0
 10
454.1723457408391
 20
252.5562259918393
 30
0.0
 10
454.2031595038334
 20
252.8248517154163
 30
0.0
 10
454.2185664142831
 20
252.9591648296049
 30
0.0
  0
LINE
  5
CE
330
1F
100
AcDbEntity
  8
0
  6
Continuous
 62
     7
370
    15
100
AcDbLine
 10
454.2185664143
 20
252.9591648296
 30
0.0
 11
454.2185664143
 21
254.9341647342
 31
0.0
  0
LINE
  5
CF
330
1F
100
AcDbEntity
  8
0
  6
Continuous
 62
     7
370
    15
100
AcDbLine
 10
453.8185670938
 20
252.9591648296
 30
0.0
 11
453.8185670938
 21
254.9341647342
 31
0.0
  0
LINE
  5
D0
330
1F
100
AcDbEntity
  8
0
  6
Continuous
 62
     7
370
    15
100
AcDbLine
 10
233.2185655798
 20
252.9591648296
 30
0.0
 11
233.2185655798
 21
255.3341659174
 31
0.0
  0
LINE
  5
D1
330
1F
100
AcDbEntity
  8
0
  6
Continuous
 62
     7
370
    15
100
AcDbLine
 10
233.6185649003
 20
252.9591648296
 30
0.0
 11
233.6185649003
 21
255.3341659174
 31
0.0
  0
LINE
  5
D2
330
1F
100
AcDbEntity
  8
0
  6
Continuous
 62
     7
370
    15
100
AcDbLine
 10
469.7760865058
 20
256.4341659114
 30
0.0
 11
469.5185646381
 21
256.4341659114
 31
0.0
  0
LINE
  5
D3
330
1F
100
AcDbEntity
  8
0
  6
Continuous
 62
     7
370
    15
100
AcDbLine
 10
321.0069872405
 20
481.534165369
 30
0.0
 11
322.7185681428
 21
481.3240142927
 31
0.0
  0
LINE
  5
D4
330
1F
100
AcDbEntity
  8
0
  6
Continuous
 62
     7
370
    15
100
AcDbLine
 10
327.7185670997
 20
480.7100864515
 30
0.0
 11
330.2185684408
 21
480.4031225309
 31
0.0
  0
LINE
  5
D5
330
1F
100
AcDbEntity
  8
0
  6
Continuous
 62
     7
370
    15
100
AcDbLine
 10
335.2185683291
 20
479.7892095909
 30
0.0
 11
337.7185678075
 21
479.4822456703
 31
0.0
  0
LINE
  5
D6
330
1F
100
AcDbEntity
  8
0
  6
Continuous
 62
     7
370
    15
100
AcDbLine
 10
342.7185679868
 20
478.8683178291
 30
0.0
 11
345.2185679891
 21
478.5613539085
 31
0.0
  0
LINE
  5
D7
330
1F
100
AcDbEntity
  8
0
  6
Continuous
 62
     7
370
    15
100
AcDbLine
 10
350.2185679938
 20
477.9474409685
 30
0.0
 11
352.7185684036
 21
477.6404770479
 31
0.0
  0
LINE
  5
D8
330
1F
100
AcDbEntity
  8
0
  6
Continuous
 62
     7
370
    15
100
AcDbLine
 10
357.7185682918
 20
477.0265492067
 30
0.0
 11
360.2185677703
 21
476.7195852861
 31
0.0
  0
LINE
  5
D9
330
1F
100
AcDbEntity
  8
0
  6
Continuous
 62
     7
370
    15
100
AcDbLine
 10
365.2185685899
 20
476.1056723461
 30
0.0
 11
367.7185680683
 21
475.7987084255
 31
0.0
  0
LINE
  5
DA
330
1F
100
AcDbEntity
  8
0
  6
Continuous
 62
     7
370
    15
100
AcDbLine
 10
372.7185688879
 20
475.1847805843
 30
0.0
 11
375.2185665037
 21
474.8778166637
 31
0.0
  0
LINE
  5
DB
330
1F
100
AcDbEntity
  8
0
  6
Continuous
 62
     7
370
    15
100
AcDbLine
 10
380.2185691859
 20
474.2639037237
 30
0.0
 11
382.7185668017
 21
473.9569398031
 31
0.0
  0
LINE
  5
DC
330
1F
100
AcDbEntity
  8
0
  6
Continuous
 62
     7
370
    15
100
AcDbLine
 10
387.7185694839
 20
473.3430119619
 30
0.0
 11
390.2185670997
 21
473.0360480413
 31
0.0
  0
LINE
  5
DD
330
1F
100
AcDbEntity
  8
0
  6
Continuous
 62
     7
370
    15
100
AcDbLine
 10
395.2185697819
 20
472.4221351013
 30
0.0
 11
397.7185673978
 21
472.1151711807
 31
0.0
  0
LINE
  5
DE
330
1F
100
AcDbEntity
  8
0
  6
Continuous
 62
     7
370
    15
100
AcDbLine
 10
402.7185663547
 20
471.5012433395
 30
0.0
 11
405.2185676958
 21
471.1942794189
 31
0.0
  0
LINE
  5
DF
330
1F
100
AcDbEntity
  8
0
  6
Continuous
 62
     7
370
    15
100
AcDbLine
 10
410.2185666527
 20
470.5803664789
 30
0.0
 11
412.7185717191
 21
470.2734025583
 31
0.0
  0
LINE
  5
E0
330
1F
100
AcDbEntity
  8
0
  6
Continuous
 62
     7
370
    15
100
AcDbLine
 10
417.7185669507
 20
469.6594747171
 30
0.0
 11
420.2185645665
 21
469.3525107965
 31
0.0
  0
LINE
  5
E1
330
1F
100
AcDbEntity
  8
0
  6
Continuous
 62
     7
370
    15
100
AcDbLine
 10
425.2185672487
 20
468.7385978565
 30
0.0
 11
427.7185648646
 21
468.4316339359
 31
0.0
  0
LINE
  5
E2
330
1F
100
AcDbEntity
  8
0
  6
Continuous
 62
     7
370
    15
100
AcDbLine
 10
432.7185675468
 20
467.8177060947
 30
0.0
 11
435.2185651626
 21
467.5107421741
 31
0.0
  0
LINE
  5
E3
330
1F
100
AcDbEntity
  8
0
  6
Continuous
 62
     7
370
    15
100
AcDbLine
 10
440.2185678448
 20
466.8968292341
 30
0.0
 11
442.7185654606
 21
466.5898653135
 31
0.0
  0
LINE
  5
E4
330
1F
100
AcDbEntity
  8
0
  6
Continuous
 62
     7
370
    15
100
AcDbLine
 10
447.7185681428
 20
465.9759374723
 30
0.0
 11
450.2185657586
 21
465.6689735517
 31
0.0
  0
LINE
  5
E5
330
1F
100
AcDbEntity
  8
0
  6
Continuous
 62
     7
370
    15
100
AcDbLine
 10
511.1208483543
 20
307.0647595838
 30
0.0
 11
511.1208483543
 21
306.2147600964
 31
0.0
  0
LINE
  5
E6
330
1F
100
AcDbEntity
  8
0
  6
Continuous
 62
     7
370
    15
100
AcDbLine
 10
486.1162975396
 20
306.2147600964
 30
0.0
 11
511.1208483543
 21
306.2147600964
 31
0.0
  0
LINE
  5
E7
330
1F
100
AcDbEntity
  8
0
  6
Continuous
 62
     7
370
    15
100
AcDbLine
 10
486.1162975396
 20
306.2147600964
 30
0.0
 11
486.1162975396
 21
307.0647595838
 31
0.0
  0
LINE
  5
E8
330
1F
100
AcDbEntity
  8
0
  6
Continuous
 62
     7
370
    15
100
AcDbLine
 10
486.1162975396
 20
307.0647595838
 30
0.0
 11
511.1208483543
 21
307.0647595838
 31
0.0
  0
LINE
  5
E9
330
1F
100
AcDbEntity
  8
0
  6
Continuous
 62
     7
370
    15
100
AcDbLine
 10
511.1208483543
 20
302.3295319096
 30
0.0
 11
511.1208483543
 21
302.6647596077
 31
0.0
  0
LINE
  5
EA
330
1F
100
AcDbEntity
  8
0
  6
Continuous
 62
     7
370
    15
100
AcDbLine
 10
520.7584872808
 20
302.3295319096
 30
0.0
 11
511.1208483543
 21
302.3295319096
 31
0.0
  0
LINE
  5
EB
330
1F
100
AcDbEntity
  8
0
  6
Continuous
 62
     7
370
    15
100
AcDbLine
 10
511.9886621799
 20
287.1397603691
 30
0.0
 11
520.7584872808
 21
302.3295319096
 31
0.0
  0
LINE
  5
EC
330
1F
100
AcDbEntity
  8
0
  6
Continuous
 62
     7
370
    15
100
AcDbLine
 10
511.2458392944
 20
287.1397603691
 30
0.0
 11
511.9886621799
 21
287.1397603691
 31
0.0
  0
LINE
  5
ED
330
1F
100
AcDbEntity
  8
0
  6
Continuous
 62
     7
370
    15
100
AcDbLine
 10
511.2458392944
 20
287.0897604541
 30
0.0
 11
511.2458392944
 21
287.1397603691
 31
0.0
  0
LINE
  5
EE
330
1F
100
AcDbEntity
  8
0
  6
Continuous
 62
     7
370
    15
100
AcDbLine
 10
485.9912916984
 20
287.1397603691
 30
0.0
 11
485.9912916984
 21
287.0897604541
 31
0.0
  0
LINE
  5
EF
330
1F
100
AcDbEntity
  8
0
  6
Continuous
 62
     7
370
    15
100
AcDbLine
 10
485.2484688129
 20
287.1397603691
 30
0.0
 11
485.9912916984
 21
287.1397603691
 31
0.0
  0
LINE
  5
F0
330
1F
100
AcDbEntity
  8
0
  6
Continuous
 62
     7
370
    15
100
AcDbLine
 10
486.1162975396
 20
302.6647596077
 30
0.0
 11
486.1162975396
 21
302.3295319096
 31
0.0
  0
LINE
  5
F1
330
1F
100
AcDbEntity
  8
0
  6
Continuous
 62
     7
370
    15
100
AcDbLine
 10
486.1162975396
 20
302.3295319096
 30
0.0
 11
476.4786586131
 21
302.3295319096
 31
0.0
  0
LINE
  5
F2
330
1F
100
AcDbEntity
  8
0
  6
Continuous
 62
     7
370
    15
100
AcDbLine
 10
476.4786586131
 20
302.3295319096
 30
0.0
 11
485.2484688129
 21
287.1397603691
 31
0.0
  0
LINE
  5
F3
330
1F
100
AcDbEntity
  8
0
  6
Continuous
 62
     7
370
    15
100
AcDbLine
 10
485.9912916984
 20
286.0647603326
 30
0.0
 11
485.9912916984
 21
287.0897604541
 31
0.0
  0
LINE
  5
F4
330
1F
100
AcDbEntity
  8
0
  6
Continuous
 62
     7
370
    15
100
AcDbLine
 10
511.2458392944
 20
286.0647603326
 30
0.0
 11
485.9912916984
 21
286.0647603326
 31
0.0
  0
LINE
  5
F5
330
1F
100
AcDbEntity
  8
0
  6
Continuous
 62
     7
370
    15
100
AcDbLine
 10
511.2458392944
 20
287.0897604541
 30
0.0
 11
511.2458392944
 21
286.0647603326
 31
0.0
  0
LINE
  5
F6
330
1F
100
AcDbEntity
  8
0
  6
Continuous
 62
     7
370
    15
100
AcDbLine
 10
475.9446009959
 20
302.1295322493
 30
0.0
 11
469.5185646381
 21
302.1295322493
 31
0.0
  0
LINE
  5
F7
330
1F
100
AcDbEntity
  8
0
  6
Continuous
 62
     7
370
    15
100
AcDbLine
 10
475.9446009959
 20
301.7295310662
 30
0.0
 11
469.5185646381
 21
301.7295310662
 31
0.0
  0
LINE
  5
F8
330
1F
100
AcDbEntity
  8
0
  6
Continuous
 62
     7
370
    15
100
AcDbLine
 10
511.8371024694
 20
286.7772602864
 30
0.0
 11
512.1835246648
 21
286.5772601605
 31
0.0
  0
LINE
  5
F9
330
1F
100
AcDbEntity
  8
0
  6
Continuous
 62
     7
370
    15
100
AcDbLine
 10
520.6037238206
 20
301.9614713654
 30
0.0
 11
511.8371024694
 21
286.7772602864
 31
0.0
  0
LINE
  5
FA
330
1F
100
AcDbEntity
  8
0
  6
Continuous
 62
     7
370
    15
100
AcDbLine
 10
520.9501311149
 20
301.7614698425
 30
0.0
 11
512.1835246648
 21
286.5772601605
 31
0.0
  0
ARC
  5
FB
330
1F
100
AcDbEntity
  8
0
  6
Continuous
 62
     7
370
    15
100
AcDbCircle
 10
520.9717785295
 20
301.7489706996
 30
0.0
 40
0.0249999999999865
100
AcDbArc
 50
329.9999999998
 51
150.0
  0
ARC
  5
FC
330
1F
100
AcDbEntity
  8
0
  6
Continuous
 62
     7
370
    15
100
AcDbCircle
 10
520.9717785295
 20
301.7489706996
 30
0.0
 40
0.4250000000000531
100
AcDbArc
 50
330.0
 51
150.0
  0
LINE
  5
FD
330
1F
100
AcDbEntity
  8
0
  6
Continuous
 62
     7
370
    15
100
AcDbLine
 10
519.0523341264
 20
297.5744046659
 30
0.0
 11
521.3398411836
 21
301.5364716217
 31
0.0
  0
LINE
  5
FE
330
1F
100
AcDbEntity
  8
0
  6
Continuous
 62
     7
370
    15
100
AcDbLine
 10
518.7059268321
 20
297.7744052575
 30
0.0
 11
520.9934338893
 21
301.736471282
 31
0.0
  0
LINE
  5
FF
330
1F
100
AcDbEntity
  8
0
  6
Continuous
 62
     7
370
    15
100
AcDbLine
 10
518.7059268321
 20
297.7744052575
 30
0.0
 11
519.0523341264
 21
297.5744046659
 31
0.0
  0
LINE
  5
100
330
1F
100
AcDbEntity
  8
0
  6
Continuous
 62
     7
370
    15
100
AcDbLine
 10
485.4000285234
 20
286.7772602864
 30
0.0
 11
476.8322780694
 21
301.6170310244
 31
0.0
  0
LINE
  5
101
330
1F
100
AcDbEntity
  8
0
  6
Continuous
 62
     7
370
    15
100
AcDbLine
 10
485.4000285234
 20
286.7772602864
 30
0.0
 11
485.0536212291
 21
286.5772601605
 31
0.0
  0
LINE
  5
102
330
1F
100
AcDbEntity
  8
0
  6
Continuous
 62
     7
370
    15
100
AcDbLine
 10
485.0536212291
 20
286.5772601605
 30
0.0
 11
476.4858707751
 21
301.4170313642
 31
0.0
  0
ARC
  5
103
330
1F
100
AcDbEntity
  8
0
  6
Continuous
 62
     7
370
    15
100
AcDbCircle
 10
475.9446042992
 20
301.1045314962
 30
0.0
 40
1.025000000000048
100
AcDbArc
 50
30.0
 51
90.0
  0
ARC
  5
104
330
1F
100
AcDbEntity
  8
0
  6
Continuous
 62
     7
370
    15
100
AcDbCircle
 10
475.9446042992
 20
301.1045314962
 30
0.0
 40
0.625
100
AcDbArc
 50
30.0
 51
90.0
  0
LINE
  5
105
330
1F
100
AcDbEntity
  8
0
  6
Continuous
 62
     7
370
    15
100
AcDbLine
 10
511.2458392944
 20
286.0647603326
 30
0.0
 11
511.2958475913
 21
286.0647603326
 31
0.0
  0
LINE
  5
106
330
1F
100
AcDbEntity
  8
0
  6
Continuous
 62
     7
370
    15
100
AcDbLine
 10
511.2458392944
 20
286.4647601188
 30
0.0
 11
511.2958475913
 21
286.4647601188
 31
0.0
  0
ARC
  5
107
330
1F
100
AcDbEntity
  8
0
  6
Continuous
 62
     7
370
    15
100
AcDbCircle
 10
485.9412921357
 20
287.089760256
 30
0.0
 40
1.025000000000019
100
AcDbArc
 50
210.0
 51
270.0
  0
ARC
  5
108
330
1F
100
AcDbEntity
  8
0
  6
Continuous
 62
     7
370
    15
100
AcDbCircle
 10
485.9412921357
 20
287.089760256
 30
0.0
 40
0.6249999999999736
100
AcDbArc
 50
210.0
 51
270.0
  0
LINE
  5
109
330
1F
100
AcDbEntity
  8
0
  6
Continuous
 62
     7
370
    15
100
AcDbLine
 10
485.9912916984
 20
286.0647603326
 30
0.0
 11
485.9412983026
 21
286.0647603326
 31
0.0
  0
LINE
  5
10A
330
1F
100
AcDbEntity
  8
0
  6
Continuous
 62
     7
370
    15
100
AcDbLine
 10
485.9912916984
 20
286.4647601188
 30
0.0
 11
485.9412983026
 21
286.4647601188
 31
0.0
  0
ARC
  5
10B
330
1F
100
AcDbEntity
  8
0
  6
Continuous
 62
     7
370
    15
100
AcDbCircle
 10
511.2958438685
 20
287.089760256
 30
0.0
 40
0.6249999999999736
100
AcDbArc
 50
270.0
 51
330.0
  0
ARC
  5
10C
330
1F
100
AcDbEntity
  8
0
  6
Continuous
 62
     7
370
    15
100
AcDbCircle
 10
511.2958438685
 20
287.089760256
 30
0.0
 40
1.024999999999977
100
AcDbArc
 50
270.0
 51
330.0
  0
LINE
  5
10D
330
1F
100
AcDbEntity
  8
0
  6
Continuous
 62
     7
370
    15
100
AcDbLine
 10
497.3760917749
 20
342.0841666326
 30
0.0
 11
498.3760789003
 21
342.0841666326
 31
0.0
  0
SPLINE
  5
10E
330
1F
100
AcDbEntity
  8
0
  6
Continuous
 62
     7
370
    15
100
AcDbSpline
210
0.0
220
0.0
230
1.0
 70
     8
 71
     3
 72
    12
 73
     8
 74
     0
 42
0.00000001
 43
0.00000001
 40
0.0
 40
0.0
 40
0.0
 40
0.0
 40
0.3486226047858509
 40
0.5715611318111844
 40
0.7575629324098988
 40
0.944515696819275
 40
1.0
 40
1.0
 40
1.0
 40
1.0
 10
470.4010859097704
 20
398.809162007325
 30
0.0
 10
470.3035424529509
 20
398.711196012672
 30
0.0
 10
470.143621530397
 20
398.5505823461623
 30
0.0
 10
469.9507211179774
 20
398.3622353563741
 30
0.0
 10
469.8280392810662
 20
398.2529523360777
 30
0.0
 10
469.7798440570916
 20
398.2036217311996
 30
0.0
 10
469.7767863049403
 20
398.1906665583449
 30
0.0
 10
469.7760865058168
 20
398.187701629155
 30
0.0
  0
LINE
  5
10F
330
1F
100
AcDbEntity
  8
0
  6
Continuous
 62
     7
370
    15
100
AcDbLine
 10
469.5185646381
 20
398.1877016292
 30
0.0
 11
469.7760865058
 21
398.1877016292
 31
0.0
  0
SPLINE
  5
110
330
1F
100
AcDbEntity
  8
0
  6
Continuous
 62
     7
370
    15
100
AcDbSpline
210
0.0
220
0.0
230
1.0
 70
     8
 71
     3
 72
    11
 73
     7
 74
     0
 42
0.00000001
 43
0.00000001
 40
0.0
 40
0.0
 40
0.0
 40
0.0
 40
0.3029264992526669
 40
0.6481077713816513
 40
0.9521519017755187
 40
1.0
 40
1.0
 40
1.0
 40
1.0
 10
470.4010859097704
 20
398.809162007325
 30
0.0
 10
470.2836111730176
 20
398.7380671408716
 30
0.0
 10
470.0322753208608
 20
398.5859604893654
 30
0.0
 10
469.7081033636347
 20
398.384971866474
 30
0.0
 10
469.4989150331965
 20
398.2759553814764
 30
0.0
 10
469.460843557193
 20
398.2498894331979
 30
0.0
 10
469.4556668366655
 20
398.2463451490333
 30
0.0
  0
SPLINE
  5
111
330
1F
100
AcDbEntity
  8
0
  6
Continuous
 62
     7
370
    15
100
AcDbSpline
210
0.0
220
0.0
230
1.0
 70
     8
 71
     3
 72
    11
 73
     7
 74
     0
 42
0.00000001
 43
0.00000001
 40
0.0
 40
0.0
 40
0.0
 40
0.0
 40
0.2500061434602748
 40
0.5000004055227033
 40
0.7499991849232714
 40
0.9999999999999999
 40
0.9999999999999999
 40
0.9999999999999999
 40
0.9999999999999999
 10
469.7796180810197
 20
398.1841626033714
 30
0.0
 10
469.8314100734769
 20
398.1935586514788
 30
0.0
 10
469.9349915970066
 20
398.2123503011517
 30
0.0
 10
470.0903541702801
 20
398.3568795523043
 30
0.0
 10
470.2457082048982
 20
398.5634773747149
 30
0.0
 10
470.3492932009025
 20
398.7272669075064
 30
0.0
 10
470.4010859097704
 20
398.809162007325
 30
0.0
  0
SPLINE
  5
112
330
1F
100
AcDbEntity
  8
0
  6
Continuous
 62
     7
370
    15
100
AcDbSpline
210
0.0
220
0.0
230
1.0
 70
     8
 71
     3
 72
    11
 73
     7
 74
     0
 42
0.00000001
 43
0.00000001
 40
0.0
 40
0.0
 40
0.0
 40
0.0
 40
0.2499985228027996
 40
0.5000000325021807
 40
0.7499959292596232
 40
1.0
 40
1.0
 40
1.0
 40
1.0
 10
469.7796180810197
 20
397.7841632828644
 30
0.0
 10
469.8314110710496
 20
397.7995698000813
 30
0.0
 10
469.9349976699139
 20
397.830383018587
 30
0.0
 10
470.090349340659
 20
398.067421394358
 30
0.0
 10
470.245711112988
 20
398.4062275250785
 30
0.0
 10
470.3492937463877
 20
398.6748490494375
 30
0.0
 10
470.4010859097704
 20
398.809162007325
 30
0.0
  0
LINE
  5
113
330
1F
100
AcDbEntity
  8
0
  6
Continuous
 62
     7
370
    15
100
AcDbLine
 10
469.779618081
 20
398.1841626034
 30
0.0
 11
469.779618081
 21
397.7841632829
 31
0.0
  0
ARC
  5
114
330
1F
100
AcDbEntity
  8
0
  6
Continuous
 62
     7
370
    15
100
AcDbCircle
 10
484.45130973
 20
480.2091652558
 30
0.0
 40
12.49999999999999
100
AcDbArc
 50
0.3437767398
 51
90.0
  0
LINE
  5
115
330
1F
100
AcDbEntity
  8
0
  6
Continuous
 62
     7
370
    15
100
AcDbLine
 10
496.9510808553
 20
480.2841665611
 30
0.0
 11
496.3260814513
 21
480.2841665611
 31
0.0
  0
LINE
  5
116
330
1F
100
AcDbEntity
  8
0
  6
Continuous
 62
     7
370
    15
100
AcDbLine
 10
496.3260814513
 20
480.2841665611
 30
0.0
 11
496.3260814513
 21
479.88415979
 31
0.0
  0
LINE
  5
117
330
1F
100
AcDbEntity
  8
0
  6
Continuous
 62
     7
370
    15
100
AcDbLine
 10
496.3260814513
 20
479.88415979
 30
0.0
 11
496.3510855998
 21
479.88415979
 31
0.0
  0
LINE
  5
118
330
1F
100
AcDbEntity
  8
0
  6
Continuous
 62
     7
370
    15
100
AcDbLine
 10
470.4010859098
 20
492.7091719971
 30
0.0
 11
484.4513162936
 21
492.7091719971
 31
0.0
  0
LINE
  5
119
330
1F
100
AcDbEntity
  8
0
  6
Continuous
 62
     7
370
    15
100
AcDbLine
 10
469.3760797347
 20
492.0841725931
 30
0.0
 11
469.3760797347
 21
491.4593669043
 31
0.0
  0
SPLINE
  5
11A
330
1F
100
AcDbEntity
  8
0
  6
Continuous
 62
     7
370
    15
100
AcDbSpline
210
0.0
220
0.0
230
1.0
 70
     8
 71
     3
 72
    11
 73
     7
 74
     0
 42
0.00000001
 43
0.00000001
 40
0.0
 40
0.0
 40
0.0
 40
0.0
 40
0.2499933179560462
 40
0.4999936700920879
 40
0.7499940222281296
 40
0.9999999999999999
 40
0.9999999999999999
 40
0.9999999999999999
 40
0.9999999999999999
 10
469.3760797347292
 20
492.0841725931099
 30
0.0
 10
469.3914874252729
 20
492.1362512345022
 30
0.0
 10
469.4223032398938
 20
492.2404099826483
 30
0.0
 10
469.6593298922058
 20
492.3966653437323
 30
0.0
 10
469.9981425315202
 20
492.5529203470089
 30
0.0
 10
470.2667704428978
 20
492.657087723045
 30
0.0
 10
470.4010859097704
 20
492.7091719970634
 30
0.0
  0
LINE
  5
11B
330
1F
100
AcDbEntity
  8
0
  6
Continuous
 62
     7
370
    15
100
AcDbLine
 10
496.3510855998
 20
397.7841632829
 30
0.0
 11
469.779618081
 21
397.7841632829
 31
0.0
  0
LINE
  5
11C
330
1F
100
AcDbEntity
  8
0
  6
Continuous
 62
     7
370
    15
100
AcDbLine
 10
496.3510855998
 20
398.8091620073
 30
0.0
 11
496.3510855998
 21
397.7841632829
 31
0.0
  0
LINE
  5
11D
330
1F
100
AcDbEntity
  8
0
  6
Continuous
 62
     7
370
    15
100
AcDbLine
 10
497.3760917749
 20
398.8091620073
 30
0.0
 11
496.3510855998
 21
398.8091620073
 31
0.0
  0
LINE
  5
11E
330
1F
100
AcDbEntity
  8
0
  6
Continuous
 62
     7
370
    15
100
AcDbLine
 10
497.3760917749
 20
479.88415979
 30
0.0
 11
497.3760917749
 21
398.8091620073
 31
0.0
  0
LINE
  5
11F
330
1F
100
AcDbEntity
  8
0
  6
Continuous
 62
     7
370
    15
100
AcDbLine
 10
496.3510855998
 20
479.88415979
 30
0.0
 11
497.3760917749
 21
479.88415979
 31
0.0
  0
LINE
  5
120
330
1F
100
AcDbEntity
  8
0
  6
Continuous
 62
     7
370
    15
100
AcDbLine
 10
470.4010859098
 20
492.7841695414
 30
0.0
 11
470.4010859098
 21
493.1841614113
 31
0.0
  0
SPLINE
  5
121
330
1F
100
AcDbEntity
  8
0
  6
Continuous
 62
     7
370
    15
100
AcDbSpline
210
0.0
220
0.0
230
1.0
 70
     8
 71
     3
 72
    10
 73
     6
 74
     0
 42
0.00000001
 43
0.00000001
 40
0.0
 40
0.0
 40
0.0
 40
0.0
 40
0.40564928216479
 40
0.8115803798017713
 40
1.0
 40
1.0
 40
1.0
 40
1.0
 10
470.4010859097704
 20
492.7841695413521
 30
0.0
 10
470.318623681214
 20
492.7738551804338
 30
0.0
 10
470.1536419353718
 20
492.753219292933
 30
0.0
 10
469.9696009480191
 20
492.6368480722749
 30
0.0
 10
469.9093121928814
 20
492.5307941374487
 30
0.0
 10
469.8901995982393
 20
492.4971731767586
 30
0.0
  0
SPLINE
  5
122
330
1F
100
AcDbEntity
  8
0
  6
Continuous
 62
     7
370
    15
100
AcDbSpline
210
0.0
220
0.0
230
1.0
 70
     8
 71
     3
 72
    12
 73
     8
 74
     0
 42
0.00000001
 43
0.00000001
 40
0.0
 40
0.0
 40
0.0
 40
0.0
 40
0.2303360728618685
 40
0.4607658184640033
 40
0.6911893282126561
 40
0.9216196197107785
 40
1.0
 40
1.0
 40
1.0
 40
1.0
 10
470.4010859097704
 20
493.1841614112785
 30
0.0
 10
470.277456913619
 20
493.1711051937395
 30
0.0
 10
470.0301486440554
 20
493.1449874489778
 30
0.0
 10
469.7069125023411
 20
492.9423469465934
 30
0.0
 10
469.4749492018418
 20
492.6479507636351
 30
0.0
 10
469.3838949418035
 20
492.366020125286
 30
0.0
 10
469.3776617932484
 20
492.2010434726072
 30
0.0
 10
469.3760797347292
 20
492.1591701373985
 30
0.0
  0
LINE
  5
123
330
1F
100
AcDbEntity
  8
0
  6
Continuous
 62
     7
370
    15
100
AcDbLine
 10
497.3760917749
 20
480.2841665611
 30
0.0
 11
497.3760917749
 21
480.274167882
 31
0.0
  0
LINE
  5
124
330
1F
100
AcDbEntity
  8
0
  6
Continuous
 62
     7
370
    15
100
AcDbLine
 10
496.9760850038
 20
480.274167882
 30
0.0
 11
497.3760917749
 21
480.274167882
 31
0.0
  0
LINE
  5
125
330
1F
100
AcDbEntity
  8
0
  6
Continuous
 62
     7
370
    15
100
AcDbLine
 10
496.9760850038
 20
480.2841665611
 30
0.0
 11
496.9760850038
 21
480.274167882
 31
0.0
  0
ARC
  5
126
330
1F
100
AcDbEntity
  8
0
  6
Continuous
 62
     7
370
    15
100
AcDbCircle
 10
484.4760847279
 20
480.2841652558
 30
0.0
 40
12.90000000000003
100
AcDbArc
 50
0.0
 51
90.0
  0
ARC
  5
127
330
1F
100
AcDbEntity
  8
0
  6
Continuous
 62
     7
370
    15
100
AcDbCircle
 10
484.4760847279
 20
480.2841652558
 30
0.0
 40
12.50000000000006
100
AcDbArc
 50
0.0
 51
90.0
  0
LINE
  5
128
330
1F
100
AcDbEntity
  8
0
  6
Continuous
 62
     7
370
    15
100
AcDbLine
 10
484.4760820235
 20
493.1841614113
 30
0.0
 11
470.4010859098
 21
493.1841614113
 31
0.0
  0
LINE
  5
129
330
1F
100
AcDbEntity
  8
0
  6
Continuous
 62
     7
370
    15
100
AcDbLine
 10
484.4760820235
 20
492.7841695414
 30
0.0
 11
470.4010859098
 21
492.7841695414
 31
0.0
  0
LINE
  5
12A
330
1F
100
AcDbEntity
  8
0
  6
Continuous
 62
     7
370
    15
100
AcDbLine
 10
497.3760917749
 20
480.274167882
 30
0.0
 11
497.3760917749
 21
479.88415979
 31
0.0
  0
LINE
  5
12B
330
1F
100
AcDbEntity
  8
0
  6
Continuous
 62
     7
370
    15
100
AcDbLine
 10
496.9760850038
 20
480.274167882
 30
0.0
 11
496.9760850038
 21
479.88415979
 31
0.0
  0
SPLINE
  5
12C
330
1F
100
AcDbEntity
  8
0
  6
Continuous
 62
     7
370
    15
100
AcDbSpline
210
0.0
220
0.0
230
1.0
 70
     8
 71
     3
 72
    11
 73
     7
 74
     0
 42
0.00000001
 43
0.00000001
 40
0.0
 40
0.0
 40
0.0
 40
0.0
 40
0.2499965586168687
 40
0.500000036641174
 40
0.7499971799903267
 40
1.0
 40
1.0
 40
1.0
 40
1.0
 10
496.3510855998262
 20
397.7841632828644
 30
0.0
 10
496.4853963183661
 20
397.7995701531086
 30
0.0
 10
496.7540214728995
 20
397.8303843200287
 30
0.0
 10
497.092822793789
 20
398.0674211587538
 30
0.0
 10
497.3298543238984
 20
398.406225341394
 30
0.0
 10
497.3606791745563
 20
398.6748487687586
 30
0.0
 10
497.3760917748674
 20
398.809162007325
 30
0.0
  0
SPLINE
  5
12D
330
1F
100
AcDbEntity
  8
0
  6
Continuous
 62
     7
370
    15
100
AcDbSpline
210
0.0
220
0.0
230
1.0
 70
     8
 71
     3
 72
    11
 73
     7
 74
     0
 42
0.00000001
 43
0.00000001
 40
0.0
 40
0.0
 40
0.0
 40
0.0
 40
0.2500035803601885
 40
0.5000005414162285
 40
0.7500035325072506
 40
1.0
 40
1.0
 40
1.0
 40
1.0
 10
496.3510855998262
 20
398.1841626033714
 30
0.0
 10
496.4329842139861
 20
398.193558858204
 30
0.0
 10
496.5967792738896
 20
398.2123511190862
 30
0.0
 10
496.8033698234772
 20
398.3568808134089
 30
0.0
 10
496.9478936633002
 20
398.5634726471748
 30
0.0
 10
496.9666879720243
 20
398.7272662662915
 30
0.0
 10
496.9760850037798
 20
398.809162007325
 30
0.0
  0
LINE
  5
12E
330
1F
100
AcDbEntity
  8
0
  6
Continuous
 62
     7
370
    15
100
AcDbLine
 10
469.779618081
 20
397.7841632829
 30
0.0
 11
469.7760865058
 21
397.7841632829
 31
0.0
  0
ARC
  5
12F
330
1F
100
AcDbEntity
  8
0
  6
Continuous
 62
     7
370
    15
100
AcDbCircle
 10
484.4513071003
 20
480.2096048079
 30
0.0
 40
12.50000000000005
100
AcDbArc
 50
0.3417619453
 51
89.5195047779
  0
LWPOLYLINE
  5
130
330
1F
100
AcDbEntity
  8
0
  6
Continuous
 62
     7
370
    15
100
AcDbPolyline
 90
       33
 70
   128
 43
0.0
 10
542.4574091996
 20
271.0771877707
 10
542.4732789363
 20
271.0930705458
 10
542.6001027192
 20
271.2198850155
 10
542.8524240817
 20
271.4722138286
 10
543.2276800241
 20
271.8474660457
 10
543.7220111455
 20
272.3417925105
 10
544.3303361501
 20
272.950120309
 10
545.0464263524
 20
273.6662058548
 10
545.8629205789
 20
274.4827038065
 10
546.7714443769
 20
275.3912336581
 10
547.7626845206
 20
276.3824733362
 10
548.8264635171
 20
277.4462514014
 10
549.9518737163
 20
278.5716520545
 10
551.1273369159
 20
279.7471271284
 10
552.3408278789
 20
280.9606147154
 10
553.5798743333
 20
282.199662705
 10
554.8317655887
 20
283.451556849
 10
556.0836717452
 20
284.7034510147
 10
557.3227181997
 20
285.9424988661
 10
558.5361942615
 20
287.1559863367
 10
559.7116723623
 20
288.3314616435
 10
560.8370825614
 20
289.4568620638
 10
561.9008615579
 20
290.5206401289
 10
562.8921017017
 20
291.5118802727
 10
563.8006254997
 20
292.4204096586
 10
564.6171197261
 20
293.2369076103
 10
565.3332099284
 20
293.9529940874
 10
565.941534933
 20
294.5613209546
 10
566.4358660545
 20
295.0556474194
 10
566.8111219968
 20
295.4308996365
 10
567.0634433593
 20
295.6832284496
 10
567.1902522411
 20
295.8100429193
 10
567.2061368789
 20
295.8259256945
  0
LWPOLYLINE
  5
131
330
1F
100
AcDbEntity
  8
0
  6
Continuous
 62
     7
370
    15
100
AcDbPolyline
 90
       22
 70
   128
 43
0.0
 10
553.0640110339
 20
274.6127220259
 10
553.0989989604
 20
274.6477127463
 10
553.2535836066
 20
274.8022964612
 10
553.5280182924
 20
275.0767418571
 10
553.9158955182
 20
275.4646153577
 10
554.4081106748
 20
275.956826789
 10
554.9931153621
 20
276.5418379956
 10
555.657215413
 20
277.2059371152
 10
556.3848391141
 20
277.9335584879
 10
557.1589246358
 20
278.7076472693
 10
557.9613372649
 20
279.5100591999
 10
558.7732717361
 20
280.3219866861
 10
559.5756843652
 20
281.1243986168
 10
560.3497698869
 20
281.8984873108
 10
561.077393588
 20
282.6261087127
 10
561.7414936389
 20
283.2902080069
 10
562.3264983262
 20
283.8752192135
 10
562.8187134828
 20
284.3674302955
 10
563.2065907087
 20
284.7553040289
 10
563.4810253944
 20
285.029749192
 10
563.6356100406
 20
285.1843331397
 10
563.6706128682
 20
285.2193238602
  0
LWPOLYLINE
  5
132
330
1F
100
AcDbEntity
  8
0
  6
Continuous
 62
     7
370
    15
100
AcDbPolyline
 90
       23
 70
   128
 43
0.0
 10
553.8219585981
 20
273.891970554
 10
553.8374707069
 20
273.9074761436
 10
553.9609715308
 20
274.0309816242
 10
554.2050823535
 20
274.2750980348
 10
554.5640960302
 20
274.6341023982
 10
555.0295785035
 20
275.0995811463
 10
555.5906072225
 20
275.6606229038
 10
556.2340691652
 20
276.3040783272
 10
556.9448545541
 20
277.0148646474
 10
557.7063187923
 20
277.776321435
 10
558.5005953874
 20
278.5706015226
 10
559.3090727891
 20
279.3790873062
 10
560.1128116216
 20
280.1828286999
 10
560.8929768171
 20
280.9629864447
 10
561.6312697496
 20
281.7012743714
 10
562.3103752698
 20
282.3803877206
 10
562.9143938388
 20
282.984408647
 10
563.4291693534
 20
283.4991793303
 10
563.8426169719
 20
283.9126340502
 10
564.1450658406
 20
284.2150817548
 10
564.3294230069
 20
284.3994333331
 10
564.3913522329
 20
284.4613679141
 10
564.3913522329
 20
284.4613679141
  0
LWPOLYLINE
  5
133
330
1F
100
AcDbEntity
  8
0
  6
Continuous
 62
     7
370
    15
100
AcDbPolyline
 90
       23
 70
   128
 43
0.0
 10
553.7711158361
 20
273.9056153611
 10
553.7866726484
 20
273.9211758987
 10
553.910605606
 20
274.0451163069
 10
554.155580696
 20
274.2900913969
 10
554.5158609714
 20
274.6503600307
 10
554.9829676713
 20
275.1174769752
 10
555.5459931459
 20
275.6804936022
 10
556.1917051639
 20
276.3262140021
 10
556.9049939479
 20
277.0395018548
 10
557.6691403951
 20
277.8036394544
 10
558.4662184085
 20
278.6007153724
 10
559.277541932
 20
279.412047045
 10
560.0841119851
 20
280.2186174473
 10
560.8670189943
 20
281.0015213132
 10
561.6079047288
 20
281.7424080664
 10
562.289409336
 20
282.4239118878
 10
562.8955587711
 20
283.0300589364
 10
563.4121373262
 20
283.5466416242
 10
563.8270452584
 20
283.961551652
 10
564.1305670108
 20
284.2650639747
 10
564.315564927
 20
284.450064452
 10
564.3777176704
 20
284.5122169626
 10
564.3777176704
 20
284.5122169626
  0
LWPOLYLINE
  5
134
330
1F
100
AcDbEntity
  8
0
  6
Continuous
 62
     7
370
    15
100
AcDbPolyline
 90
       23
 70
   128
 43
0.0
 10
553.0640110339
 20
274.6127220259
 10
553.0795678462
 20
274.6282830291
 10
553.2035008039
 20
274.7522229717
 10
553.4484758939
 20
274.9971985274
 10
553.8087561692
 20
275.3574666955
 10
554.2758628692
 20
275.82458364
 10
554.8388883437
 20
276.3876007326
 10
555.4846003618
 20
277.0333206669
 10
556.1978891458
 20
277.7466089853
 10
556.962035593
 20
278.5107463521
 10
557.7590987052
 20
279.30782227
 10
558.5704371299
 20
280.1191539426
 10
559.377007183
 20
280.9257242285
 10
560.1599141921
 20
281.7086281235
 10
560.9007999267
 20
282.4495148476
 10
561.5823045339
 20
283.131018669
 10
562.1884539689
 20
283.7371656593
 10
562.705032524
 20
284.2537484054
 10
563.1199404563
 20
284.6686584332
 10
563.4234473075
 20
284.9721708723
 10
563.6084601249
 20
285.1571713497
 10
563.6706128682
 20
285.2193238602
 10
563.6706128682
 20
285.2193238602
  0
LWPOLYLINE
  5
135
330
1F
100
AcDbEntity
  8
0
  6
Continuous
 62
     7
370
    15
100
AcDbPolyline
 90
       18
 70
   128
 43
0.0
 10
593.8463881578
 20
237.6133585737
 10
593.8463881578
 20
237.6133585737
 10
593.911953267
 20
237.6789162323
 10
594.1060855951
 20
237.8730671868
 10
594.4213643636
 20
238.1883496807
 10
594.8456898298
 20
238.6126490698
 10
595.3627005185
 20
239.1296597586
 10
595.9525480832
 20
239.7195147738
 10
596.5925827588
 20
240.3595419989
 10
597.258187827
 20
241.0251507924
 10
597.9237928952
 20
241.6907558606
 10
598.5638275708
 20
242.3307868109
 10
599.1536751355
 20
242.9206381009
 10
599.6706858243
 20
243.4376487896
 10
600.0949814882
 20
243.8619481788
 10
600.4102602567
 20
244.1772343979
 10
600.6044223871
 20
244.3713853524
 10
600.669957694
 20
244.4369392857
  0
LINE
  5
136
330
1F
100
AcDbEntity
  8
0
  6
Continuous
 62
     7
370
    15
100
AcDbLine
 10
498.1760904159
 20
271.6862662152
 30
0.0
 11
498.1760904159
 21
286.0647603326
 31
0.0
  0
LINE
  5
137
330
1F
100
AcDbEntity
  8
0
  6
Continuous
 62
     7
370
    15
100
AcDbLine
 10
498.8760873641
 20
286.0647603326
 30
0.0
 11
498.8760873641
 21
271.564167963
 31
0.0
  0
LINE
  5
138
330
1F
100
AcDbEntity
  8
0
  6
Continuous
 62
     7
370
    15
100
AcDbLine
 10
503.3760890331
 20
353.1340556607
 30
0.0
 11
503.3760890331
 21
355.5341633425
 31
0.0
  0
LINE
  5
139
330
1F
100
AcDbEntity
  8
0
  6
Continuous
 62
     7
370
    15
100
AcDbLine
 10
503.3760890331
 20
327.0341651902
 30
0.0
 11
503.3760890331
 21
329.4342765973
 31
0.0
  0
LINE
  5
13A
330
1F
100
AcDbEntity
  8
0
  6
Continuous
 62
     7
370
    15
100
AcDbLine
 10
501.0196790065
 20
350.5092980728
 30
0.0
 11
499.9837353791
 21
351.2235703335
 31
0.0
  0
SPLINE
  5
13B
330
1F
100
AcDbEntity
  8
0
  6
Continuous
 62
     7
370
    15
100
AcDbSpline
210
0.0
220
0.0
230
1.0
 70
     8
 71
     3
 72
     9
 73
     5
 74
     0
 42
0.00000001
 43
0.00000001
 40
0.0
 40
0.0
 40
0.0
 40
0.0
 40
0.4986239091138784
 40
1.0
 40
1.0
 40
1.0
 40
1.0
 10
501.5074983205064
 20
350.2445267901352
 30
0.0
 10
501.4213055960146
 20
350.2772014742462
 30
0.0
 10
501.2484444016023
 20
350.3427311921634
 30
0.0
 10
501.0960739219555
 20
350.4536740010011
 30
0.0
 10
501.0196790065035
 20
350.5092980728081
 30
0.0
  0
SPLINE
  5
13C
330
1F
100
AcDbEntity
  8
0
  6
Continuous
 62
     7
370
    15
100
AcDbSpline
210
0.0
220
0.0
230
1.0
 70
     8
 71
     3
 72
    11
 73
     7
 74
     0
 42
0.00000001
 43
0.00000001
 40
0.0
 40
0.0
 40
0.0
 40
0.0
 40
0.1671945896988422
 40
0.3343854420278578
 40
0.6674548213212591
 40
0.9999999999999999
 40
0.9999999999999999
 40
0.9999999999999999
 40
0.9999999999999999
 10
502.1098777617677
 20
350.4353585109642
 30
0.0
 10
502.0912745205621
 20
350.4075520688025
 30
0.0
 10
502.0540684539968
 20
350.3519398060481
 30
0.0
 10
501.9402239878015
 20
350.2723042571176
 30
0.0
 10
501.7632092155967
 20
350.2041913024585
 30
0.0
 10
501.5926905218902
 20
350.2310886885327
 30
0.0
 10
501.5074983205064
 20
350.2445267901352
 30
0.0
  0
SPLINE
  5
13D
330
1F
100
AcDbEntity
  8
0
  6
Continuous
 62
     7
370
    15
100
AcDbSpline
210
0.0
220
0.0
230
1.0
 70
     8
 71
     3
 72
     9
 73
     5
 74
     0
 42
0.00000001
 43
0.00000001
 40
0.0
 40
0.0
 40
0.0
 40
0.0
 40
0.9825491405103798
 40
1.0
 40
1.0
 40
1.0
 40
1.0
 10
500.8542314137682
 20
350.977820383065
 30
0.0
 10
500.8586309302974
 20
351.0488686002695
 30
0.0
 10
500.8631085857629
 20
351.1211786907018
 30
0.0
 10
500.9048816418327
 20
351.1712868961034
 30
0.0
 10
500.9056106175645
 20
351.1721613273552
 30
0.0
  0
SPLINE
  5
13E
330
1F
100
AcDbEntity
  8
0
  6
Continuous
 62
     7
370
    15
100
AcDbSpline
210
0.0
220
0.0
230
1.0
 70
     8
 71
     3
 72
    12
 73
     8
 74
     0
 42
0.00000001
 43
0.00000001
 40
0.0
 40
0.0
 40
0.0
 40
0.0
 40
0.1252220262480922
 40
0.2503854848053702
 40
0.5001403999992433
 40
0.7499131051385136
 40
1.0
 40
1.0
 40
1.0
 40
1.0
 10
500.2525076235994
 20
356.7711683378151
 30
0.0
 10
500.2311024731123
 20
356.7804015179372
 30
0.0
 10
500.1883021835577
 20
356.7988635597238
 30
0.0
 10
500.1120233575554
 20
356.832184766109
 30
0.0
 10
500.0355807703842
 20
356.866187388739
 30
0.0
 10
499.9803987075194
 20
356.891464856625
 30
0.0
 10
499.9744784275602
 20
356.8944597328812
 30
0.0
 10
499.971516426967
 20
356.895958112233
 30
0.0
  0
SPLINE
  5
13F
330
1F
100
AcDbEntity
  8
0
  6
Continuous
 62
     7
370
    15
100
AcDbSpline
210
0.0
220
0.0
230
1.0
 70
     8
 71
     3
 72
     9
 73
     5
 74
     0
 42
0.00000001
 43
0.00000001
 40
0.0
 40
0.0
 40
0.0
 40
0.0
 40
0.5016038535238027
 40
1.0
 40
1.0
 40
1.0
 40
1.0
 10
501.07929855244
 20
356.4314516649177
 30
0.0
 10
500.9346628583698
 20
356.4894879627234
 30
0.0
 10
500.6463164011924
 20
356.6051894219486
 30
0.0
 10
500.3834961993925
 20
356.7159604728865
 30
0.0
 10
500.2525076235994
 20
356.7711683378151
 30
0.0
  0
SPLINE
  5
140
330
1F
100
AcDbEntity
  8
0
  6
Continuous
 62
     7
370
    15
100
AcDbSpline
210
0.0
220
0.0
230
1.0
 70
     8
 71
     3
 72
    13
 73
     9
 74
     0
 42
0.00000001
 43
0.00000001
 40
0.0
 40
0.0
 40
0.0
 40
0.0
 40
0.125136888777128
 40
0.2500475771641024
 40
0.369837657224355
 40
0.4999422653927514
 40
0.7494349092376614
 40
1.0
 40
1.0
 40
1.0
 40
1.0
 10
502.1529123152956
 20
356.0234355196884
 30
0.0
 10
502.1500609712563
 20
356.0242714959456
 30
0.0
 10
502.1443634373344
 20
356.0259419373298
 30
0.0
 10
502.077684842938
 20
356.0485378854141
 30
0.0
 10
501.9602171915367
 20
356.0904371296683
 30
0.0
 10
501.7537614608536
 20
356.1666709802644
 30
0.0
 10
501.4478105328088
 20
356.2843892266999
 30
0.0
 10
501.2023113821693
 20
356.3823608140478
 30
0.0
 10
501.07929855244
 20
356.4314516649177
 30
0.0
  0
LINE
  5
141
330
1F
100
AcDbEntity
  8
0
  6
Continuous
 62
     7
370
    15
100
AcDbLine
 10
500.0282302465
 20
337.4676825867
 30
0.0
 11
500.0276342
 21
338.4905690715
 31
0.0
  0
SPLINE
  5
142
330
1F
100
AcDbEntity
  8
0
  6
Continuous
 62
     7
370
    15
100
AcDbSpline
210
0.0
220
0.0
230
1.0
 70
     8
 71
     3
 72
    11
 73
     7
 74
     0
 42
0.00000001
 43
0.00000001
 40
0.0
 40
0.0
 40
0.0
 40
0.0
 40
0.3327196559014734
 40
0.4999151689286782
 40
0.6672827113484621
 40
1.0
 40
1.0
 40
1.0
 40
1.0
 10
501.7902180518373
 20
337.9316004381111
 30
0.0
 10
501.7858134700074
 20
337.9764850846769
 30
0.0
 10
501.7791955343653
 20
338.043924790364
 30
0.0
 10
501.7342047484383
 20
338.1177903459485
 30
0.0
 10
501.6774579270768
 20
338.1814255336824
 30
0.0
 10
501.6189045790971
 20
338.2062651463307
 30
0.0
 10
501.5799477662309
 20
338.2227914795807
 30
0.0
  0
SPLINE
  5
143
330
1F
100
AcDbEntity
  8
0
  6
Continuous
 62
     7
370
    15
100
AcDbSpline
210
0.0
220
0.0
230
1.0
 70
     8
 71
     3
 72
    11
 73
     7
 74
     0
 42
0.00000001
 43
0.00000001
 40
0.0
 40
0.0
 40
0.0
 40
0.0
 40
0.2502201928416563
 40
0.5001588148954553
 40
0.7500274718589791
 40
0.9999999999999999
 40
0.9999999999999999
 40
0.9999999999999999
 40
0.9999999999999999
 10
501.5902295674547
 20
337.6009436712196
 30
0.0
 10
501.6180600202531
 20
337.6195841092868
 30
0.0
 10
501.6736896084631
 20
337.6568440094849
 30
0.0
 10
501.738360565366
 20
337.7372199954418
 30
0.0
 10
501.7824229138632
 20
337.8312593216613
 30
0.0
 10
501.787619312561
 20
337.8981487658992
 30
0.0
 10
501.7902180518373
 20
337.9316004381111
 30
0.0
  0
LINE
  5
144
330
1F
100
AcDbEntity
  8
0
  6
Continuous
 62
     7
370
    15
100
AcDbLine
 10
501.5826299752
 20
337.169815825
 30
0.0
 11
501.5902295675
 21
337.6009436712
 31
0.0
  0
SPLINE
  5
145
330
1F
100
AcDbEntity
  8
0
  6
Continuous
 62
     7
370
    15
100
AcDbSpline
210
0.0
220
0.0
230
1.0
 70
     8
 71
     3
 72
     9
 73
     5
 74
     0
 42
0.00000001
 43
0.00000001
 40
0.0
 40
0.0
 40
0.0
 40
0.0
 40
0.8192458607297992
 40
1.0
 40
1.0
 40
1.0
 40
1.0
 10
501.4344081248506
 20
338.6403331921032
 30
0.0
 10
501.5319527193815
 20
338.6460921219789
 30
0.0
 10
501.6510190451412
 20
338.6531216721442
 30
0.0
 10
501.7451454313818
 20
338.5906717918839
 30
0.0
 10
501.7621591653093
 20
338.57938371753
 30
0.0
  0
SPLINE
  5
146
330
1F
100
AcDbEntity
  8
0
  6
Continuous
 62
     7
370
    15
100
AcDbSpline
210
0.0
220
0.0
230
1.0
 70
     8
 71
     3
 72
    13
 73
     9
 74
     0
 42
0.00000001
 43
0.00000001
 40
0.0
 40
0.0
 40
0.0
 40
0.0
 40
0.2493009013302895
 40
0.373696119029407
 40
0.4997776714000164
 40
0.625015594441708
 40
0.7502474504323406
 40
1.0
 40
1.0
 40
1.0
 40
1.0
 10
500.7526352967485
 20
337.8901044294765
 30
0.0
 10
500.7611022001175
 20
337.984369606335
 30
0.0
 10
500.7737938867991
 20
338.1256708634249
 30
0.0
 10
500.8607734905217
 20
338.2976261837375
 30
0.0
 10
500.947246306092
 20
338.4114778041717
 30
0.0
 10
501.0525268917077
 20
338.506450138621
 30
0.0
 10
501.2122040429143
 20
338.6029021458415
 30
0.0
 10
501.3455770807886
 20
338.6253692954421
 30
0.0
 10
501.4344081248506
 20
338.6403331921032
 30
0.0
  0
LINE
  5
147
330
1F
100
AcDbEntity
  8
0
  6
Continuous
 62
     7
370
    15
100
AcDbLine
 10
500.7714107599
 20
337.7510318921
 30
0.0
 11
500.7526352967
 21
337.8901044295
 31
0.0
  0
LINE
  5
148
330
1F
100
AcDbEntity
  8
0
  6
Continuous
 62
     7
370
    15
100
AcDbLine
 10
500.3940239515
 20
337.8079804048
 30
0.0
 11
500.7714107599
 21
337.7510318921
 31
0.0
  0
LINE
  5
149
330
1F
100
AcDbEntity
  8
0
  6
Continuous
 62
     7
370
    15
100
AcDbLine
 10
500.0276342
 20
338.4905690715
 30
0.0
 11
500.3911629285
 21
338.5215448604
 31
0.0
  0
LINE
  5
14A
330
1F
100
AcDbEntity
  8
0
  6
Continuous
 62
     7
370
    15
100
AcDbLine
 10
501.3008192147
 20
328.0666666493
 30
0.0
 11
501.6664639081
 21
328.1987244651
 31
0.0
  0
LINE
  5
14B
330
1F
100
AcDbEntity
  8
0
  6
Continuous
 62
     7
370
    15
100
AcDbLine
 10
501.3038590516
 20
327.972714828
 30
0.0
 11
501.3008192147
 21
328.0666666493
 31
0.0
  0
LINE
  5
14C
330
1F
100
AcDbEntity
  8
0
  6
Continuous
 62
     7
370
    15
100
AcDbLine
 10
499.9651238288
 20
327.4900811181
 30
0.0
 11
501.3038590516
 21
327.972714828
 31
0.0
  0
LINE
  5
14D
330
1F
100
AcDbEntity
  8
0
  6
Continuous
 62
     7
370
    15
100
AcDbLine
 10
499.9688491191
 20
327.2968912885
 30
0.0
 11
499.9651238288
 21
327.4900811181
 31
0.0
  0
LINE
  5
14E
330
1F
100
AcDbEntity
  8
0
  6
Continuous
 62
     7
370
    15
100
AcDbLine
 10
501.6695484485
 20
328.104698138
 30
0.0
 11
502.0966008271
 21
328.2586345837
 31
0.0
  0
LINE
  5
14F
330
1F
100
AcDbEntity
  8
0
  6
Continuous
 62
     7
370
    15
100
AcDbLine
 10
498.3760789003
 20
325.0341648624
 30
0.0
 11
498.3760789003
 21
357.5341673956
 31
0.0
  0
LINE
  5
150
330
1F
100
AcDbEntity
  8
0
  6
Continuous
 62
     7
370
    15
100
AcDbLine
 10
500.0300928916
 20
337.4665463731
 30
0.0
 11
500.0282302465
 21
337.4676825867
 31
0.0
  0
LINE
  5
151
330
1F
100
AcDbEntity
  8
0
  6
Continuous
 62
     7
370
    15
100
AcDbLine
 10
500.029481944
 20
338.4897383318
 30
0.0
 11
500.0276342
 21
338.4905690715
 31
0.0
  0
LINE
  5
152
330
1F
100
AcDbEntity
  8
0
  6
Continuous
 62
     7
370
    15
100
AcDbLine
 10
500.0300928916
 20
337.4665463731
 30
0.0
 11
500.029481944
 21
338.4897383318
 31
0.0
  0
LINE
  5
153
330
1F
100
AcDbEntity
  8
0
  6
Continuous
 62
     7
370
    15
100
AcDbLine
 10
500.3930255737
 20
338.5207141206
 30
0.0
 11
500.3911629285
 21
338.5215448604
 31
0.0
  0
LINE
  5
154
330
1F
100
AcDbEntity
  8
0
  6
Continuous
 62
     7
370
    15
100
AcDbLine
 10
500.029481944
 20
338.4897383318
 30
0.0
 11
500.3930255737
 21
338.5207141206
 31
0.0
  0
LINE
  5
155
330
1F
100
AcDbEntity
  8
0
  6
Continuous
 62
     7
370
    15
100
AcDbLine
 10
500.3930255737
 20
338.5207141206
 30
0.0
 11
500.3958716954
 21
337.8069373236
 31
0.0
  0
LINE
  5
156
330
1F
100
AcDbEntity
  8
0
  6
Continuous
 62
     7
370
    15
100
AcDbLine
 10
500.3958716954
 20
337.8069373236
 30
0.0
 11
500.7732585038
 21
337.7499590084
 31
0.0
  0
LINE
  5
157
330
1F
100
AcDbEntity
  8
0
  6
Continuous
 62
     7
370
    15
100
AcDbLine
 10
500.7732585038
 20
337.7499590084
 30
0.0
 11
500.7544830407
 21
337.8890762494
 31
0.0
  0
SPLINE
  5
158
330
1F
100
AcDbEntity
  8
0
  6
Continuous
 62
     7
370
    15
100
AcDbSpline
210
0.0
220
0.0
230
1.0
 70
     8
 71
     3
 72
    13
 73
     9
 74
     0
 42
0.00000001
 43
0.00000001
 40
0.0
 40
0.0
 40
0.0
 40
0.0
 40
0.2493421422727355
 40
0.3739077343926591
 40
0.4998321842378193
 40
0.6250591029591108
 40
0.7502885329532046
 40
1.0
 40
1.0
 40
1.0
 40
1.0
 10
500.7544830407365
 20
337.8890762493542
 30
0.0
 10
500.762947787809
 20
337.9833724250058
 30
0.0
 10
500.7756413275823
 20
338.1247767984438
 30
0.0
 10
500.8627040033488
 20
338.2967445629238
 30
0.0
 10
500.9491430655437
 20
338.4106426840836
 30
0.0
 10
501.0543730793449
 20
338.5056060093585
 30
0.0
 10
501.2140629977517
 20
338.602064513229
 30
0.0
 10
501.3474318909009
 20
338.6245451798296
 30
0.0
 10
501.4362558688387
 20
338.6395173535278
 30
0.0
  0
SPLINE
  5
159
330
1F
100
AcDbEntity
  8
0
  6
Continuous
 62
     7
370
    15
100
AcDbSpline
210
0.0
220
0.0
230
1.0
 70
     8
 71
     3
 72
    12
 73
     8
 74
     0
 42
0.00000001
 43
0.00000001
 40
0.0
 40
0.0
 40
0.0
 40
0.0
 40
0.2497811283748038
 40
0.4994016460545639
 40
0.6248427192213837
 40
0.7502861070578465
 40
1.0
 40
1.0
 40
1.0
 40
1.0
 10
501.4362558688387
 20
338.6395173535278
 30
0.0
 10
501.5305304045652
 20
338.638236522898
 30
0.0
 10
501.7190188569522
 20
338.6356756852197
 30
0.0
 10
501.9201988308807
 20
338.5047944915488
 30
0.0
 10
502.0417059357085
 20
338.3644999437594
 30
0.0
 10
502.1364723101041
 20
338.1986457008173
 30
0.0
 10
502.1496526123203
 20
338.0510108442444
 30
0.0
 10
502.1584257449373
 20
337.9527414605549
 30
0.0
  0
SPLINE
  5
15A
330
1F
100
AcDbEntity
  8
0
  6
Continuous
 62
     7
370
    15
100
AcDbSpline
210
0.0
220
0.0
230
1.0
 70
     8
 71
     3
 72
    11
 73
     7
 74
     0
 42
0.00000001
 43
0.00000001
 40
0.0
 40
0.0
 40
0.0
 40
0.0
 40
0.2502410279833798
 40
0.5000851812697598
 40
0.7498385148665712
 40
1.0
 40
1.0
 40
1.0
 40
1.0
 10
502.1584257449373
 20
337.9527414605549
 30
0.0
 10
502.1515986133253
 20
337.8661176625021
 30
0.0
 10
502.1379551777259
 20
337.6930074491189
 30
0.0
 10
502.0123379077743
 20
337.4539139511843
 30
0.0
 10
501.8221573568855
 20
337.263684965342
 30
0.0
 10
501.6637473759803
 20
337.2002709466777
 30
0.0
 10
501.5844777192339
 20
337.1685380504063
 30
0.0
  0
LINE
  5
15B
330
1F
100
AcDbEntity
  8
0
  6
Continuous
 62
     7
370
    15
100
AcDbLine
 10
501.5844777192
 20
337.1685380504
 30
0.0
 11
501.5920773114
 21
337.5998037324
 31
0.0
  0
SPLINE
  5
15C
330
1F
100
AcDbEntity
  8
0
  6
Continuous
 62
     7
370
    15
100
AcDbSpline
210
0.0
220
0.0
230
1.0
 70
     8
 71
     3
 72
    11
 73
     7
 74
     0
 42
0.00000001
 43
0.00000001
 40
0.0
 40
0.0
 40
0.0
 40
0.0
 40
0.2501916117376073
 40
0.5001430959000257
 40
0.7500200708507669
 40
1.0
 40
1.0
 40
1.0
 40
1.0
 10
501.5920773114427
 20
337.5998037323883
 30
0.0
 10
501.6199071199692
 20
337.6184498168943
 30
0.0
 10
501.6755400266761
 20
337.6557240898665
 30
0.0
 10
501.7402258317789
 20
337.736115206371
 30
0.0
 10
501.7842885044234
 20
337.8301828931625
 30
0.0
 10
501.7894730094118
 20
337.8970896416837
 30
0.0
 10
501.7920657958254
 20
337.9305499062469
 30
0.0
  0
SPLINE
  5
15D
330
1F
100
AcDbEntity
  8
0
  6
Continuous
 62
     7
370
    15
100
AcDbSpline
210
0.0
220
0.0
230
1.0
 70
     8
 71
     3
 72
    12
 73
     8
 74
     0
 42
0.00000001
 43
0.00000001
 40
0.0
 40
0.0
 40
0.0
 40
0.0
 40
0.2495299854286187
 40
0.374934913952542
 40
0.5004142621365889
 40
0.749917313298053
 40
1.0
 40
1.0
 40
1.0
 40
1.0
 10
501.7920657958254
 20
337.9305536315372
 30
0.0
 10
501.7876583421703
 20
337.9754010567637
 30
0.0
 10
501.7810358584875
 20
338.0427872087301
 30
0.0
 10
501.7361114386646
 20
338.1170333424975
 30
0.0
 10
501.6790069975899
 20
338.1791482862058
 30
0.0
 10
501.5842522628841
 20
338.2325656719066
 30
0.0
 10
501.4983170244726
 20
338.2324620501315
 30
0.0
 10
501.4552995528444
 20
338.2324101791313
 30
0.0
  0
SPLINE
  5
15E
330
1F
100
AcDbEntity
  8
0
  6
Continuous
 62
     7
370
    15
100
AcDbSpline
210
0.0
220
0.0
230
1.0
 70
     8
 71
     3
 72
    14
 73
    10
 74
     0
 42
0.00000001
 43
0.00000001
 40
0.0
 40
0.0
 40
0.0
 40
0.0
 40
0.2497933861638477
 40
0.4989752204064798
 40
0.624194260885724
 40
0.749393592085353
 40
0.8745750650894095
 40
0.93727923554065
 40
1.0
 40
1.0
 40
1.0
 40
1.0
 10
501.4552995528444
 20
338.2324101791313
 30
0.0
 10
501.4142991397326
 20
338.2257333362045
 30
0.0
 10
501.3323986919931
 20
338.2123959968051
 30
0.0
 10
501.2408398436316
 20
338.1494081997897
 30
0.0
 10
501.1839598194276
 20
338.0828730848435
 30
0.0
 10
501.1503551627951
 20
338.0253381785301
 30
0.0
 10
501.1342356600796
 20
337.9724647420851
 30
0.0
 10
501.1272924718645
 20
337.9294358607278
 30
0.0
 10
501.1266883318063
 20
337.9078898543169
 30
0.0
 10
501.1263862218126
 20
337.8971154258182
 30
0.0
  0
SPLINE
  5
15F
330
1F
100
AcDbEntity
  8
0
  6
Continuous
 62
     7
370
    15
100
AcDbSpline
210
0.0
220
0.0
230
1.0
 70
     8
 71
     3
 72
    10
 73
     6
 74
     0
 42
0.00000001
 43
0.00000001
 40
0.0
 40
0.0
 40
0.0
 40
0.0
 40
0.2501266884449588
 40
0.5004165020939385
 40
1.0
 40
1.0
 40
1.0
 40
1.0
 10
501.1263862218126
 20
337.8971117005279
 30
0.0
 10
501.1283990915379
 20
337.8718729205291
 30
0.0
 10
501.1324261437221
 20
337.8213789005482
 30
0.0
 10
501.1713140693307
 20
337.7301574374887
 30
0.0
 10
501.2211443624043
 20
337.6790062894542
 30
0.0
 10
501.2543424929842
 20
337.6449281737736
 30
0.0
  0
LINE
  5
160
330
1F
100
AcDbEntity
  8
0
  6
Continuous
 62
     7
370
    15
100
AcDbLine
 10
501.254342493
 20
337.6449244485
 30
0.0
 11
501.1775866117
 21
337.3035164938
 31
0.0
  0
LINE
  5
161
330
1F
100
AcDbEntity
  8
0
  6
Continuous
 62
     7
370
    15
100
AcDbLine
 10
501.1775866117
 20
337.3035164938
 30
0.0
 11
500.0300928916
 21
337.4665463731
 31
0.0
  0
SPLINE
  5
162
330
1F
100
AcDbEntity
  8
0
  6
Continuous
 62
     7
370
    15
100
AcDbSpline
210
0.0
220
0.0
230
1.0
 70
     8
 71
     3
 72
     9
 73
     5
 74
     0
 42
0.00000001
 43
0.00000001
 40
0.0
 40
0.0
 40
0.0
 40
0.0
 40
0.5013021889922098
 40
1.0
 40
1.0
 40
1.0
 40
1.0
 10
501.4362558688387
 20
338.6395173535278
 30
0.0
 10
501.4359483146202
 20
338.6396522156925
 30
0.0
 10
501.4353348039969
 20
338.6399212393827
 30
0.0
 10
501.4347164811173
 20
338.6401961131547
 30
0.0
 10
501.4344081248506
 20
338.6403331921032
 30
0.0
  0
LINE
  5
163
330
1F
100
AcDbEntity
  8
0
  6
Continuous
 62
     7
370
    15
100
AcDbLine
 10
500.7544830407
 20
337.8890762494
 30
0.0
 11
500.7526352967
 21
337.8901044295
 31
0.0
  0
LINE
  5
164
330
1F
100
AcDbEntity
  8
0
  6
Continuous
 62
     7
370
    15
100
AcDbLine
 10
500.7732585038
 20
337.7499590084
 30
0.0
 11
500.7714107599
 21
337.7510318921
 31
0.0
  0
SPLINE
  5
165
330
1F
100
AcDbEntity
  8
0
  6
Continuous
 62
     7
370
    15
100
AcDbSpline
210
0.0
220
0.0
230
1.0
 70
     8
 71
     3
 72
     9
 73
     5
 74
     0
 42
0.00000001
 43
0.00000001
 40
0.0
 40
0.0
 40
0.0
 40
0.0
 40
0.4987270938016082
 40
1.0
 40
1.0
 40
1.0
 40
1.0
 10
501.7920657958254
 20
337.9305536315372
 30
0.0
 10
501.791757448484
 20
337.9307292499986
 30
0.0
 10
501.7911391798053
 20
337.9310813833871
 30
0.0
 10
501.7905256151669
 20
337.9314271264708
 30
0.0
 10
501.7902180518373
 20
337.9316004381111
 30
0.0
  0
LINE
  5
166
330
1F
100
AcDbEntity
  8
0
  6
Continuous
 62
     7
370
    15
100
AcDbLine
 10
501.5920773114
 20
337.5998037324
 30
0.0
 11
501.5902295675
 21
337.6009436712
 31
0.0
  0
SPLINE
  5
167
330
1F
100
AcDbEntity
  8
0
  6
Continuous
 62
     7
370
    15
100
AcDbSpline
210
0.0
220
0.0
230
1.0
 70
     8
 71
     3
 72
     9
 73
     5
 74
     0
 42
0.00000001
 43
0.00000001
 40
0.0
 40
0.0
 40
0.0
 40
0.0
 40
0.5000950841265523
 40
0.9999999999999999
 40
0.9999999999999999
 40
0.9999999999999999
 40
0.9999999999999999
 10
501.5844777192339
 20
337.1685380504063
 30
0.0
 10
501.5841697911956
 20
337.1687519240186
 30
0.0
 10
501.5835540522128
 20
337.1691795899148
 30
0.0
 10
501.582937961848
 20
337.1696037735127
 30
0.0
 10
501.5826299752458
 20
337.1698158249786
 30
0.0
  0
LINE
  5
168
330
1F
100
AcDbEntity
  8
0
  6
Continuous
 62
     7
370
    15
100
AcDbLine
 10
503.3760890331
 20
352.2168668375
 30
0.0
 11
503.3760890331
 21
330.3514654205
 31
0.0
  0
LINE
  5
169
330
1F
100
AcDbEntity
  8
0
  6
Continuous
 62
     7
370
    15
100
AcDbLine
 10
499.9855980243
 20
351.226528214
 30
0.0
 11
499.9837353791
 21
351.2235703335
 31
0.0
  0
LINE
  5
16A
330
1F
100
AcDbEntity
  8
0
  6
Continuous
 62
     7
370
    15
100
AcDbLine
 10
501.0215267505
 20
350.5121218429
 30
0.0
 11
499.9855980243
 21
351.226528214
 31
0.0
  0
LINE
  5
16B
330
1F
100
AcDbEntity
  8
0
  6
Continuous
 62
     7
370
    15
100
AcDbLine
 10
499.9855980243
 20
351.226528214
 30
0.0
 11
500.1526996459
 21
351.4588522181
 31
0.0
  0
LINE
  5
16C
330
1F
100
AcDbEntity
  8
0
  6
Continuous
 62
     7
370
    15
100
AcDbLine
 10
500.1526996459
 20
351.4588522181
 30
0.0
 11
500.8560791578
 21
350.980770813
 31
0.0
  0
SPLINE
  5
16D
330
1F
100
AcDbEntity
  8
0
  6
Continuous
 62
     7
370
    15
100
AcDbSpline
210
0.0
220
0.0
230
1.0
 70
     8
 71
     3
 72
    13
 73
     9
 74
     0
 42
0.00000001
 43
0.00000001
 40
0.0
 40
0.0
 40
0.0
 40
0.0
 40
0.2492567817220318
 40
0.371696136743708
 40
0.4998409914214832
 40
0.6263360956864804
 40
0.7503949618673257
 40
1.0
 40
1.0
 40
1.0
 40
1.0
 10
500.8560791577562
 20
350.9807708129814
 30
0.0
 10
500.8649481776267
 20
351.0489305219048
 30
0.0
 10
500.8781738174661
 20
351.1505714895584
 30
0.0
 10
500.9635759277185
 20
351.2492502912193
 30
0.0
 10
501.0467342568383
 20
351.3061524363169
 30
0.0
 10
501.1467828856845
 20
351.3446428513232
 30
0.0
 10
501.2980605680175
 20
351.3682682600713
 30
0.0
 10
501.4251955742687
 20
351.3443439990627
 30
0.0
 10
501.5101209248766
 20
351.3283627495697
 30
0.0
  0
SPLINE
  5
16E
330
1F
100
AcDbEntity
  8
0
  6
Continuous
 62
     7
370
    15
100
AcDbSpline
210
0.0
220
0.0
230
1.0
 70
     8
 71
     3
 72
    12
 73
     8
 74
     0
 42
0.00000001
 43
0.00000001
 40
0.0
 40
0.0
 40
0.0
 40
0.0
 40
0.2496793874753065
 40
0.3724395337198781
 40
0.5005058439224589
 40
0.7502285672388946
 40
1.0
 40
1.0
 40
1.0
 40
1.0
 10
501.5101209248766
 20
351.3283627495697
 30
0.0
 10
501.5952316257228
 20
351.299958740366
 30
0.0
 10
501.7221888009158
 20
351.2575892998984
 30
0.0
 10
501.8730156285941
 20
351.1523275231934
 30
0.0
 10
502.0031056261122
 20
351.0313691086601
 30
0.0
 10
502.1341516179243
 20
350.8525793309799
 30
0.0
 10
502.1507411284161
 20
350.7073452623345
 30
0.0
 10
502.1590366925462
 20
350.6347211465767
 30
0.0
  0
SPLINE
  5
16F
330
1F
100
AcDbEntity
  8
0
  6
Continuous
 62
     7
370
    15
100
AcDbSpline
210
0.0
220
0.0
230
1.0
 70
     8
 71
     3
 72
    12
 73
     8
 74
     0
 42
0.00000001
 43
0.00000001
 40
0.0
 40
0.0
 40
0.0
 40
0.0
 40
0.2497822121063319
 40
0.3752315841457075
 40
0.5006688820694448
 40
0.7505411348512803
 40
1.0
 40
1.0
 40
1.0
 40
1.0
 10
502.1590366925462
 20
350.6347136959961
 30
0.0
 10
502.150676474301
 20
350.5656997742373
 30
0.0
 10
502.1381174617536
 20
350.4620246447262
 30
0.0
 10
502.0544662967113
 20
350.355496531648
 30
0.0
 10
501.9429327655348
 20
350.2747175853159
 30
0.0
 10
501.7648175324414
 20
350.2071004612215
 30
0.0
 10
501.5944661442574
 20
350.2339064885681
 30
0.0
 10
501.5093609656557
 20
350.2472984061172
 30
0.0
  0
SPLINE
  5
170
330
1F
100
AcDbEntity
  8
0
  6
Continuous
 62
     7
370
    15
100
AcDbSpline
210
0.0
220
0.0
230
1.0
 70
     8
 71
     3
 72
     9
 73
     5
 74
     0
 42
0.00000001
 43
0.00000001
 40
0.0
 40
0.0
 40
0.0
 40
0.0
 40
0.4986038905021588
 40
1.0
 40
1.0
 40
1.0
 40
1.0
 10
501.5093609656557
 20
350.2472984061172
 30
0.0
 10
501.4231679900262
 20
350.2799811152856
 30
0.0
 10
501.2502993516712
 20
350.3455295592326
 30
0.0
 10
501.0979261040436
 20
350.4564878084033
 30
0.0
 10
501.0215267504915
 20
350.5121218428543
 30
0.0
  0
SPLINE
  5
171
330
1F
100
AcDbEntity
  8
0
  6
Continuous
 62
     7
370
    15
100
AcDbSpline
210
0.0
220
0.0
230
1.0
 70
     8
 71
     3
 72
    12
 73
     8
 74
     0
 42
0.00000001
 43
0.00000001
 40
0.0
 40
0.0
 40
0.0
 40
0.0
 40
0.2495411667459063
 40
0.4992479675812716
 40
0.7489443047371077
 40
0.874391526807005
 40
0.9999999999999999
 40
0.9999999999999999
 40
0.9999999999999999
 40
0.9999999999999999
 10
501.7903372611269
 20
350.7235171661308
 30
0.0
 10
501.7864235615146
 20
350.7546935175637
 30
0.0
 10
501.7785935645539
 20
350.8170669138752
 30
0.0
 10
501.7098457797721
 20
350.9080745061435
 30
0.0
 10
501.6321121037108
 20
350.9681172522624
 30
0.0
 10
501.5616731125182
 20
351.0011245103519
 30
0.0
 10
501.5255146554051
 20
351.0117823850494
 30
0.0
 10
501.5074238147005
 20
351.0171147451332
 30
0.0
  0
SPLINE
  5
172
330
1F
100
AcDbEntity
  8
0
  6
Continuous
 62
     7
370
    15
100
AcDbSpline
210
0.0
220
0.0
230
1.0
 70
     8
 71
     3
 72
    14
 73
    10
 74
     0
 42
0.00000001
 43
0.00000001
 40
0.0
 40
0.0
 40
0.0
 40
0.0
 40
0.2492340018381742
 40
0.3753882321802053
 40
0.4994111419562531
 40
0.6261541106222488
 40
0.7496669390730587
 40
0.874733489976735
 40
0.9999999999999999
 40
0.9999999999999999
 40
0.9999999999999999
 40
0.9999999999999999
 10
501.5074238147005
 20
351.0171147451332
 30
0.0
 10
501.4712632797218
 20
351.023902942964
 30
0.0
 10
501.4167994457337
 20
351.0341271080644
 30
0.0
 10
501.3519902929843
 20
351.0238199425475
 30
0.0
 10
501.3090390407895
 20
351.0073860518283
 30
0.0
 10
501.2737150798233
 20
350.9825588816465
 30
0.0
 10
501.247387656475
 20
350.9500286114509
 30
0.0
 10
501.2321851227912
 20
350.9106855791466
 30
0.0
 10
501.2300295577389
 20
350.8812620347993
 30
0.0
 10
501.2289509143098
 20
350.8665385112694
 30
0.0
  0
SPLINE
  5
173
330
1F
100
AcDbEntity
  8
0
  6
Continuous
 62
     7
370
    15
100
AcDbSpline
210
0.0
220
0.0
230
1.0
 70
     8
 71
     3
 72
    13
 73
     9
 74
     0
 42
0.00000001
 43
0.00000001
 40
0.0
 40
0.0
 40
0.0
 40
0.0
 40
0.2493454413138617
 40
0.3715495185336597
 40
0.4999449621638554
 40
0.7493044799845838
 40
0.8745614390213613
 40
1.0
 40
1.0
 40
1.0
 40
1.0
 10
501.2289509143098
 20
350.8665385112694
 30
0.0
 10
501.2323699899441
 20
350.8359249037222
 30
0.0
 10
501.2374647528524
 20
350.7903075822873
 30
0.0
 10
501.2744000693386
 20
350.7294977352313
 30
0.0
 10
501.3216695874534
 20
350.6734508608421
 30
0.0
 10
501.3838721608774
 20
350.6255409478574
 30
0.0
 10
501.4526010339459
 20
350.5933699487126
 30
0.0
 10
501.4879985848513
 20
350.5830164587136
 30
0.0
 10
501.5057101811632
 20
350.5778359637192
 30
0.0
  0
SPLINE
  5
174
330
1F
100
AcDbEntity
  8
0
  6
Continuous
 62
     7
370
    15
100
AcDbSpline
210
0.0
220
0.0
230
1.0
 70
     8
 71
     3
 72
    11
 73
     7
 74
     0
 42
0.00000001
 43
0.00000001
 40
0.0
 40
0.0
 40
0.0
 40
0.0
 40
0.2504040295450604
 40
0.5003881253252159
 40
0.7504447161801322
 40
1.0
 40
1.0
 40
1.0
 40
1.0
 10
501.5057101811632
 20
350.5778359637192
 30
0.0
 10
501.5416225349765
 20
350.5710943024076
 30
0.0
 10
501.6133870166954
 20
350.5576222857177
 30
0.0
 10
501.705029952649
 20
350.5848740209338
 30
0.0
 10
501.7766801386346
 20
350.6373762968043
 30
0.0
 10
501.7857879331951
 20
350.694822756813
 30
0.0
 10
501.7903372611269
 20
350.7235171661308
 30
0.0
  0
SPLINE
  5
175
330
1F
100
AcDbEntity
  8
0
  6
Continuous
 62
     7
370
    15
100
AcDbSpline
210
0.0
220
0.0
230
1.0
 70
     8
 71
     3
 72
     9
 73
     5
 74
     0
 42
0.00000001
 43
0.00000001
 40
0.0
 40
0.0
 40
0.0
 40
0.0
 40
0.5005544621001851
 40
1.0
 40
1.0
 40
1.0
 40
1.0
 10
501.5093609656557
 20
350.2472984061172
 30
0.0
 10
501.50904696926
 20
350.2468367268149
 30
0.0
 10
501.5084196720935
 20
350.2459143910107
 30
0.0
 10
501.5078052105717
 20
350.2449889816908
 30
0.0
 10
501.5074983205064
 20
350.2445267901352
 30
0.0
  0
SPLINE
  5
176
330
1F
100
AcDbEntity
  8
0
  6
Continuous
 62
     7
370
    15
100
AcDbSpline
210
0.0
220
0.0
230
1.0
 70
     8
 71
     3
 72
    14
 73
    10
 74
     0
 42
0.00000001
 43
0.00000001
 40
0.0
 40
0.0
 40
0.0
 40
0.0
 40
0.2492635278231416
 40
0.3754370412860685
 40
0.4994284527801723
 40
0.6262269457052713
 40
0.749692453926663
 40
0.8747362899856677
 40
0.9999999999999999
 40
0.9999999999999999
 40
0.9999999999999999
 40
0.9999999999999999
 10
501.5055611695512
 20
351.014104710572
 30
0.0
 10
501.4694002612385
 20
351.020890875467
 30
0.0
 10
501.4149352356261
 20
351.0311120967268
 30
0.0
 10
501.3501342338444
 20
351.0208198505154
 30
0.0
 10
501.3071835351046
 20
351.0043897216475
 30
0.0
 10
501.2718587408238
 20
350.9795944533778
 30
0.0
 10
501.2455416511004
 20
350.9470482654249
 30
0.0
 10
501.2303358257923
 20
350.9077250869605
 30
0.0
 10
501.2281813529859
 20
350.8783139953259
 30
0.0
 10
501.2271031703218
 20
350.8635955319336
 30
0.0
  0
SPLINE
  5
177
330
1F
100
AcDbEntity
  8
0
  6
Continuous
 62
     7
370
    15
100
AcDbSpline
210
0.0
220
0.0
230
1.0
 70
     8
 71
     3
 72
    12
 73
     8
 74
     0
 42
0.00000001
 43
0.00000001
 40
0.0
 40
0.0
 40
0.0
 40
0.0
 40
0.2494906334222507
 40
0.4991748585033758
 40
0.7488801906397908
 40
0.8743756968598125
 40
0.9999999999999999
 40
0.9999999999999999
 40
0.9999999999999999
 40
0.9999999999999999
 10
501.7884895171388
 20
350.720574186795
 30
0.0
 10
501.7845673231793
 20
350.751740840802
 30
0.0
 10
501.7767198918435
 20
350.8140983325065
 30
0.0
 10
501.707998925599
 20
350.9050830495695
 30
0.0
 10
501.6302563114299
 20
350.9651148988438
 30
0.0
 10
501.5598149689917
 20
350.9981111056728
 30
0.0
 10
501.5236519519186
 20
351.0087716863694
 30
0.0
 10
501.5055611695512
 20
351.014104710572
 30
0.0
  0
LINE
  5
178
330
1F
100
AcDbEntity
  8
0
  6
Continuous
 62
     7
370
    15
100
AcDbLine
 10
501.765184101
 20
350.6401153669
 30
0.0
 11
501.7884895171
 21
350.7205741868
 31
0.0
  0
SPLINE
  5
179
330
1F
100
AcDbEntity
  8
0
  6
Continuous
 62
     7
370
    15
100
AcDbSpline
210
0.0
220
0.0
230
1.0
 70
     8
 71
     3
 72
     9
 73
     5
 74
     0
 42
0.00000001
 43
0.00000001
 40
0.0
 40
0.0
 40
0.0
 40
0.0
 40
0.5006324227982005
 40
1.0
 40
1.0
 40
1.0
 40
1.0
 10
501.7884895171388
 20
350.720574186795
 30
0.0
 10
501.7887972792176
 20
350.7210625081462
 30
0.0
 10
501.7894120258157
 20
350.7220379171071
 30
0.0
 10
501.7900291095283
 20
350.7230244990809
 30
0.0
 10
501.7903372611269
 20
350.7235171661308
 30
0.0
  0
SPLINE
  5
17A
330
1F
100
AcDbEntity
  8
0
  6
Continuous
 62
     7
370
    15
100
AcDbSpline
210
0.0
220
0.0
230
1.0
 70
     8
 71
     3
 72
     9
 73
     5
 74
     0
 42
0.00000001
 43
0.00000001
 40
0.0
 40
0.0
 40
0.0
 40
0.0
 40
0.5004973361936492
 40
1.0
 40
1.0
 40
1.0
 40
1.0
 10
501.5055611695512
 20
351.014104710572
 30
0.0
 10
501.5058677279455
 20
351.0146061330022
 30
0.0
 10
501.5064802354896
 20
351.0156079813516
 30
0.0
 10
501.5071094969332
 20
351.0166128237024
 30
0.0
 10
501.5074238147005
 20
351.0171147451332
 30
0.0
  0
SPLINE
  5
17B
330
1F
100
AcDbEntity
  8
0
  6
Continuous
 62
     7
370
    15
100
AcDbSpline
210
0.0
220
0.0
230
1.0
 70
     8
 71
     3
 72
    12
 73
     8
 74
     0
 42
0.00000001
 43
0.00000001
 40
0.0
 40
0.0
 40
0.0
 40
0.0
 40
0.0304696481620016
 40
0.0888065586183976
 40
0.3925473549310844
 40
0.6962707247988028
 40
1.0
 40
1.0
 40
1.0
 40
1.0
 10
503.6044344271883
 20
352.6422353849342
 30
0.0
 10
503.6045605631811
 20
352.6475362299053
 30
0.0
 10
503.6049281979949
 20
352.662986024309
 30
0.0
 10
503.6029753139677
 20
352.7320048047873
 30
0.0
 10
503.578540277101
 20
352.8519840464274
 30
0.0
 10
503.5017189623112
 20
353.0065993809241
 30
0.0
 10
503.4223170725091
 20
353.0823163676583
 30
0.0
 10
503.3826157416567
 20
353.1201752290657
 30
0.0
  0
SPLINE
  5
17C
330
1F
100
AcDbEntity
  8
0
  6
Continuous
 62
     7
370
    15
100
AcDbSpline
210
0.0
220
0.0
230
1.0
 70
     8
 71
     3
 72
    11
 73
     7
 74
     0
 42
0.00000001
 43
0.00000001
 40
0.0
 40
0.0
 40
0.0
 40
0.0
 40
0.3707365379801983
 40
0.7442377951607063
 40
0.9440428693881061
 40
0.9999999999999999
 40
0.9999999999999999
 40
0.9999999999999999
 40
0.9999999999999999
 10
503.3760890330537
 20
353.1340556607178
 30
0.0
 10
503.3761726653971
 20
353.1324777550969
 30
0.0
 10
503.3763405537612
 20
353.1293101768308
 30
0.0
 10
503.3782416734004
 20
353.1247341954905
 30
0.0
 10
503.3808986413608
 20
353.1215897925377
 30
0.0
 10
503.3823075028193
 20
353.1204291591366
 30
0.0
 10
503.3826157416567
 20
353.1201752290657
 30
0.0
  0
SPLINE
  5
17D
330
1F
100
AcDbEntity
  8
0
  6
Continuous
 62
     7
370
    15
100
AcDbSpline
210
0.0
220
0.0
230
1.0
 70
     8
 71
     3
 72
    12
 73
     8
 74
     0
 42
0.00000001
 43
0.00000001
 40
0.0
 40
0.0
 40
0.0
 40
0.0
 40
0.0304694523927129
 40
0.0888124130900659
 40
0.3925512578502001
 40
0.6962726762773317
 40
1.0
 40
1.0
 40
1.0
 40
1.0
 10
503.6044344271883
 20
329.9260968730381
 30
0.0
 10
503.6045605570623
 20
329.9207960388919
 30
0.0
 10
503.6049282006394
 20
329.9053451582574
 30
0.0
 10
503.6029756362786
 20
329.8363241154659
 30
0.0
 10
503.5785402420907
 20
329.7163447979767
 30
0.0
 10
503.5017189710638
 20
329.5617290738274
 30
0.0
 10
503.4223170754267
 20
329.4860121390466
 30
0.0
 10
503.3826157416567
 20
329.4481533036163
 30
0.0
  0
SPLINE
  5
17E
330
1F
100
AcDbEntity
  8
0
  6
Continuous
 62
     7
370
    15
100
AcDbSpline
210
0.0
220
0.0
230
1.0
 70
     8
 71
     3
 72
    10
 73
     6
 74
     0
 42
0.00000001
 43
0.00000001
 40
0.0
 40
0.0
 40
0.0
 40
0.0
 40
0.212004304115184
 40
0.4882045998128993
 40
0.9999999999999999
 40
0.9999999999999999
 40
0.9999999999999999
 40
0.9999999999999999
 10
503.3826157416567
 20
329.4481533036163
 30
0.0
 10
503.3815269404971
 20
329.4471487587522
 30
0.0
 10
503.3790196435976
 20
329.4448354876824
 30
0.0
 10
503.3765067324887
 20
329.4398530180026
 30
0.0
 10
503.3762535030598
 20
329.4364723243194
 30
0.0
 10
503.3760890330537
 20
329.4342765972546
 30
0.0
  0
LINE
  5
17F
330
1F
100
AcDbEntity
  8
0
  6
Continuous
 62
     7
370
    15
100
AcDbLine
 10
503.6040618982
 20
355.4315688476
 30
0.0
 11
503.6083087291
 21
355.4296018944
 31
0.0
  0
SPLINE
  5
180
330
1F
100
AcDbEntity
  8
0
  6
Continuous
 62
     7
370
    15
100
AcDbSpline
210
0.0
220
0.0
230
1.0
 70
     8
 71
     3
 72
    12
 73
     8
 74
     0
 42
0.00000001
 43
0.00000001
 40
0.0
 40
0.0
 40
0.0
 40
0.0
 40
0.2239053215960365
 40
0.4477657141564026
 40
0.6717178848480646
 40
0.8955511907493175
 40
0.9999999999999999
 40
0.9999999999999999
 40
0.9999999999999999
 40
0.9999999999999999
 10
503.7104710902437
 20
355.383073018544
 30
0.0
 10
503.6977707612609
 20
355.3888097727948
 30
0.0
 10
503.6723726517542
 20
355.4002821301544
 30
0.0
 10
503.6396277584487
 20
355.4152162568835
 30
0.0
 10
503.615822189238
 20
355.4261278987178
 30
0.0
 10
503.6052168187745
 20
355.4310225104314
 30
0.0
 10
503.6043406628048
 20
355.4314369775457
 30
0.0
 10
503.6040618981584
 20
355.4315688476494
 30
0.0
  0
LINE
  5
181
330
1F
100
AcDbEntity
  8
0
  6
Continuous
 62
     7
370
    15
100
AcDbLine
 10
503.7104710902
 20
355.3830730185
 30
0.0
 11
512.4073401059
 21
351.4424534903
 31
0.0
  0
LINE
  5
182
330
1F
100
AcDbEntity
  8
0
  6
Continuous
 62
     7
370
    15
100
AcDbLine
 10
512.4073401059
 20
351.4424534903
 30
0.0
 11
513.0812600221
 21
351.1383356914
 31
0.0
  0
LINE
  5
183
330
1F
100
AcDbEntity
  8
0
  6
Continuous
 62
     7
370
    15
100
AcDbLine
 10
499.966986474
 20
327.4859832988
 30
0.0
 11
501.3057067956
 21
327.9686132834
 31
0.0
  0
LINE
  5
184
330
1F
100
AcDbEntity
  8
0
  6
Continuous
 62
     7
370
    15
100
AcDbLine
 10
499.9651238288
 20
327.4900811181
 30
0.0
 11
499.966986474
 21
327.4859832988
 31
0.0
  0
LINE
  5
185
330
1F
100
AcDbEntity
  8
0
  6
Continuous
 62
     7
370
    15
100
AcDbLine
 10
501.3038590516
 20
327.972714828
 30
0.0
 11
501.3057067956
 21
327.9686132834
 31
0.0
  0
LINE
  5
186
330
1F
100
AcDbEntity
  8
0
  6
Continuous
 62
     7
370
    15
100
AcDbLine
 10
501.6752704944
 20
327.9110351965
 30
0.0
 11
501.6682520475
 21
327.5019312665
 31
0.0
  0
LINE
  5
187
330
1F
100
AcDbEntity
  8
0
  6
Continuous
 62
     7
370
    15
100
AcDbLine
 10
501.6682520475
 20
327.5019312665
 30
0.0
 11
501.3025924529
 21
327.3698920772
 31
0.0
  0
LINE
  5
188
330
1F
100
AcDbEntity
  8
0
  6
Continuous
 62
     7
370
    15
100
AcDbLine
 10
501.3025924529
 20
327.3698920772
 30
0.0
 11
499.9706968631
 21
327.2927338645
 31
0.0
  0
LINE
  5
189
330
1F
100
AcDbEntity
  8
0
  6
Continuous
 62
     7
370
    15
100
AcDbLine
 10
499.9706968631
 20
327.2927338645
 30
0.0
 11
499.966986474
 21
327.4859832988
 31
0.0
  0
LINE
  5
18A
330
1F
100
AcDbEntity
  8
0
  6
Continuous
 62
     7
370
    15
100
AcDbLine
 10
501.3057067956
 20
327.9686132834
 30
0.0
 11
501.3026669587
 21
328.0625986323
 31
0.0
  0
LINE
  5
18B
330
1F
100
AcDbEntity
  8
0
  6
Continuous
 62
     7
370
    15
100
AcDbLine
 10
501.3026669587
 20
328.0625986323
 30
0.0
 11
501.6683265533
 21
328.1946564481
 31
0.0
  0
LINE
  5
18C
330
1F
100
AcDbEntity
  8
0
  6
Continuous
 62
     7
370
    15
100
AcDbLine
 10
501.6683265533
 20
328.1946564481
 30
0.0
 11
501.6713961925
 21
328.1006003187
 31
0.0
  0
LINE
  5
18D
330
1F
100
AcDbEntity
  8
0
  6
Continuous
 62
     7
370
    15
100
AcDbLine
 10
501.6713961925
 20
328.1006003187
 30
0.0
 11
502.0984485711
 21
328.2545367644
 31
0.0
  0
LINE
  5
18E
330
1F
100
AcDbEntity
  8
0
  6
Continuous
 62
     7
370
    15
100
AcDbLine
 10
502.0984485711
 20
328.2545367644
 30
0.0
 11
502.1023675765
 21
328.06487851
 31
0.0
  0
LINE
  5
18F
330
1F
100
AcDbEntity
  8
0
  6
Continuous
 62
     7
370
    15
100
AcDbLine
 10
502.1023675765
 20
328.06487851
 30
0.0
 11
501.6752704944
 21
327.9110389218
 31
0.0
  0
LINE
  5
190
330
1F
100
AcDbEntity
  8
0
  6
Continuous
 62
     7
370
    15
100
AcDbLine
 10
501.3088062371
 20
327.5590101645
 30
0.0
 11
501.3095512952
 21
327.7791375682
 31
0.0
  0
LINE
  5
191
330
1F
100
AcDbEntity
  8
0
  6
Continuous
 62
     7
370
    15
100
AcDbLine
 10
501.3095512952
 20
327.7791375682
 30
0.0
 11
500.6124451722
 21
327.5280530021
 31
0.0
  0
LINE
  5
192
330
1F
100
AcDbEntity
  8
0
  6
Continuous
 62
     7
370
    15
100
AcDbLine
 10
500.6124451722
 20
327.5280530021
 30
0.0
 11
501.3088062371
 21
327.5590101645
 31
0.0
  0
LINE
  5
193
330
1F
100
AcDbEntity
  8
0
  6
Continuous
 62
     7
370
    15
100
AcDbLine
 10
499.9688491191
 20
327.2968912885
 30
0.0
 11
499.9706968631
 21
327.2927338645
 31
0.0
  0
LINE
  5
194
330
1F
100
AcDbEntity
  8
0
  6
Continuous
 62
     7
370
    15
100
AcDbLine
 10
501.3008192147
 20
328.0666666493
 30
0.0
 11
501.3026669587
 21
328.0625986323
 31
0.0
  0
LINE
  5
195
330
1F
100
AcDbEntity
  8
0
  6
Continuous
 62
     7
370
    15
100
AcDbLine
 10
501.6664639081
 20
328.1987244651
 30
0.0
 11
501.6683265533
 21
328.1946564481
 31
0.0
  0
LINE
  5
196
330
1F
100
AcDbEntity
  8
0
  6
Continuous
 62
     7
370
    15
100
AcDbLine
 10
502.0966008271
 20
328.2586345837
 30
0.0
 11
502.0984485711
 21
328.2545367644
 31
0.0
  0
LINE
  5
197
330
1F
100
AcDbEntity
  8
0
  6
Continuous
 62
     7
370
    15
100
AcDbLine
 10
500.6105974282
 20
327.5322104261
 30
0.0
 11
501.306943592
 21
327.5632346437
 31
0.0
  0
LINE
  5
198
330
1F
100
AcDbEntity
  8
0
  6
Continuous
 62
     7
370
    15
100
AcDbLine
 10
501.306943592
 20
327.5632346437
 30
0.0
 11
501.3088062371
 21
327.5590101645
 31
0.0
  0
LINE
  5
199
330
1F
100
AcDbEntity
  8
0
  6
Continuous
 62
     7
370
    15
100
AcDbLine
 10
501.306943592
 20
327.5632346437
 30
0.0
 11
501.3076886501
 21
327.7832949922
 31
0.0
  0
LINE
  5
19A
330
1F
100
AcDbEntity
  8
0
  6
Continuous
 62
     7
370
    15
100
AcDbLine
 10
513.3760794963
 20
349.0679981575
 30
0.0
 11
513.3760794963
 21
333.5003341005
 31
0.0
  0
LINE
  5
19B
330
1F
100
AcDbEntity
  8
0
  6
Continuous
 62
     7
370
    15
100
AcDbLine
 10
513.3760794963
 20
333.5003341005
 30
0.0
 11
513.3760794963
 21
331.8574587271
 31
0.0
  0
LINE
  5
19C
330
1F
100
AcDbEntity
  8
0
  6
Continuous
 62
     7
370
    15
100
AcDbLine
 10
513.3760794963
 20
350.6809892521
 30
0.0
 11
513.3760794963
 21
349.0679981575
 31
0.0
  0
SPLINE
  5
19D
330
1F
100
AcDbEntity
  8
0
  6
Continuous
 62
     7
370
    15
100
AcDbSpline
210
0.0
220
0.0
230
1.0
 70
     8
 71
     3
 72
    11
 73
     7
 74
     0
 42
0.00000001
 43
0.00000001
 40
0.0
 40
0.0
 40
0.0
 40
0.0
 40
0.2933310612744693
 40
0.5866064297340927
 40
0.8805033334926564
 40
1.0
 40
1.0
 40
1.0
 40
1.0
 10
513.0812600220903
 20
351.1383356914451
 30
0.0
 10
513.1302916405142
 20
351.110137035725
 30
0.0
 10
513.2283455680551
 20
351.0537450781756
 30
0.0
 10
513.3288891131511
 20
350.9135191604603
 30
0.0
 10
513.3718891958808
 20
350.782792918988
 30
0.0
 10
513.3751398526496
 20
350.7038179661297
 30
0.0
 10
513.3760794963106
 20
350.6809892520836
 30
0.0
  0
SPLINE
  5
19E
330
1F
100
AcDbEntity
  8
0
  6
Continuous
 62
     7
370
    15
100
AcDbSpline
210
0.0
220
0.0
230
1.0
 70
    24
 71
     3
 72
    15
 73
    11
 74
     0
 42
0.00000001
 43
0.00000001
 40
0.0
 40
0.0
 40
0.0
 40
0.0
 40
0.0012987107919194
 40
0.0031014061651943
 40
0.0058920763810608
 40
0.010262010875156
 40
0.018464958120945
 40
0.049172383297241
 40
0.1104993598083934
 40
1.0
 40
1.0
 40
1.0
 40
1.0
 10
497.3760917748674
 20
341.9091636702946
 30
0.0
 10
497.3761327428014
 20
341.9091636702946
 30
0.0
 10
497.3762305769023
 20
341.9091636702946
 30
0.0
 10
497.3771836359379
 20
341.9091636702945
 30
0.0
 10
497.379284971084
 20
341.9091636702946
 30
0.0
 10
497.3836349858911
 20
341.9091636702945
 30
0.0
 10
497.3969997556384
 20
341.9091636702946
 30
0.0
 10
497.4298940479695
 20
341.9091636702945
 30
0.0
 10
497.7558760797307
 20
341.9091636702948
 30
0.0
 10
498.0763112887816
 20
341.9091636702947
 30
0.0
 10
498.3760789002641
 20
341.9091636702946
 30
0.0
  0
LINE
  5
19F
330
1F
100
AcDbEntity
  8
0
  6
Continuous
 62
     7
370
    15
100
AcDbLine
 10
498.3760789003
 20
340.6417118773
 30
0.0
 11
497.3760917749
 21
340.6591648624
 31
0.0
  0
LINE
  5
1A0
330
1F
100
AcDbEntity
  8
0
  6
Continuous
 62
     7
370
    15
100
AcDbLine
 10
498.3760789003
 20
339.1536446676
 30
0.0
 11
497.3760917749
 21
339.1554924116
 31
0.0
  0
SPLINE
  5
1A1
330
1F
100
AcDbEntity
  8
0
  6
Continuous
 62
     7
370
    15
100
AcDbSpline
210
0.0
220
0.0
230
1.0
 70
     8
 71
     3
 72
    13
 73
     9
 74
     0
 42
0.00000001
 43
0.00000001
 40
0.0
 40
0.0
 40
0.0
 40
0.0
 40
0.1251683320259856
 40
0.2500869543338711
 40
0.3698835442122066
 40
0.4999885286016076
 40
0.7494562429718169
 40
1.0
 40
1.0
 40
1.0
 40
1.0
 10
502.1547600592836
 20
356.0280772314003
 30
0.0
 10
502.1519082307463
 20
356.0289125588216
 30
0.0
 10
502.1462102630443
 20
356.0305815471936
 30
0.0
 10
502.0795527594411
 20
356.0531823103393
 30
0.0
 10
501.9620817461386
 20
356.0950673341391
 30
0.0
 10
501.7556396542713
 20
356.1713011377176
 30
0.0
 10
501.4496710038628
 20
356.2890252560537
 30
0.0
 10
501.2041639788869
 20
356.3869954242761
 30
0.0
 10
501.0811462964281
 20
356.436085926049
 30
0.0
  0
SPLINE
  5
1A2
330
1F
100
AcDbEntity
  8
0
  6
Continuous
 62
     7
370
    15
100
AcDbSpline
210
0.0
220
0.0
230
1.0
 70
     8
 71
     3
 72
     9
 73
     5
 74
     0
 42
0.00000001
 43
0.00000001
 40
0.0
 40
0.0
 40
0.0
 40
0.0
 40
0.5016033138039737
 40
1.0
 40
1.0
 40
1.0
 40
1.0
 10
501.0811462964281
 20
356.436085926049
 30
0.0
 10
500.9365092783684
 20
356.4941222537173
 30
0.0
 10
500.6481598714182
 20
356.6098238969702
 30
0.0
 10
500.3853525612464
 20
356.7205947652624
 30
0.0
 10
500.2543702687486
 20
356.7758025989464
 30
0.0
  0
SPLINE
  5
1A3
330
1F
100
AcDbEntity
  8
0
  6
Continuous
 62
     7
370
    15
100
AcDbSpline
210
0.0
220
0.0
230
1.0
 70
     8
 71
     3
 72
    12
 73
     8
 74
     0
 42
0.00000001
 43
0.00000001
 40
0.0
 40
0.0
 40
0.0
 40
0.0
 40
0.2499964002920614
 40
0.4997518100412515
 40
0.7495683344287958
 40
0.8747644589329551
 40
1.0
 40
1.0
 40
1.0
 40
1.0
 10
500.2543702687486
 20
356.7758025989464
 30
0.0
 10
500.2123486796457
 20
356.7939783945611
 30
0.0
 10
500.1283460092453
 20
356.830312464759
 30
0.0
 10
500.0373686213391
 20
356.8708967654368
 30
0.0
 10
499.992349606424
 20
356.8914567325553
 30
0.0
 10
499.9762150503581
 20
356.899133619502
 30
0.0
 10
499.9743145637981
 20
356.9001110378505
 30
0.0
 10
499.9733641709551
 20
356.9005998239448
 30
0.0
  0
SPLINE
  5
1A4
330
1F
100
AcDbEntity
  8
0
  6
Continuous
 62
     7
370
    15
100
AcDbSpline
210
0.0
220
0.0
230
1.0
 70
     8
 71
     3
 72
    11
 73
     7
 74
     0
 42
0.00000001
 43
0.00000001
 40
0.0
 40
0.0
 40
0.0
 40
0.0
 40
0.2526474592399122
 40
0.4983529950273153
 40
0.7492460110976784
 40
1.0
 40
1.0
 40
1.0
 40
1.0
 10
501.7875060405
 20
356.1749803290298
 30
0.0
 10
501.7856985042012
 20
356.1756874645982
 30
0.0
 10
501.7821330967719
 20
356.1770823059689
 30
0.0
 10
501.7500913540225
 20
356.1893896539218
 30
0.0
 10
501.7031044925437
 20
356.2075492575582
 30
0.0
 10
501.663027514679
 20
356.2231704574775
 30
0.0
 10
501.6429945792421
 20
356.2309788927963
 30
0.0
  0
SPLINE
  5
1A5
330
1F
100
AcDbEntity
  8
0
  6
Continuous
 62
     7
370
    15
100
AcDbSpline
210
0.0
220
0.0
230
1.0
 70
     8
 71
     3
 72
     9
 73
     5
 74
     0
 42
0.00000001
 43
0.00000001
 40
0.0
 40
0.0
 40
0.0
 40
0.0
 40
0.4986271131848417
 40
1.0
 40
1.0
 40
1.0
 40
1.0
 10
501.6429945792421
 20
356.2309788927963
 30
0.0
 10
501.549924981558
 20
356.2675461251191
 30
0.0
 10
501.3632732828773
 20
356.3408819533482
 30
0.0
 10
501.1651973897243
 20
356.4200938682335
 30
0.0
 10
501.0658875073656
 20
356.4598085746696
 30
0.0
  0
SPLINE
  5
1A6
330
1F
100
AcDbEntity
  8
0
  6
Continuous
 62
     7
370
    15
100
AcDbSpline
210
0.0
220
0.0
230
1.0
 70
     8
 71
     3
 72
    13
 73
     9
 74
     0
 42
0.00000001
 43
0.00000001
 40
0.0
 40
0.0
 40
0.0
 40
0.0
 40
0.5002178069496293
 40
0.6253725983988103
 40
0.7503512182224675
 40
0.8754802969182651
 40
0.9379597916076478
 40
1.0
 40
1.0
 40
1.0
 40
1.0
 10
501.0658875073656
 20
356.4598085746696
 30
0.0
 10
500.9186071259586
 20
356.5188368969285
 30
0.0
 10
500.7344771059272
 20
356.5926341403638
 30
0.0
 10
500.5261373791087
 20
356.6774077426232
 30
0.0
 10
500.4342037865514
 20
356.7151905530888
 30
0.0
 10
500.375980105181
 20
356.739250965664
 30
0.0
 10
500.3517230508807
 20
356.7492989407978
 30
0.0
 10
500.3499006354464
 20
356.7500163354645
 30
0.0
 10
500.3489926423296
 20
356.7503737673691
 30
0.0
  0
SPLINE
  5
1A7
330
1F
100
AcDbEntity
  8
0
  6
Continuous
 62
     7
370
    15
100
AcDbSpline
210
0.0
220
0.0
230
1.0
 70
     8
 71
     3
 72
    13
 73
     9
 74
     0
 42
0.00000001
 43
0.00000001
 40
0.0
 40
0.0
 40
0.0
 40
0.0
 40
0.1244913654786799
 40
0.1870679007082467
 40
0.2496417073254785
 40
0.3744674533604308
 40
0.4996617048562316
 40
1.0
 40
1.0
 40
1.0
 40
1.0
 10
500.3489926423296
 20
356.7503737673691
 30
0.0
 10
500.3531581609016
 20
356.7485567065829
 30
0.0
 10
500.3594175091833
 20
356.7458262863211
 30
0.0
 10
500.3984098515819
 20
356.7294226390879
 30
0.0
 10
500.4481258557443
 20
356.7086539097365
 30
0.0
 10
500.5326221942582
 20
356.6739169257539
 30
0.0
 10
500.7488182332664
 20
356.585811860078
 30
0.0
 10
500.9401405313951
 20
356.5092103017208
 30
0.0
 10
501.0931715335115
 20
356.4479397997787
 30
0.0
  0
SPLINE
  5
1A8
330
1F
100
AcDbEntity
  8
0
  6
Continuous
 62
     7
370
    15
100
AcDbSpline
210
0.0
220
0.0
230
1.0
 70
     8
 71
     3
 72
    12
 73
     8
 74
     0
 42
0.00000001
 43
0.00000001
 40
0.0
 40
0.0
 40
0.0
 40
0.0
 40
0.5003331437443181
 40
0.6307993691558845
 40
0.7506472023525326
 40
0.8753548484868893
 40
1.0
 40
1.0
 40
1.0
 40
1.0
 10
501.0931715335115
 20
356.4479397997787
 30
0.0
 10
501.2374874157011
 20
356.3902925781692
 30
0.0
 10
501.4194349212433
 20
356.3176133413858
 30
0.0
 10
501.6222354311583
 20
356.2382964817834
 30
0.0
 10
501.7093045110068
 20
356.2046460972198
 30
0.0
 10
501.7762633426359
 20
356.1790959228485
 30
0.0
 10
501.7837591007593
 20
356.1763519643991
 30
0.0
 10
501.7875060405
 20
356.1749803290298
 30
0.0
  0
SPLINE
  5
1A9
330
1F
100
AcDbEntity
  8
0
  6
Continuous
 62
     7
370
    15
100
AcDbSpline
210
0.0
220
0.0
230
1.0
 70
     8
 71
     3
 72
     9
 73
     5
 74
     0
 42
0.00000001
 43
0.00000001
 40
0.0
 40
0.0
 40
0.0
 40
0.0
 40
0.5004977030625298
 40
1.0
 40
1.0
 40
1.0
 40
1.0
 10
500.2543702687486
 20
356.7758025989464
 30
0.0
 10
500.2540562549408
 20
356.7750306072715
 30
0.0
 10
500.2534288518461
 20
356.773488159284
 30
0.0
 10
500.252814495837
 20
356.77194109832
 30
0.0
 10
500.2525076235994
 20
356.7711683378151
 30
0.0
  0
SPLINE
  5
1AA
330
1F
100
AcDbEntity
  8
0
  6
Continuous
 62
     7
370
    15
100
AcDbSpline
210
0.0
220
0.0
230
1.0
 70
    24
 71
     3
 72
     9
 73
     5
 74
     0
 42
0.00000001
 43
0.00000001
 40
0.0
 40
0.0
 40
0.0
 40
0.0
 40
0.5000756315249494
 40
1.0
 40
1.0
 40
1.0
 40
1.0
 10
501.0811462964281
 20
356.436085926049
 30
0.0
 10
501.080838362395
 20
356.4353136076275
 30
0.0
 10
501.0802225874731
 20
356.4337692043956
 30
0.0
 10
501.0796065330556
 20
356.4322241001713
 30
0.0
 10
501.07929855244
 20
356.4314516649177
 30
0.0
  0
SPLINE
  5
1AB
330
1F
100
AcDbEntity
  8
0
  6
Continuous
 62
     7
370
    15
100
AcDbSpline
210
0.0
220
0.0
230
1.0
 70
     8
 71
     3
 72
     9
 73
     5
 74
     0
 42
0.00000001
 43
0.00000001
 40
0.0
 40
0.0
 40
0.0
 40
0.0
 40
0.5006927870179356
 40
1.0
 40
1.0
 40
1.0
 40
1.0
 10
502.1547600592836
 20
356.0280772314003
 30
0.0
 10
502.1544523158932
 20
356.0273022858537
 30
0.0
 10
502.1538376807347
 20
356.0257545392781
 30
0.0
 10
502.1532204853854
 20
356.0242078118499
 30
0.0
 10
502.1529123152956
 20
356.0234355196884
 30
0.0
  0
SPLINE
  5
1AC
330
1F
100
AcDbEntity
  8
0
  6
Continuous
 62
     7
370
    15
100
AcDbSpline
210
0.0
220
0.0
230
1.0
 70
     8
 71
     3
 72
     9
 73
     5
 74
     0
 42
0.00000001
 43
0.00000001
 40
0.0
 40
0.0
 40
0.0
 40
0.0
 40
0.4993116733166463
 40
1.0
 40
1.0
 40
1.0
 40
1.0
 10
499.9733641709551
 20
356.9005998239448
 30
0.0
 10
499.9730560022313
 20
356.899827535226
 30
0.0
 10
499.9724388151311
 20
356.8982808285093
 30
0.0
 10
499.9718241717387
 20
356.896733061238
 30
0.0
 10
499.971516426967
 20
356.895958112233
 30
0.0
  0
LINE
  5
1AD
330
1F
100
AcDbEntity
  8
0
  6
Continuous
 62
     7
370
    15
100
AcDbLine
 10
499.1260841455
 20
314.8591639862
 30
0.0
 11
499.1260841455
 21
312.6647593841
 31
0.0
  0
LINE
  5
1AE
330
1F
100
AcDbEntity
  8
0
  6
Continuous
 62
     7
370
    15
100
AcDbLine
 10
469.5185646381
 20
321.3147605226
 30
0.0
 11
470.0853899087
 21
320.7479427025
 31
0.0
  0
LINE
  5
1AF
330
1F
100
AcDbEntity
  8
0
  6
Continuous
 62
     7
370
    15
100
AcDbLine
 10
471.618570384
 20
318.5660140977
 30
0.0
 11
471.618570384
 21
316.7635063097
 31
0.0
  0
LINE
  5
1B0
330
1F
100
AcDbEntity
  8
0
  6
Continuous
 62
     7
370
    15
100
AcDbLine
 10
471.618570384
 20
316.7635063097
 30
0.0
 11
471.618570384
 21
316.5289732084
 31
0.0
  0
LINE
  5
1B1
330
1F
100
AcDbEntity
  8
0
  6
Continuous
 62
     7
370
    15
100
AcDbLine
 10
471.618570384
 20
318.800547199
 30
0.0
 11
471.618570384
 21
318.5660140977
 31
0.0
  0
ARC
  5
1B2
330
1F
100
AcDbEntity
  8
0
  6
Continuous
 62
     7
370
    15
100
AcDbCircle
 10
470.6185680021
 20
316.5289738184
 30
0.0
 40
1.000000000000003
100
AcDbArc
 50
331.0449756281
 51
0.0
  0
ARC
  5
1B3
330
1F
100
AcDbEntity
  8
0
  6
Continuous
 62
     7
370
    15
100
AcDbCircle
 10
470.6185680021
 20
318.8005466936
 30
0.0
 40
1.00000000000003
100
AcDbArc
 50
0.0
 51
28.9550243719
  0
LINE
  5
1B4
330
1F
100
AcDbEntity
  8
0
  6
Continuous
 62
     7
370
    15
100
AcDbLine
 10
470.3765884008
 20
270.2467609585
 30
0.0
 11
470.3765884008
 21
271.0591648162
 31
0.0
  0
LINE
  5
1B5
330
1F
100
AcDbEntity
  8
0
  6
Continuous
 62
     7
370
    15
100
AcDbLine
 10
470.3765884008
 20
270.0341651604
 30
0.0
 11
469.5185646381
 21
270.0341651604
 31
0.0
  0
LINE
  5
1B6
330
1F
100
AcDbEntity
  8
0
  6
Continuous
 62
     7
370
    15
100
AcDbLine
 10
470.3765884008
 20
276.5341652945
 30
0.0
 11
469.5185646381
 21
276.5341652945
 31
0.0
  0
LINE
  5
1B7
330
1F
100
AcDbEntity
  8
0
  6
Continuous
 62
     7
370
    15
100
AcDbLine
 10
470.3765884008
 20
271.0591648162
 30
0.0
 11
470.3765884008
 21
276.5341652945
 31
0.0
  0
LINE
  5
1B8
330
1F
100
AcDbEntity
  8
0
  6
Continuous
 62
     7
370
    15
100
AcDbLine
 10
476.0456904735
 20
255.4964302496
 30
0.0
 11
476.0669693317
 21
255.4967282728
 31
0.0
  0
LINE
  5
1B9
330
1F
100
AcDbEntity
  8
0
  6
Continuous
 62
     7
370
    15
100
AcDbLine
 10
471.5906009044
 20
269.6074117363
 30
0.0
 11
476.0456904735
 21
255.4964302496
 31
0.0
  0
ARC
  5
1BA
330
1F
100
AcDbEntity
  8
0
  6
Continuous
 62
     7
370
    15
100
AcDbCircle
 10
470.3950495102
 20
269.2299554394
 30
0.0
 40
1.253718779667666
100
AcDbArc
 50
17.5218437462
 51
88.4306866356
  0
LINE
  5
1BB
330
1F
100
AcDbEntity
  8
0
  6
Continuous
 62
     7
370
    15
100
AcDbLine
 10
470.4162403907
 20
276.5347189658
 30
0.0
 11
470.4293832149
 21
270.4832042024
 31
0.0
  0
LINE
  5
1BC
330
1F
100
AcDbEntity
  8
0
  6
Continuous
 62
     7
370
    15
100
AcDbLine
 10
504.2422488298
 20
270.6265049443
 30
0.0
 11
470.4162403907
 21
276.5347189658
 31
0.0
  0
LINE
  5
1BD
330
1F
100
AcDbEntity
  8
0
  6
Continuous
 62
     7
370
    15
100
AcDbLine
 10
499.8616501655
 20
255.8658896402
 30
0.0
 11
504.2422488298
 21
270.6265049443
 31
0.0
  0
LINE
  5
1BE
330
1F
100
AcDbEntity
  8
0
  6
Continuous
 62
     7
370
    15
100
AcDbLine
 10
499.8452141847
 20
255.8656605349
 30
0.0
 11
499.8616501655
 21
255.8658896402
 31
0.0
  0
LINE
  5
1BF
330
1F
100
AcDbEntity
  8
0
  6
Continuous
 62
     7
370
    15
100
AcDbLine
 10
499.8152777518
 20
255.7652322963
 30
0.0
 11
499.8452141847
 21
255.8656605349
 31
0.0
  0
LINE
  5
1C0
330
1F
100
AcDbEntity
  8
0
  6
Continuous
 62
     7
370
    15
100
AcDbLine
 10
476.0876223411
 20
255.4339105651
 30
0.0
 11
476.0669693317
 21
255.4967282728
 31
0.0
  0
LINE
  5
1C1
330
1F
100
AcDbEntity
  8
0
  6
Continuous
 62
     7
370
    15
100
AcDbLine
 10
499.2117211189
 20
254.7317045197
 30
0.0
 11
476.7197892036
 21
254.4176383332
 31
0.0
  0
SPLINE
  5
1C2
330
1F
100
AcDbEntity
  8
0
  6
Continuous
 62
     7
370
    15
100
AcDbSpline
210
0.0
220
0.0
230
1.0
 70
     8
 71
     3
 72
    12
 73
     8
 74
     0
 42
0.00000001
 43
0.00000001
 40
0.0
 40
0.0
 40
0.0
 40
0.0
 40
0.2159936035256265
 40
0.4359926510205422
 40
0.68153002666313
 40
0.9520750089562763
 40
1.0
 40
1.0
 40
1.0
 40
1.0
 10
476.1505797471269
 20
255.1922323570183
 30
0.0
 10
476.1722550579699
 20
255.0927543713568
 30
0.0
 10
476.216007632499
 20
254.8919536532858
 30
0.0
 10
476.3361425240558
 20
254.6495518658806
 30
0.0
 10
476.4906014008605
 20
254.4739397915864
 30
0.0
 10
476.6269159790545
 20
254.419239936069
 30
0.0
 10
476.7076412515357
 20
254.417847825166
 30
0.0
 10
476.7197892035707
 20
254.4176383331945
 30
0.0
  0
SPLINE
  5
1C3
330
1F
100
AcDbEntity
  8
0
  6
Continuous
 62
     7
370
    15
100
AcDbSpline
210
0.0
220
0.0
230
1.0
 70
     8
 71
     3
 72
    11
 73
     7
 74
     0
 42
0.00000001
 43
0.00000001
 40
0.0
 40
0.0
 40
0.0
 40
0.0
 40
0.2798651754003567
 40
0.5726139628973521
 40
0.8467870307222897
 40
1.0
 40
1.0
 40
1.0
 40
1.0
 10
499.2117211188539
 20
254.7317045197418
 30
0.0
 10
499.276542278662
 20
254.7450396927176
 30
0.0
 10
499.4091686447122
 20
254.7723239242503
 30
0.0
 10
499.5740050154657
 20
254.9848905256462
 30
0.0
 10
499.690611292466
 20
255.2566877801065
 30
0.0
 10
499.7410159751047
 20
255.4519069303676
 30
0.0
 10
499.7590854729875
 20
255.5218907461098
 30
0.0
  0
LINE
  5
1C4
330
1F
100
AcDbEntity
  8
0
  6
Continuous
 62
     7
370
    15
100
AcDbLine
 10
499.759085473
 20
255.5218907461
 30
0.0
 11
499.8152777518
 21
255.7652322963
 31
0.0
  0
LINE
  5
1C5
330
1F
100
AcDbEntity
  8
0
  6
Continuous
 62
     7
370
    15
100
AcDbLine
 10
476.0876223411
 20
255.4339105651
 30
0.0
 11
476.1505797471
 21
255.192232357
 31
0.0
  0
LINE
  5
1C6
330
1F
100
AcDbEntity
  8
0
  6
Continuous
 62
     7
370
    15
100
AcDbLine
 10
470.3765884008
 20
270.0341651604
 30
0.0
 11
470.3765884008
 21
270.2467609585
 31
0.0
  0
ARC
  5
1C7
330
1F
100
AcDbEntity
  8
0
  6
Continuous
 62
     7
370
    15
100
AcDbCircle
 10
470.3765917435
 20
269.409165256
 30
0.0
 40
1.02500000000008
100
AcDbArc
 50
18.2
 51
90.0
  0
ARC
  5
1C8
330
1F
100
AcDbEntity
  8
0
  6
Continuous
 62
     7
370
    15
100
AcDbCircle
 10
470.3765917435
 20
269.409165256
 30
0.0
 40
0.6250000000000542
100
AcDbArc
 50
18.2
 51
90.0
  0
LINE
  5
1C9
330
1F
100
AcDbEntity
  8
0
  6
Continuous
 62
     7
370
    15
100
AcDbLine
 10
470.9703251685
 20
269.6043746934
 30
0.0
 11
471.3503196801
 21
269.7293088228
 31
0.0
  0
LINE
  5
1CA
330
1F
100
AcDbEntity
  8
0
  6
Continuous
 62
     7
370
    15
100
AcDbLine
 10
476.1117473211
 20
255.2473275379
 30
0.0
 11
471.3503196801
 21
269.7293088228
 31
0.0
  0
LINE
  5
1CB
330
1F
100
AcDbEntity
  8
0
  6
Continuous
 62
     7
370
    15
100
AcDbLine
 10
476.1117473211
 20
255.2473275379
 30
0.0
 11
475.7317528095
 21
255.1223943398
 31
0.0
  0
LINE
  5
1CC
330
1F
100
AcDbEntity
  8
0
  6
Continuous
 62
     7
370
    15
100
AcDbLine
 10
475.7317528095
 20
255.1223943398
 30
0.0
 11
470.9703251685
 21
269.6043746934
 31
0.0
  0
SPLINE
  5
1CD
330
1F
100
AcDbEntity
  8
0
  6
Continuous
 62
     7
370
    15
100
AcDbSpline
210
0.0
220
0.0
230
1.0
 70
     8
 71
     3
 72
    11
 73
     7
 74
     0
 42
0.00000001
 43
0.00000001
 40
0.0
 40
0.0
 40
0.0
 40
0.0
 40
0.2499964201154268
 40
0.4999994247340417
 40
0.7500015225240113
 40
1.0
 40
1.0
 40
1.0
 40
1.0
 10
476.7197892035707
 20
254.4176383331945
 30
0.0
 10
476.611336794087
 20
254.4260753272054
 30
0.0
 10
476.3944291186576
 20
254.4429495374442
 30
0.0
 10
476.1013750891878
 20
254.5956167588931
 30
0.0
 10
475.8616145935262
 20
254.8229995732899
 30
0.0
 10
475.7750398618582
 20
255.0225965660273
 30
0.0
 10
475.7317528094515
 20
255.122394339793
 30
0.0
  0
LINE
  5
1CE
330
1F
100
AcDbEntity
  8
0
  6
Continuous
 62
     7
370
    15
100
AcDbLine
 10
499.7963681783
 20
255.5780494974
 30
0.0
 11
500.1796856488
 21
255.4637743548
 31
0.0
  0
SPLINE
  5
1CF
330
1F
100
AcDbEntity
  8
0
  6
Continuous
 62
     7
370
    15
100
AcDbSpline
210
0.0
220
0.0
230
1.0
 70
     8
 71
     3
 72
    11
 73
     7
 74
     0
 42
0.00000001
 43
0.00000001
 40
0.0
 40
0.0
 40
0.0
 40
0.0
 40
0.2499963919173037
 40
0.5000005184299391
 40
0.7499976442256018
 40
1.0
 40
1.0
 40
1.0
 40
1.0
 10
500.1796856488451
 20
255.4637743548086
 30
0.0
 10
500.1392060052958
 20
255.3628063770241
 30
0.0
 10
500.0582454658047
 20
255.1608672976244
 30
0.0
 10
499.8249208554583
 20
254.9268868594741
 30
0.0
 10
499.5362536528176
 20
254.7660873322199
 30
0.0
 10
499.3198993845281
 20
254.7431655371549
 30
0.0
 10
499.2117211188539
 20
254.7317045197418
 30
0.0
  0
LINE
  5
1D0
330
1F
100
AcDbEntity
  8
0
  6
Continuous
 62
     7
370
    15
100
AcDbLine
 10
499.7963681783
 20
255.5780494974
 30
0.0
 11
504.2808279361
 21
270.6208993137
 31
0.0
  0
LINE
  5
1D1
330
1F
100
AcDbEntity
  8
0
  6
Continuous
 62
     7
370
    15
100
AcDbLine
 10
504.6641603078
 20
270.5066232399
 30
0.0
 11
504.2808279361
 21
270.6208993137
 31
0.0
  0
LINE
  5
1D2
330
1F
100
AcDbEntity
  8
0
  6
Continuous
 62
     7
370
    15
100
AcDbLine
 10
500.1796856488
 20
255.4637743548
 30
0.0
 11
504.6641603078
 21
270.5066232399
 31
0.0
  0
ARC
  5
1D3
330
1F
100
AcDbEntity
  8
0
  6
Continuous
 62
     7
370
    15
100
AcDbCircle
 10
470.3793841796
 20
269.2091847512
 30
0.0
 40
1.274999999999997
100
AcDbArc
 50
18.2
 51
87.7525303819
  0
LINE
  5
1D4
330
1F
100
AcDbEntity
  8
0
  6
Continuous
 62
     7
370
    15
100
AcDbLine
 10
470.4293832149
 20
270.4832042024
 30
0.0
 11
470.4146161641
 21
276.528585741
 31
0.0
  0
LINE
  5
1D5
330
1F
100
AcDbEntity
  8
0
  6
Continuous
 62
     7
370
    15
100
AcDbLine
 10
470.4146161641
 20
276.528585741
 30
0.0
 11
470.4162552919
 21
276.5282979623
 31
0.0
  0
LINE
  5
1D6
330
1F
100
AcDbEntity
  8
0
  6
Continuous
 62
     7
370
    15
100
AcDbLine
 10
497.2725883092
 20
271.843858102
 30
0.0
 11
504.2546167936
 21
270.6260122747
 31
0.0
  0
LINE
  5
1D7
330
1F
100
AcDbEntity
  8
0
  6
Continuous
 62
     7
370
    15
100
AcDbLine
 10
504.2546167936
 20
270.6260122747
 30
0.0
 11
499.8564049567
 21
255.8289124087
 31
0.0
  0
LINE
  5
1D8
330
1F
100
AcDbEntity
  8
0
  6
Continuous
 62
     7
370
    15
100
AcDbLine
 10
499.8564049567
 20
255.8289124087
 30
0.0
 11
499.8341575231
 21
255.828601347
 31
0.0
  0
LINE
  5
1D9
330
1F
100
AcDbEntity
  8
0
  6
Continuous
 62
     7
370
    15
100
AcDbLine
 10
475.1185700263
 20
308.9147610978
 30
0.0
 11
475.1185700263
 21
306.6647602633
 31
0.0
  0
LINE
  5
1DA
330
1F
100
AcDbEntity
  8
0
  6
Continuous
 62
     7
370
    15
100
AcDbLine
 10
500.6185695495
 20
312.6647593841
 30
0.0
 11
496.6185614433
 21
312.6647593841
 31
0.0
  0
ARC
  5
1DB
330
1F
100
AcDbEntity
  8
0
  6
Continuous
 62
     7
370
    15
100
AcDbCircle
 10
470.3685680021
 20
319.6591661345
 30
0.0
 40
1.125
100
AcDbArc
 50
360.0
 51
139.0739366904
  0
LINE
  5
1DC
330
1F
100
AcDbEntity
  8
0
  6
Continuous
 62
     7
370
    15
100
AcDbLine
 10
455.2185684408
 20
476.7841669187
 30
0.0
 11
457.7185660567
 21
476.7841669187
 31
0.0
  0
LINE
  5
1DD
330
1F
100
AcDbEntity
  8
0
  6
Continuous
 62
     7
370
    15
100
AcDbLine
 10
456.7173644866
 20
477.4306239948
 30
0.0
 11
456.7173644866
 21
476.7841669187
 31
0.0
  0
LINE
  5
1DE
330
1F
100
AcDbEntity
  8
0
  6
Continuous
 62
     7
370
    15
100
AcDbLine
 10
457.7185660567
 20
477.4306239948
 30
0.0
 11
456.7173644866
 21
477.4306239948
 31
0.0
  0
LINE
  5
1DF
330
1F
100
AcDbEntity
  8
0
  6
Continuous
 62
     7
370
    15
100
AcDbLine
 10
456.7173644866
 20
478.1841608152
 30
0.0
 11
456.7173644866
 21
477.4341704712
 31
0.0
  0
LINE
  5
1E0
330
1F
100
AcDbEntity
  8
0
  6
Continuous
 62
     7
370
    15
100
AcDbLine
 10
457.7185660567
 20
477.4341704712
 30
0.0
 11
456.7173644866
 21
477.4341704712
 31
0.0
  0
LINE
  5
1E1
330
1F
100
AcDbEntity
  8
0
  6
Continuous
 62
     7
370
    15
100
AcDbLine
 10
457.7185660567
 20
478.1841608152
 30
0.0
 11
456.7173644866
 21
478.1841608152
 31
0.0
  0
LINE
  5
1E2
330
1F
100
AcDbEntity
  8
0
  6
Continuous
 62
     7
370
    15
100
AcDbLine
 10
475.9548529948
 20
255.7841660843
 30
0.0
 11
475.9352430667
 21
255.7841660843
 31
0.0
  0
LINE
  5
1E3
330
1F
100
AcDbEntity
  8
0
  6
Continuous
 62
     7
370
    15
100
AcDbLine
 10
475.5141809549
 20
255.7841660843
 30
0.0
 11
469.7760865058
 21
255.7841660843
 31
0.0
  0
LINE
  5
1E4
330
1F
100
AcDbEntity
  8
0
  6
Continuous
 62
     7
370
    15
100
AcDbLine
 10
469.7760865058
 20
255.7841660843
 30
0.0
 11
469.7760865058
 21
256.8091648087
 31
0.0
  0
LINE
  5
1E5
330
1F
100
AcDbEntity
  8
0
  6
Continuous
 62
     7
370
    15
100
AcDbLine
 10
469.7760865058
 20
256.8091648087
 30
0.0
 11
470.4010859098
 21
256.8091648087
 31
0.0
  0
LINE
  5
1E6
330
1F
100
AcDbEntity
  8
0
  6
Continuous
 62
     7
370
    15
100
AcDbLine
 10
469.7760865058
 20
256.8091648087
 30
0.0
 11
469.5185646381
 21
256.8091648087
 31
0.0
  0
LINE
  5
1E7
330
1F
100
AcDbEntity
  8
0
  6
Continuous
 62
     7
370
    15
100
AcDbLine
 10
469.5185646381
 20
396.7591645584
 30
0.0
 11
469.7760865058
 21
396.7591645584
 31
0.0
  0
LINE
  5
1E8
330
1F
100
AcDbEntity
  8
0
  6
Continuous
 62
     7
370
    15
100
AcDbLine
 10
469.7760865058
 20
396.7591645584
 30
0.0
 11
469.7760865058
 21
397.7841632829
 31
0.0
  0
LINE
  5
1E9
330
1F
100
AcDbEntity
  8
0
  6
Continuous
 62
     7
370
    15
100
AcDbLine
 10
496.3510855998
 20
397.7841632829
 30
0.0
 11
496.3510855998
 21
396.7591645584
 31
0.0
  0
LINE
  5
1EA
330
1F
100
AcDbEntity
  8
0
  6
Continuous
 62
     7
370
    15
100
AcDbLine
 10
469.7760865058
 20
396.7591645584
 30
0.0
 11
470.4010859098
 21
396.7591645584
 31
0.0
  0
LINE
  5
1EB
330
1F
100
AcDbEntity
  8
0
  6
Continuous
 62
     7
370
    15
100
AcDbLine
 10
497.3760917749
 20
396.7591645584
 30
0.0
 11
497.3760917749
 21
312.6647593841
 31
0.0
  0
LINE
  5
1EC
330
1F
100
AcDbEntity
  8
0
  6
Continuous
 62
     7
370
    15
100
AcDbLine
 10
497.3760917749
 20
286.0647603326
 30
0.0
 11
497.3760917749
 21
271.8258062766
 31
0.0
  0
LINE
  5
1ED
330
1F
100
AcDbEntity
  8
0
  6
Continuous
 62
     7
370
    15
100
AcDbLine
 10
497.3760917749
 20
396.7591645584
 30
0.0
 11
496.3510855998
 21
396.7591645584
 31
0.0
  0
SPLINE
  5
1EE
330
1F
100
AcDbEntity
  8
0
  6
Continuous
 62
     7
370
    15
100
AcDbSpline
210
0.0
220
0.0
230
1.0
 70
     8
 71
     3
 72
    12
 73
     8
 74
     0
 42
0.00000001
 43
0.00000001
 40
0.0
 40
0.0
 40
0.0
 40
0.0
 40
0.2303413219365205
 40
0.4607639812392878
 40
0.6911898096243595
 40
0.9216199266243341
 40
1.0
 40
1.0
 40
1.0
 40
1.0
 10
497.3760917748674
 20
396.7591645584038
 30
0.0
 10
497.3630306064282
 20
396.8827968090285
 30
0.0
 10
497.3369036574329
 20
397.1301049668897
 30
0.0
 10
497.1342568612521
 20
397.4533311291406
 30
0.0
 10
496.8398686795805
 20
397.6853005997712
 30
0.0
 10
496.5579359754853
 20
397.7763618719445
 30
0.0
 10
496.392958934824
 20
397.7825840201153
 30
0.0
 10
496.3510855998262
 20
397.7841632828644
 30
0.0
  0
SPLINE
  5
1EF
330
1F
100
AcDbEntity
  8
0
  6
Continuous
 62
     7
370
    15
100
AcDbSpline
210
0.0
220
0.0
230
1.0
 70
     8
 71
     3
 72
    11
 73
     7
 74
     0
 42
0.00000001
 43
0.00000001
 40
0.0
 40
0.0
 40
0.0
 40
0.0
 40
0.254715567738895
 40
0.5096080932369993
 40
0.7645071050029146
 40
1.0
 40
1.0
 40
1.0
 40
1.0
 10
496.9760850037798
 20
396.7591645584038
 30
0.0
 10
496.966321662771
 20
396.8426183516199
 30
0.0
 10
496.9467881978977
 20
397.0095839156481
 30
0.0
 10
496.7968310552318
 20
397.2187711436318
 30
0.0
 10
496.5887260891606
 20
397.3584274532446
 30
0.0
 10
496.4281813685573
 20
397.375814476291
 30
0.0
 10
496.3510855998262
 20
397.3841639623573
 30
0.0
  0
LINE
  5
1F0
330
1F
100
AcDbEntity
  8
0
  6
Continuous
 62
     7
370
    15
100
AcDbLine
 10
233.1185713376
 20
255.1841652409
 30
0.0
 11
233.1185713376
 21
255.3341659174
 31
0.0
  0
LINE
  5
1F1
330
1F
100
AcDbEntity
  8
0
  6
Continuous
 62
     7
370
    15
100
AcDbLine
 10
230.6185662712
 20
255.1841652409
 30
0.0
 11
233.1185713376
 21
255.1841652409
 31
0.0
  0
LINE
  5
1F2
330
1F
100
AcDbEntity
  8
0
  6
Continuous
 62
     7
370
    15
100
AcDbLine
 10
219.143569466
 20
255.1841652409
 30
0.0
 11
230.6185662712
 21
255.1841652409
 31
0.0
  0
ARC
  5
1F3
330
1F
100
AcDbEntity
  8
0
  6
Continuous
 62
     7
370
    15
100
AcDbCircle
 10
219.1435680021
 20
256.209165256
 30
0.0
 40
1.025000000000007
100
AcDbArc
 50
238.6118501718
 51
270.0
  0
LINE
  5
1F4
330
1F
100
AcDbEntity
  8
0
  6
Continuous
 62
     7
370
    15
100
AcDbLine
 10
218.5185626115
 20
492.0557262764
 30
0.0
 11
218.5185626115
 21
492.1591701374
 31
0.0
  0
ARC
  5
1F5
330
1F
100
AcDbEntity
  8
0
  6
Continuous
 62
     7
370
    15
100
AcDbCircle
 10
219.1435680021
 20
492.159165256
 30
0.0
 40
0.6250000000000341
100
AcDbArc
 50
143.1301023538
 51
180.0
  0
ARC
  5
1F6
330
1F
100
AcDbEntity
  8
0
  6
Continuous
 62
     7
370
    15
100
AcDbCircle
 10
219.1435680021
 20
492.159165256
 30
0.0
 40
1.025000000000035
100
AcDbArc
 50
90.0
 51
130.8786351463
  0
LINE
  5
1F7
330
1F
100
AcDbEntity
  8
0
  6
Continuous
 62
     7
370
    15
100
AcDbLine
 10
218.1896343793
 20
492.5341578588
 30
0.0
 11
218.146435913
 21
492.3965456352
 31
0.0
  0
ARC
  5
1F8
330
1F
100
AcDbEntity
  8
0
  6
Continuous
 62
     7
370
    15
100
AcDbCircle
 10
227.0935680021
 20
492.159165256
 30
0.0
 40
1.024999999999987
100
AcDbArc
 50
49.1213648537
 51
90.0
  0
LINE
  5
1F9
330
1F
100
AcDbEntity
  8
0
  6
Continuous
 62
     7
370
    15
100
AcDbLine
 10
227.093569931
 20
493.1841614113
 30
0.0
 11
219.143569466
 21
493.1841614113
 31
0.0
  0
LINE
  5
1FA
330
1F
100
AcDbEntity
  8
0
  6
Continuous
 62
     7
370
    15
100
AcDbLine
 10
254.6185702051
 20
481.534165369
 30
0.0
 11
254.6185702051
 21
462.6841666565
 31
0.0
  0
LINE
  5
1FB
330
1F
100
AcDbEntity
  8
0
  6
Continuous
 62
     7
370
    15
100
AcDbLine
 10
218.1185707416
 20
492.5341578588
 30
0.0
 11
218.1185707416
 21
492.1591701374
 31
0.0
  0
LINE
  5
1FC
330
1F
100
AcDbEntity
  8
0
  6
Continuous
 62
     7
370
    15
100
AcDbLine
 10
468.5185700621
 20
255.3341659174
 30
0.0
 11
468.5185700621
 21
255.3377012179
 31
0.0
  0
LINE
  5
1FD
330
1F
100
AcDbEntity
  8
0
  6
Continuous
 62
     7
370
    15
100
AcDbLine
 10
233.8685691323
 20
255.9591653213
 30
0.0
 11
234.1185659136
 21
255.9591653213
 31
0.0
  0
LINE
  5
1FE
330
1F
100
AcDbEntity
  8
0
  6
Continuous
 62
     7
370
    15
100
AcDbLine
 10
233.8685691323
 20
255.3341659174
 30
0.0
 11
233.8685691323
 21
255.9591653213
 31
0.0
  0
LINE
  5
1FF
330
1F
100
AcDbEntity
  8
0
  6
Continuous
 62
     7
370
    15
100
AcDbLine
 10
218.7435701455
 20
255.3341659174
 30
0.0
 11
233.8685691323
 21
255.3341659174
 31
0.0
  0
LINE
  5
200
330
1F
100
AcDbEntity
  8
0
  6
Continuous
 62
     7
370
    15
100
AcDbLine
 10
218.7685668434
 20
491.9091584549
 30
0.0
 11
218.7435701455
 21
491.9091584549
 31
0.0
  0
LINE
  5
201
330
1F
100
AcDbEntity
  8
0
  6
Continuous
 62
     7
370
    15
100
AcDbLine
 10
457.7185660567
 20
490.6841637955
 30
0.0
 11
455.2185684408
 21
490.6841637955
 31
0.0
  0
LINE
  5
202
330
1F
100
AcDbEntity
  8
0
  6
Continuous
 62
     7
370
    15
100
AcDbLine
 10
455.2185684408
 20
490.6841637955
 30
0.0
 11
455.2185684408
 21
462.6841666565
 31
0.0
  0
LINE
  5
203
330
1F
100
AcDbEntity
  8
0
  6
Continuous
 62
     7
370
    15
100
AcDbLine
 10
455.2185684408
 20
462.6841666565
 30
0.0
 11
457.7185660567
 21
462.6841666565
 31
0.0
  0
LINE
  5
204
330
1F
100
AcDbEntity
  8
0
  6
Continuous
 62
     7
370
    15
100
AcDbLine
 10
457.7185660567
 20
462.6841666565
 30
0.0
 11
457.7185660567
 21
490.6841637955
 31
0.0
  0
LINE
  5
205
330
1F
100
AcDbEntity
  8
0
  6
Continuous
 62
     7
370
    15
100
AcDbLine
 10
442.7185654606
 20
490.6841637955
 30
0.0
 11
440.2185678448
 21
490.6841637955
 31
0.0
  0
LINE
  5
206
330
1F
100
AcDbEntity
  8
0
  6
Continuous
 62
     7
370
    15
100
AcDbLine
 10
440.2185678448
 20
490.6841637955
 30
0.0
 11
440.2185678448
 21
462.6841666565
 31
0.0
  0
LINE
  5
207
330
1F
100
AcDbEntity
  8
0
  6
Continuous
 62
     7
370
    15
100
AcDbLine
 10
440.2185678448
 20
462.6841666565
 30
0.0
 11
442.7185654606
 21
462.6841666565
 31
0.0
  0
LINE
  5
208
330
1F
100
AcDbEntity
  8
0
  6
Continuous
 62
     7
370
    15
100
AcDbLine
 10
442.7185654606
 20
462.6841666565
 30
0.0
 11
442.7185654606
 21
490.6841637955
 31
0.0
  0
LINE
  5
209
330
1F
100
AcDbEntity
  8
0
  6
Continuous
 62
     7
370
    15
100
AcDbLine
 10
427.7185648646
 20
490.6841637955
 30
0.0
 11
425.2185672487
 21
490.6841637955
 31
0.0
  0
LINE
  5
20A
330
1F
100
AcDbEntity
  8
0
  6
Continuous
 62
     7
370
    15
100
AcDbLine
 10
425.2185672487
 20
490.6841637955
 30
0.0
 11
425.2185672487
 21
462.6841666565
 31
0.0
  0
LINE
  5
20B
330
1F
100
AcDbEntity
  8
0
  6
Continuous
 62
     7
370
    15
100
AcDbLine
 10
425.2185672487
 20
462.6841666565
 30
0.0
 11
427.7185648646
 21
462.6841666565
 31
0.0
  0
LINE
  5
20C
330
1F
100
AcDbEntity
  8
0
  6
Continuous
 62
     7
370
    15
100
AcDbLine
 10
427.7185648646
 20
462.6841666565
 30
0.0
 11
427.7185648646
 21
490.6841637955
 31
0.0
  0
LINE
  5
20D
330
1F
100
AcDbEntity
  8
0
  6
Continuous
 62
     7
370
    15
100
AcDbLine
 10
412.7185717191
 20
490.6841637955
 30
0.0
 11
410.2185666527
 21
490.6841637955
 31
0.0
  0
LINE
  5
20E
330
1F
100
AcDbEntity
  8
0
  6
Continuous
 62
     7
370
    15
100
AcDbLine
 10
410.2185666527
 20
490.6841637955
 30
0.0
 11
410.2185666527
 21
462.6841666565
 31
0.0
  0
LINE
  5
20F
330
1F
100
AcDbEntity
  8
0
  6
Continuous
 62
     7
370
    15
100
AcDbLine
 10
410.2185666527
 20
462.6841666565
 30
0.0
 11
412.7185717191
 21
462.6841666565
 31
0.0
  0
LINE
  5
210
330
1F
100
AcDbEntity
  8
0
  6
Continuous
 62
     7
370
    15
100
AcDbLine
 10
412.7185717191
 20
462.6841666565
 30
0.0
 11
412.7185717191
 21
490.6841637955
 31
0.0
  0
LINE
  5
211
330
1F
100
AcDbEntity
  8
0
  6
Continuous
 62
     7
370
    15
100
AcDbLine
 10
397.7185673978
 20
490.6841637955
 30
0.0
 11
395.2185697819
 21
490.6841637955
 31
0.0
  0
LINE
  5
212
330
1F
100
AcDbEntity
  8
0
  6
Continuous
 62
     7
370
    15
100
AcDbLine
 10
395.2185697819
 20
490.6841637955
 30
0.0
 11
395.2185697819
 21
462.6841666565
 31
0.0
  0
LINE
  5
213
330
1F
100
AcDbEntity
  8
0
  6
Continuous
 62
     7
370
    15
100
AcDbLine
 10
395.2185697819
 20
462.6841666565
 30
0.0
 11
397.7185673978
 21
462.6841666565
 31
0.0
  0
LINE
  5
214
330
1F
100
AcDbEntity
  8
0
  6
Continuous
 62
     7
370
    15
100
AcDbLine
 10
397.7185673978
 20
462.6841666565
 30
0.0
 11
397.7185673978
 21
490.6841637955
 31
0.0
  0
LINE
  5
215
330
1F
100
AcDbEntity
  8
0
  6
Continuous
 62
     7
370
    15
100
AcDbLine
 10
382.7185668017
 20
490.6841637955
 30
0.0
 11
380.2185691859
 21
490.6841637955
 31
0.0
  0
LINE
  5
216
330
1F
100
AcDbEntity
  8
0
  6
Continuous
 62
     7
370
    15
100
AcDbLine
 10
380.2185691859
 20
490.6841637955
 30
0.0
 11
380.2185691859
 21
462.6841666565
 31
0.0
  0
LINE
  5
217
330
1F
100
AcDbEntity
  8
0
  6
Continuous
 62
     7
370
    15
100
AcDbLine
 10
380.2185691859
 20
462.6841666565
 30
0.0
 11
382.7185668017
 21
462.6841666565
 31
0.0
  0
LINE
  5
218
330
1F
100
AcDbEntity
  8
0
  6
Continuous
 62
     7
370
    15
100
AcDbLine
 10
382.7185668017
 20
462.6841666565
 30
0.0
 11
382.7185668017
 21
490.6841637955
 31
0.0
  0
LINE
  5
219
330
1F
100
AcDbEntity
  8
0
  6
Continuous
 62
     7
370
    15
100
AcDbLine
 10
367.7185680683
 20
490.6841637955
 30
0.0
 11
365.2185685899
 21
490.6841637955
 31
0.0
  0
LINE
  5
21A
330
1F
100
AcDbEntity
  8
0
  6
Continuous
 62
     7
370
    15
100
AcDbLine
 10
365.2185685899
 20
490.6841637955
 30
0.0
 11
365.2185685899
 21
462.6841666565
 31
0.0
  0
LINE
  5
21B
330
1F
100
AcDbEntity
  8
0
  6
Continuous
 62
     7
370
    15
100
AcDbLine
 10
365.2185685899
 20
462.6841666565
 30
0.0
 11
367.7185680683
 21
462.6841666565
 31
0.0
  0
LINE
  5
21C
330
1F
100
AcDbEntity
  8
0
  6
Continuous
 62
     7
370
    15
100
AcDbLine
 10
367.7185680683
 20
462.6841666565
 30
0.0
 11
367.7185680683
 21
490.6841637955
 31
0.0
  0
LINE
  5
21D
330
1F
100
AcDbEntity
  8
0
  6
Continuous
 62
     7
370
    15
100
AcDbLine
 10
352.7185684036
 20
490.6841637955
 30
0.0
 11
350.2185679938
 21
490.6841637955
 31
0.0
  0
LINE
  5
21E
330
1F
100
AcDbEntity
  8
0
  6
Continuous
 62
     7
370
    15
100
AcDbLine
 10
350.2185679938
 20
490.6841637955
 30
0.0
 11
350.2185679938
 21
462.6841666565
 31
0.0
  0
LINE
  5
21F
330
1F
100
AcDbEntity
  8
0
  6
Continuous
 62
     7
370
    15
100
AcDbLine
 10
350.2185679938
 20
462.6841666565
 30
0.0
 11
352.7185684036
 21
462.6841666565
 31
0.0
  0
LINE
  5
220
330
1F
100
AcDbEntity
  8
0
  6
Continuous
 62
     7
370
    15
100
AcDbLine
 10
352.7185684036
 20
462.6841666565
 30
0.0
 11
352.7185684036
 21
490.6841637955
 31
0.0
  0
ARC
  5
221
330
1F
100
AcDbEntity
  8
0
  6
Continuous
 62
     7
370
    15
100
AcDbCircle
 10
336.4685680021
 20
487.684165256
 30
0.0
 40
2.824041396354462
100
AcDbArc
 50
296.2716831085
 51
243.7283168915
  0
LINE
  5
222
330
1F
100
AcDbEntity
  8
0
  6
Continuous
 62
     7
370
    15
100
AcDbLine
 10
335.2185683291
 20
485.1518394813
 30
0.0
 11
335.2185683291
 21
462.6841666565
 31
0.0
  0
LINE
  5
223
330
1F
100
AcDbEntity
  8
0
  6
Continuous
 62
     7
370
    15
100
AcDbLine
 10
335.2185683291
 20
462.6841666565
 30
0.0
 11
337.7185678075
 21
462.6841666565
 31
0.0
  0
LINE
  5
224
330
1F
100
AcDbEntity
  8
0
  6
Continuous
 62
     7
370
    15
100
AcDbLine
 10
337.7185678075
 20
462.6841666565
 30
0.0
 11
337.7185678075
 21
485.1518394813
 31
0.0
  0
LINE
  5
225
330
1F
100
AcDbEntity
  8
0
  6
Continuous
 62
     7
370
    15
100
AcDbLine
 10
322.7185681428
 20
490.6841637955
 30
0.0
 11
320.2185686644
 21
490.6841637955
 31
0.0
  0
LINE
  5
226
330
1F
100
AcDbEntity
  8
0
  6
Continuous
 62
     7
370
    15
100
AcDbLine
 10
320.2185686644
 20
490.6841637955
 30
0.0
 11
320.2185686644
 21
462.6841666565
 31
0.0
  0
LINE
  5
227
330
1F
100
AcDbEntity
  8
0
  6
Continuous
 62
     7
370
    15
100
AcDbLine
 10
320.2185686644
 20
462.6841666565
 30
0.0
 11
322.7185681428
 21
462.6841666565
 31
0.0
  0
LINE
  5
228
330
1F
100
AcDbEntity
  8
0
  6
Continuous
 62
     7
370
    15
100
AcDbLine
 10
322.7185681428
 20
462.6841666565
 30
0.0
 11
322.7185681428
 21
490.6841637955
 31
0.0
  0
LINE
  5
229
330
1F
100
AcDbEntity
  8
0
  6
Continuous
 62
     7
370
    15
100
AcDbLine
 10
307.7185675468
 20
490.6841637955
 30
0.0
 11
305.2185662057
 21
490.6841637955
 31
0.0
  0
LINE
  5
22A
330
1F
100
AcDbEntity
  8
0
  6
Continuous
 62
     7
370
    15
100
AcDbLine
 10
305.2185662057
 20
490.6841637955
 30
0.0
 11
305.2185662057
 21
462.6841666565
 31
0.0
  0
LINE
  5
22B
330
1F
100
AcDbEntity
  8
0
  6
Continuous
 62
     7
370
    15
100
AcDbLine
 10
305.2185662057
 20
462.6841666565
 30
0.0
 11
307.7185675468
 21
462.6841666565
 31
0.0
  0
LINE
  5
22C
330
1F
100
AcDbEntity
  8
0
  6
Continuous
 62
     7
370
    15
100
AcDbLine
 10
307.7185675468
 20
462.6841666565
 30
0.0
 11
307.7185675468
 21
490.6841637955
 31
0.0
  0
LINE
  5
22D
330
1F
100
AcDbEntity
  8
0
  6
Continuous
 62
     7
370
    15
100
AcDbLine
 10
292.7185669507
 20
490.6841637955
 30
0.0
 11
290.2185693349
 21
490.6841637955
 31
0.0
  0
LINE
  5
22E
330
1F
100
AcDbEntity
  8
0
  6
Continuous
 62
     7
370
    15
100
AcDbLine
 10
290.2185693349
 20
490.6841637955
 30
0.0
 11
290.2185693349
 21
462.6841666565
 31
0.0
  0
LINE
  5
22F
330
1F
100
AcDbEntity
  8
0
  6
Continuous
 62
     7
370
    15
100
AcDbLine
 10
290.2185693349
 20
462.6841666565
 30
0.0
 11
292.7185669507
 21
462.6841666565
 31
0.0
  0
LINE
  5
230
330
1F
100
AcDbEntity
  8
0
  6
Continuous
 62
     7
370
    15
100
AcDbLine
 10
292.7185669507
 20
462.6841666565
 30
0.0
 11
292.7185669507
 21
490.6841637955
 31
0.0
  0
LINE
  5
231
330
1F
100
AcDbEntity
  8
0
  6
Continuous
 62
     7
370
    15
100
AcDbLine
 10
277.7185663547
 20
490.6841637955
 30
0.0
 11
275.2185687389
 21
490.6841637955
 31
0.0
  0
LINE
  5
232
330
1F
100
AcDbEntity
  8
0
  6
Continuous
 62
     7
370
    15
100
AcDbLine
 10
275.2185687389
 20
490.6841637955
 30
0.0
 11
275.2185687389
 21
462.6841666565
 31
0.0
  0
LINE
  5
233
330
1F
100
AcDbEntity
  8
0
  6
Continuous
 62
     7
370
    15
100
AcDbLine
 10
275.2185687389
 20
462.6841666565
 30
0.0
 11
277.7185663547
 21
462.6841666565
 31
0.0
  0
LINE
  5
234
330
1F
100
AcDbEntity
  8
0
  6
Continuous
 62
     7
370
    15
100
AcDbLine
 10
277.7185663547
 20
462.6841666565
 30
0.0
 11
277.7185663547
 21
490.6841637955
 31
0.0
  0
LINE
  5
235
330
1F
100
AcDbEntity
  8
0
  6
Continuous
 62
     7
370
    15
100
AcDbLine
 10
262.7185657586
 20
490.6841637955
 30
0.0
 11
260.2185681428
 21
490.6841637955
 31
0.0
  0
LINE
  5
236
330
1F
100
AcDbEntity
  8
0
  6
Continuous
 62
     7
370
    15
100
AcDbLine
 10
260.2185681428
 20
490.6841637955
 30
0.0
 11
260.2185681428
 21
462.6841666565
 31
0.0
  0
LINE
  5
237
330
1F
100
AcDbEntity
  8
0
  6
Continuous
 62
     7
370
    15
100
AcDbLine
 10
260.2185681428
 20
462.6841666565
 30
0.0
 11
262.7185657586
 21
462.6841666565
 31
0.0
  0
LINE
  5
238
330
1F
100
AcDbEntity
  8
0
  6
Continuous
 62
     7
370
    15
100
AcDbLine
 10
262.7185657586
 20
462.6841666565
 30
0.0
 11
262.7185657586
 21
490.6841637955
 31
0.0
  0
LINE
  5
239
330
1F
100
AcDbEntity
  8
0
  6
Continuous
 62
     7
370
    15
100
AcDbLine
 10
247.7185651626
 20
490.6841637955
 30
0.0
 11
245.2185675468
 21
490.6841637955
 31
0.0
  0
LINE
  5
23A
330
1F
100
AcDbEntity
  8
0
  6
Continuous
 62
     7
370
    15
100
AcDbLine
 10
245.2185675468
 20
490.6841637955
 30
0.0
 11
245.2185675468
 21
462.6841666565
 31
0.0
  0
LINE
  5
23B
330
1F
100
AcDbEntity
  8
0
  6
Continuous
 62
     7
370
    15
100
AcDbLine
 10
245.2185675468
 20
462.6841666565
 30
0.0
 11
247.7185651626
 21
462.6841666565
 31
0.0
  0
LINE
  5
23C
330
1F
100
AcDbEntity
  8
0
  6
Continuous
 62
     7
370
    15
100
AcDbLine
 10
247.7185651626
 20
462.6841666565
 30
0.0
 11
247.7185651626
 21
490.6841637955
 31
0.0
  0
LINE
  5
23D
330
1F
100
AcDbEntity
  8
0
  6
Continuous
 62
     7
370
    15
100
AcDbLine
 10
230.2185669507
 20
490.6841637955
 30
0.0
 11
230.2185669507
 21
462.6841666565
 31
0.0
  0
LINE
  5
23E
330
1F
100
AcDbEntity
  8
0
  6
Continuous
 62
     7
370
    15
100
AcDbLine
 10
230.2185669507
 20
462.6841666565
 30
0.0
 11
232.7185645665
 21
462.6841666565
 31
0.0
  0
LINE
  5
23F
330
1F
100
AcDbEntity
  8
0
  6
Continuous
 62
     7
370
    15
100
AcDbLine
 10
232.7185645665
 20
462.6841666565
 30
0.0
 11
232.7185645665
 21
490.6841637955
 31
0.0
  0
LINE
  5
240
330
1F
100
AcDbEntity
  8
0
  6
Continuous
 62
     7
370
    15
100
AcDbLine
 10
232.7185645665
 20
490.6841637955
 30
0.0
 11
230.2185669507
 21
490.6841637955
 31
0.0
  0
ARC
  5
241
330
1F
100
AcDbEntity
  8
0
  6
Continuous
 62
     7
370
    15
100
AcDbCircle
 10
238.9685680021
 20
487.684165256
 30
0.0
 40
2.824041396354411
100
AcDbArc
 50
296.2716831085
 51
243.7283168916
  0
LINE
  5
242
330
1F
100
AcDbEntity
  8
0
  6
Continuous
 62
     7
370
    15
100
AcDbLine
 10
237.7185672487
 20
485.1518394813
 30
0.0
 11
237.7185672487
 21
462.6841666565
 31
0.0
  0
LINE
  5
243
330
1F
100
AcDbEntity
  8
0
  6
Continuous
 62
     7
370
    15
100
AcDbLine
 10
237.7185672487
 20
462.6841666565
 30
0.0
 11
240.2185648646
 21
462.6841666565
 31
0.0
  0
LINE
  5
244
330
1F
100
AcDbEntity
  8
0
  6
Continuous
 62
     7
370
    15
100
AcDbLine
 10
240.2185648646
 20
462.6841666565
 30
0.0
 11
240.2185648646
 21
485.1518394813
 31
0.0
  0
LINE
  5
245
330
1F
100
AcDbEntity
  8
0
  6
Continuous
 62
     7
370
    15
100
AcDbLine
 10
255.2185654606
 20
490.6841637955
 30
0.0
 11
252.7185678448
 21
490.6841637955
 31
0.0
  0
LINE
  5
246
330
1F
100
AcDbEntity
  8
0
  6
Continuous
 62
     7
370
    15
100
AcDbLine
 10
252.7185678448
 20
490.6841637955
 30
0.0
 11
252.7185678448
 21
462.6841666565
 31
0.0
  0
LINE
  5
247
330
1F
100
AcDbEntity
  8
0
  6
Continuous
 62
     7
370
    15
100
AcDbLine
 10
252.7185678448
 20
462.6841666565
 30
0.0
 11
255.2185654606
 21
462.6841666565
 31
0.0
  0
LINE
  5
248
330
1F
100
AcDbEntity
  8
0
  6
Continuous
 62
     7
370
    15
100
AcDbLine
 10
255.2185654606
 20
462.6841666565
 30
0.0
 11
255.2185654606
 21
490.6841637955
 31
0.0
  0
LINE
  5
249
330
1F
100
AcDbEntity
  8
0
  6
Continuous
 62
     7
370
    15
100
AcDbLine
 10
270.2185660567
 20
490.6841637955
 30
0.0
 11
267.7185684408
 21
490.6841637955
 31
0.0
  0
LINE
  5
24A
330
1F
100
AcDbEntity
  8
0
  6
Continuous
 62
     7
370
    15
100
AcDbLine
 10
267.7185684408
 20
490.6841637955
 30
0.0
 11
267.7185684408
 21
462.6841666565
 31
0.0
  0
LINE
  5
24B
330
1F
100
AcDbEntity
  8
0
  6
Continuous
 62
     7
370
    15
100
AcDbLine
 10
267.7185684408
 20
462.6841666565
 30
0.0
 11
270.2185660567
 21
462.6841666565
 31
0.0
  0
LINE
  5
24C
330
1F
100
AcDbEntity
  8
0
  6
Continuous
 62
     7
370
    15
100
AcDbLine
 10
270.2185660567
 20
462.6841666565
 30
0.0
 11
270.2185660567
 21
490.6841637955
 31
0.0
  0
LINE
  5
24D
330
1F
100
AcDbEntity
  8
0
  6
Continuous
 62
     7
370
    15
100
AcDbLine
 10
285.2185666527
 20
490.6841637955
 30
0.0
 11
282.7185690369
 21
490.6841637955
 31
0.0
  0
LINE
  5
24E
330
1F
100
AcDbEntity
  8
0
  6
Continuous
 62
     7
370
    15
100
AcDbLine
 10
282.7185690369
 20
490.6841637955
 30
0.0
 11
282.7185690369
 21
462.6841666565
 31
0.0
  0
LINE
  5
24F
330
1F
100
AcDbEntity
  8
0
  6
Continuous
 62
     7
370
    15
100
AcDbLine
 10
282.7185690369
 20
462.6841666565
 30
0.0
 11
285.2185666527
 21
462.6841666565
 31
0.0
  0
LINE
  5
250
330
1F
100
AcDbEntity
  8
0
  6
Continuous
 62
     7
370
    15
100
AcDbLine
 10
285.2185666527
 20
462.6841666565
 30
0.0
 11
285.2185666527
 21
490.6841637955
 31
0.0
  0
LINE
  5
251
330
1F
100
AcDbEntity
  8
0
  6
Continuous
 62
     7
370
    15
100
AcDbLine
 10
300.2185672487
 20
490.6841637955
 30
0.0
 11
297.7185696329
 21
490.6841637955
 31
0.0
  0
LINE
  5
252
330
1F
100
AcDbEntity
  8
0
  6
Continuous
 62
     7
370
    15
100
AcDbLine
 10
297.7185696329
 20
490.6841637955
 30
0.0
 11
297.7185696329
 21
462.6841666565
 31
0.0
  0
LINE
  5
253
330
1F
100
AcDbEntity
  8
0
  6
Continuous
 62
     7
370
    15
100
AcDbLine
 10
297.7185696329
 20
462.6841666565
 30
0.0
 11
300.2185672487
 21
462.6841666565
 31
0.0
  0
LINE
  5
254
330
1F
100
AcDbEntity
  8
0
  6
Continuous
 62
     7
370
    15
100
AcDbLine
 10
300.2185672487
 20
462.6841666565
 30
0.0
 11
300.2185672487
 21
490.6841637955
 31
0.0
  0
LINE
  5
255
330
1F
100
AcDbEntity
  8
0
  6
Continuous
 62
     7
370
    15
100
AcDbLine
 10
315.2185678448
 20
490.6841637955
 30
0.0
 11
312.7185683663
 21
490.6841637955
 31
0.0
  0
LINE
  5
256
330
1F
100
AcDbEntity
  8
0
  6
Continuous
 62
     7
370
    15
100
AcDbLine
 10
312.7185683663
 20
490.6841637955
 30
0.0
 11
312.7185683663
 21
462.6841666565
 31
0.0
  0
LINE
  5
257
330
1F
100
AcDbEntity
  8
0
  6
Continuous
 62
     7
370
    15
100
AcDbLine
 10
312.7185683663
 20
462.6841666565
 30
0.0
 11
315.2185678448
 21
462.6841666565
 31
0.0
  0
LINE
  5
258
330
1F
100
AcDbEntity
  8
0
  6
Continuous
 62
     7
370
    15
100
AcDbLine
 10
315.2185678448
 20
462.6841666565
 30
0.0
 11
315.2185678448
 21
490.6841637955
 31
0.0
  0
LINE
  5
259
330
1F
100
AcDbEntity
  8
0
  6
Continuous
 62
     7
370
    15
100
AcDbLine
 10
330.2185684408
 20
490.6841637955
 30
0.0
 11
327.7185670997
 21
490.6841637955
 31
0.0
  0
LINE
  5
25A
330
1F
100
AcDbEntity
  8
0
  6
Continuous
 62
     7
370
    15
100
AcDbLine
 10
327.7185670997
 20
490.6841637955
 30
0.0
 11
327.7185670997
 21
462.6841666565
 31
0.0
  0
LINE
  5
25B
330
1F
100
AcDbEntity
  8
0
  6
Continuous
 62
     7
370
    15
100
AcDbLine
 10
327.7185670997
 20
462.6841666565
 30
0.0
 11
330.2185684408
 21
462.6841666565
 31
0.0
  0
LINE
  5
25C
330
1F
100
AcDbEntity
  8
0
  6
Continuous
 62
     7
370
    15
100
AcDbLine
 10
330.2185684408
 20
462.6841666565
 30
0.0
 11
330.2185684408
 21
490.6841637955
 31
0.0
  0
LINE
  5
25D
330
1F
100
AcDbEntity
  8
0
  6
Continuous
 62
     7
370
    15
100
AcDbLine
 10
345.2185679891
 20
490.6841637955
 30
0.0
 11
342.7185679868
 21
490.6841637955
 31
0.0
  0
LINE
  5
25E
330
1F
100
AcDbEntity
  8
0
  6
Continuous
 62
     7
370
    15
100
AcDbLine
 10
342.7185679868
 20
490.6841637955
 30
0.0
 11
342.7185679868
 21
462.6841666565
 31
0.0
  0
LINE
  5
25F
330
1F
100
AcDbEntity
  8
0
  6
Continuous
 62
     7
370
    15
100
AcDbLine
 10
342.7185679868
 20
462.6841666565
 30
0.0
 11
345.2185679891
 21
462.6841666565
 31
0.0
  0
LINE
  5
260
330
1F
100
AcDbEntity
  8
0
  6
Continuous
 62
     7
370
    15
100
AcDbLine
 10
345.2185679891
 20
462.6841666565
 30
0.0
 11
345.2185679891
 21
490.6841637955
 31
0.0
  0
LINE
  5
261
330
1F
100
AcDbEntity
  8
0
  6
Continuous
 62
     7
370
    15
100
AcDbLine
 10
360.2185677703
 20
490.6841637955
 30
0.0
 11
357.7185682918
 21
490.6841637955
 31
0.0
  0
LINE
  5
262
330
1F
100
AcDbEntity
  8
0
  6
Continuous
 62
     7
370
    15
100
AcDbLine
 10
357.7185682918
 20
490.6841637955
 30
0.0
 11
357.7185682918
 21
462.6841666565
 31
0.0
  0
LINE
  5
263
330
1F
100
AcDbEntity
  8
0
  6
Continuous
 62
     7
370
    15
100
AcDbLine
 10
357.7185682918
 20
462.6841666565
 30
0.0
 11
360.2185677703
 21
462.6841666565
 31
0.0
  0
LINE
  5
264
330
1F
100
AcDbEntity
  8
0
  6
Continuous
 62
     7
370
    15
100
AcDbLine
 10
360.2185677703
 20
462.6841666565
 30
0.0
 11
360.2185677703
 21
490.6841637955
 31
0.0
  0
LINE
  5
265
330
1F
100
AcDbEntity
  8
0
  6
Continuous
 62
     7
370
    15
100
AcDbLine
 10
375.2185665037
 20
490.6841637955
 30
0.0
 11
372.7185688879
 21
490.6841637955
 31
0.0
  0
LINE
  5
266
330
1F
100
AcDbEntity
  8
0
  6
Continuous
 62
     7
370
    15
100
AcDbLine
 10
372.7185688879
 20
490.6841637955
 30
0.0
 11
372.7185688879
 21
462.6841666565
 31
0.0
  0
LINE
  5
267
330
1F
100
AcDbEntity
  8
0
  6
Continuous
 62
     7
370
    15
100
AcDbLine
 10
372.7185688879
 20
462.6841666565
 30
0.0
 11
375.2185665037
 21
462.6841666565
 31
0.0
  0
LINE
  5
268
330
1F
100
AcDbEntity
  8
0
  6
Continuous
 62
     7
370
    15
100
AcDbLine
 10
375.2185665037
 20
462.6841666565
 30
0.0
 11
375.2185665037
 21
490.6841637955
 31
0.0
  0
LINE
  5
269
330
1F
100
AcDbEntity
  8
0
  6
Continuous
 62
     7
370
    15
100
AcDbLine
 10
390.2185670997
 20
490.6841637955
 30
0.0
 11
387.7185694839
 21
490.6841637955
 31
0.0
  0
LINE
  5
26A
330
1F
100
AcDbEntity
  8
0
  6
Continuous
 62
     7
370
    15
100
AcDbLine
 10
387.7185694839
 20
490.6841637955
 30
0.0
 11
387.7185694839
 21
462.6841666565
 31
0.0
  0
LINE
  5
26B
330
1F
100
AcDbEntity
  8
0
  6
Continuous
 62
     7
370
    15
100
AcDbLine
 10
387.7185694839
 20
462.6841666565
 30
0.0
 11
390.2185670997
 21
462.6841666565
 31
0.0
  0
LINE
  5
26C
330
1F
100
AcDbEntity
  8
0
  6
Continuous
 62
     7
370
    15
100
AcDbLine
 10
390.2185670997
 20
462.6841666565
 30
0.0
 11
390.2185670997
 21
490.6841637955
 31
0.0
  0
LINE
  5
26D
330
1F
100
AcDbEntity
  8
0
  6
Continuous
 62
     7
370
    15
100
AcDbLine
 10
405.2185676958
 20
490.6841637955
 30
0.0
 11
402.7185663547
 21
490.6841637955
 31
0.0
  0
LINE
  5
26E
330
1F
100
AcDbEntity
  8
0
  6
Continuous
 62
     7
370
    15
100
AcDbLine
 10
402.7185663547
 20
490.6841637955
 30
0.0
 11
402.7185663547
 21
462.6841666565
 31
0.0
  0
LINE
  5
26F
330
1F
100
AcDbEntity
  8
0
  6
Continuous
 62
     7
370
    15
100
AcDbLine
 10
402.7185663547
 20
462.6841666565
 30
0.0
 11
405.2185676958
 21
462.6841666565
 31
0.0
  0
LINE
  5
270
330
1F
100
AcDbEntity
  8
0
  6
Continuous
 62
     7
370
    15
100
AcDbLine
 10
405.2185676958
 20
462.6841666565
 30
0.0
 11
405.2185676958
 21
490.6841637955
 31
0.0
  0
LINE
  5
271
330
1F
100
AcDbEntity
  8
0
  6
Continuous
 62
     7
370
    15
100
AcDbLine
 10
420.2185645665
 20
490.6841637955
 30
0.0
 11
417.7185669507
 21
490.6841637955
 31
0.0
  0
LINE
  5
272
330
1F
100
AcDbEntity
  8
0
  6
Continuous
 62
     7
370
    15
100
AcDbLine
 10
417.7185669507
 20
490.6841637955
 30
0.0
 11
417.7185669507
 21
462.6841666565
 31
0.0
  0
LINE
  5
273
330
1F
100
AcDbEntity
  8
0
  6
Continuous
 62
     7
370
    15
100
AcDbLine
 10
417.7185669507
 20
462.6841666565
 30
0.0
 11
420.2185645665
 21
462.6841666565
 31
0.0
  0
LINE
  5
274
330
1F
100
AcDbEntity
  8
0
  6
Continuous
 62
     7
370
    15
100
AcDbLine
 10
420.2185645665
 20
462.6841666565
 30
0.0
 11
420.2185645665
 21
490.6841637955
 31
0.0
  0
ARC
  5
275
330
1F
100
AcDbEntity
  8
0
  6
Continuous
 62
     7
370
    15
100
AcDbCircle
 10
433.9685680021
 20
487.684165256
 30
0.0
 40
2.824041396354488
100
AcDbArc
 50
296.2716831084
 51
243.7283168915
  0
LINE
  5
276
330
1F
100
AcDbEntity
  8
0
  6
Continuous
 62
     7
370
    15
100
AcDbLine
 10
432.7185675468
 20
485.1518394813
 30
0.0
 11
432.7185675468
 21
462.6841666565
 31
0.0
  0
LINE
  5
277
330
1F
100
AcDbEntity
  8
0
  6
Continuous
 62
     7
370
    15
100
AcDbLine
 10
432.7185675468
 20
462.6841666565
 30
0.0
 11
435.2185651626
 21
462.6841666565
 31
0.0
  0
LINE
  5
278
330
1F
100
AcDbEntity
  8
0
  6
Continuous
 62
     7
370
    15
100
AcDbLine
 10
435.2185651626
 20
462.6841666565
 30
0.0
 11
435.2185651626
 21
485.1518394813
 31
0.0
  0
LINE
  5
279
330
1F
100
AcDbEntity
  8
0
  6
Continuous
 62
     7
370
    15
100
AcDbLine
 10
450.2185657586
 20
490.6841637955
 30
0.0
 11
447.7185681428
 21
490.6841637955
 31
0.0
  0
LINE
  5
27A
330
1F
100
AcDbEntity
  8
0
  6
Continuous
 62
     7
370
    15
100
AcDbLine
 10
447.7185681428
 20
490.6841637955
 30
0.0
 11
447.7185681428
 21
462.6841666565
 31
0.0
  0
LINE
  5
27B
330
1F
100
AcDbEntity
  8
0
  6
Continuous
 62
     7
370
    15
100
AcDbLine
 10
447.7185681428
 20
462.6841666565
 30
0.0
 11
450.2185657586
 21
462.6841666565
 31
0.0
  0
LINE
  5
27C
330
1F
100
AcDbEntity
  8
0
  6
Continuous
 62
     7
370
    15
100
AcDbLine
 10
450.2185657586
 20
462.6841666565
 30
0.0
 11
450.2185657586
 21
490.6841637955
 31
0.0
  0
LINE
  5
27D
330
1F
100
AcDbEntity
  8
0
  6
Continuous
 62
     7
370
    15
100
AcDbLine
 10
234.1185659136
 20
254.9341647342
 30
0.0
 11
234.1185659136
 21
255.9591653213
 31
0.0
  0
LINE
  5
27E
330
1F
100
AcDbEntity
  8
0
  6
Continuous
 62
     7
370
    15
100
AcDbLine
 10
468.4935659136
 20
254.9341647342
 30
0.0
 11
468.4935659136
 21
255.9591653213
 31
0.0
  0
LINE
  5
27F
330
1F
100
AcDbEntity
  8
0
  6
Continuous
 62
     7
370
    15
100
AcDbLine
 10
234.1185659136
 20
254.9341647342
 30
0.0
 11
468.4935659136
 21
254.9341647342
 31
0.0
  0
SPLINE
  5
280
330
1F
100
AcDbEntity
  8
0
  6
Continuous
 62
     7
370
    15
100
AcDbSpline
210
0.0
220
0.0
230
1.0
 70
     8
 71
     3
 72
    11
 73
     7
 74
     0
 42
0.00000001
 43
0.00000001
 40
0.0
 40
0.0
 40
0.0
 40
0.0
 40
0.3059225583369239
 40
0.6119845718739307
 40
0.918031494689894
 40
1.0
 40
1.0
 40
1.0
 40
1.0
 10
468.4935659136041
 20
491.9091584548881
 30
0.0
 10
468.6190273346961
 20
491.8569216789359
 30
0.0
 10
468.8700073686337
 20
491.7524243148285
 30
0.0
 10
469.1875305556536
 20
491.595637816783
 30
0.0
 10
469.3858255682928
 20
491.4771120570277
 30
0.0
 10
469.4259921661688
 20
491.4108536611918
 30
0.0
 10
469.4344773854478
 20
491.3968565330437
 30
0.0
  0
LINE
  5
281
330
1F
100
AcDbEntity
  8
0
  6
Continuous
 62
     7
370
    15
100
AcDbLine
 10
469.5185646381
 20
398.1877016292
 30
0.0
 11
469.5185646381
 21
255.9591653213
 31
0.0
  0
LINE
  5
282
330
1F
100
AcDbEntity
  8
0
  6
Continuous
 62
     7
370
    15
100
AcDbLine
 10
469.5185646381
 20
255.9591653213
 30
0.0
 11
468.4935659136
 21
255.9591653213
 31
0.0
  0
LINE
  5
283
330
1F
100
AcDbEntity
  8
0
  6
Continuous
 62
     7
370
    15
100
AcDbLine
 10
218.7435701455
 20
255.3341659174
 30
0.0
 11
217.7185639705
 21
255.3341659174
 31
0.0
  0
LINE
  5
284
330
1F
100
AcDbEntity
  8
0
  6
Continuous
 62
     7
370
    15
100
AcDbLine
 10
217.7185639705
 20
255.3341659174
 30
0.0
 11
217.7185639705
 21
492.5306262836
 31
0.0
  0
LINE
  5
285
330
1F
100
AcDbEntity
  8
0
  6
Continuous
 62
     7
370
    15
100
AcDbLine
 10
217.7185639705
 20
492.5306262836
 30
0.0
 11
217.7185639705
 21
492.5341578588
 31
0.0
  0
SPLINE
  5
286
330
1F
100
AcDbEntity
  8
0
  6
Continuous
 62
     7
370
    15
100
AcDbSpline
210
0.0
220
0.0
230
1.0
 70
     8
 71
     3
 72
    12
 73
     8
 74
     0
 42
0.00000001
 43
0.00000001
 40
0.0
 40
0.0
 40
0.0
 40
0.0
 40
0.2303371527135108
 40
0.4607665250208555
 40
0.6911896614848201
 40
0.9216125771808338
 40
0.9999999999999999
 40
0.9999999999999999
 40
0.9999999999999999
 40
0.9999999999999999
 10
217.7185639704927
 20
492.5341578588417
 30
0.0
 10
217.7316263020045
 20
492.4861575967271
 30
0.0
 10
217.7577561947657
 20
492.3901378547356
 30
0.0
 10
217.9603930218292
 20
492.2460757086683
 30
0.0
 10
218.2547840080388
 20
492.1020808947455
 30
0.0
 10
218.5367240488565
 20
491.9894916790147
 30
0.0
 10
218.7016945613805
 20
491.9254217576105
 30
0.0
 10
218.7435701455339
 20
491.9091584548881
 30
0.0
  0
LINE
  5
287
330
1F
100
AcDbEntity
  8
0
  6
Continuous
 62
     7
370
    15
100
AcDbLine
 10
218.7685668434
 20
492.9341646299
 30
0.0
 11
218.7685668434
 21
491.9091584549
 31
0.0
  0
LINE
  5
288
330
1F
100
AcDbEntity
  8
0
  6
Continuous
 62
     7
370
    15
100
AcDbLine
 10
468.4935659136
 20
492.9341646299
 30
0.0
 11
218.7685668434
 21
492.9341646299
 31
0.0
  0
LINE
  5
289
330
1F
100
AcDbEntity
  8
0
  6
Continuous
 62
     7
370
    15
100
AcDbLine
 10
468.4935659136
 20
491.9091584549
 30
0.0
 11
468.4935659136
 21
492.9341646299
 31
0.0
  0
LINE
  5
28A
330
1F
100
AcDbEntity
  8
0
  6
Continuous
 62
     7
370
    15
100
AcDbLine
 10
218.1185707416
 20
492.5341578588
 30
0.0
 11
217.7185639705
 21
492.5341578588
 31
0.0
  0
SPLINE
  5
28B
330
1F
100
AcDbEntity
  8
0
  6
Continuous
 62
     7
370
    15
100
AcDbSpline
210
0.0
220
0.0
230
1.0
 70
     8
 71
     3
 72
    11
 73
     7
 74
     0
 42
0.00000001
 43
0.00000001
 40
0.0
 40
0.0
 40
0.0
 40
0.0
 40
0.2547151790727483
 40
0.5096003751624161
 40
0.7644898806309236
 40
1.0
 40
1.0
 40
1.0
 40
1.0
 10
218.1185707415804
 20
492.5341578588417
 30
0.0
 10
218.128333367643
 20
492.4810837226911
 30
0.0
 10
218.1478651361156
 20
492.374900024522
 30
0.0
 10
218.2978282192018
 20
492.2156268894567
 30
0.0
 10
218.5059207597803
 20
492.0602844428208
 30
0.0
 10
218.6664685007999
 20
491.9581889297397
 30
0.0
 10
218.7435701455339
 20
491.9091584548881
 30
0.0
  0
LINE
  5
28C
330
1F
100
AcDbEntity
  8
0
  6
Continuous
 62
     7
370
    15
100
AcDbLine
 10
469.1177681054
 20
255.3341659174
 30
0.0
 11
469.1177681054
 21
254.9341647342
 31
0.0
  0
LINE
  5
28D
330
1F
100
AcDbEntity
  8
0
  6
Continuous
 62
     7
370
    15
100
AcDbLine
 10
469.1150262918
 20
255.3341659174
 30
0.0
 11
469.1150262918
 21
254.9341647342
 31
0.0
  0
LINE
  5
28E
330
1F
100
AcDbEntity
  8
0
  6
Continuous
 62
     7
370
    15
100
AcDbLine
 10
469.1150262918
 20
255.3341659174
 30
0.0
 11
469.1177681054
 21
255.3341659174
 31
0.0
  0
LINE
  5
28F
330
1F
100
AcDbEntity
  8
0
  6
Continuous
 62
     7
370
    15
100
AcDbLine
 10
469.1150262918
 20
254.9341647342
 30
0.0
 11
469.1177681054
 21
254.9341647342
 31
0.0
  0
LINE
  5
290
330
1F
100
AcDbEntity
  8
0
  6
Continuous
 62
     7
370
    15
100
AcDbLine
 10
469.1150262918
 20
255.3341659174
 30
0.0
 11
468.4935659136
 21
255.3341659174
 31
0.0
  0
LINE
  5
291
330
1F
100
AcDbEntity
  8
0
  6
Continuous
 62
     7
370
    15
100
AcDbLine
 10
468.4935659136
 20
254.9341647342
 30
0.0
 11
469.1150262918
 21
254.9341647342
 31
0.0
  0
LINE
  5
292
330
1F
100
AcDbEntity
  8
0
  6
Continuous
 62
     7
370
    15
100
AcDbLine
 10
469.5185646381
 20
255.3377012179
 30
0.0
 11
469.1185727681
 21
255.3377012179
 31
0.0
  0
LINE
  5
293
330
1F
100
AcDbEntity
  8
0
  6
Continuous
 62
     7
370
    15
100
AcDbLine
 10
469.5185646381
 20
255.9591653213
 30
0.0
 11
469.5185646381
 21
255.3377012179
 31
0.0
  0
LINE
  5
294
330
1F
100
AcDbEntity
  8
0
  6
Continuous
 62
     7
370
    15
100
AcDbLine
 10
469.1185727681
 20
255.9591653213
 30
0.0
 11
469.1185727681
 21
255.3377012179
 31
0.0
  0
LINE
  5
295
330
1F
100
AcDbEntity
  8
0
  6
Continuous
 62
     7
370
    15
100
AcDbLine
 10
469.1185727681
 20
491.9091584549
 30
0.0
 11
469.1185727681
 21
491.6250827179
 31
0.0
  0
ARC
  5
296
330
1F
100
AcDbEntity
  8
0
  6
Continuous
 62
     7
370
    15
100
AcDbCircle
 10
468.4935680021
 20
491.909165256
 30
0.0
 40
0.625
100
AcDbArc
 50
0.0
 51
90.0
  0
ARC
  5
297
330
1F
100
AcDbEntity
  8
0
  6
Continuous
 62
     7
370
    15
100
AcDbCircle
 10
468.4935680021
 20
491.909165256
 30
0.0
 40
1.025000000000027
100
AcDbArc
 50
19.0379831789
 51
90.0
  0
LINE
  5
298
330
1F
100
AcDbEntity
  8
0
  6
Continuous
 62
     7
370
    15
100
AcDbLine
 10
218.1221023168
 20
492.9341646299
 30
0.0
 11
218.1221023168
 21
492.5341578588
 31
0.0
  0
LINE
  5
299
330
1F
100
AcDbEntity
  8
0
  6
Continuous
 62
     7
370
    15
100
AcDbLine
 10
218.7685668434
 20
492.5341578588
 30
0.0
 11
218.1221023168
 21
492.5341578588
 31
0.0
  0
LINE
  5
29A
330
1F
100
AcDbEntity
  8
0
  6
Continuous
 62
     7
370
    15
100
AcDbLine
 10
218.7685668434
 20
492.9341646299
 30
0.0
 11
218.1221023168
 21
492.9341646299
 31
0.0
  0
LINE
  5
29B
330
1F
100
AcDbEntity
  8
0
  6
Continuous
 62
     7
370
    15
100
AcDbLine
 10
468.4935659136
 20
491.9091584549
 30
0.0
 11
469.1150262918
 21
491.9091584549
 31
0.0
  0
LWPOLYLINE
  5
29C
330
1F
100
AcDbEntity
  8
0
  6
Continuous
 62
     7
370
    15
100
AcDbPolyline
 90
        3
 70
   128
 43
0.0
 10
237.4435663189
 20
489.284169899
 10
236.8963360752
 20
489.1876699791
 10
236.4305928315
 20
488.9226677284
  0
LWPOLYLINE
  5
29D
330
1F
100
AcDbEntity
  8
0
  6
Continuous
 62
     7
370
    15
100
AcDbPolyline
 90
        3
 70
   128
 43
0.0
 10
236.4305928315
 20
486.4456626043
 10
236.8963360752
 20
486.1806603537
 10
237.4435663189
 20
486.0841604338
  0
LINE
  5
29E
330
1F
100
AcDbEntity
  8
0
  6
Continuous
 62
     7
370
    15
100
AcDbLine
 10
237.4435663189
 20
486.0841604338
 30
0.0
 11
240.5935674872
 21
486.0841604338
 31
0.0
  0
LWPOLYLINE
  5
29F
330
1F
100
AcDbEntity
  8
0
  6
Continuous
 62
     7
370
    15
100
AcDbPolyline
 90
        3
 70
   128
 43
0.0
 10
240.5935674872
 20
486.0841604338
 10
241.1407977308
 20
486.1806603537
 10
241.4472848143
 20
486.3309534655
  0
LWPOLYLINE
  5
2A0
330
1F
100
AcDbEntity
  8
0
  6
Continuous
 62
     7
370
    15
100
AcDbPolyline
 90
        3
 70
   128
 43
0.0
 10
241.4472848143
 20
489.0373768673
 10
241.1407977308
 20
489.1876699791
 10
240.5935674872
 20
489.284169899
  0
LINE
  5
2A1
330
1F
100
AcDbEntity
  8
0
  6
Continuous
 62
     7
370
    15
100
AcDbLine
 10
240.5935674872
 20
489.284169899
 30
0.0
 11
237.4435663189
 21
489.284169899
 31
0.0
  0
LWPOLYLINE
  5
2A2
330
1F
100
AcDbEntity
  8
0
  6
Continuous
 62
     7
370
    15
100
AcDbPolyline
 90
        3
 70
   128
 43
0.0
 10
334.9435683306
 20
489.284169899
 10
334.3963362242
 20
489.1876699791
 10
333.9305892553
 20
488.9226677284
  0
LWPOLYLINE
  5
2A3
330
1F
100
AcDbEntity
  8
0
  6
Continuous
 62
     7
370
    15
100
AcDbPolyline
 90
        3
 70
   128
 43
0.0
 10
333.9305892553
 20
486.4456626043
 10
334.3963362242
 20
486.1806603537
 10
334.9435683306
 20
486.0841604338
  0
LINE
  5
2A4
330
1F
100
AcDbEntity
  8
0
  6
Continuous
 62
     7
370
    15
100
AcDbLine
 10
334.9435683306
 20
486.0841604338
 30
0.0
 11
338.0935681018
 21
486.0841604338
 31
0.0
  0
LWPOLYLINE
  5
2A5
330
1F
100
AcDbEntity
  8
0
  6
Continuous
 62
     7
370
    15
100
AcDbPolyline
 90
        3
 70
   128
 43
0.0
 10
338.0935681018
 20
486.0841604338
 10
338.6408002082
 20
486.1806603537
 10
338.9472863603
 20
486.3309534655
  0
LWPOLYLINE
  5
2A6
330
1F
100
AcDbEntity
  8
0
  6
Continuous
 62
     7
370
    15
100
AcDbPolyline
 90
        3
 70
   128
 43
0.0
 10
338.9472863603
 20
489.0373768673
 10
338.6408002082
 20
489.1876699791
 10
338.0935681018
 20
489.284169899
  0
LINE
  5
2A7
330
1F
100
AcDbEntity
  8
0
  6
Continuous
 62
     7
370
    15
100
AcDbLine
 10
338.0935681018
 20
489.284169899
 30
0.0
 11
334.9435683306
 21
489.284169899
 31
0.0
  0
LWPOLYLINE
  5
2A8
330
1F
100
AcDbEntity
  8
0
  6
Continuous
 62
     7
370
    15
100
AcDbPolyline
 90
        3
 70
   128
 43
0.0
 10
432.4435666169
 20
489.284169899
 10
431.8963363733
 20
489.1876699791
 10
431.430585679
 20
488.9226677284
  0
LWPOLYLINE
  5
2A9
330
1F
100
AcDbEntity
  8
0
  6
Continuous
 62
     7
370
    15
100
AcDbPolyline
 90
        3
 70
   128
 43
0.0
 10
431.430585679
 20
486.4456626043
 10
431.8963363733
 20
486.1806603537
 10
432.4435666169
 20
486.0841604338
  0
LINE
  5
2AA
330
1F
100
AcDbEntity
  8
0
  6
Continuous
 62
     7
370
    15
100
AcDbLine
 10
432.4435666169
 20
486.0841604338
 30
0.0
 11
435.5935677852
 21
486.0841604338
 31
0.0
  0
LWPOLYLINE
  5
2AB
330
1F
100
AcDbEntity
  8
0
  6
Continuous
 62
     7
370
    15
100
AcDbPolyline
 90
        3
 70
   128
 43
0.0
 10
435.5935677852
 20
486.0841604338
 10
436.1407980289
 20
486.1806603537
 10
436.4472851123
 20
486.3309534655
  0
LWPOLYLINE
  5
2AC
330
1F
100
AcDbEntity
  8
0
  6
Continuous
 62
     7
370
    15
100
AcDbPolyline
 90
        3
 70
   128
 43
0.0
 10
436.4472851123
 20
489.0373768673
 10
436.1407980289
 20
489.1876699791
 10
435.5935677852
 20
489.284169899
  0
LINE
  5
2AD
330
1F
100
AcDbEntity
  8
0
  6
Continuous
 62
     7
370
    15
100
AcDbLine
 10
435.5935677852
 20
489.284169899
 30
0.0
 11
432.4435666169
 21
489.284169899
 31
0.0
  0
LINE
  5
2AE
330
1F
100
AcDbEntity
  8
0
  6
Continuous
 62
     7
370
    15
100
AcDbLine
 10
469.1150262918
 20
491.9091584549
 30
0.0
 11
469.1150262918
 21
491.6268261537
 31
0.0
  0
LINE
  5
2AF
330
1F
100
AcDbEntity
  8
0
  6
Continuous
 62
     7
370
    15
100
AcDbLine
 10
230.2185669507
 20
481.534165369
 30
0.0
 11
232.7185645665
 21
481.534165369
 31
0.0
  0
LINE
  5
2B0
330
1F
100
AcDbEntity
  8
0
  6
Continuous
 62
     7
370
    15
100
AcDbLine
 10
237.7185672487
 20
481.534165369
 30
0.0
 11
240.2185648646
 21
481.534165369
 31
0.0
  0
LINE
  5
2B1
330
1F
100
AcDbEntity
  8
0
  6
Continuous
 62
     7
370
    15
100
AcDbLine
 10
245.2185675468
 20
481.534165369
 30
0.0
 11
247.7185651626
 21
481.534165369
 31
0.0
  0
LINE
  5
2B2
330
1F
100
AcDbEntity
  8
0
  6
Continuous
 62
     7
370
    15
100
AcDbLine
 10
252.7185678448
 20
481.534165369
 30
0.0
 11
255.2185654606
 21
481.534165369
 31
0.0
  0
LINE
  5
2B3
330
1F
100
AcDbEntity
  8
0
  6
Continuous
 62
     7
370
    15
100
AcDbLine
 10
260.2185681428
 20
481.534165369
 30
0.0
 11
262.7185657586
 21
481.534165369
 31
0.0
  0
LINE
  5
2B4
330
1F
100
AcDbEntity
  8
0
  6
Continuous
 62
     7
370
    15
100
AcDbLine
 10
267.7185684408
 20
481.534165369
 30
0.0
 11
270.2185660567
 21
481.534165369
 31
0.0
  0
LINE
  5
2B5
330
1F
100
AcDbEntity
  8
0
  6
Continuous
 62
     7
370
    15
100
AcDbLine
 10
275.2185687389
 20
481.534165369
 30
0.0
 11
277.7185663547
 21
481.534165369
 31
0.0
  0
LINE
  5
2B6
330
1F
100
AcDbEntity
  8
0
  6
Continuous
 62
     7
370
    15
100
AcDbLine
 10
282.7185690369
 20
481.534165369
 30
0.0
 11
285.2185666527
 21
481.534165369
 31
0.0
  0
LINE
  5
2B7
330
1F
100
AcDbEntity
  8
0
  6
Continuous
 62
     7
370
    15
100
AcDbLine
 10
290.2185693349
 20
481.534165369
 30
0.0
 11
292.7185669507
 21
481.534165369
 31
0.0
  0
LINE
  5
2B8
330
1F
100
AcDbEntity
  8
0
  6
Continuous
 62
     7
370
    15
100
AcDbLine
 10
297.7185696329
 20
481.534165369
 30
0.0
 11
300.2185672487
 21
481.534165369
 31
0.0
  0
LINE
  5
2B9
330
1F
100
AcDbEntity
  8
0
  6
Continuous
 62
     7
370
    15
100
AcDbLine
 10
305.2185662057
 20
481.534165369
 30
0.0
 11
307.7185675468
 21
481.534165369
 31
0.0
  0
LINE
  5
2BA
330
1F
100
AcDbEntity
  8
0
  6
Continuous
 62
     7
370
    15
100
AcDbLine
 10
312.7185683663
 20
481.534165369
 30
0.0
 11
315.2185678448
 21
481.534165369
 31
0.0
  0
LINE
  5
2BB
330
1F
100
AcDbEntity
  8
0
  6
Continuous
 62
     7
370
    15
100
AcDbLine
 10
320.2185686644
 20
481.534165369
 30
0.0
 11
322.7185681428
 21
481.534165369
 31
0.0
  0
LINE
  5
2BC
330
1F
100
AcDbEntity
  8
0
  6
Continuous
 62
     7
370
    15
100
AcDbLine
 10
327.7185670997
 20
481.534165369
 30
0.0
 11
330.2185684408
 21
481.534165369
 31
0.0
  0
LINE
  5
2BD
330
1F
100
AcDbEntity
  8
0
  6
Continuous
 62
     7
370
    15
100
AcDbLine
 10
335.2185683291
 20
481.534165369
 30
0.0
 11
337.7185678075
 21
481.534165369
 31
0.0
  0
LINE
  5
2BE
330
1F
100
AcDbEntity
  8
0
  6
Continuous
 62
     7
370
    15
100
AcDbLine
 10
342.7185679868
 20
481.534165369
 30
0.0
 11
345.2185679891
 21
481.534165369
 31
0.0
  0
LINE
  5
2BF
330
1F
100
AcDbEntity
  8
0
  6
Continuous
 62
     7
370
    15
100
AcDbLine
 10
350.2185679938
 20
481.534165369
 30
0.0
 11
352.7185684036
 21
481.534165369
 31
0.0
  0
LINE
  5
2C0
330
1F
100
AcDbEntity
  8
0
  6
Continuous
 62
     7
370
    15
100
AcDbLine
 10
357.7185682918
 20
481.534165369
 30
0.0
 11
360.2185677703
 21
481.534165369
 31
0.0
  0
LINE
  5
2C1
330
1F
100
AcDbEntity
  8
0
  6
Continuous
 62
     7
370
    15
100
AcDbLine
 10
365.2185685899
 20
481.534165369
 30
0.0
 11
367.7185680683
 21
481.534165369
 31
0.0
  0
LINE
  5
2C2
330
1F
100
AcDbEntity
  8
0
  6
Continuous
 62
     7
370
    15
100
AcDbLine
 10
372.7185688879
 20
481.534165369
 30
0.0
 11
375.2185665037
 21
481.534165369
 31
0.0
  0
LINE
  5
2C3
330
1F
100
AcDbEntity
  8
0
  6
Continuous
 62
     7
370
    15
100
AcDbLine
 10
380.2185691859
 20
481.534165369
 30
0.0
 11
382.7185668017
 21
481.534165369
 31
0.0
  0
LINE
  5
2C4
330
1F
100
AcDbEntity
  8
0
  6
Continuous
 62
     7
370
    15
100
AcDbLine
 10
387.7185694839
 20
481.534165369
 30
0.0
 11
390.2185670997
 21
481.534165369
 31
0.0
  0
LINE
  5
2C5
330
1F
100
AcDbEntity
  8
0
  6
Continuous
 62
     7
370
    15
100
AcDbLine
 10
395.2185697819
 20
481.534165369
 30
0.0
 11
397.7185673978
 21
481.534165369
 31
0.0
  0
LINE
  5
2C6
330
1F
100
AcDbEntity
  8
0
  6
Continuous
 62
     7
370
    15
100
AcDbLine
 10
402.7185663547
 20
481.534165369
 30
0.0
 11
405.2185676958
 21
481.534165369
 31
0.0
  0
LINE
  5
2C7
330
1F
100
AcDbEntity
  8
0
  6
Continuous
 62
     7
370
    15
100
AcDbLine
 10
410.2185666527
 20
481.534165369
 30
0.0
 11
412.7185717191
 21
481.534165369
 31
0.0
  0
LINE
  5
2C8
330
1F
100
AcDbEntity
  8
0
  6
Continuous
 62
     7
370
    15
100
AcDbLine
 10
417.7185669507
 20
481.534165369
 30
0.0
 11
420.2185645665
 21
481.534165369
 31
0.0
  0
LINE
  5
2C9
330
1F
100
AcDbEntity
  8
0
  6
Continuous
 62
     7
370
    15
100
AcDbLine
 10
425.2185672487
 20
481.534165369
 30
0.0
 11
427.7185648646
 21
481.534165369
 31
0.0
  0
LINE
  5
2CA
330
1F
100
AcDbEntity
  8
0
  6
Continuous
 62
     7
370
    15
100
AcDbLine
 10
432.7185675468
 20
481.534165369
 30
0.0
 11
435.2185651626
 21
481.534165369
 31
0.0
  0
LINE
  5
2CB
330
1F
100
AcDbEntity
  8
0
  6
Continuous
 62
     7
370
    15
100
AcDbLine
 10
440.2185678448
 20
481.534165369
 30
0.0
 11
442.7185654606
 21
481.534165369
 31
0.0
  0
LINE
  5
2CC
330
1F
100
AcDbEntity
  8
0
  6
Continuous
 62
     7
370
    15
100
AcDbLine
 10
447.7185681428
 20
481.534165369
 30
0.0
 11
450.2185657586
 21
481.534165369
 31
0.0
  0
LINE
  5
2CD
330
1F
100
AcDbEntity
  8
0
  6
Continuous
 62
     7
370
    15
100
AcDbLine
 10
455.2185684408
 20
481.534165369
 30
0.0
 11
457.7185660567
 21
481.534165369
 31
0.0
  0
LINE
  5
2CE
330
1F
100
AcDbEntity
  8
0
  6
Continuous
 62
     7
370
    15
100
AcDbLine
 10
469.1025540199
 20
255.3377012179
 30
0.0
 11
469.1185727681
 21
255.3377012179
 31
0.0
  0
LINE
  5
2CF
330
1F
100
AcDbEntity
  8
0
  6
Continuous
 62
     7
370
    15
100
AcDbLine
 10
468.4935659136
 20
255.3377012179
 30
0.0
 11
469.1025540199
 21
255.3377012179
 31
0.0
  0
LINE
  5
2D0
330
1F
100
AcDbEntity
  8
0
  6
Continuous
 62
     7
370
    15
100
AcDbLine
 10
233.8685691323
 20
255.5841645614
 30
0.0
 11
234.1185659136
 21
255.5841645614
 31
0.0
  0
CIRCLE
  5
2D1
330
1F
100
AcDbEntity
  8
0
  6
Continuous
 62
     7
370
    15
100
AcDbCircle
 10
336.2205301032
 20
487.6634729814
 30
0.0
 40
1.475000000000023
  0
ARC
  5
2D2
330
1F
100
AcDbEntity
  8
0
  6
Continuous
 62
     7
370
    15
100
AcDbCircle
 10
336.2205301032
 20
487.6634729814
 30
0.0
 40
2.0
100
AcDbArc
 50
180.0
 51
232.1531761873
  0
ARC
  5
2D3
330
1F
100
AcDbEntity
  8
0
  6
Continuous
 62
     7
370
    15
100
AcDbCircle
 10
336.2205301032
 20
487.6634729814
 30
0.0
 40
2.000000000000032
100
AcDbArc
 50
307.8468238127
 51
54.1297637601
  0
ARC
  5
2D4
330
1F
100
AcDbEntity
  8
0
  6
Continuous
 62
     7
370
    15
100
AcDbCircle
 10
336.2205301032
 20
487.6634729814
 30
0.0
 40
2.0
100
AcDbArc
 50
125.8702362399
 51
180.0
  0
CIRCLE
  5
2D5
330
1F
100
AcDbEntity
  8
0
  6
Continuous
 62
     7
370
    15
100
AcDbCircle
 10
336.2205301032
 20
487.6634729814
 30
0.0
 40
1.375
  0
CIRCLE
  5
2D6
330
1F
100
AcDbEntity
  8
0
  6
Continuous
 62
     7
370
    15
100
AcDbCircle
 10
336.2205301032
 20
487.6634729814
 30
0.0
 40
1.050000000000011
  0
CIRCLE
  5
2D7
330
1F
100
AcDbEntity
  8
0
  6
Continuous
 62
     7
370
    15
100
AcDbCircle
 10
238.7185680021
 20
487.684165256
 30
0.0
 40
1.474999999999994
  0
ARC
  5
2D8
330
1F
100
AcDbEntity
  8
0
  6
Continuous
 62
     7
370
    15
100
AcDbCircle
 10
238.7185680021
 20
487.684165256
 30
0.0
 40
2.0
100
AcDbArc
 50
180.0
 51
233.1301023542
  0
ARC
  5
2D9
330
1F
100
AcDbEntity
  8
0
  6
Continuous
 62
     7
370
    15
100
AcDbCircle
 10
238.7185680021
 20
487.684165256
 30
0.0
 40
2.000000000000051
100
AcDbArc
 50
306.8698976458
 51
53.1301023541
  0
ARC
  5
2DA
330
1F
100
AcDbEntity
  8
0
  6
Continuous
 62
     7
370
    15
100
AcDbCircle
 10
238.7185680021
 20
487.684165256
 30
0.0
 40
2.000000000000051
100
AcDbArc
 50
126.8698976459
 51
180.0
  0
CIRCLE
  5
2DB
330
1F
100
AcDbEntity
  8
0
  6
Continuous
 62
     7
370
    15
100
AcDbCircle
 10
238.7185680021
 20
487.684165256
 30
0.0
 40
1.375000000000028
  0
CIRCLE
  5
2DC
330
1F
100
AcDbEntity
  8
0
  6
Continuous
 62
     7
370
    15
100
AcDbCircle
 10
238.7185680021
 20
487.684165256
 30
0.0
 40
1.049999999999983
  0
CIRCLE
  5
2DD
330
1F
100
AcDbEntity
  8
0
  6
Continuous
 62
     7
370
    15
100
AcDbCircle
 10
433.7205301032
 20
487.6634729814
 30
0.0
 40
1.475000000000023
  0
ARC
  5
2DE
330
1F
100
AcDbEntity
  8
0
  6
Continuous
 62
     7
370
    15
100
AcDbCircle
 10
433.7205301032
 20
487.6634729814
 30
0.0
 40
2.0
100
AcDbArc
 50
180.0
 51
232.1531761873
  0
ARC
  5
2DF
330
1F
100
AcDbEntity
  8
0
  6
Continuous
 62
     7
370
    15
100
AcDbCircle
 10
433.7205301032
 20
487.6634729814
 30
0.0
 40
1.999999999999977
100
AcDbArc
 50
307.8468238127
 51
54.1297637602
  0
ARC
  5
2E0
330
1F
100
AcDbEntity
  8
0
  6
Continuous
 62
     7
370
    15
100
AcDbCircle
 10
433.7205301032
 20
487.6634729814
 30
0.0
 40
2.000000000000044
100
AcDbArc
 50
125.8702362398
 51
180.0
  0
CIRCLE
  5
2E1
330
1F
100
AcDbEntity
  8
0
  6
Continuous
 62
     7
370
    15
100
AcDbCircle
 10
433.7205301032
 20
487.6634729814
 30
0.0
 40
1.375000000000057
  0
CIRCLE
  5
2E2
330
1F
100
AcDbEntity
  8
0
  6
Continuous
 62
     7
370
    15
100
AcDbCircle
 10
433.7205301032
 20
487.6634729814
 30
0.0
 40
1.050000000000011
  0
ENDSEC
  0
SECTION
  2
OBJECTS
  0
DICTIONARY
  5
C
330
0
100
AcDbDictionary
281
     1
  3
ACAD_GROUP
350
D
  3
ACAD_LAYOUT
350
1A
  3
ACAD_MLINESTYLE
350
17
  3
ACAD_PLOTSETTINGS
350
19
  3
ACAD_PLOTSTYLENAME
350
E
  0
DICTIONARY
  5
D
102
{ACAD_REACTORS
330
C
102
}
330
C
100
AcDbDictionary
281
     1
  0
DICTIONARY
  5
1A
102
{ACAD_REACTORS
330
C
102
}
330
C
100
AcDbDictionary
281
     1
  3
Layout1
350
1E
  3
Layout2
350
26
  3
Model
350
22
  0
DICTIONARY
  5
17
102
{ACAD_REACTORS
330
C
102
}
330
C
100
AcDbDictionary
281
     1
  3
Standard
350
18
  0
DICTIONARY
  5
19
102
{ACAD_REACTORS
330
C
102
}
330
C
100
AcDbDictionary
281
     1
  0
ACDBDICTIONARYWDFLT
  5
E
102
{ACAD_REACTORS
330
C
102
}
330
C
100
AcDbDictionary
281
     1
  3
Normal
350
F
100
AcDbDictionaryWithDefault
340
F
  0
LAYOUT
  5
1E
102
{ACAD_REACTORS
330
1A
102
}
330
1A
100
AcDbPlotSettings
  1

  2
none_device
  4

  6

 40
0.0
 41
0.0
 42
0.0
 43
0.0
 44
0.0
 45
0.0
 46
0.0
 47
0.0
 48
0.0
 49
0.0
140
0.0
141
0.0
142
1.0
143
1.0
 70
   688
 72
     0
 73
     0
 74
     5
  7

 75
    16
147
1.0
148
0.0
149
0.0
100
AcDbLayout
  1
Layout1
 70
     1
 71
     1
 10
0.0
 20
0.0
 11
420.0
 21
297.0
 12
0.0
 22
0.0
 32
0.0
 14
1.0000000000E+20
 24
1.0000000000E+20
 34
1.0000000000E+20
 15
-1.0000000000E+20
 25
-1.0000000000E+20
 35
-1.0000000000E+20
146
0.0
 13
0.0
 23
0.0
 33
0.0
 16
1.0
 26
0.0
 36
0.0
 17
0.0
 27
1.0
 37
0.0
 76
     0
330
1B
  0
LAYOUT
  5
26
102
{ACAD_REACTORS
330
1A
102
}
330
1A
100
AcDbPlotSettings
  1

  2
none_device
  4

  6

 40
0.0
 41
0.0
 42
0.0
 43
0.0
 44
0.0
 45
0.0
 46
0.0
 47
0.0
 48
0.0
 49
0.0
140
0.0
141
0.0
142
1.0
143
1.0
 70
   688
 72
     0
 73
     0
 74
     5
  7

 75
    16
147
1.0
148
0.0
149
0.0
100
AcDbLayout
  1
Layout2
 70
     1
 71
     2
 10
0.0
 20
0.0
 11
0.0
 21
0.0
 12
0.0
 22
0.0
 32
0.0
 14
0.0
 24
0.0
 34
0.0
 15
0.0
 25
0.0
 35
0.0
146
0.0
 13
0.0
 23
0.0
 33
0.0
 16
1.0
 26
0.0
 36
0.0
 17
0.0
 27
1.0
 37
0.0
 76
     0
330
23
  0
LAYOUT
  5
22
102
{ACAD_REACTORS
330
1A
102
}
330
1A
100
AcDbPlotSettings
  1

  2
none_device
  4

  6

 40
0.0
 41
0.0
 42
0.0
 43
0.0
 44
0.0
 45
0.0
 46
0.0
 47
0.0
 48
0.0
 49
0.0
140
0.0
141
0.0
142
1.0
143
1.0
 70
  1712
 72
     0
 73
     0
 74
     0
  7

 75
     0
147
1.0
148
0.0
149
0.0
100
AcDbLayout
  1
Model
 70
     1
 71
     0
 10
0.0
 20
0.0
 11
841.0
 21
594.0
 12
0.0
 22
0.0
 32
0.0
 14
0.0
 24
0.0
 34
0.0
 15
841.0
 25
594.0
 35
0.0
146
0.0
 13
0.0
 23
0.0
 33
0.0
 16
1.0
 26
0.0
 36
0.0
 17
0.0
 27
1.0
 37
0.0
 76
     0
330
1F
331
29
  0
MLINESTYLE
  5
18
102
{ACAD_REACTORS
330
17
102
}
330
17
100
AcDbMlineStyle
  2
Standard
 70
     0
  3

 62
   256
 51
90.0
 52
90.0
 71
     2
 49
0.5
 62
   256
  6
BYLAYER
 49
-0.5
 62
   256
  6
BYLAYER
  0
ACDBPLACEHOLDER
  5
F
102
{ACAD_REACTORS
330
E
102
}
330
E
  0
ENDSEC
  0
EOF
