  0
SECTION
  2
HEADER
  9
$ACADVER
  1
AC1015
  9
$ACADMAINTVER
 70
     6
  9
$DWGCODEPAGE
  3
ANSI_1252
  9
$INSBASE
 10
0.0
 20
0.0
 30
0.0
  9
$EXTMIN
 10
0.0
 20
0.0
 30
0.0
  9
$EXTMAX
 10
2159.0
 20
1397.0
 30
0.0
  9
$LIMMIN
 10
0.0
 20
0.0
  9
$LIMMAX
 10
2159.0
 20
1397.0
  9
$ORTHOMODE
 70
     0
  9
$REGENMODE
 70
     1
  9
$FILLMODE
 70
     1
  9
$QTEXTMODE
 70
     0
  9
$MIRRTEXT
 70
     1
  9
$LTSCALE
 40
5.0
  9
$ATTMODE
 70
     1
  9
$TEXTSIZE
 40
17.5
  9
$TRACEWID
 40
1.0
  9
$TEXTSTYLE
  7
Standard
  9
$CLAYER
  8
0
  9
$CELTYPE
  6
ByLayer
  9
$CECOLOR
 62
   256
  9
$CELTSCALE
 40
1.0
  9
$DISPSILH
 70
     0
  9
$DIMSCALE
 40
1.0
  9
$DIMASZ
 40
16.51
  9
$DIMEXO
 40
5.0
  9
$DIMDLI
 40
3.75
  9
$DIMRND
 40
0.0
  9
$DIMDLE
 40
0.0
  9
$DIMEXE
 40
5.0
  9
$DIMTP
 40
0.0
  9
$DIMTM
 40
0.0
  9
$DIMTXT
 40
17.5
  9
$DIMCEN
 40
2.5
  9
$DIMTSZ
 40
0.0
  9
$DIMTOL
 70
     0
  9
$DIMLIM
 70
     0
  9
$DIMTIH
 70
     1
  9
$DIMTOH
 70
     1
  9
$DIMSE1
 70
     0
  9
$DIMSE2
 70
     0
  9
$DIMTAD
 70
     1
  9
$DIMZIN
 70
     0
  9
$DIMBLK
  1

  9
$DIMASO
 70
     1
  9
$DIMSHO
 70
     1
  9
$DIMPOST
  1

  9
$DIMAPOST
  1

  9
$DIMALT
 70
     0
  9
$DIMALTD
 70
     3
  9
$DIMALTF
 40
0.0393700787
  9
$DIMLFAC
 40
1.0
  9
$DIMTOFL
 70
     1
  9
$DIMTVP
 40
0.0
  9
$DIMTIX
 70
     0
  9
$DIMSOXD
 70
     0
  9
$DIMSAH
 70
     0
  9
$DIMBLK1
  1

  9
$DIMBLK2
  1

  9
$DIMSTYLE
  2
ISO-25
  9
$DIMCLRD
 70
     0
  9
$DIMCLRE
 70
     0
  9
$DIMCLRT
 70
     0
  9
$DIMTFAC
 40
1.0
  9
$DIMGAP
 40
7.62
  9
$DIMJUST
 70
     0
  9
$DIMSD1
 70
     0
  9
$DIMSD2
 70
     0
  9
$DIMTOLJ
 70
     0
  9
$DIMTZIN
 70
     0
  9
$DIMALTZ
 70
     0
  9
$DIMALTTZ
 70
     0
  9
$DIMUPT
 70
     0
  9
$DIMDEC
 70
     3
  9
$DIMTDEC
 70
     3
  9
$DIMALTU
 70
     2
  9
$DIMALTTD
 70
     3
  9
$DIMTXSTY
  7
Standard
  9
$DIMAUNIT
 70
     0
  9
$DIMADEC
 70
     2
  9
$DIMALTRND
 40
0.0
  9
$DIMAZIN
 70
     0
  9
$DIMDSEP
 70
    44
  9
$DIMATFIT
 70
     3
  9
$DIMFRAC
 70
     0
  9
$DIMLDRBLK
  1

  9
$DIMLUNIT
 70
     2
  9
$DIMLWD
 70
    -2
  9
$DIMLWE
 70
    -2
  9
$DIMTMOVE
 70
     0
  9
$LUNITS
 70
     2
  9
$LUPREC
 70
     8
  9
$SKETCHINC
 40
1.0
  9
$FILLETRAD
 40
10.0
  9
$AUNITS
 70
     0
  9
$AUPREC
 70
     8
  9
$MENU
  1
.
  9
$ELEVATION
 40
0.0
  9
$PELEVATION
 40
0.0
  9
$THICKNESS
 40
0.0
  9
$LIMCHECK
 70
     0
  9
$CHAMFERA
 40
10.0
  9
$CHAMFERB
 40
10.0
  9
$CHAMFERC
 40
20.0
  9
$CHAMFERD
 40
0.0
  9
$SKPOLY
 70
     0
  9
$TDCREATE
 40
2456398.531769086
  9
$TDUCREATE
 40
2456398.490102419
  9
$TDUPDATE
 40
2456398.53177125
  9
$TDUUPDATE
 40
2456398.490104584
  9
$TDINDWG
 40
0.0000000116
  9
$TDUSRTIMER
 40
0.0000000116
  9
$USRTIMER
 70
     1
  9
$ANGBASE
 50
0.0
  9
$ANGDIR
 70
     0
  9
$PDMODE
 70
     0
  9
$PDSIZE
 40
-1.0
  9
$PLINEWID
 40
0.0
  9
$SPLFRAME
 70
     0
  9
$SPLINETYPE
 70
     6
  9
$SPLINESEGS
 70
     8
  9
$HANDSEED
  5
3C6
  9
$SURFTAB1
 70
     6
  9
$SURFTAB2
 70
     6
  9
$SURFTYPE
 70
     6
  9
$SURFU
 70
     6
  9
$SURFV
 70
     6
  9
$UCSBASE
  2

  9
$UCSNAME
  2

  9
$UCSORG
 10
0.0
 20
0.0
 30
0.0
  9
$UCSXDIR
 10
1.0
 20
0.0
 30
0.0
  9
$UCSYDIR
 10
0.0
 20
1.0
 30
0.0
  9
$UCSORTHOREF
  2

  9
$UCSORTHOVIEW
 70
     0
  9
$UCSORGTOP
 10
0.0
 20
0.0
 30
0.0
  9
$UCSORGBOTTOM
 10
0.0
 20
0.0
 30
0.0
  9
$UCSORGLEFT
 10
0.0
 20
0.0
 30
0.0
  9
$UCSORGRIGHT
 10
0.0
 20
0.0
 30
0.0
  9
$UCSORGFRONT
 10
0.0
 20
0.0
 30
0.0
  9
$UCSORGBACK
 10
0.0
 20
0.0
 30
0.0
  9
$PUCSBASE
  2

  9
$PUCSNAME
  2

  9
$PUCSORG
 10
0.0
 20
0.0
 30
0.0
  9
$PUCSXDIR
 10
1.0
 20
0.0
 30
0.0
  9
$PUCSYDIR
 10
0.0
 20
1.0
 30
0.0
  9
$PUCSORTHOREF
  2

  9
$PUCSORTHOVIEW
 70
     0
  9
$PUCSORGTOP
 10
0.0
 20
0.0
 30
0.0
  9
$PUCSORGBOTTOM
 10
0.0
 20
0.0
 30
0.0
  9
$PUCSORGLEFT
 10
0.0
 20
0.0
 30
0.0
  9
$PUCSORGRIGHT
 10
0.0
 20
0.0
 30
0.0
  9
$PUCSORGFRONT
 10
0.0
 20
0.0
 30
0.0
  9
$PUCSORGBACK
 10
0.0
 20
0.0
 30
0.0
  9
$USERI1
 70
     0
  9
$USERI2
 70
     0
  9
$USERI3
 70
     0
  9
$USERI4
 70
     0
  9
$USERI5
 70
     0
  9
$USERR1
 40
0.0
  9
$USERR2
 40
0.0
  9
$USERR3
 40
0.0
  9
$USERR4
 40
0.0
  9
$USERR5
 40
0.0
  9
$WORLDVIEW
 70
     1
  9
$SHADEDGE
 70
     3
  9
$SHADEDIF
 70
    70
  9
$TILEMODE
 70
     1
  9
$MAXACTVP
 70
    64
  9
$PINSBASE
 10
0.0
 20
0.0
 30
0.0
  9
$PLIMCHECK
 70
     0
  9
$PEXTMIN
 10
1.0000000000E+20
 20
1.0000000000E+20
 30
1.0000000000E+20
  9
$PEXTMAX
 10
-1.0000000000E+20
 20
-1.0000000000E+20
 30
-1.0000000000E+20
  9
$PLIMMIN
 10
0.0
 20
0.0
  9
$PLIMMAX
 10
420.0
 20
297.0
  9
$UNITMODE
 70
     0
  9
$VISRETAIN
 70
     1
  9
$PLINEGEN
 70
     0
  9
$PSLTSCALE
 70
     1
  9
$TREEDEPTH
 70
  3020
  9
$CMLSTYLE
  2
Standard
  9
$CMLJUST
 70
     0
  9
$CMLSCALE
 40
20.0
  9
$PROXYGRAPHICS
 70
     1
  9
$MEASUREMENT
 70
     1
  9
$CELWEIGHT
370
    -1
  9
$ENDCAPS
280
     0
  9
$JOINSTYLE
280
     0
  9
$LWDISPLAY
290
     1
  9
$INSUNITS
 70
     4
  9
$HYPERLINKBASE
  1

  9
$STYLESHEET
  1

  9
$XEDIT
290
     1
  9
$CEPSNTYPE
380
     0
  9
$PSTYLEMODE
290
     1
  9
$FINGERPRINTGUID
  2
{C4AD4602-FE6E-4B69-8858-964F34E0DFC4}
  9
$VERSIONGUID
  2
{FAEB1C32-E019-11D5-929B-00C0DF256EC4}
  9
$EXTNAMES
290
     1
  9
$PSVPSCALE
 40
0.0
  9
$OLESTARTUP
290
     0
  0
ENDSEC
  0
SECTION
  2
CLASSES
  0
CLASS
  1
ACDBDICTIONARYWDFLT
  2
AcDbDictionaryWithDefault
  3
ObjectDBX Classes
 90
        0
280
     0
281
     0
  0
CLASS
  1
VISUALSTYLE
  2
AcDbVisualStyle
  3
ObjectDBX Classes
 90
     4095
280
     0
281
     0
  0
CLASS
  1
MATERIAL
  2
AcDbMaterial
  3
ObjectDBX Classes
 90
     1153
280
     0
281
     0
  0
CLASS
  1
ACDBPLACEHOLDER
  2
AcDbPlaceHolder
  3
ObjectDBX Classes
 90
        0
280
     0
281
     0
  0
CLASS
  1
LAYOUT
  2
AcDbLayout
  3
ObjectDBX Classes
 90
        0
280
     0
281
     0
  0
ENDSEC
  0
SECTION
  2
TABLES
  0
TABLE
  2
VPORT
  5
8
330
0
100
AcDbSymbolTable
 70
     1
  0
VPORT
  5
29
330
8
100
AcDbSymbolTableRecord
100
AcDbViewportTableRecord
  2
*Active
 70
     0
 10
0.0
 20
0.0
 11
1.0
 21
1.0
 12
1079.5
 22
698.5
 13
0.0
 23
0.0
 14
10.0
 24
10.0
 15
10.0
 25
10.0
 16
0.0
 26
0.0
 36
1.0
 17
0.0
 27
0.0
 37
0.0
 40
1397.0
 41
1.5454545455
 42
50.0
 43
0.0
 44
0.0
 50
0.0
 51
0.0
 71
     0
 72
  2000
 73
     1
 74
     3
 75
     0
 76
     0
 77
     0
 78
     0
281
     0
 65
     1
110
0.0
120
0.0
130
0.0
111
1.0
121
0.0
131
0.0
112
0.0
122
1.0
132
0.0
 79
     0
146
0.0
  0
ENDTAB
  0
TABLE
  2
LTYPE
  5
5
330
0
100
AcDbSymbolTable
 70
     6
  0
LTYPE
  5
14
330
5
100
AcDbSymbolTableRecord
100
AcDbLinetypeTableRecord
  2
ByBlock
 70
     0
  3

 72
    65
 73
     0
 40
0.0
  0
LTYPE
  5
15
330
5
100
AcDbSymbolTableRecord
100
AcDbLinetypeTableRecord
  2
ByLayer
 70
     0
  3

 72
    65
 73
     0
 40
0.0
  0
LTYPE
  5
16
330
5
100
AcDbSymbolTableRecord
100
AcDbLinetypeTableRecord
  2
Continuous
 70
     0
  3
Solid line
 72
    65
 73
     0
 40
0.0
  0
LTYPE
  5
3F
330
5
100
AcDbSymbolTableRecord
100
AcDbLinetypeTableRecord
  2
HIDDEN
 70
     0
  3
Hidden __ __ __ __ __ __ __ __ __ __ __ __ __ __
 72
    65
 73
     2
 40
1.905
 49
1.27
 74
     0
 49
-0.635
 74
     0
  0
LTYPE
  5
40
330
5
100
AcDbSymbolTableRecord
100
AcDbLinetypeTableRecord
  2
PHANTOM
 70
     0
  3
Phantom ______  __  __  ______  __  __  ______
 72
    65
 73
     6
 40
12.7
 49
6.35
 74
     0
 49
-1.27
 74
     0
 49
1.27
 74
     0
 49
-1.27
 74
     0
 49
1.27
 74
     0
 49
-1.27
 74
     0
  0
LTYPE
  5
41
330
5
100
AcDbSymbolTableRecord
100
AcDbLinetypeTableRecord
  2
CENTER
 70
     0
  3
Center ____ _ ____ _ ____ _ ____ _ ____ _ ____
 72
    65
 73
     4
 40
10.16
 49
6.35
 74
     0
 49
-1.27
 74
     0
 49
1.27
 74
     0
 49
-1.27
 74
     0
  0
LTYPE
  5
42
330
5
100
AcDbSymbolTableRecord
100
AcDbLinetypeTableRecord
  2
CENTERX2
 70
     0
  3
Center (2x) ________  __  ________  __  _____
 72
    65
 73
     4
 40
20.32
 49
12.7
 74
     0
 49
-2.54
 74
     0
 49
2.54
 74
     0
 49
-2.54
 74
     0
  0
LTYPE
  5
43
330
5
100
AcDbSymbolTableRecord
100
AcDbLinetypeTableRecord
  2
DOT2
 70
     0
  3
Dot (.5x) ........................................
 72
    65
 73
     2
 40
0.635
 49
0.0
 74
     0
 49
-0.635
 74
     0
  0
ENDTAB
  0
TABLE
  2
LAYER
  5
2
330
0
100
AcDbSymbolTable
 70
     1
  0
LAYER
  5
10
330
2
100
AcDbSymbolTableRecord
100
AcDbLayerTableRecord
  2
0
 70
     0
 62
     7
  6
Continuous
370
    -3
390
F
  0
ENDTAB
  0
TABLE
  2
STYLE
  5
3
330
0
100
AcDbSymbolTable
 70
     1
  0
STYLE
  5
11
330
3
100
AcDbSymbolTableRecord
100
AcDbTextStyleTableRecord
  2
Standard
 70
     0
 40
0.0
 41
1.0
 50
0.0
 71
     0
 42
17.5
  3
txt
  4

  0
ENDTAB
  0
TABLE
  2
VIEW
  5
6
330
0
100
AcDbSymbolTable
 70
     0
  0
ENDTAB
  0
TABLE
  2
UCS
  5
7
330
0
100
AcDbSymbolTable
 70
     0
  0
ENDTAB
  0
TABLE
  2
APPID
  5
9
330
0
100
AcDbSymbolTable
 70
     1
  0
APPID
  5
12
330
9
100
AcDbSymbolTableRecord
100
AcDbRegAppTableRecord
  2
ACAD
 70
     0
  0
ENDTAB
  0
TABLE
  2
DIMSTYLE
  5
A
330
0
100
AcDbSymbolTable
 70
     1
100
AcDbDimStyleTable
  0
DIMSTYLE
105
27
330
A
100
AcDbSymbolTableRecord
100
AcDbDimStyleTableRecord
  2
ISO-25
 70
     0
 41
2.5
 42
0.625
 43
3.75
 44
1.25
 73
     0
 74
     0
 77
     1
 78
     8
140
2.5
141
2.5
143
0.0393700787
147
0.625
171
     3
172
     1
178
     0
271
     2
272
     2
274
     3
278
    44
283
     0
284
     8
340
11
  0
ENDTAB
  0
TABLE
  2
BLOCK_RECORD
  5
1
330
0
100
AcDbSymbolTable
 70
     1
  0
BLOCK_RECORD
  5
1F
330
1
100
AcDbSymbolTableRecord
100
AcDbBlockTableRecord
  2
*Model_Space
340
22
  0
BLOCK_RECORD
  5
1B
330
1
100
AcDbSymbolTableRecord
100
AcDbBlockTableRecord
  2
*Paper_Space
340
1E
  0
BLOCK_RECORD
  5
23
330
1
100
AcDbSymbolTableRecord
100
AcDbBlockTableRecord
  2
*Paper_Space0
340
26
  0
ENDTAB
  0
ENDSEC
  0
SECTION
  2
BLOCKS
  0
BLOCK
  5
20
330
1F
100
AcDbEntity
  8
0
100
AcDbBlockBegin
  2
*Model_Space
 70
     0
 10
0.0
 20
0.0
 30
0.0
  3
*Model_Space
  1

  0
ENDBLK
  5
21
330
1F
100
AcDbEntity
  8
0
100
AcDbBlockEnd
  0
BLOCK
  5
1C
330
1B
100
AcDbEntity
 67
     1
  8
0
100
AcDbBlockBegin
  2
*Paper_Space
 70
     0
 10
0.0
 20
0.0
 30
0.0
  3
*Paper_Space
  1

  0
ENDBLK
  5
1D
330
1B
100
AcDbEntity
 67
     1
  8
0
100
AcDbBlockEnd
  0
BLOCK
  5
24
330
23
100
AcDbEntity
  8
0
100
AcDbBlockBegin
  2
*Paper_Space0
 70
     0
 10
0.0
 20
0.0
 30
0.0
  3
*Paper_Space0
  1

  0
ENDBLK
  5
25
330
23
100
AcDbEntity
  8
0
100
AcDbBlockEnd
  0
ENDSEC
  0
SECTION
  2
ENTITIES
  0
LINE
  5
44
330
1F
100
AcDbEntity
  8
0
  6
Continuous
 62
     7
370
    15
100
AcDbLine
 10
1418.3678950216
 20
734.6264984928
 30
0.0
 11
1418.3803950216
 21
734.6264984928
 31
0.0
  0
LINE
  5
45
330
1F
100
AcDbEntity
  8
0
  6
Continuous
 62
     7
370
    15
100
AcDbLine
 10
1418.3678950216
 20
773.5207366682
 30
0.0
 11
1418.3803950216
 21
773.5207366682
 31
0.0
  0
LINE
  5
46
330
1F
100
AcDbEntity
  8
0
  6
Continuous
 62
     7
370
    15
100
AcDbLine
 10
675.4669317769
 20
843.0793453563
 30
0.0
 11
672.7713575675
 21
842.9002389106
 31
0.0
  0
LINE
  5
47
330
1F
100
AcDbEntity
  8
0
  6
Continuous
 62
     7
370
    15
100
AcDbLine
 10
683.5179907079
 20
843.614295032
 30
0.0
 11
679.9768192742
 21
843.379003187
 31
0.0
  0
LINE
  5
48
330
1F
100
AcDbEntity
  8
0
  6
Continuous
 62
     7
370
    15
100
AcDbLine
 10
655.1573888881
 20
788.6900174817
 30
0.0
 11
663.4318860735
 21
781.7956214728
 31
0.0
  0
LINE
  5
49
330
1F
100
AcDbEntity
  8
0
  6
Continuous
 62
     7
370
    15
100
AcDbLine
 10
639.3961947266
 20
802.9953092486
 30
0.0
 11
655.1573888881
 21
788.6900174817
 31
0.0
  0
LINE
  5
4A
330
1F
100
AcDbEntity
  8
0
  6
Continuous
 62
     7
370
    15
100
AcDbLine
 10
672.7713575675
 20
842.9002389106
 30
0.0
 11
669.2895126708
 21
842.5202834491
 31
0.0
  0
ARC
  5
4B
330
1F
100
AcDbEntity
  8
0
  6
Continuous
 62
     7
370
    15
100
AcDbCircle
 10
640.0682739697
 20
803.7357884792
 30
0.0
 40
0.9999999999999672
100
AcDbArc
 50
162.0
 51
227.7722546821
  0
LINE
  5
4C
330
1F
100
AcDbEntity
  8
0
  6
Continuous
 62
     7
370
    15
100
AcDbLine
 10
671.2868611175
 20
805.9707488505
 30
0.0
 11
672.9288245622
 21
805.4687502476
 31
0.0
  0
LINE
  5
4D
330
1F
100
AcDbEntity
  8
0
  6
Continuous
 62
     7
370
    15
100
AcDbLine
 10
676.5878806393
 20
843.1638484449
 30
0.0
 11
675.3943328511
 21
843.0845435972
 31
0.0
  0
LINE
  5
4E
330
1F
100
AcDbEntity
  8
0
  6
Continuous
 62
     7
370
    15
100
AcDbLine
 10
680.093611267
 20
843.3967854385
 30
0.0
 11
678.8945275853
 21
843.3171127604
 31
0.0
  0
LINE
  5
4F
330
1F
100
AcDbEntity
  8
0
  6
Continuous
 62
     7
370
    15
100
AcDbLine
 10
671.2466509442
 20
805.846994662
 30
0.0
 11
673.1595518001
 21
805.2621621797
 31
0.0
  0
ARC
  5
50
330
1F
100
AcDbEntity
  8
0
  6
Continuous
 62
     7
370
    15
100
AcDbCircle
 10
1443.4116475236
 20
668.5540214771
 30
0.0
 40
8.000000000000114
100
AcDbArc
 50
12.635625093
 51
90.0
  0
ARC
  5
51
330
1F
100
AcDbEntity
  8
0
  6
Continuous
 62
     7
370
    15
100
AcDbCircle
 10
1443.4116475236
 20
650.8040214771
 30
0.0
 40
8.0
100
AcDbArc
 50
270.0
 51
347.364374907
  0
LINE
  5
52
330
1F
100
AcDbEntity
  8
0
  6
Continuous
 62
     7
370
    15
100
AcDbLine
 10
1442.2678950216
 20
642.8040214771
 30
0.0
 11
1443.4116475236
 21
642.8040214771
 31
0.0
  0
LINE
  5
53
330
1F
100
AcDbEntity
  8
0
  6
Continuous
 62
     7
370
    15
100
AcDbLine
 10
1443.4116475236
 20
676.5540214771
 30
0.0
 11
1442.2678950216
 21
676.5540214771
 31
0.0
  0
LINE
  5
54
330
1F
100
AcDbEntity
  8
0
  6
Continuous
 62
     7
370
    15
100
AcDbLine
 10
1430.2678950216
 20
642.8040214771
 30
0.0
 11
1436.8678950216
 21
642.8040214771
 31
0.0
  0
LINE
  5
55
330
1F
100
AcDbEntity
  8
0
  6
Continuous
 62
     7
370
    15
100
AcDbLine
 10
1436.8678950216
 20
676.5540214771
 30
0.0
 11
1430.2678950216
 21
676.5540214771
 31
0.0
  0
LINE
  5
56
330
1F
100
AcDbEntity
  8
0
  6
Continuous
 62
     7
370
    15
100
AcDbLine
 10
1424.9178950216
 20
643.8290214771
 30
0.0
 11
1430.2678950216
 21
643.8290214771
 31
0.0
  0
LINE
  5
57
330
1F
100
AcDbEntity
  8
0
  6
Continuous
 62
     7
370
    15
100
AcDbLine
 10
1430.2678950216
 20
675.5290214771
 30
0.0
 11
1424.9178950216
 21
675.5290214771
 31
0.0
  0
LINE
  5
58
330
1F
100
AcDbEntity
  8
0
  6
Continuous
 62
     7
370
    15
100
AcDbLine
 10
1421.9678950216
 20
644.7540214771
 30
0.0
 11
1424.9178950216
 21
644.7540214771
 31
0.0
  0
LINE
  5
59
330
1F
100
AcDbEntity
  8
0
  6
Continuous
 62
     7
370
    15
100
AcDbLine
 10
1424.9178950216
 20
674.6040214771
 30
0.0
 11
1421.9678950216
 21
674.6040214771
 31
0.0
  0
LINE
  5
5A
330
1F
100
AcDbEntity
  8
0
  6
Continuous
 62
     7
370
    15
100
AcDbLine
 10
1418.1678950218
 20
693.9132092256
 30
0.0
 11
1418.2678950218
 21
693.9132092256
 31
0.0
  0
LINE
  5
5B
330
1F
100
AcDbEntity
  8
0
  6
Continuous
 62
     7
370
    15
100
AcDbLine
 10
1418.2678950218
 20
712.9132092256
 30
0.0
 11
1418.1678950218
 21
712.9132092256
 31
0.0
  0
SPLINE
  5
5C
330
1F
100
AcDbEntity
  8
0
  6
Continuous
 62
     7
370
    15
100
AcDbSpline
210
0.0
220
0.0
230
1.0
 70
     8
 71
     3
 72
    13
 73
     9
 74
     0
 42
0.00000001
 43
0.00000001
 12
1.0
 22
0.0
 32
0.0
 13
1.0
 23
0.0
 33
0.0
 40
0.0
 40
0.0
 40
0.0
 40
0.0
 40
0.0634888169693893
 40
0.2470479163437585
 40
0.431128403063007
 40
0.6187780680156043
 40
0.8315552681842083
 40
1.0
 40
1.0
 40
1.0
 40
1.0
 10
1430.817786131328
 20
676.5698649158618
 30
0.0
 10
1430.807560069174
 20
676.5693925840294
 30
0.0
 10
1430.767768378795
 20
676.5675546446793
 30
0.0
 10
1430.700208935305
 20
676.5808996616199
 30
0.0
 10
1430.630109421732
 20
676.6068476067288
 30
0.0
 10
1430.583641258344
 20
676.6388157203924
 30
0.0
 10
1430.567614632809
 20
676.6618310045492
 30
0.0
 10
1430.568315210657
 20
676.6610885137785
 30
0.0
 10
1430.568624764327
 20
676.6607604406844
 30
0.0
  0
LWPOLYLINE
  5
5D
330
1F
100
AcDbEntity
  8
0
  6
Continuous
 62
     7
370
    15
100
AcDbPolyline
 90
        3
 70
   128
 43
0.0
 10
1436.0005190915
 20
676.5540214771
 10
1435.9666676021
 20
676.5632659736
 10
1435.9178950216
 20
676.5680696535
  0
LINE
  5
5E
330
1F
100
AcDbEntity
  8
0
  6
Continuous
 62
     7
370
    15
100
AcDbLine
 10
1435.9178950216
 20
676.5680696535
 30
0.0
 11
1430.8178950216
 21
676.5680696535
 31
0.0
  0
ARC
  5
5F
330
1F
100
AcDbEntity
  8
0
  6
Continuous
 62
     7
370
    15
100
AcDbCircle
 10
1435.9178950216
 20
688.096667473
 30
0.0
 40
0.25
100
AcDbArc
 50
0.0
 51
90.0
  0
LINE
  5
60
330
1F
100
AcDbEntity
  8
0
  6
Continuous
 62
     7
370
    15
100
AcDbLine
 10
1435.9178950216
 20
688.346667473
 30
0.0
 11
1431.6408999829
 21
688.346667473
 31
0.0
  0
SPLINE
  5
61
330
1F
100
AcDbEntity
  8
0
  6
Continuous
 62
     7
370
    15
100
AcDbSpline
210
0.0
220
0.0
230
1.0
 70
     8
 71
     3
 72
    13
 73
     9
 74
     0
 42
0.00000001
 43
0.00000001
 12
1.0
 22
0.0
 32
0.0
 13
1.0
 23
0.0
 33
0.0
 40
0.0
 40
0.0
 40
0.0
 40
0.0
 40
0.0546880530908407
 40
0.2134688124177766
 40
0.3745771152279052
 40
0.5445034158397571
 40
0.747537422107104
 40
1.0
 40
1.0
 40
1.0
 40
1.0
 10
1430.317987086732
 20
683.6332963880276
 30
0.0
 10
1430.327570814148
 20
683.6337903459145
 30
0.0
 10
1430.36497984216
 20
683.6357184563069
 30
0.0
 10
1430.428825574828
 20
683.6216841081891
 30
0.0
 10
1430.496216593807
 20
683.5940433638909
 30
0.0
 10
1430.543812609513
 20
683.5571373883179
 30
0.0
 10
1430.56668710199
 20
683.5223604855685
 30
0.0
 10
1430.567141042028
 20
683.5105303130812
 30
0.0
 10
1430.567392641879
 20
683.5039733465816
 30
0.0
  0
LINE
  5
62
330
1F
100
AcDbEntity
  8
0
  6
Continuous
 62
     7
370
    15
100
AcDbLine
 10
1425.2178950216
 20
683.6351712268
 30
0.0
 11
1430.3178950216
 21
683.6351712268
 31
0.0
  0
ARC
  5
63
330
1F
100
AcDbEntity
  8
0
  6
Continuous
 62
     7
370
    15
100
AcDbCircle
 10
1425.2178950216
 20
683.8851712268
 30
0.0
 40
0.2500000000001137
100
AcDbArc
 50
180.0
 51
270.0
  0
ARC
  5
64
330
1F
100
AcDbEntity
  8
0
  6
Continuous
 62
     7
370
    15
100
AcDbCircle
 10
1425.2178950216
 20
688.5851416261
 30
0.0
 40
0.25
100
AcDbArc
 50
90.0
 51
180.0
  0
LINE
  5
65
330
1F
100
AcDbEntity
  8
0
  6
Continuous
 62
     7
370
    15
100
AcDbLine
 10
1430.3178950216
 20
688.8351416261
 30
0.0
 11
1425.2178950216
 21
688.8351416261
 31
0.0
  0
ARC
  5
66
330
1F
100
AcDbEntity
  8
0
  6
Continuous
 62
     7
370
    15
100
AcDbCircle
 10
1431.5178950216
 20
688.1290214771
 30
0.0
 40
0.25
100
AcDbArc
 50
0.0
 51
90.0
  0
LINE
  5
67
330
1F
100
AcDbEntity
  8
0
  6
Continuous
 62
     7
370
    15
100
AcDbLine
 10
1423.9178950216
 20
684.6790214771
 30
0.0
 11
1423.8663658463
 21
684.7682726269
 31
0.0
  0
LINE
  5
68
330
1F
100
AcDbEntity
  8
0
  6
Continuous
 62
     7
370
    15
100
AcDbLine
 10
1418.769424197
 20
684.7682726269
 30
0.0
 11
1418.7178950216
 21
684.6790214771
 31
0.0
  0
LINE
  5
69
330
1F
100
AcDbEntity
  8
0
  6
Continuous
 62
     7
370
    15
100
AcDbLine
 10
1424.3107205395
 20
684.9264025306
 30
0.0
 11
1424.1678950216
 21
684.6790214771
 31
0.0
  0
LINE
  5
6A
330
1F
100
AcDbEntity
  8
0
  6
Continuous
 62
     7
370
    15
100
AcDbLine
 10
1424.1678950216
 20
674.6790214771
 30
0.0
 11
1424.2111962918
 21
674.6040214771
 31
0.0
  0
LINE
  5
6B
330
1F
100
AcDbEntity
  8
0
  6
Continuous
 62
     7
370
    15
100
AcDbLine
 10
1432.0344526779
 20
685.140712881
 30
0.0
 11
1431.7678950216
 21
684.6790214771
 31
0.0
  0
LINE
  5
6C
330
1F
100
AcDbEntity
  8
0
  6
Continuous
 62
     7
370
    15
100
AcDbLine
 10
1436.9678950216
 20
684.6790214771
 30
0.0
 11
1436.7013373653
 21
685.140712881
 31
0.0
  0
LINE
  5
6D
330
1F
100
AcDbEntity
  8
0
  6
Continuous
 62
     7
370
    15
100
AcDbLine
 10
1418.7178950216
 20
685.7790214771
 30
0.0
 11
1418.1678950216
 21
685.7790214771
 31
0.0
  0
LINE
  5
6E
330
1F
100
AcDbEntity
  8
0
  6
Continuous
 62
     7
370
    15
100
AcDbLine
 10
1423.9178950216
 20
676.6790214771
 30
0.0
 11
1424.1678950216
 21
676.6790214771
 31
0.0
  0
LINE
  5
6F
330
1F
100
AcDbEntity
  8
0
  6
Continuous
 62
     7
370
    15
100
AcDbLine
 10
1424.1678950216
 20
682.6790214771
 30
0.0
 11
1423.9178950216
 21
682.6790214771
 31
0.0
  0
SPLINE
  5
70
330
1F
100
AcDbEntity
  8
0
  6
Continuous
 62
     7
370
    15
100
AcDbSpline
210
0.0
220
0.0
230
1.0
 70
     8
 71
     3
 72
    15
 73
    11
 74
     0
 42
0.00000001
 43
0.00000001
 12
1.0
 22
0.0
 32
0.0
 13
1.0
 23
0.0
 33
0.0
 40
0.0
 40
0.0
 40
0.0
 40
0.0
 40
0.0000442362997742
 40
0.0001312560338514
 40
0.0008500853263241
 40
0.0021557328957136
 40
0.0130762042124652
 40
0.1383688875923067
 40
0.3679856065945913
 40
1.0
 40
1.0
 40
1.0
 40
1.0
 10
648.5431593129383
 20
635.2006533815667
 30
0.0
 10
648.5431638155114
 20
635.2006472122534
 30
0.0
 10
648.5431771753522
 20
635.2006289069342
 30
0.0
 10
648.5432637366379
 20
635.2005103061633
 30
0.0
 10
648.543478749799
 20
635.2002157510932
 30
0.0
 10
648.544797334457
 20
635.1984100390472
 30
0.0
 10
648.558825112004
 20
635.1792411572112
 30
0.0
 10
648.596784554166
 20
635.1287047584374
 30
0.0
 10
648.7028774916104
 20
634.9949562533028
 30
0.0
 10
648.8072174146131
 20
634.887975419067
 30
0.0
 10
648.8837517135663
 20
634.8095039872884
 30
0.0
  0
LWPOLYLINE
  5
71
330
1F
100
AcDbEntity
  8
0
  6
Continuous
 62
     7
370
    15
100
AcDbPolyline
 90
        8
 70
   128
 43
0.0
 10
648.9634296062
 20
694.1228583498
 10
648.6962889464
 20
693.8501569457
 10
648.6047997229
 20
693.738905791
 10
648.5517196726
 20
693.6690597419
 10
648.5452481454
 20
693.6602481165
 10
648.5417417338
 20
693.6554455993
 10
648.5413454295
 20
693.6549015491
 10
648.5413473303
 20
693.6549041591
  0
LINE
  5
72
330
1F
100
AcDbEntity
  8
0
  6
Continuous
 62
     7
370
    15
100
AcDbLine
 10
680.441770815
 20
818.335570323
 30
0.0
 11
676.7577034644
 21
818.3234148095
 31
0.0
  0
LINE
  5
73
330
1F
100
AcDbEntity
  8
0
  6
Continuous
 62
     7
370
    15
100
AcDbLine
 10
672.6477774393
 20
805.6743631428
 30
0.0
 11
675.6211057028
 21
803.4990886688
 31
0.0
  0
LINE
  5
74
330
1F
100
AcDbEntity
  8
0
  6
Continuous
 62
     7
370
    15
100
AcDbLine
 10
676.6099600848
 20
806.542469521
 30
0.0
 11
676.785681525
 21
806.7140380051
 31
0.0
  0
LINE
  5
75
330
1F
100
AcDbEntity
  8
0
  6
Continuous
 62
     7
370
    15
100
AcDbLine
 10
679.4942326397
 20
815.0501011804
 30
0.0
 11
679.452916433
 21
815.2921894708
 31
0.0
  0
LINE
  5
76
330
1F
100
AcDbEntity
  8
0
  6
Continuous
 62
     7
370
    15
100
AcDbLine
 10
650.8678950216
 20
718.3922389937
 30
0.0
 11
650.7678950216
 21
718.3922389937
 31
0.0
  0
LINE
  5
77
330
1F
100
AcDbEntity
  8
0
  6
Continuous
 62
     7
370
    15
100
AcDbLine
 10
1418.3678950216
 20
635.8006491988
 30
0.0
 11
1418.2678950216
 21
635.8006491988
 31
0.0
  0
ARC
  5
78
330
1F
100
AcDbEntity
  8
0
  6
Continuous
 62
     7
370
    15
100
AcDbCircle
 10
1366.8678950216
 20
454.6790214772
 30
0.0
 40
1.999999999999943
100
AcDbArc
 50
270.0
 51
0.0
  0
ARC
  5
79
330
1F
100
AcDbEntity
  8
0
  6
Continuous
 62
     7
370
    15
100
AcDbCircle
 10
1313.8678950216
 20
454.6790214772
 30
0.0
 40
1.999999999999943
100
AcDbArc
 50
180.0
 51
270.0
  0
LINE
  5
7A
330
1F
100
AcDbEntity
  8
0
  6
Continuous
 62
     7
370
    15
100
AcDbLine
 10
1368.8678950216
 20
454.6790214772
 30
0.0
 11
1368.8678950216
 21
458.6790214772
 31
0.0
  0
LINE
  5
7B
330
1F
100
AcDbEntity
  8
0
  6
Continuous
 62
     7
370
    15
100
AcDbLine
 10
1311.8678950216
 20
458.6790214772
 30
0.0
 11
1311.8678950216
 21
454.6790214772
 31
0.0
  0
LINE
  5
7C
330
1F
100
AcDbEntity
  8
0
  6
Continuous
 62
     7
370
    15
100
AcDbLine
 10
794.8678950216
 20
454.6790214772
 30
0.0
 11
794.8678950216
 21
458.6790214772
 31
0.0
  0
LINE
  5
7D
330
1F
100
AcDbEntity
  8
0
  6
Continuous
 62
     7
370
    15
100
AcDbLine
 10
737.8678950216
 20
458.6790214772
 30
0.0
 11
737.8678950216
 21
454.6790214772
 31
0.0
  0
ARC
  5
7E
330
1F
100
AcDbEntity
  8
0
  6
Continuous
 62
     7
370
    15
100
AcDbCircle
 10
792.8678950216
 20
454.6790214772
 30
0.0
 40
1.999999999999943
100
AcDbArc
 50
270.0
 51
0.0
  0
ARC
  5
7F
330
1F
100
AcDbEntity
  8
0
  6
Continuous
 62
     7
370
    15
100
AcDbCircle
 10
739.8678950216
 20
454.6790214772
 30
0.0
 40
2.000000000000114
100
AcDbArc
 50
180.0
 51
270.0
  0
LINE
  5
80
330
1F
100
AcDbEntity
  8
0
  6
Continuous
 62
     7
370
    15
100
AcDbLine
 10
1368.6678950216
 20
458.6790214772
 30
0.0
 11
1368.6678950216
 21
506.6790214772
 31
0.0
  0
LINE
  5
81
330
1F
100
AcDbEntity
  8
0
  6
Continuous
 62
     7
370
    15
100
AcDbLine
 10
1312.0678950216
 20
506.6790214772
 30
0.0
 11
1312.0678950216
 21
458.6790214772
 31
0.0
  0
LINE
  5
82
330
1F
100
AcDbEntity
  8
0
  6
Continuous
 62
     7
370
    15
100
AcDbLine
 10
794.6678950216
 20
458.6790214772
 30
0.0
 11
794.6678950216
 21
506.6790214772
 31
0.0
  0
LINE
  5
83
330
1F
100
AcDbEntity
  8
0
  6
Continuous
 62
     7
370
    15
100
AcDbLine
 10
738.0678950216
 20
506.6790214772
 30
0.0
 11
738.0678950216
 21
458.6790214772
 31
0.0
  0
ARC
  5
84
330
1F
100
AcDbEntity
  8
0
  6
Continuous
 62
     7
370
    15
100
AcDbCircle
 10
799.7678950216
 20
599.1790214772
 30
0.0
 40
1.5
100
AcDbArc
 50
90.0
 51
180.0
  0
ARC
  5
85
330
1F
100
AcDbEntity
  8
0
  6
Continuous
 62
     7
370
    15
100
AcDbCircle
 10
732.9678950216
 20
599.1790214772
 30
0.0
 40
1.5
100
AcDbArc
 50
0.0
 51
90.0
  0
ARC
  5
86
330
1F
100
AcDbEntity
  8
0
  6
Continuous
 62
     7
370
    15
100
AcDbCircle
 10
793.5678950216
 20
512.7115874228
 30
0.0
 40
4.699999999999932
100
AcDbArc
 50
350.5402980318
 51
0.0
  0
ARC
  5
87
330
1F
100
AcDbEntity
  8
0
  6
Continuous
 62
     7
370
    15
100
AcDbCircle
 10
739.1678950216
 20
512.7115874228
 30
0.0
 40
4.7
100
AcDbArc
 50
180.0
 51
189.4597019682
  0
LINE
  5
88
330
1F
100
AcDbEntity
  8
0
  6
Continuous
 62
     7
370
    15
100
AcDbLine
 10
798.2678950216
 20
512.7115874228
 30
0.0
 11
798.2678950216
 21
599.1790214772
 31
0.0
  0
LINE
  5
89
330
1F
100
AcDbEntity
  8
0
  6
Continuous
 62
     7
370
    15
100
AcDbLine
 10
734.4678950216
 20
599.1790214772
 30
0.0
 11
734.4678950216
 21
512.7115874228
 31
0.0
  0
LINE
  5
8A
330
1F
100
AcDbEntity
  8
0
  6
Continuous
 62
     7
370
    15
100
AcDbLine
 10
734.5318082486
 20
511.9391241983
 30
0.0
 11
735.4082448013
 21
506.6790214772
 31
0.0
  0
LINE
  5
8B
330
1F
100
AcDbEntity
  8
0
  6
Continuous
 62
     7
370
    15
100
AcDbLine
 10
797.327545242
 20
506.6790214772
 30
0.0
 11
798.2039817946
 21
511.9391241983
 31
0.0
  0
ARC
  5
8C
330
1F
100
AcDbEntity
  8
0
  6
Continuous
 62
     7
370
    15
100
AcDbCircle
 10
1373.7678950216
 20
599.1790214772
 30
0.0
 40
1.5
100
AcDbArc
 50
90.0
 51
180.0
  0
ARC
  5
8D
330
1F
100
AcDbEntity
  8
0
  6
Continuous
 62
     7
370
    15
100
AcDbCircle
 10
1306.9678950216
 20
599.1790214772
 30
0.0
 40
1.5
100
AcDbArc
 50
0.0
 51
90.0
  0
ARC
  5
8E
330
1F
100
AcDbEntity
  8
0
  6
Continuous
 62
     7
370
    15
100
AcDbCircle
 10
1367.5678950216
 20
512.7115874228
 30
0.0
 40
4.7
100
AcDbArc
 50
350.5402980318
 51
0.0
  0
ARC
  5
8F
330
1F
100
AcDbEntity
  8
0
  6
Continuous
 62
     7
370
    15
100
AcDbCircle
 10
1313.1678950216
 20
512.7115874228
 30
0.0
 40
4.700000000000045
100
AcDbArc
 50
180.0
 51
189.4597019682
  0
LINE
  5
90
330
1F
100
AcDbEntity
  8
0
  6
Continuous
 62
     7
370
    15
100
AcDbLine
 10
1372.2678950216
 20
512.7115874228
 30
0.0
 11
1372.2678950216
 21
599.1790214772
 31
0.0
  0
LINE
  5
91
330
1F
100
AcDbEntity
  8
0
  6
Continuous
 62
     7
370
    15
100
AcDbLine
 10
1308.4678950216
 20
599.1790214772
 30
0.0
 11
1308.4678950216
 21
512.7115874228
 31
0.0
  0
LINE
  5
92
330
1F
100
AcDbEntity
  8
0
  6
Continuous
 62
     7
370
    15
100
AcDbLine
 10
1308.5318082486
 20
511.9391241983
 30
0.0
 11
1309.4082448013
 21
506.6790214772
 31
0.0
  0
LINE
  5
93
330
1F
100
AcDbEntity
  8
0
  6
Continuous
 62
     7
370
    15
100
AcDbLine
 10
1371.327545242
 20
506.6790214772
 30
0.0
 11
1372.2039817946
 21
511.9391241983
 31
0.0
  0
LINE
  5
94
330
1F
100
AcDbEntity
  8
0
  6
Continuous
 62
     7
370
    15
100
AcDbLine
 10
670.5678950216
 20
727.1790214772
 30
0.0
 11
670.5678950216
 21
727.6790214772
 31
0.0
  0
LINE
  5
95
330
1F
100
AcDbEntity
  8
0
  6
Continuous
 62
     7
370
    15
100
AcDbLine
 10
662.5678950216
 20
727.6790214772
 30
0.0
 11
662.5678950216
 21
727.1790214772
 31
0.0
  0
LINE
  5
96
330
1F
100
AcDbEntity
  8
0
  6
Continuous
 62
     7
370
    15
100
AcDbLine
 10
689.5678950216
 20
727.1790214772
 30
0.0
 11
689.5678950216
 21
727.6790214772
 31
0.0
  0
LINE
  5
97
330
1F
100
AcDbEntity
  8
0
  6
Continuous
 62
     7
370
    15
100
AcDbLine
 10
681.5678950216
 20
727.6790214772
 30
0.0
 11
681.5678950216
 21
727.1790214772
 31
0.0
  0
LINE
  5
98
330
1F
100
AcDbEntity
  8
0
  6
Continuous
 62
     7
370
    15
100
AcDbLine
 10
1418.2678950216
 20
777.6790214771
 30
0.0
 11
1418.1678950216
 21
777.6790214771
 31
0.0
  0
LINE
  5
99
330
1F
100
AcDbEntity
  8
0
  6
Continuous
 62
     7
370
    15
100
AcDbLine
 10
1418.2678950216
 20
777.6790214771
 30
0.0
 11
1418.2678950216
 21
727.6790214771
 31
0.0
  0
LINE
  5
9A
330
1F
100
AcDbEntity
  8
0
  6
Continuous
 62
     7
370
    15
100
AcDbLine
 10
1418.2678950216
 20
727.6790214771
 30
0.0
 11
1418.1678950216
 21
727.6790214771
 31
0.0
  0
LINE
  5
9B
330
1F
100
AcDbEntity
  8
0
  6
Continuous
 62
     7
370
    15
100
AcDbLine
 10
1418.3678950216
 20
744.167767239
 30
0.0
 11
1418.2678950216
 21
744.167767239
 31
0.0
  0
LINE
  5
9C
330
1F
100
AcDbEntity
  8
0
  6
Continuous
 62
     7
370
    15
100
AcDbLine
 10
1418.3678950216
 20
742.167767239
 30
0.0
 11
1418.3678950216
 21
744.167767239
 31
0.0
  0
LINE
  5
9D
330
1F
100
AcDbEntity
  8
0
  6
Continuous
 62
     7
370
    15
100
AcDbLine
 10
1418.3678950216
 20
742.167767239
 30
0.0
 11
1418.2678950216
 21
742.167767239
 31
0.0
  0
LINE
  5
9E
330
1F
100
AcDbEntity
  8
0
  6
Continuous
 62
     7
370
    15
100
AcDbLine
 10
1418.3678950216
 20
772.3969412589
 30
0.0
 11
1418.3678950216
 21
774.3969412589
 31
0.0
  0
LINE
  5
9F
330
1F
100
AcDbEntity
  8
0
  6
Continuous
 62
     7
370
    15
100
AcDbLine
 10
1418.3678950216
 20
772.3969412589
 30
0.0
 11
1418.2678950216
 21
772.3969412589
 31
0.0
  0
LINE
  5
A0
330
1F
100
AcDbEntity
  8
0
  6
Continuous
 62
     7
370
    15
100
AcDbLine
 10
1418.3678950216
 20
774.3969412589
 30
0.0
 11
1418.2678950216
 21
774.3969412589
 31
0.0
  0
LINE
  5
A1
330
1F
100
AcDbEntity
  8
0
  6
Continuous
 62
     7
370
    15
100
AcDbLine
 10
1418.3678950216
 20
738.8460524954
 30
0.0
 11
1418.2678950216
 21
738.8460524954
 31
0.0
  0
SPLINE
  5
A2
330
1F
100
AcDbEntity
  8
0
  6
Continuous
 62
     7
370
    15
100
AcDbSpline
210
0.0
220
0.0
230
1.0
 70
    24
 71
     3
 72
     9
 73
     5
 74
     0
 42
0.00000001
 43
0.00000001
 12
1.0
 22
0.0
 32
0.0
 13
1.0
 23
0.0
 33
0.0
 40
0.0
 40
0.0
 40
0.0
 40
0.0
 40
0.5601249695657029
 40
1.0
 40
1.0
 40
1.0
 40
1.0
 10
1418.367895021648
 20
738.1329114697652
 30
0.0
 10
1418.367895021648
 20
738.2407478167027
 30
0.0
 10
1418.367895021648
 20
738.4332697587631
 30
0.0
 10
1418.367895021648
 20
738.7199493163067
 30
0.0
 10
1418.367895021648
 20
738.8460524954062
 30
0.0
  0
LINE
  5
A3
330
1F
100
AcDbEntity
  8
0
  6
Continuous
 62
     7
370
    15
100
AcDbLine
 10
1418.3678950216
 20
738.1329114698
 30
0.0
 11
1418.2678950216
 21
738.1329114698
 31
0.0
  0
LINE
  5
A4
330
1F
100
AcDbEntity
  8
0
  6
Continuous
 62
     7
370
    15
100
AcDbLine
 10
1418.3678950216
 20
739.8857159569
 30
0.0
 11
1418.2678950216
 21
739.8857159569
 31
0.0
  0
SPLINE
  5
A5
330
1F
100
AcDbEntity
  8
0
  6
Continuous
 62
     7
370
    15
100
AcDbSpline
210
0.0
220
0.0
230
1.0
 70
    24
 71
     3
 72
    11
 73
     7
 74
     0
 42
0.00000001
 43
0.00000001
 12
1.0
 22
0.0
 32
0.0
 13
1.0
 23
0.0
 33
0.0
 40
0.0
 40
0.0
 40
0.0
 40
0.0
 40
0.1252130948404998
 40
0.2505383607358841
 40
0.5007850613682794
 40
0.9999999999999999
 40
0.9999999999999999
 40
0.9999999999999999
 40
0.9999999999999999
 10
1418.367895021648
 20
738.8460524954062
 30
0.0
 10
1418.367895021648
 20
738.9372311360536
 30
0.0
 10
1418.367895021648
 20
739.1196700989356
 30
0.0
 10
1418.367895021648
 20
739.4296910173591
 30
0.0
 10
1418.367895021648
 20
739.8038816670594
 30
0.0
 10
1418.367895021648
 20
739.8529989982651
 30
0.0
 10
1418.367895021648
 20
739.8857159569445
 30
0.0
  0
LINE
  5
A6
330
1F
100
AcDbEntity
  8
0
  6
Continuous
 62
     7
370
    15
100
AcDbLine
 10
1418.3678950216
 20
737.7831518544
 30
0.0
 11
1418.2678950216
 21
737.7831518544
 31
0.0
  0
SPLINE
  5
A7
330
1F
100
AcDbEntity
  8
0
  6
Continuous
 62
     7
370
    15
100
AcDbSpline
210
0.0
220
0.0
230
1.0
 70
    24
 71
     3
 72
     9
 73
     5
 74
     0
 42
0.00000001
 43
0.00000001
 12
1.0
 22
0.0
 32
0.0
 13
1.0
 23
0.0
 33
0.0
 40
0.0
 40
0.0
 40
0.0
 40
0.0
 40
0.5605738596509251
 40
1.0
 40
1.0
 40
1.0
 40
1.0
 10
1418.367895021648
 20
737.7831518543805
 30
0.0
 10
1418.367895021648
 20
737.7924342957143
 30
0.0
 10
1418.367895021648
 20
737.8089931151703
 30
0.0
 10
1418.367895021648
 20
738.0340260956859
 30
0.0
 10
1418.367895021648
 20
738.1329114697652
 30
0.0
  0
LINE
  5
A8
330
1F
100
AcDbEntity
  8
0
  6
Continuous
 62
     7
370
    15
100
AcDbLine
 10
1418.3678950216
 20
763.7302745922
 30
0.0
 11
1418.3678950216
 21
765.7302745922
 31
0.0
  0
LINE
  5
A9
330
1F
100
AcDbEntity
  8
0
  6
Continuous
 62
     7
370
    15
100
AcDbLine
 10
1418.3678950216
 20
765.7302745922
 30
0.0
 11
1418.2678950216
 21
765.7302745922
 31
0.0
  0
LINE
  5
AA
330
1F
100
AcDbEntity
  8
0
  6
Continuous
 62
     7
370
    15
100
AcDbLine
 10
1418.3678950216
 20
763.7302745922
 30
0.0
 11
1418.2678950216
 21
763.7302745922
 31
0.0
  0
LINE
  5
AB
330
1F
100
AcDbEntity
  8
0
  6
Continuous
 62
     7
370
    15
100
AcDbLine
 10
1418.3678950216
 20
770.0636079255
 30
0.0
 11
1418.2678950216
 21
770.0636079255
 31
0.0
  0
LINE
  5
AC
330
1F
100
AcDbEntity
  8
0
  6
Continuous
 62
     7
370
    15
100
AcDbLine
 10
1418.3678950216
 20
768.0636079255
 30
0.0
 11
1418.2678950216
 21
768.0636079255
 31
0.0
  0
LINE
  5
AD
330
1F
100
AcDbEntity
  8
0
  6
Continuous
 62
     7
370
    15
100
AcDbLine
 10
1418.3678950216
 20
768.0636079255
 30
0.0
 11
1418.3678950216
 21
770.0636079255
 31
0.0
  0
LINE
  5
AE
330
1F
100
AcDbEntity
  8
0
  6
Continuous
 62
     7
370
    15
100
AcDbLine
 10
1418.3678950216
 20
746.9882800595
 30
0.0
 11
1418.2678950216
 21
746.9882800595
 31
0.0
  0
LINE
  5
AF
330
1F
100
AcDbEntity
  8
0
  6
Continuous
 62
     7
370
    15
100
AcDbLine
 10
1418.3678950216
 20
746.88691788
 30
0.0
 11
1418.3678950216
 21
746.9882800595
 31
0.0
  0
LINE
  5
B0
330
1F
100
AcDbEntity
  8
0
  6
Continuous
 62
     7
370
    15
100
AcDbLine
 10
1418.3678950216
 20
746.88691788
 30
0.0
 11
1418.2678950216
 21
746.88691788
 31
0.0
  0
LINE
  5
B1
330
1F
100
AcDbEntity
  8
0
  6
Continuous
 62
     7
370
    15
100
AcDbLine
 10
1418.3678950216
 20
746.449818521
 30
0.0
 11
1418.2678950216
 21
746.449818521
 31
0.0
  0
SPLINE
  5
B2
330
1F
100
AcDbEntity
  8
0
  6
Continuous
 62
     7
370
    15
100
AcDbSpline
210
0.0
220
0.0
230
1.0
 70
    24
 71
     3
 72
     9
 73
     5
 74
     0
 42
0.00000001
 43
0.00000001
 12
1.0
 22
0.0
 32
0.0
 13
1.0
 23
0.0
 33
0.0
 40
0.0
 40
0.0
 40
0.0
 40
0.0
 40
0.5591822927567647
 40
1.0
 40
1.0
 40
1.0
 40
1.0
 10
1418.367895021647
 20
746.4498185210472
 30
0.0
 10
1418.367895021647
 20
746.4702474642608
 30
0.0
 10
1418.367895021647
 20
746.5067810660543
 30
0.0
 10
1418.367895021647
 20
746.7706151458663
 30
0.0
 10
1418.367895021647
 20
746.8869178800215
 30
0.0
  0
LINE
  5
B3
330
1F
100
AcDbEntity
  8
0
  6
Continuous
 62
     7
370
    15
100
AcDbLine
 10
1418.3678950216
 20
748.0856358287
 30
0.0
 11
1418.2678950216
 21
748.0856358287
 31
0.0
  0
LINE
  5
B4
330
1F
100
AcDbEntity
  8
0
  6
Continuous
 62
     7
370
    15
100
AcDbLine
 10
1418.3678950216
 20
747.7811486493
 30
0.0
 11
1418.2678950216
 21
747.7811486493
 31
0.0
  0
SPLINE
  5
B5
330
1F
100
AcDbEntity
  8
0
  6
Continuous
 62
     7
370
    15
100
AcDbSpline
210
0.0
220
0.0
230
1.0
 70
    24
 71
     3
 72
     9
 73
     5
 74
     0
 42
0.00000001
 43
0.00000001
 12
1.0
 22
0.0
 32
0.0
 13
1.0
 23
0.0
 33
0.0
 40
0.0
 40
0.0
 40
0.0
 40
0.0
 40
0.5609272731874042
 40
1.0
 40
1.0
 40
1.0
 40
1.0
 10
1418.367895021647
 20
747.7811486492524
 30
0.0
 10
1418.367895021647
 20
747.828001248034
 30
0.0
 10
1418.367895021647
 20
747.9115282951599
 30
0.0
 10
1418.367895021647
 20
748.0325142122268
 30
0.0
 10
1418.367895021647
 20
748.0856358287396
 30
0.0
  0
LINE
  5
B6
330
1F
100
AcDbEntity
  8
0
  6
Continuous
 62
     7
370
    15
100
AcDbLine
 10
1418.3678950216
 20
748.5523826236
 30
0.0
 11
1418.2678950216
 21
748.5523826236
 31
0.0
  0
SPLINE
  5
B7
330
1F
100
AcDbEntity
  8
0
  6
Continuous
 62
     7
370
    15
100
AcDbSpline
210
0.0
220
0.0
230
1.0
 70
    24
 71
     3
 72
    11
 73
     7
 74
     0
 42
0.00000001
 43
0.00000001
 12
1.0
 22
0.0
 32
0.0
 13
1.0
 23
0.0
 33
0.0
 40
0.0
 40
0.0
 40
0.0
 40
0.0
 40
0.125128973122803
 40
0.2504411273257939
 40
0.5002971322134182
 40
1.0
 40
1.0
 40
1.0
 40
1.0
 10
1418.367895021647
 20
748.0856358287396
 30
0.0
 10
1418.367895021647
 20
748.1272276523919
 30
0.0
 10
1418.367895021647
 20
748.2104721875551
 30
0.0
 10
1418.367895021647
 20
748.3503175950091
 30
0.0
 10
1418.367895021647
 20
748.5155754073077
 30
0.0
 10
1418.367895021647
 20
748.5376597909603
 30
0.0
 10
1418.367895021647
 20
748.5523826236113
 30
0.0
  0
LINE
  5
B8
330
1F
100
AcDbEntity
  8
0
  6
Continuous
 62
     7
370
    15
100
AcDbLine
 10
1418.3678950216
 20
747.5091133928
 30
0.0
 11
1418.2678950216
 21
747.5091133928
 31
0.0
  0
SPLINE
  5
B9
330
1F
100
AcDbEntity
  8
0
  6
Continuous
 62
     7
370
    15
100
AcDbSpline
210
0.0
220
0.0
230
1.0
 70
    24
 71
     3
 72
     9
 73
     5
 74
     0
 42
0.00000001
 43
0.00000001
 12
1.0
 22
0.0
 32
0.0
 13
1.0
 23
0.0
 33
0.0
 40
0.0
 40
0.0
 40
0.0
 40
0.0
 40
0.5603330587752123
 40
1.0
 40
1.0
 40
1.0
 40
1.0
 10
1418.367895021647
 20
747.509113392842
 30
0.0
 10
1418.367895021647
 20
747.5537087730543
 30
0.0
 10
1418.367895021647
 20
747.6332960462191
 30
0.0
 10
1418.367895021647
 20
747.7359952183675
 30
0.0
 10
1418.367895021647
 20
747.7811486492524
 30
0.0
  0
LINE
  5
BA
330
1F
100
AcDbEntity
  8
0
  6
Continuous
 62
     7
370
    15
100
AcDbLine
 10
1418.3678950216
 20
747.1902031364
 30
0.0
 11
1418.2678950216
 21
747.1902031364
 31
0.0
  0
SPLINE
  5
BB
330
1F
100
AcDbEntity
  8
0
  6
Continuous
 62
     7
370
    15
100
AcDbSpline
210
0.0
220
0.0
230
1.0
 70
    24
 71
     3
 72
     9
 73
     5
 74
     0
 42
0.00000001
 43
0.00000001
 12
1.0
 22
0.0
 32
0.0
 13
1.0
 23
0.0
 33
0.0
 40
0.0
 40
0.0
 40
0.0
 40
0.0
 40
0.5595529263836186
 40
1.0
 40
1.0
 40
1.0
 40
1.0
 10
1418.367895021647
 20
747.1902031364318
 30
0.0
 10
1418.367895021647
 20
747.2581201168747
 30
0.0
 10
1418.367895021647
 20
747.3794973400838
 30
0.0
 10
1418.367895021647
 20
747.4694805509441
 30
0.0
 10
1418.367895021647
 20
747.509113392842
 30
0.0
  0
LINE
  5
BC
330
1F
100
AcDbEntity
  8
0
  6
Continuous
 62
     7
370
    15
100
AcDbLine
 10
1418.3678950216
 20
746.9938890339
 30
0.0
 11
1418.2678950216
 21
746.9938890339
 31
0.0
  0
LINE
  5
BD
330
1F
100
AcDbEntity
  8
0
  6
Continuous
 62
     7
370
    15
100
AcDbLine
 10
1418.3678950216
 20
763.6789925409
 30
0.0
 11
1418.2678950216
 21
763.6789925409
 31
0.0
  0
SPLINE
  5
BE
330
1F
100
AcDbEntity
  8
0
  6
Continuous
 62
     7
370
    15
100
AcDbSpline
210
0.0
220
0.0
230
1.0
 70
    24
 71
     3
 72
    10
 73
     6
 74
     0
 42
0.00000001
 43
0.00000001
 12
1.0
 22
0.0
 32
0.0
 13
1.0
 23
0.0
 33
0.0
 40
0.0
 40
0.0
 40
0.0
 40
0.0
 40
0.2796482397963432
 40
0.5596709612923417
 40
1.0
 40
1.0
 40
1.0
 40
1.0
 10
1418.367895021646
 20
746.9938890338677
 30
0.0
 10
1418.367895021646
 20
747.0154888625027
 30
0.0
 10
1418.367895021646
 20
747.0587174444696
 30
0.0
 10
1418.367895021647
 20
747.1276293011786
 30
0.0
 10
1418.367895021647
 20
747.1664644162332
 30
0.0
 10
1418.367895021647
 20
747.1902031364318
 30
0.0
  0
LINE
  5
BF
330
1F
100
AcDbEntity
  8
0
  6
Continuous
 62
     7
370
    15
100
AcDbLine
 10
1418.3678950216
 20
765.7815566435
 30
0.0
 11
1418.2678950216
 21
765.7815566435
 31
0.0
  0
LINE
  5
C0
330
1F
100
AcDbEntity
  8
0
  6
Continuous
 62
     7
370
    15
100
AcDbLine
 10
1418.3678950216
 20
735.5011005723
 30
0.0
 11
1418.2678950216
 21
735.5011005723
 31
0.0
  0
LINE
  5
C1
330
1F
100
AcDbEntity
  8
0
  6
Continuous
 62
     7
370
    15
100
AcDbLine
 10
1418.3678950216
 20
733.5011005723
 30
0.0
 11
1418.3678950216
 21
735.5011005723
 31
0.0
  0
LINE
  5
C2
330
1F
100
AcDbEntity
  8
0
  6
Continuous
 62
     7
370
    15
100
AcDbLine
 10
1418.3678950216
 20
733.5011005723
 30
0.0
 11
1418.2678950216
 21
733.5011005723
 31
0.0
  0
LINE
  5
C3
330
1F
100
AcDbEntity
  8
0
  6
Continuous
 62
     7
370
    15
100
AcDbLine
 10
1418.3678950216
 20
768.0123258743
 30
0.0
 11
1418.2678950216
 21
768.0123258743
 31
0.0
  0
LINE
  5
C4
330
1F
100
AcDbEntity
  8
0
  6
Continuous
 62
     7
370
    15
100
AcDbLine
 10
1418.3678950216
 20
770.1148899768
 30
0.0
 11
1418.2678950216
 21
770.1148899768
 31
0.0
  0
LINE
  5
C5
330
1F
100
AcDbEntity
  8
0
  6
Continuous
 62
     7
370
    15
100
AcDbLine
 10
1418.3678950216
 20
733.449818521
 30
0.0
 11
1418.2678950216
 21
733.449818521
 31
0.0
  0
LINE
  5
C6
330
1F
100
AcDbEntity
  8
0
  6
Continuous
 62
     7
370
    15
100
AcDbLine
 10
1418.3678950216
 20
735.5523826236
 30
0.0
 11
1418.2678950216
 21
735.5523826236
 31
0.0
  0
LINE
  5
C7
330
1F
100
AcDbEntity
  8
0
  6
Continuous
 62
     7
370
    15
100
AcDbLine
 10
1418.3678950216
 20
742.1164851877
 30
0.0
 11
1418.2678950216
 21
742.1164851877
 31
0.0
  0
LINE
  5
C8
330
1F
100
AcDbEntity
  8
0
  6
Continuous
 62
     7
370
    15
100
AcDbLine
 10
1418.3678950216
 20
744.2190492903
 30
0.0
 11
1418.2678950216
 21
744.2190492903
 31
0.0
  0
LINE
  5
C9
330
1F
100
AcDbEntity
  8
0
  6
Continuous
 62
     7
370
    15
100
AcDbLine
 10
1418.3678950216
 20
761.3969412589
 30
0.0
 11
1418.2678950216
 21
761.3969412589
 31
0.0
  0
LINE
  5
CA
330
1F
100
AcDbEntity
  8
0
  6
Continuous
 62
     7
370
    15
100
AcDbLine
 10
1418.3678950216
 20
759.3969412589
 30
0.0
 11
1418.2678950216
 21
759.3969412589
 31
0.0
  0
LINE
  5
CB
330
1F
100
AcDbEntity
  8
0
  6
Continuous
 62
     7
370
    15
100
AcDbLine
 10
1418.3678950216
 20
759.3969412589
 30
0.0
 11
1418.3678950216
 21
761.3969412589
 31
0.0
  0
LINE
  5
CC
330
1F
100
AcDbEntity
  8
0
  6
Continuous
 62
     7
370
    15
100
AcDbLine
 10
1418.3678950216
 20
755.7390886948
 30
0.0
 11
1418.2678950216
 21
755.7390886948
 31
0.0
  0
LINE
  5
CD
330
1F
100
AcDbEntity
  8
0
  6
Continuous
 62
     7
370
    15
100
AcDbLine
 10
1418.3678950216
 20
754.4995053614
 30
0.0
 11
1418.2678950216
 21
754.4995053614
 31
0.0
  0
SPLINE
  5
CE
330
1F
100
AcDbEntity
  8
0
  6
Continuous
 62
     7
370
    15
100
AcDbSpline
210
0.0
220
0.0
230
1.0
 70
    24
 71
     3
 72
     9
 73
     5
 74
     0
 42
0.00000001
 43
0.00000001
 12
1.0
 22
0.0
 32
0.0
 13
1.0
 23
0.0
 33
0.0
 40
0.0
 40
0.0
 40
0.0
 40
0.0
 40
0.5593760836433189
 40
1.0
 40
1.0
 40
1.0
 40
1.0
 10
1418.367895021646
 20
754.4995053614406
 30
0.0
 10
1418.367895021646
 20
754.7191340634372
 30
0.0
 10
1418.367895021646
 20
755.1117656192345
 30
0.0
 10
1418.367895021646
 20
755.5472179731881
 30
0.0
 10
1418.367895021646
 20
755.7390886947738
 30
0.0
  0
LINE
  5
CF
330
1F
100
AcDbEntity
  8
0
  6
Continuous
 62
     7
370
    15
100
AcDbLine
 10
1418.3678950216
 20
757.1405310025
 30
0.0
 11
1418.2678950216
 21
757.1405310025
 31
0.0
  0
SPLINE
  5
D0
330
1F
100
AcDbEntity
  8
0
  6
Continuous
 62
     7
370
    15
100
AcDbSpline
210
0.0
220
0.0
230
1.0
 70
    24
 71
     3
 72
     9
 73
     5
 74
     0
 42
0.00000001
 43
0.00000001
 12
1.0
 22
0.0
 32
0.0
 13
1.0
 23
0.0
 33
0.0
 40
0.0
 40
0.0
 40
0.0
 40
0.0
 40
0.559748397438531
 40
1.0
 40
1.0
 40
1.0
 40
1.0
 10
1418.367895021646
 20
755.7390886947738
 30
0.0
 10
1418.367895021646
 20
756.0157107074066
 30
0.0
 10
1418.367895021646
 20
756.5099006218372
 30
0.0
 10
1418.367895021646
 20
756.9477618812917
 30
0.0
 10
1418.367895021646
 20
757.1405310024662
 30
0.0
  0
LINE
  5
D1
330
1F
100
AcDbEntity
  8
0
  6
Continuous
 62
     7
370
    15
100
AcDbLine
 10
1418.3678950216
 20
755.0636079255
 30
0.0
 11
1418.3678950216
 21
755.5640786948
 31
0.0
  0
LINE
  5
D2
330
1F
100
AcDbEntity
  8
0
  6
Continuous
 62
     7
370
    15
100
AcDbLine
 10
1418.3678950216
 20
774.4482233102
 30
0.0
 11
1418.2678950216
 21
774.4482233102
 31
0.0
  0
LINE
  5
D3
330
1F
100
AcDbEntity
  8
0
  6
Continuous
 62
     7
370
    15
100
AcDbLine
 10
1418.3678950216
 20
772.3456592076
 30
0.0
 11
1418.2678950216
 21
772.3456592076
 31
0.0
  0
LINE
  5
D4
330
1F
100
AcDbEntity
  8
0
  6
Continuous
 62
     7
370
    15
100
AcDbLine
 10
1418.3678950216
 20
759.3456592076
 30
0.0
 11
1418.2678950216
 21
759.3456592076
 31
0.0
  0
LINE
  5
D5
330
1F
100
AcDbEntity
  8
0
  6
Continuous
 62
     7
370
    15
100
AcDbLine
 10
1418.3678950216
 20
733.3472544185
 30
0.0
 11
1418.2678950216
 21
733.3472544185
 31
0.0
  0
LINE
  5
D6
330
1F
100
AcDbEntity
  8
0
  6
Continuous
 62
     7
370
    15
100
AcDbLine
 10
1418.3678950216
 20
761.4482233102
 30
0.0
 11
1418.2678950216
 21
761.4482233102
 31
0.0
  0
LINE
  5
D7
330
1F
100
AcDbEntity
  8
0
  6
Continuous
 62
     7
370
    15
100
AcDbLine
 10
1418.3678950216
 20
746.3031839057
 30
0.0
 11
1418.2678950216
 21
746.3031839057
 31
0.0
  0
LINE
  5
D8
330
1F
100
AcDbEntity
  8
0
  6
Continuous
 62
     7
370
    15
100
AcDbLine
 10
1418.3678950216
 20
746.2446903159
 30
0.0
 11
1418.3678950216
 21
746.3031839057
 31
0.0
  0
LINE
  5
D9
330
1F
100
AcDbEntity
  8
0
  6
Continuous
 62
     7
370
    15
100
AcDbLine
 10
1418.3678950216
 20
746.2446903159
 30
0.0
 11
1418.2678950216
 21
746.2446903159
 31
0.0
  0
LINE
  5
DA
330
1F
100
AcDbEntity
  8
0
  6
Continuous
 62
     7
370
    15
100
AcDbLine
 10
1418.3678950216
 20
741.9698505723
 30
0.0
 11
1418.2678950216
 21
741.9698505723
 31
0.0
  0
LINE
  5
DB
330
1F
100
AcDbEntity
  8
0
  6
Continuous
 62
     7
370
    15
100
AcDbLine
 10
1418.3678950216
 20
741.9113569826
 30
0.0
 11
1418.2678950216
 21
741.9113569826
 31
0.0
  0
LINE
  5
DC
330
1F
100
AcDbEntity
  8
0
  6
Continuous
 62
     7
370
    15
100
AcDbLine
 10
1418.3678950216
 20
741.9113569826
 30
0.0
 11
1418.3678950216
 21
741.9698505723
 31
0.0
  0
LINE
  5
DD
330
1F
100
AcDbEntity
  8
0
  6
Continuous
 62
     7
370
    15
100
AcDbLine
 10
1418.3678950216
 20
767.8656912589
 30
0.0
 11
1418.2678950216
 21
767.8656912589
 31
0.0
  0
LINE
  5
DE
330
1F
100
AcDbEntity
  8
0
  6
Continuous
 62
     7
370
    15
100
AcDbLine
 10
1418.3678950216
 20
767.8071976691
 30
0.0
 11
1418.2678950216
 21
767.8071976691
 31
0.0
  0
LINE
  5
DF
330
1F
100
AcDbEntity
  8
0
  6
Continuous
 62
     7
370
    15
100
AcDbLine
 10
1418.3678950216
 20
767.8071976691
 30
0.0
 11
1418.3678950216
 21
767.8656912589
 31
0.0
  0
LINE
  5
E0
330
1F
100
AcDbEntity
  8
0
  6
Continuous
 62
     7
370
    15
100
AcDbLine
 10
769.9678950216
 20
898.4719504093
 30
0.0
 11
769.9678950216
 21
898.5456882343
 31
0.0
  0
LINE
  5
E1
330
1F
100
AcDbEntity
  8
0
  6
Continuous
 62
     7
370
    15
100
AcDbLine
 10
769.9678950216
 20
898.5456882343
 30
0.0
 11
770.0038646923
 21
898.5456882343
 31
0.0
  0
LINE
  5
E2
330
1F
100
AcDbEntity
  8
0
  6
Continuous
 62
     7
370
    15
100
AcDbLine
 10
829.3768763953
 20
883.4719504093
 30
0.0
 11
829.5198787081
 21
883.9719504093
 31
0.0
  0
LINE
  5
E3
330
1F
100
AcDbEntity
  8
0
  6
Continuous
 62
     7
370
    15
100
AcDbLine
 10
788.7213704715
 20
883.4719504093
 30
0.0
 11
788.5783681587
 21
883.9719504093
 31
0.0
  0
LINE
  5
E4
330
1F
100
AcDbEntity
  8
0
  6
Continuous
 62
     7
370
    15
100
AcDbLine
 10
769.9678950216
 20
898.4719504093
 30
0.0
 11
769.9678950216
 21
883.9719504093
 31
0.0
  0
ARC
  5
E5
330
1F
100
AcDbEntity
  8
0
  6
Continuous
 62
     7
370
    15
100
AcDbCircle
 10
786.9095305618
 20
910.3933138107
 30
0.0
 40
9.99999999999989
100
AcDbArc
 50
103.9613225829
 51
153.9966541555
  0
LINE
  5
E6
330
1F
100
AcDbEntity
  8
0
  6
Continuous
 62
     7
370
    15
100
AcDbLine
 10
1354.4678950216
 20
1061.7990337427
 30
0.0
 11
784.496862121
 21
920.0979019521
 31
0.0
  0
LINE
  5
E7
330
1F
100
AcDbEntity
  8
0
  6
Continuous
 62
     7
370
    15
100
AcDbLine
 10
1354.4678950216
 20
883.9719504093
 30
0.0
 11
1354.4678950216
 21
1061.7990337427
 31
0.0
  0
CIRCLE
  5
E8
330
1F
100
AcDbEntity
  8
0
  6
Continuous
 62
     7
370
    15
100
AcDbCircle
 10
888.4678950216
 20
924.9719504093
 30
0.0
 40
6.999999999999886
  0
CIRCLE
  5
E9
330
1F
100
AcDbEntity
  8
0
  6
Continuous
 62
     7
370
    15
100
AcDbCircle
 10
1308.4678950216
 20
1009.9719504093
 30
0.0
 40
7.0
  0
LINE
  5
EA
330
1F
100
AcDbEntity
  8
0
  6
Continuous
 62
     7
370
    15
100
AcDbLine
 10
777.9218461053
 20
914.7775501309
 30
0.0
 11
769.9678950216
 21
898.4719504093
 31
0.0
  0
LINE
  5
EB
330
1F
100
AcDbEntity
  8
0
  6
Continuous
 62
     7
370
    15
100
AcDbLine
 10
769.9678950216
 20
883.9719504093
 30
0.0
 11
1354.4678950216
 21
883.9719504093
 31
0.0
  0
LINE
  5
EC
330
1F
100
AcDbEntity
  8
0
  6
Continuous
 62
     7
370
    15
100
AcDbLine
 10
1357.9678950216
 20
883.9719504093
 30
0.0
 11
1354.4678950216
 21
883.9719504093
 31
0.0
  0
SPLINE
  5
ED
330
1F
100
AcDbEntity
  8
0
  6
Continuous
 62
     7
370
    15
100
AcDbSpline
210
0.0
220
0.0
230
1.0
 70
     8
 71
     3
 72
    11
 73
     7
 74
     0
 42
0.00000001
 43
0.00000001
 12
1.0
 22
0.0
 32
0.0
 13
1.0
 23
0.0
 33
0.0
 40
0.0
 40
0.0
 40
0.0
 40
0.0
 40
0.2499999999999997
 40
0.5000000000000073
 40
0.7500000000000003
 40
1.0
 40
1.0
 40
1.0
 40
1.0
 10
1354.467895021641
 20
1061.799033742675
 30
0.0
 10
1354.926524674963
 20
1061.830110131564
 30
0.0
 10
1355.843783981606
 20
1061.892262909342
 30
0.0
 10
1357.000691261445
 20
1061.985492076008
 30
0.0
 10
1357.810063507374
 20
1062.078721242675
 30
0.0
 10
1357.915284516885
 20
1062.140874020453
 30
0.0
 10
1357.967895021641
 20
1062.171950409342
 30
0.0
  0
LINE
  5
EE
330
1F
100
AcDbEntity
  8
0
  6
Continuous
 62
     7
370
    15
100
AcDbLine
 10
1357.9678950216
 20
1062.1719504093
 30
0.0
 11
1357.9678950216
 21
883.9719504093
 31
0.0
  0
LINE
  5
EF
330
1F
100
AcDbEntity
  8
0
  6
Continuous
 62
     7
370
    15
100
AcDbLine
 10
1355.9678950216
 20
1062.1719504093
 30
0.0
 11
1357.9678950216
 21
1062.1719504093
 31
0.0
  0
SPLINE
  5
F0
330
1F
100
AcDbEntity
  8
0
  6
Continuous
 62
     7
370
    15
100
AcDbSpline
210
0.0
220
0.0
230
1.0
 70
     8
 71
     3
 72
    11
 73
     7
 74
     0
 42
0.00000001
 43
0.00000001
 12
1.0
 22
0.0
 32
0.0
 13
1.0
 23
0.0
 33
0.0
 40
0.0
 40
0.0
 40
0.0
 40
0.0
 40
0.2500000000000098
 40
0.5000000000000019
 40
0.7499999999999902
 40
1.0
 40
1.0
 40
1.0
 40
1.0
 10
1354.467895021641
 20
1061.799033742675
 30
0.0
 10
1354.66445058735
 20
1061.830110131564
 30
0.0
 10
1355.057561718769
 20
1061.892262909342
 30
0.0
 10
1355.553379124414
 20
1061.985492076008
 30
0.0
 10
1355.900252944098
 20
1062.078721242675
 30
0.0
 10
1355.94534766246
 20
1062.140874020453
 30
0.0
 10
1355.967895021641
 20
1062.171950409342
 30
0.0
  0
LINE
  5
F1
330
1F
100
AcDbEntity
  8
0
  6
Continuous
 62
     7
370
    15
100
AcDbLine
 10
1360.381462065
 20
1072.4128067972
 30
0.0
 11
1362.194077639
 21
1071.5675702737
 31
0.0
  0
LINE
  5
F2
330
1F
100
AcDbEntity
  8
0
  6
Continuous
 62
     7
370
    15
100
AcDbLine
 10
1362.4945533737
 20
1076.9443457323
 30
0.0
 11
1360.381462065
 21
1072.4128067972
 31
0.0
  0
LINE
  5
F3
330
1F
100
AcDbEntity
  8
0
  6
Continuous
 62
     7
370
    15
100
AcDbLine
 10
1362.4945533737
 20
1076.9443457323
 30
0.0
 11
1364.3071689478
 21
1076.0991092089
 31
0.0
  0
LINE
  5
F4
330
1F
100
AcDbEntity
  8
0
  6
Continuous
 62
     7
370
    15
100
AcDbLine
 10
1364.3071689478
 20
1076.0991092089
 30
0.0
 11
1362.194077639
 21
1071.5675702737
 31
0.0
  0
ARC
  5
F5
330
1F
100
AcDbEntity
  8
0
  6
Continuous
 62
     7
370
    15
100
AcDbCircle
 10
1359.4678950216
 20
1062.1719504093
 30
0.0
 40
3.5
100
AcDbArc
 50
155.0
 51
180.0
  0
LINE
  5
F6
330
1F
100
AcDbEntity
  8
0
  6
Continuous
 62
     7
370
    15
100
AcDbLine
 10
1358.1084333411
 20
1062.805877802
 30
0.0
 11
1356.295817767
 21
1063.6511143254
 31
0.0
  0
ARC
  5
F7
330
1F
100
AcDbEntity
  8
0
  6
Continuous
 62
     7
370
    15
100
AcDbCircle
 10
1359.4678950216
 20
1062.1719504093
 30
0.0
 40
1.5
100
AcDbArc
 50
155.0
 51
180.0
  0
LINE
  5
F8
330
1F
100
AcDbEntity
  8
0
  6
Continuous
 62
     7
370
    15
100
AcDbLine
 10
1360.381462065
 20
1072.4128067972
 30
0.0
 11
1356.295817767
 21
1063.6511143254
 31
0.0
  0
LINE
  5
F9
330
1F
100
AcDbEntity
  8
0
  6
Continuous
 62
     7
370
    15
100
AcDbLine
 10
1362.194077639
 20
1071.5675702737
 30
0.0
 11
1358.1084333411
 21
1062.805877802
 31
0.0
  0
LINE
  5
FA
330
1F
100
AcDbEntity
  8
0
  6
Continuous
 62
     7
370
    15
100
AcDbLine
 10
1336.6678950216
 20
883.4719504093
 30
0.0
 11
1336.6678950216
 21
883.9719504093
 31
0.0
  0
SPLINE
  5
FB
330
1F
100
AcDbEntity
  8
0
  6
Continuous
 62
     7
370
    15
100
AcDbSpline
210
0.0
220
0.0
230
1.0
 70
     8
 71
     3
 72
     9
 73
     5
 74
     0
 42
0.00000001
 43
0.00000001
 12
1.0
 22
0.0
 32
0.0
 13
1.0
 23
0.0
 33
0.0
 40
0.0
 40
0.0
 40
0.0
 40
0.0
 40
0.5209744652335355
 40
1.0
 40
1.0
 40
1.0
 40
1.0
 10
657.6711272276192
 20
794.3922860834725
 30
0.0
 10
657.567387610387
 20
794.163916091506
 30
0.0
 10
657.3682615031493
 20
793.7255644884884
 30
0.0
 10
656.9313508175126
 20
793.5768272323655
 30
0.0
 10
656.7220594426805
 20
793.5055782887115
 30
0.0
  0
LINE
  5
FC
330
1F
100
AcDbEntity
  8
0
  6
Continuous
 62
     7
370
    15
100
AcDbLine
 10
671.6337631441
 20
837.3648607792
 30
0.0
 11
657.6711272276
 21
794.3922860835
 31
0.0
  0
SPLINE
  5
FD
330
1F
100
AcDbEntity
  8
0
  6
Continuous
 62
     7
370
    15
100
AcDbSpline
210
0.0
220
0.0
230
1.0
 70
     8
 71
     3
 72
     9
 73
     5
 74
     0
 42
0.00000001
 43
0.00000001
 12
1.0
 22
0.0
 32
0.0
 13
1.0
 23
0.0
 33
0.0
 40
0.0
 40
0.0
 40
0.0
 40
0.0
 40
0.4790255347664749
 40
1.0
 40
1.0
 40
1.0
 40
1.0
 10
671.3673526035037
 20
838.5791559468809
 30
0.0
 10
671.4979781688164
 20
838.4082964236385
 30
0.0
 10
671.7706683613684
 20
838.0516149717288
 30
0.0
 10
671.6806568454573
 20
837.6000924720023
 30
0.0
 10
671.6337631440905
 20
837.3648607791664
 30
0.0
  0
LINE
  5
FE
330
1F
100
AcDbEntity
  8
0
  6
Continuous
 62
     7
370
    15
100
AcDbLine
 10
672.7713575675
 20
842.9002389106
 30
0.0
 11
671.3673526035
 21
838.5791559469
 31
0.0
  0
LINE
  5
FF
330
1F
100
AcDbEntity
  8
0
  6
Continuous
 62
     7
370
    15
100
AcDbLine
 10
656.7220594427
 20
793.5055782887
 30
0.0
 11
655.1573888881
 21
788.6900174817
 31
0.0
  0
LINE
  5
100
330
1F
100
AcDbEntity
  8
0
  6
Continuous
 62
     7
370
    15
100
AcDbLine
 10
670.3958026082
 20
813.9453703863
 30
0.0
 11
669.7594459069
 21
811.9611692067
 31
0.0
  0
LINE
  5
101
330
1F
100
AcDbEntity
  8
0
  6
Continuous
 62
     7
370
    15
100
AcDbLine
 10
668.3892277125
 20
815.1780785431
 30
0.0
 11
670.3958026082
 21
813.9453703863
 31
0.0
  0
SPLINE
  5
102
330
1F
100
AcDbEntity
  8
0
  6
Continuous
 62
     7
370
    15
100
AcDbSpline
210
0.0
220
0.0
230
1.0
 70
     8
 71
     3
 72
    14
 73
    10
 74
     0
 42
0.00000001
 43
0.00000001
 12
1.0
 22
0.0
 32
0.0
 13
1.0
 23
0.0
 33
0.0
 40
0.0
 40
0.0
 40
0.0
 40
0.0
 40
0.1251192889855268
 40
0.2501273104144323
 40
0.3736841072648283
 40
0.5003156651844023
 40
0.6254350316723553
 40
0.7505330738030999
 40
1.0
 40
1.0
 40
1.0
 40
1.0
 10
666.8667599192149
 20
814.4397816831885
 30
0.0
 10
666.8543471010263
 20
814.3953064546034
 30
0.0
 10
666.8295325032664
 20
814.3063955488892
 30
0.0
 10
666.8277211988541
 20
814.1680673178615
 30
0.0
 10
666.8521215528998
 20
814.0334363701447
 30
0.0
 10
666.9031754660265
 20
813.9082276998208
 30
0.0
 10
666.9750331899885
 20
813.7954489038203
 30
0.0
 10
667.0994135248487
 20
813.6709038161374
 30
0.0
 10
667.2185041004965
 20
813.6201374684339
 30
0.0
 10
667.2978205405213
 20
813.586326178573
 30
0.0
  0
SPLINE
  5
103
330
1F
100
AcDbEntity
  8
0
  6
Continuous
 62
     7
370
    15
100
AcDbSpline
210
0.0
220
0.0
230
1.0
 70
     8
 71
     3
 72
    11
 73
     7
 74
     0
 42
0.00000001
 43
0.00000001
 12
1.0
 22
0.0
 32
0.0
 13
1.0
 23
0.0
 33
0.0
 40
0.0
 40
0.0
 40
0.0
 40
0.0
 40
0.2502729644867864
 40
0.5001703940255994
 40
0.7500597471294627
 40
1.0
 40
1.0
 40
1.0
 40
1.0
 10
667.4414371573328
 20
814.9253232206399
 30
0.0
 10
667.3785528005146
 20
814.9112075135921
 30
0.0
 10
667.2528784449474
 20
814.8829972801356
 30
0.0
 10
667.0836515194974
 20
814.7773311066377
 30
0.0
 10
666.9435431519985
 20
814.6290961037446
 30
0.0
 10
666.8923560676753
 20
814.5028907740483
 30
0.0
 10
666.8667599192149
 20
814.4397816831885
 30
0.0
  0
LINE
  5
104
330
1F
100
AcDbEntity
  8
0
  6
Continuous
 62
     7
370
    15
100
AcDbLine
 10
667.7271448924
 20
815.7668915312
 30
0.0
 11
667.4414371573
 21
814.9253232206
 31
0.0
  0
SPLINE
  5
105
330
1F
100
AcDbEntity
  8
0
  6
Continuous
 62
     7
370
    15
100
AcDbSpline
210
0.0
220
0.0
230
1.0
 70
     8
 71
     3
 72
    13
 73
     9
 74
     0
 42
0.00000001
 43
0.00000001
 12
1.0
 22
0.0
 32
0.0
 13
1.0
 23
0.0
 33
0.0
 40
0.0
 40
0.0
 40
0.0
 40
0.0
 40
0.2836767352346135
 40
0.4235177609151413
 40
0.5686458620117147
 40
0.7111204425245194
 40
0.8536039649679225
 40
1.0
 40
1.0
 40
1.0
 40
1.0
 10
668.7991701412041
 20
813.6963385428007
 30
0.0
 10
668.7251078972783
 20
813.5197315082236
 30
0.0
 10
668.6145359968729
 20
813.2560644303292
 30
0.0
 10
668.3478523234323
 20
812.9928498354963
 30
0.0
 10
668.1184313825376
 20
812.8406753353329
 30
0.0
 10
667.8651689798728
 20
812.7433628641161
 30
0.0
 10
667.5973082547338
 20
812.6893171597634
 30
0.0
 10
667.4217765748583
 20
812.7283258296453
 30
0.0
 10
667.332822056301
 20
812.748094326428
 30
0.0
  0
LINE
  5
106
330
1F
100
AcDbEntity
  8
0
  6
Continuous
 62
     7
370
    15
100
AcDbLine
 10
668.8509550857
 20
813.9823925802
 30
0.0
 11
668.7991701412
 21
813.6963385428
 31
0.0
  0
SPLINE
  5
107
330
1F
100
AcDbEntity
  8
0
  6
Continuous
 62
     7
370
    15
100
AcDbSpline
210
0.0
220
0.0
230
1.0
 70
     8
 71
     3
 72
    12
 73
     8
 74
     0
 42
0.00000001
 43
0.00000001
 12
1.0
 22
0.0
 32
0.0
 13
1.0
 23
0.0
 33
0.0
 40
0.0
 40
0.0
 40
0.0
 40
0.0
 40
0.0782589585594929
 40
0.2303166154283424
 40
0.3847611582807937
 40
0.6921170694907649
 40
1.0
 40
1.0
 40
1.0
 40
1.0
 10
679.9768530963202
 20
843.3784941595761
 30
0.0
 10
679.9549905345664
 20
843.3771224187693
 30
0.0
 10
679.8906488755363
 20
843.3730853768037
 30
0.0
 10
679.6642572365399
 20
843.3544705049237
 30
0.0
 10
679.2224676177094
 20
843.3192632044287
 30
0.0
 10
678.561761651352
 20
843.2697181053769
 30
0.0
 10
678.0275599850825
 20
843.2335459904407
 30
0.0
 10
677.7602303508959
 20
843.215444440288
 30
0.0
  0
SPLINE
  5
108
330
1F
100
AcDbEntity
  8
0
  6
Continuous
 62
     7
370
    15
100
AcDbSpline
210
0.0
220
0.0
230
1.0
 70
     8
 71
     3
 72
    12
 73
     8
 74
     0
 42
0.00000001
 43
0.00000001
 12
1.0
 22
0.0
 32
0.0
 13
1.0
 23
0.0
 33
0.0
 40
0.0
 40
0.0
 40
0.0
 40
0.0
 40
0.2988828014586424
 40
0.5964251701643172
 40
0.7476337234673942
 40
0.8940971359561193
 40
1.0
 40
1.0
 40
1.0
 40
1.0
 10
677.7602303508959
 20
843.215444440288
 30
0.0
 10
677.493913790147
 20
843.1977818862346
 30
0.0
 10
676.9624750479811
 20
843.1625359913373
 30
0.0
 10
676.3021144553704
 20
843.1238544509683
 30
0.0
 10
675.8484603389342
 20
843.0997373149359
 30
0.0
 10
675.5924577424929
 20
843.087020448258
 30
0.0
 10
675.5193508188424
 20
843.0823219132874
 30
0.0
 10
675.4886722642334
 20
843.080350222311
 30
0.0
  0
LINE
  5
109
330
1F
100
AcDbEntity
  8
0
  6
Continuous
 62
     7
370
    15
100
AcDbLine
 10
666.2972376456
 20
800.9352211233
 30
0.0
 11
666.0678442013
 21
800.2056444445
 31
0.0
  0
LINE
  5
10A
330
1F
100
AcDbEntity
  8
0
  6
Continuous
 62
     7
370
    15
100
AcDbLine
 10
664.4529921773
 20
803.8674522783
 30
0.0
 11
666.2972376456
 21
800.9352211233
 31
0.0
  0
LINE
  5
10B
330
1F
100
AcDbEntity
  8
0
  6
Continuous
 62
     7
370
    15
100
AcDbLine
 10
663.7962374295
 20
804.20948486
 30
0.0
 11
664.4529921773
 21
803.8674522783
 31
0.0
  0
LINE
  5
10C
330
1F
100
AcDbEntity
  8
0
  6
Continuous
 62
     7
370
    15
100
AcDbLine
 10
662.4633352547
 20
802.915292908
 30
0.0
 11
663.2306983552
 21
802.5149340032
 31
0.0
  0
LINE
  5
10D
330
1F
100
AcDbEntity
  8
0
  6
Continuous
 62
     7
370
    15
100
AcDbLine
 10
663.663642156
 20
801.4594912928
 30
0.0
 11
663.560278705
 21
801.1207200147
 31
0.0
  0
SPLINE
  5
10E
330
1F
100
AcDbEntity
  8
0
  6
Continuous
 62
     7
370
    15
100
AcDbSpline
210
0.0
220
0.0
230
1.0
 70
     8
 71
     3
 72
    14
 73
    10
 74
     0
 42
0.00000001
 43
0.00000001
 12
1.0
 22
0.0
 32
0.0
 13
1.0
 23
0.0
 33
0.0
 40
0.0
 40
0.0
 40
0.0
 40
0.0
 40
0.1251855363308363
 40
0.2501590837917278
 40
0.3739032495526031
 40
0.5002395262217636
 40
0.6250671855107965
 40
0.7503825288823237
 40
1.0
 40
1.0
 40
1.0
 40
1.0
 10
660.8408092596089
 20
787.8424507338245
 30
0.0
 10
660.8639500752244
 20
787.8255007926111
 30
0.0
 10
660.9101925198567
 20
787.791629613172
 30
0.0
 10
660.9798225300873
 20
787.7516173014955
 30
0.0
 10
661.0456654260555
 20
787.7244750882866
 30
0.0
 10
661.1044756048865
 20
787.7113365871952
 30
0.0
 10
661.1545211744843
 20
787.7114574885289
 30
0.0
 10
661.2072361818716
 20
787.7289644066242
 30
0.0
 10
661.2243850724888
 20
787.7639048292046
 30
0.0
 10
661.2358022185558
 20
787.787166970013
 30
0.0
  0
SPLINE
  5
10F
330
1F
100
AcDbEntity
  8
0
  6
Continuous
 62
     7
370
    15
100
AcDbSpline
210
0.0
220
0.0
230
1.0
 70
     8
 71
     3
 72
    13
 73
     9
 74
     0
 42
0.00000001
 43
0.00000001
 12
1.0
 22
0.0
 32
0.0
 13
1.0
 23
0.0
 33
0.0
 40
0.0
 40
0.0
 40
0.0
 40
0.0
 40
0.2505378505645756
 40
0.5000508053562143
 40
0.625111796476325
 40
0.750126276683587
 40
0.8750828382714061
 40
1.0
 40
1.0
 40
1.0
 40
1.0
 10
660.514345920096
 20
788.5157050815989
 30
0.0
 10
660.5078237472928
 20
788.4718763660175
 30
0.0
 10
660.4948060824747
 20
788.3843982285828
 30
0.0
 10
660.5185539330057
 20
788.2497420101892
 30
0.0
 10
660.5814745566186
 20
788.1240924437033
 30
0.0
 10
660.6515797336754
 20
788.0256264077136
 30
0.0
 10
660.7382497868737
 20
787.9272159383513
 30
0.0
 10
660.806626362549
 20
787.8707028316885
 30
0.0
 10
660.8408092596089
 20
787.8424507338245
 30
0.0
  0
LINE
  5
110
330
1F
100
AcDbEntity
  8
0
  6
Continuous
 62
     7
370
    15
100
AcDbLine
 10
659.9423777457
 20
788.9563172178
 30
0.0
 11
660.5143459201
 21
788.5157050816
 31
0.0
  0
SPLINE
  5
111
330
1F
100
AcDbEntity
  8
0
  6
Continuous
 62
     7
370
    15
100
AcDbSpline
210
0.0
220
0.0
230
1.0
 70
     8
 71
     3
 72
    13
 73
     9
 74
     0
 42
0.00000001
 43
0.00000001
 12
1.0
 22
0.0
 32
0.0
 13
1.0
 23
0.0
 33
0.0
 40
0.0
 40
0.0
 40
0.0
 40
0.0
 40
0.163744435367707
 40
0.327511375814433
 40
0.4913830688945368
 40
0.6553400958684182
 40
0.9823929885886046
 40
1.0
 40
1.0
 40
1.0
 40
1.0
 10
659.2277862552509
 20
788.9509182693317
 30
0.0
 10
659.2743807733592
 20
788.9173304749174
 30
0.0
 10
659.3675762135389
 20
788.8501502697733
 30
0.0
 10
659.5043774745524
 20
788.7852440891074
 30
0.0
 10
659.6249478778982
 20
788.7531723635727
 30
0.0
 10
659.7596868935254
 20
788.7496320464002
 30
0.0
 10
659.8406824420063
 20
788.7807056175651
 30
0.0
 10
659.8674334780377
 20
788.8278154192652
 30
0.0
 10
659.8688000593863
 20
788.8302220317145
 30
0.0
  0
SPLINE
  5
112
330
1F
100
AcDbEntity
  8
0
  6
Continuous
 62
     7
370
    15
100
AcDbSpline
210
0.0
220
0.0
230
1.0
 70
     8
 71
     3
 72
    12
 73
     8
 74
     0
 42
0.00000001
 43
0.00000001
 12
1.0
 22
0.0
 32
0.0
 13
1.0
 23
0.0
 33
0.0
 40
0.0
 40
0.0
 40
0.0
 40
0.0
 40
0.2500410225472872
 40
0.3743862610856729
 40
0.5009181246332112
 40
0.7504655928443371
 40
0.9999999999999999
 40
0.9999999999999999
 40
0.9999999999999999
 40
0.9999999999999999
 10
658.8045186908137
 20
789.6457391386616
 30
0.0
 10
658.7977566054507
 20
789.6024584398026
 30
0.0
 10
658.7876317394165
 20
789.5376542774379
 30
0.0
 10
658.8284128432281
 20
789.4203243075312
 30
0.0
 10
658.8956631318848
 20
789.2948230301058
 30
0.0
 10
659.0218092775274
 20
789.1242542566962
 30
0.0
 10
659.159128460565
 20
789.0086959237263
 30
0.0
 10
659.2277862552509
 20
788.9509182693317
 30
0.0
  0
LINE
  5
113
330
1F
100
AcDbEntity
  8
0
  6
Continuous
 62
     7
370
    15
100
AcDbLine
 10
659.5842797626
 20
789.9387670482
 30
0.0
 11
659.4464194259
 21
789.5507879633
 31
0.0
  0
SPLINE
  5
114
330
1F
100
AcDbEntity
  8
0
  6
Continuous
 62
     7
370
    15
100
AcDbSpline
210
0.0
220
0.0
230
1.0
 70
     8
 71
     3
 72
    13
 73
     9
 74
     0
 42
0.00000001
 43
0.00000001
 12
1.0
 22
0.0
 32
0.0
 13
1.0
 23
0.0
 33
0.0
 40
0.0
 40
0.0
 40
0.0
 40
0.0
 40
0.120867485334537
 40
0.266747789343401
 40
0.4141523695260984
 40
0.5592332146837429
 40
0.7074058495236362
 40
1.0
 40
1.0
 40
1.0
 40
1.0
 10
658.2916203837802
 20
790.2543134005862
 30
0.0
 10
658.3099159177619
 20
790.2851658344242
 30
0.0
 10
658.3502931394022
 20
790.3532554327095
 30
0.0
 10
658.4948636867197
 20
790.3851657911952
 30
0.0
 10
658.6730358302898
 20
790.3827559235971
 30
0.0
 10
658.8835487500311
 20
790.3320109093231
 30
0.0
 10
659.1892166028402
 20
790.2050295564518
 30
0.0
 10
659.4266586459522
 20
790.0449996665251
 30
0.0
 10
659.5842797626203
 20
789.9387670481567
 30
0.0
  0
LINE
  5
115
330
1F
100
AcDbEntity
  8
0
  6
Continuous
 62
     7
370
    15
100
AcDbLine
 10
661.873073598
 20
787.2821437312
 30
0.0
 11
661.797667247
 21
787.187171219
 31
0.0
  0
SPLINE
  5
116
330
1F
100
AcDbEntity
  8
0
  6
Continuous
 62
     7
370
    15
100
AcDbSpline
210
0.0
220
0.0
230
1.0
 70
     8
 71
     3
 72
     9
 73
     5
 74
     0
 42
0.00000001
 43
0.00000001
 12
1.0
 22
0.0
 32
0.0
 13
1.0
 23
0.0
 33
0.0
 40
0.0
 40
0.0
 40
0.0
 40
0.0
 40
0.4996968778443361
 40
1.0
 40
1.0
 40
1.0
 40
1.0
 10
661.7000309794927
 20
787.9931391610338
 30
0.0
 10
661.7733332112516
 20
787.8507032494147
 30
0.0
 10
661.9200266068061
 20
787.5656586194907
 30
0.0
 10
661.8887309251786
 20
787.3766868816203
 30
0.0
 10
661.8730735979502
 20
787.2821437311648
 30
0.0
  0
SPLINE
  5
117
330
1F
100
AcDbEntity
  8
0
  6
Continuous
 62
     7
370
    15
100
AcDbSpline
210
0.0
220
0.0
230
1.0
 70
     8
 71
     3
 72
     9
 73
     5
 74
     0
 42
0.00000001
 43
0.00000001
 12
1.0
 22
0.0
 32
0.0
 13
1.0
 23
0.0
 33
0.0
 40
0.0
 40
0.0
 40
0.0
 40
0.0
 40
0.5005368603908303
 40
0.9999999999999999
 40
0.9999999999999999
 40
0.9999999999999999
 40
0.9999999999999999
 10
661.134502316098
 20
788.6376559774935
 30
0.0
 10
661.2455673227788
 20
788.5362299400437
 30
0.0
 10
661.4674590863427
 20
788.3335954380195
 30
0.0
 10
661.6225625277053
 20
788.106543323171
 30
0.0
 10
661.7000309794925
 20
787.9931391610338
 30
0.0
  0
LINE
  5
118
330
1F
100
AcDbEntity
  8
0
  6
Continuous
 62
     7
370
    15
100
AcDbLine
 10
683.5179907079
 20
843.614295032
 30
0.0
 11
663.4318860735
 21
781.7956214728
 31
0.0
  0
LINE
  5
119
330
1F
100
AcDbEntity
  8
0
  6
Continuous
 62
     7
370
    15
100
AcDbLine
 10
670.3922914745
 20
813.9465826829
 30
0.0
 11
669.7557430189
 21
811.961791344
 31
0.0
  0
LINE
  5
11A
330
1F
100
AcDbEntity
  8
0
  6
Continuous
 62
     7
370
    15
100
AcDbLine
 10
669.7557430189
 20
811.961791344
 30
0.0
 11
669.0681589714
 21
812.1903028604
 31
0.0
  0
LINE
  5
11B
330
1F
100
AcDbEntity
  8
0
  6
Continuous
 62
     7
370
    15
100
AcDbLine
 10
669.0681589714
 20
812.1903028604
 30
0.0
 11
669.5069205549
 21
813.5746412108
 31
0.0
  0
LINE
  5
11C
330
1F
100
AcDbEntity
  8
0
  6
Continuous
 62
     7
370
    15
100
AcDbLine
 10
669.5069205549
 20
813.5746412108
 30
0.0
 11
668.8474033418
 21
813.9834781695
 31
0.0
  0
LINE
  5
11D
330
1F
100
AcDbEntity
  8
0
  6
Continuous
 62
     7
370
    15
100
AcDbLine
 10
668.8474028568
 20
813.9834781873
 30
0.0
 11
668.7955909318
 21
813.6973413236
 31
0.0
  0
SPLINE
  5
11E
330
1F
100
AcDbEntity
  8
0
  6
Continuous
 62
     7
370
    15
100
AcDbSpline
210
0.0
220
0.0
230
1.0
 70
     8
 71
     3
 72
    13
 73
     9
 74
     0
 42
0.00000001
 43
0.00000001
 12
1.0
 22
0.0
 32
0.0
 13
1.0
 23
0.0
 33
0.0
 40
0.0
 40
0.0
 40
0.0
 40
0.0
 40
0.2493715816352723
 40
0.3722859063941996
 40
0.4998573520390125
 40
0.6250802467357525
 40
0.7503040410156572
 40
1.0
 40
1.0
 40
1.0
 40
1.0
 10
668.7955909317772
 20
813.6973413236205
 30
0.0
 10
668.7215142898864
 20
813.5207066964366
 30
0.0
 10
668.6109255468223
 20
813.2570095187127
 30
0.0
 10
668.3442025837704
 20
812.9935138482269
 30
0.0
 10
668.1147918498789
 20
812.8418389960121
 30
0.0
 10
667.8613988318056
 20
812.7423632007193
 30
0.0
 10
667.508532635328
 20
812.6814437008585
 30
0.0
 10
667.2495751521942
 20
812.744387992316
 30
0.0
 10
667.0771098805611
 20
812.7863087902501
 30
0.0
  0
SPLINE
  5
11F
330
1F
100
AcDbEntity
  8
0
  6
Continuous
 62
     7
370
    15
100
AcDbSpline
210
0.0
220
0.0
230
1.0
 70
     8
 71
     3
 72
    11
 73
     7
 74
     0
 42
0.00000001
 43
0.00000001
 12
1.0
 22
0.0
 32
0.0
 13
1.0
 23
0.0
 33
0.0
 40
0.0
 40
0.0
 40
0.0
 40
0.0
 40
0.250081748821472
 40
0.4999847717823729
 40
0.7499638505949188
 40
1.0
 40
1.0
 40
1.0
 40
1.0
 10
667.0771098805611
 20
812.7863087902501
 30
0.0
 10
666.9042433944586
 20
812.8637995503668
 30
0.0
 10
666.5586339647015
 20
813.0187256902981
 30
0.0
 10
666.2168652052891
 20
813.5077153393598
 30
0.0
 10
666.042012822166
 20
814.0927229234752
 30
0.0
 10
666.1307282131793
 20
814.4899930682066
 30
0.0
 10
666.1750909715716
 20
814.6886508123242
 30
0.0
  0
SPLINE
  5
120
330
1F
100
AcDbEntity
  8
0
  6
Continuous
 62
     7
370
    15
100
AcDbSpline
210
0.0
220
0.0
230
1.0
 70
     8
 71
     3
 72
    11
 73
     7
 74
     0
 42
0.00000001
 43
0.00000001
 12
1.0
 22
0.0
 32
0.0
 13
1.0
 23
0.0
 33
0.0
 40
0.0
 40
0.0
 40
0.0
 40
0.0
 40
0.2502091073102359
 40
0.500079982188441
 40
0.7498589705099843
 40
1.0
 40
1.0
 40
1.0
 40
1.0
 10
666.1750936490821
 20
814.6886598876417
 30
0.0
 10
666.2417807563961
 20
814.8522785571248
 30
0.0
 10
666.3750648234562
 20
815.17929471653
 30
0.0
 10
666.7568448998732
 20
815.5480781207472
 30
0.0
 10
667.2265737372024
 20
815.7715607193494
 30
0.0
 10
667.5579256772269
 20
815.7694369297487
 30
0.0
 10
667.7237216294756
 20
815.7683742659261
 30
0.0
  0
LINE
  5
121
330
1F
100
AcDbEntity
  8
0
  6
Continuous
 62
     7
370
    15
100
AcDbLine
 10
667.7237216295
 20
815.7683742659
 30
0.0
 11
667.4379287226
 21
814.9265438237
 31
0.0
  0
SPLINE
  5
122
330
1F
100
AcDbEntity
  8
0
  6
Continuous
 62
     7
370
    15
100
AcDbSpline
210
0.0
220
0.0
230
1.0
 70
     8
 71
     3
 72
    11
 73
     7
 74
     0
 42
0.00000001
 43
0.00000001
 12
1.0
 22
0.0
 32
0.0
 13
1.0
 23
0.0
 33
0.0
 40
0.0
 40
0.0
 40
0.0
 40
0.0
 40
0.2502463948314093
 40
0.5001375578503872
 40
0.7500417599279273
 40
1.0
 40
1.0
 40
1.0
 40
1.0
 10
667.4379287226457
 20
814.9265438237111
 30
0.0
 10
667.3750402689241
 20
814.9124179079336
 30
0.0
 10
667.2493526334138
 20
814.8841861285143
 30
0.0
 10
667.0801122848026
 20
814.7784718591765
 30
0.0
 10
666.9399920558511
 20
814.630185132146
 30
0.0
 10
666.8887944363371
 20
814.5039468031908
 30
0.0
 10
666.863192859202
 20
814.4408208151699
 30
0.0
  0
SPLINE
  5
123
330
1F
100
AcDbEntity
  8
0
  6
Continuous
 62
     7
370
    15
100
AcDbSpline
210
0.0
220
0.0
230
1.0
 70
     8
 71
     3
 72
    14
 73
    10
 74
     0
 42
0.00000001
 43
0.00000001
 12
1.0
 22
0.0
 32
0.0
 13
1.0
 23
0.0
 33
0.0
 40
0.0
 40
0.0
 40
0.0
 40
0.0
 40
0.1251397533057227
 40
0.2501648722881903
 40
0.373616142934124
 40
0.5003661429263406
 40
0.625481178640543
 40
0.7505676927659973
 40
1.0
 40
1.0
 40
1.0
 40
1.0
 10
666.8631899942343
 20
814.4408130385949
 30
0.0
 10
666.8507729113919
 20
814.3963244121676
 30
0.0
 10
666.8259501203812
 20
814.3073879131375
 30
0.0
 10
666.8241235833799
 20
814.1690642438582
 30
0.0
 10
666.8485085208764
 20
814.0344007693619
 30
0.0
 10
666.899532152767
 20
813.9091499771058
 30
0.0
 10
666.9714059155826
 20
813.7963130039076
 30
0.0
 10
667.095776536514
 20
813.6717439279462
 30
0.0
 10
667.2148694156815
 20
813.6209729747021
 30
0.0
 10
667.2941861547391
 20
813.5871591440323
 30
0.0
  0
SPLINE
  5
124
330
1F
100
AcDbEntity
  8
0
  6
Continuous
 62
     7
370
    15
100
AcDbSpline
210
0.0
220
0.0
230
1.0
 70
     8
 71
     3
 72
    14
 73
    10
 74
     0
 42
0.00000001
 43
0.00000001
 12
1.0
 22
0.0
 32
0.0
 13
1.0
 23
0.0
 33
0.0
 40
0.0
 40
0.0
 40
0.0
 40
0.0
 40
0.2499109582933681
 40
0.4991559240358975
 40
0.624327757270229
 40
0.7494703216805756
 40
0.8746051477785225
 40
0.9372966250331739
 40
1.0
 40
1.0
 40
1.0
 40
1.0
 10
667.2941861547392
 20
813.5871591440323
 30
0.0
 10
667.3737117050779
 20
813.5674091743457
 30
0.0
 10
667.5325508765765
 20
813.5279618670489
 30
0.0
 10
667.7400840426151
 20
813.5776650261264
 30
0.0
 10
667.8860029243792
 20
813.661915519388
 30
0.0
 10
667.9829722369063
 20
813.7475616808294
 30
0.0
 10
668.0463053216596
 20
813.8369571699974
 30
0.0
 10
668.085124071599
 20
813.9155288244293
 30
0.0
 10
668.0998968130641
 20
813.9568788712778
 30
0.0
 10
668.10728388463
 20
813.9775558563895
 30
0.0
  0
SPLINE
  5
125
330
1F
100
AcDbEntity
  8
0
  6
Continuous
 62
     7
370
    15
100
AcDbSpline
210
0.0
220
0.0
230
1.0
 70
     8
 71
     3
 72
    10
 73
     6
 74
     0
 42
0.00000001
 43
0.00000001
 12
1.0
 22
0.0
 32
0.0
 13
1.0
 23
0.0
 33
0.0
 40
0.0
 40
0.0
 40
0.0
 40
0.0
 40
0.2500415356635875
 40
0.5001509220709538
 40
1.0
 40
1.0
 40
1.0
 40
1.0
 10
668.1072867102081
 20
813.9775637877534
 30
0.0
 10
668.1195086631889
 20
814.0283121182175
 30
0.0
 10
668.1439558856741
 20
814.1298225501058
 30
0.0
 10
668.1291047428134
 20
814.3387791377785
 30
0.0
 10
668.0694518919156
 20
814.4783543434794
 30
0.0
 10
668.0296931266838
 20
814.5713815459033
 30
0.0
  0
LINE
  5
126
330
1F
100
AcDbEntity
  8
0
  6
Continuous
 62
     7
370
    15
100
AcDbLine
 10
668.0296928742
 20
814.5713820843
 30
0.0
 11
668.3857695832
 21
815.1794539703
 31
0.0
  0
LINE
  5
127
330
1F
100
AcDbEntity
  8
0
  6
Continuous
 62
     7
370
    15
100
AcDbLine
 10
668.3857695832
 20
815.1794539703
 30
0.0
 11
670.3922914745
 21
813.9465826829
 31
0.0
  0
LINE
  5
128
330
1F
100
AcDbEntity
  8
0
  6
Continuous
 62
     7
370
    15
100
AcDbLine
 10
670.3922914745
 20
813.9465826829
 30
0.0
 11
670.3958026082
 21
813.9453703863
 31
0.0
  0
LINE
  5
129
330
1F
100
AcDbEntity
  8
0
  6
Continuous
 62
     7
370
    15
100
AcDbLine
 10
669.7557430189
 20
811.961791344
 30
0.0
 11
669.7594459069
 21
811.9611692067
 31
0.0
  0
LINE
  5
12A
330
1F
100
AcDbEntity
  8
0
  6
Continuous
 62
     7
370
    15
100
AcDbLine
 10
668.3857695832
 20
815.1794539703
 30
0.0
 11
668.3892277125
 21
815.1780785431
 31
0.0
  0
LINE
  5
12B
330
1F
100
AcDbEntity
  8
0
  6
Continuous
 62
     7
370
    15
100
AcDbLine
 10
668.7955909318
 20
813.6973413236
 30
0.0
 11
668.7991701412
 21
813.6963385428
 31
0.0
  0
LINE
  5
12C
330
1F
100
AcDbEntity
  8
0
  6
Continuous
 62
     7
370
    15
100
AcDbLine
 10
667.2941861547
 20
813.587159144
 30
0.0
 11
667.2978205405
 21
813.5863261786
 31
0.0
  0
LINE
  5
12D
330
1F
100
AcDbEntity
  8
0
  6
Continuous
 62
     7
370
    15
100
AcDbLine
 10
666.8631899942
 20
814.4408130386
 30
0.0
 11
666.8667599192
 21
814.4397816832
 31
0.0
  0
LINE
  5
12E
330
1F
100
AcDbEntity
  8
0
  6
Continuous
 62
     7
370
    15
100
AcDbLine
 10
667.4379287226
 20
814.9265438237
 30
0.0
 11
667.4414371573
 21
814.9253232206
 31
0.0
  0
LINE
  5
12F
330
1F
100
AcDbEntity
  8
0
  6
Continuous
 62
     7
370
    15
100
AcDbLine
 10
667.7237216295
 20
815.7683742659
 30
0.0
 11
667.7271448924
 21
815.7668915312
 31
0.0
  0
ARC
  5
130
330
1F
100
AcDbEntity
  8
0
  6
Continuous
 62
     7
370
    15
100
AcDbCircle
 10
658.0812092624
 20
795.0870322957
 30
0.0
 40
0.806746288912485
100
AcDbArc
 50
166.7870710929
 51
239.4482766601
  0
LINE
  5
131
330
1F
100
AcDbEntity
  8
0
  6
Continuous
 62
     7
370
    15
100
AcDbLine
 10
657.2958196854
 20
795.2714307422
 30
0.0
 11
670.8075571318
 21
836.8562826394
 31
0.0
  0
ARC
  5
132
330
1F
100
AcDbEntity
  8
0
  6
Continuous
 62
     7
370
    15
100
AcDbCircle
 10
671.5684317222
 20
836.5456025308
 30
0.0
 40
0.8218590342970601
100
AcDbArc
 50
85.4406192804
 51
157.7888372629
  0
LINE
  5
133
330
1F
100
AcDbEntity
  8
0
  6
Continuous
 62
     7
370
    15
100
AcDbLine
 10
666.2924731277
 20
800.9325758997
 30
0.0
 11
666.0630095327
 21
800.2027833194
 31
0.0
  0
LINE
  5
134
330
1F
100
AcDbEntity
  8
0
  6
Continuous
 62
     7
370
    15
100
AcDbLine
 10
666.0630095327
 20
800.2027833194
 30
0.0
 11
663.6588040592
 21
801.4566196166
 31
0.0
  0
LINE
  5
135
330
1F
100
AcDbEntity
  8
0
  6
Continuous
 62
     7
370
    15
100
AcDbLine
 10
663.6588040592
 20
801.4566196166
 30
0.0
 11
663.55540703
 21
801.1177449955
 31
0.0
  0
LINE
  5
136
330
1F
100
AcDbEntity
  8
0
  6
Continuous
 62
     7
370
    15
100
AcDbLine
 10
663.55540703
 20
801.1177449955
 30
0.0
 11
662.8986774013
 21
801.459805543
 31
0.0
  0
LINE
  5
137
330
1F
100
AcDbEntity
  8
0
  6
Continuous
 62
     7
370
    15
100
AcDbLine
 10
662.8986774013
 20
801.459805543
 30
0.0
 11
663.0019912447
 21
801.7986308075
 31
0.0
  0
LINE
  5
138
330
1F
100
AcDbEntity
  8
0
  6
Continuous
 62
     7
370
    15
100
AcDbLine
 10
663.0019912447
 20
801.7986308075
 30
0.0
 11
662.2347337523
 21
802.1990480297
 31
0.0
  0
LINE
  5
139
330
1F
100
AcDbEntity
  8
0
  6
Continuous
 62
     7
370
    15
100
AcDbLine
 10
662.2347337523
 20
802.1990480297
 30
0.0
 11
662.4585675123
 21
802.9126377605
 31
0.0
  0
LINE
  5
13A
330
1F
100
AcDbEntity
  8
0
  6
Continuous
 62
     7
370
    15
100
AcDbLine
 10
662.4585675123
 20
802.9126377605
 30
0.0
 11
663.2259309388
 21
802.512279859
 31
0.0
  0
LINE
  5
13B
330
1F
100
AcDbEntity
  8
0
  6
Continuous
 62
     7
370
    15
100
AcDbLine
 10
663.2259309388
 20
802.512279859
 30
0.0
 11
663.7916418487
 21
804.2073595713
 31
0.0
  0
LINE
  5
13C
330
1F
100
AcDbEntity
  8
0
  6
Continuous
 62
     7
370
    15
100
AcDbLine
 10
663.7916418487
 20
804.2073595713
 30
0.0
 11
664.4483952581
 21
803.8653228704
 31
0.0
  0
LINE
  5
13D
330
1F
100
AcDbEntity
  8
0
  6
Continuous
 62
     7
370
    15
100
AcDbLine
 10
664.4483952581
 20
803.8653228704
 30
0.0
 11
666.2924727778
 21
800.9325764455
 31
0.0
  0
LINE
  5
13E
330
1F
100
AcDbEntity
  8
0
  6
Continuous
 62
     7
370
    15
100
AcDbLine
 10
664.1721679704
 20
803.054434577
 30
0.0
 11
663.8828419944
 21
802.1703237928
 31
0.0
  0
LINE
  5
13F
330
1F
100
AcDbEntity
  8
0
  6
Continuous
 62
     7
370
    15
100
AcDbLine
 10
663.8828419944
 20
802.1703237928
 30
0.0
 11
665.1345512948
 21
801.5175536035
 31
0.0
  0
LINE
  5
140
330
1F
100
AcDbEntity
  8
0
  6
Continuous
 62
     7
370
    15
100
AcDbLine
 10
665.1345512948
 20
801.5175536035
 30
0.0
 11
664.1721679704
 21
803.054434577
 31
0.0
  0
LINE
  5
141
330
1F
100
AcDbEntity
  8
0
  6
Continuous
 62
     7
370
    15
100
AcDbLine
 10
666.2924731277
 20
800.9325758997
 30
0.0
 11
666.2972376456
 21
800.9352211233
 31
0.0
  0
LINE
  5
142
330
1F
100
AcDbEntity
  8
0
  6
Continuous
 62
     7
370
    15
100
AcDbLine
 10
664.4483952581
 20
803.8653228704
 30
0.0
 11
664.4529921773
 21
803.8674522783
 31
0.0
  0
LINE
  5
143
330
1F
100
AcDbEntity
  8
0
  6
Continuous
 62
     7
370
    15
100
AcDbLine
 10
666.0630095327
 20
800.2027833194
 30
0.0
 11
666.0678442013
 21
800.2056444445
 31
0.0
  0
LINE
  5
144
330
1F
100
AcDbEntity
  8
0
  6
Continuous
 62
     7
370
    15
100
AcDbLine
 10
664.1768465337
 20
803.0568152595
 30
0.0
 11
663.8876090714
 21
802.1729768923
 31
0.0
  0
LINE
  5
145
330
1F
100
AcDbEntity
  8
0
  6
Continuous
 62
     7
370
    15
100
AcDbLine
 10
663.8876090714
 20
802.1729768923
 30
0.0
 11
665.1393178427
 21
801.5202050749
 31
0.0
  0
LINE
  5
146
330
1F
100
AcDbEntity
  8
0
  6
Continuous
 62
     7
370
    15
100
AcDbLine
 10
663.7916418487
 20
804.2073595713
 30
0.0
 11
663.7962374295
 21
804.20948486
 31
0.0
  0
LINE
  5
147
330
1F
100
AcDbEntity
  8
0
  6
Continuous
 62
     7
370
    15
100
AcDbLine
 10
663.8876090714
 20
802.1729768923
 30
0.0
 11
663.8828419944
 21
802.1703237928
 31
0.0
  0
LINE
  5
148
330
1F
100
AcDbEntity
  8
0
  6
Continuous
 62
     7
370
    15
100
AcDbLine
 10
662.4585675123
 20
802.9126377605
 30
0.0
 11
662.4633352547
 21
802.915292908
 31
0.0
  0
LINE
  5
149
330
1F
100
AcDbEntity
  8
0
  6
Continuous
 62
     7
370
    15
100
AcDbLine
 10
663.55540703
 20
801.1177449955
 30
0.0
 11
663.560278705
 21
801.1207200147
 31
0.0
  0
SPLINE
  5
14A
330
1F
100
AcDbEntity
  8
0
  6
Continuous
 62
     7
370
    15
100
AcDbSpline
210
0.0
220
0.0
230
1.0
 70
     8
 71
     3
 72
    11
 73
     7
 74
     0
 42
0.00000001
 43
0.00000001
 12
1.0
 22
0.0
 32
0.0
 13
1.0
 23
0.0
 33
0.0
 40
0.0
 40
0.0
 40
0.0
 40
0.0
 40
0.3704320937883353
 40
0.7442498469311878
 40
0.9442480537690617
 40
1.0
 40
1.0
 40
1.0
 40
1.0
 10
656.7220594426805
 20
793.5055782887115
 30
0.0
 10
656.7228939435382
 20
793.5087036797099
 30
0.0
 10
656.724570572389
 20
793.5149830270209
 30
0.0
 10
656.7238799240249
 20
793.5250055008303
 30
0.0
 10
656.7207320690896
 20
793.5327113437401
 30
0.0
 10
656.7187957928902
 20
793.53581527753
 30
0.0
 10
656.718373696695
 20
793.5364919158337
 30
0.0
  0
SPLINE
  5
14B
330
1F
100
AcDbEntity
  8
0
  6
Continuous
 62
     7
370
    15
100
AcDbSpline
210
0.0
220
0.0
230
1.0
 70
     8
 71
     3
 72
    12
 73
     8
 74
     0
 42
0.00000001
 43
0.00000001
 12
1.0
 22
0.0
 32
0.0
 13
1.0
 23
0.0
 33
0.0
 40
0.0
 40
0.0
 40
0.0
 40
0.0
 40
0.303722560580617
 40
0.6074443824473376
 40
0.9111864331355374
 40
0.9695282540476275
 40
1.0
 40
1.0
 40
1.0
 40
1.0
 10
656.718373696695
 20
793.5364919158337
 30
0.0
 10
656.6663928326783
 20
793.633450983036
 30
0.0
 10
656.5624312310725
 20
793.8273688816167
 30
0.0
 10
656.5118457731809
 20
794.1688661036657
 30
0.0
 10
656.5392360006512
 20
794.4114186406755
 30
0.0
 10
656.5779841700653
 20
794.5432047058873
 30
0.0
 10
656.5881559820822
 20
794.5722029524237
 30
0.0
 10
656.5916459091575
 20
794.5821521891531
 30
0.0
  0
SPLINE
  5
14C
330
1F
100
AcDbEntity
  8
0
  6
Continuous
 62
     7
370
    15
100
AcDbSpline
210
0.0
220
0.0
230
1.0
 70
     8
 71
     3
 72
     9
 73
     5
 74
     0
 42
0.00000001
 43
0.00000001
 12
1.0
 22
0.0
 32
0.0
 13
1.0
 23
0.0
 33
0.0
 40
0.0
 40
0.0
 40
0.0
 40
0.0
 40
0.4684410573251963
 40
1.0
 40
1.0
 40
1.0
 40
1.0
 10
656.591645909155
 20
794.5821521891469
 30
0.0
 10
656.7407611653379
 20
794.6311158227733
 30
0.0
 10
657.0590835110221
 20
794.7356404643707
 30
0.0
 10
657.213655540754
 20
795.0854737374201
 30
0.0
 10
657.2958196854453
 20
795.2714307421546
 30
0.0
  0
SPLINE
  5
14D
330
1F
100
AcDbEntity
  8
0
  6
Continuous
 62
     7
370
    15
100
AcDbSpline
210
0.0
220
0.0
230
1.0
 70
     8
 71
     3
 72
    11
 73
     7
 74
     0
 42
0.00000001
 43
0.00000001
 12
1.0
 22
0.0
 32
0.0
 13
1.0
 23
0.0
 33
0.0
 40
0.0
 40
0.0
 40
0.0
 40
0.0
 40
0.365828110989428
 40
0.7252591430830826
 40
0.9820690181776244
 40
1.0
 40
1.0
 40
1.0
 40
1.0
 10
654.3860955961572
 20
795.8549932265238
 30
0.0
 10
654.6589921915166
 20
795.5911635582429
 30
0.0
 10
655.2000133567997
 20
795.0681176976614
 30
0.0
 10
655.9648319943012
 20
794.6388597721079
 30
0.0
 10
656.409284516413
 20
794.5618340730044
 30
0.0
 10
656.5804732632577
 20
794.5809073691028
 30
0.0
 10
656.591645909155
 20
794.5821521891469
 30
0.0
  0
LINE
  5
14E
330
1F
100
AcDbEntity
  8
0
  6
Continuous
 62
     7
370
    15
100
AcDbLine
 10
654.3860955962
 20
795.8549932265
 30
0.0
 11
668.0789614615
 21
837.997301077
 31
0.0
  0
SPLINE
  5
14F
330
1F
100
AcDbEntity
  8
0
  6
Continuous
 62
     7
370
    15
100
AcDbSpline
210
0.0
220
0.0
230
1.0
 70
     8
 71
     3
 72
    11
 73
     7
 74
     0
 42
0.00000001
 43
0.00000001
 12
1.0
 22
0.0
 32
0.0
 13
1.0
 23
0.0
 33
0.0
 40
0.0
 40
0.0
 40
0.0
 40
0.0
 40
0.2357948537758752
 40
0.27490199680449
 40
0.6342531696138428
 40
1.0
 40
1.0
 40
1.0
 40
1.0
 10
670.629096414424
 20
837.7849825131245
 30
0.0
 10
670.5008844993259
 20
837.8687054220147
 30
0.0
 10
670.3514083300619
 20
837.9663139765003
 30
0.0
 10
669.8866760025909
 20
838.0995302744784
 30
0.0
 10
669.2030198523792
 20
838.1662752310698
 30
0.0
 10
668.4558443883446
 20
838.0539560285869
 30
0.0
 10
668.0789614614732
 20
837.9973010769548
 30
0.0
  0
SPLINE
  5
150
330
1F
100
AcDbEntity
  8
0
  6
Continuous
 62
     7
370
    15
100
AcDbSpline
210
0.0
220
0.0
230
1.0
 70
     8
 71
     3
 72
     9
 73
     5
 74
     0
 42
0.00000001
 43
0.00000001
 12
1.0
 22
0.0
 32
0.0
 13
1.0
 23
0.0
 33
0.0
 40
0.0
 40
0.0
 40
0.0
 40
0.0
 40
0.5315589426747928
 40
1.0
 40
1.0
 40
1.0
 40
1.0
 10
670.8075571317826
 20
836.8562826393793
 30
0.0
 10
670.8480071646941
 20
837.0476932704779
 30
0.0
 10
670.92410414974
 20
837.4077862267462
 30
0.0
 10
670.7232055615098
 20
837.6646547503393
 30
0.0
 10
670.629096414424
 20
837.7849825131246
 30
0.0
  0
SPLINE
  5
151
330
1F
100
AcDbEntity
  8
0
  6
Continuous
 62
     7
370
    15
100
AcDbSpline
210
0.0
220
0.0
230
1.0
 70
     8
 71
     3
 72
    12
 73
     8
 74
     0
 42
0.00000001
 43
0.00000001
 12
1.0
 22
0.0
 32
0.0
 13
1.0
 23
0.0
 33
0.0
 40
0.0
 40
0.0
 40
0.0
 40
0.0
 40
0.0304717459545221
 40
0.0888135668586223
 40
0.3925556175487562
 40
0.6962774394174556
 40
1.0
 40
1.0
 40
1.0
 40
1.0
 10
670.629096414424
 20
837.7849825131245
 30
0.0
 10
670.632158492945
 20
837.7951982761533
 30
0.0
 10
670.6410832889137
 20
837.8249733456269
 30
0.0
 10
670.6876380410364
 20
837.9557226777025
 30
0.0
 10
670.8085323483397
 20
838.169543012184
 30
0.0
 10
671.0502033865903
 20
838.416146735
 30
0.0
 10
671.2477437715389
 20
838.5102347173412
 30
0.0
 10
671.3465140841276
 20
838.5572787657221
 30
0.0
  0
SPLINE
  5
152
330
1F
100
AcDbEntity
  8
0
  6
Continuous
 62
     7
370
    15
100
AcDbSpline
210
0.0
220
0.0
230
1.0
 70
     8
 71
     3
 72
    10
 73
     6
 74
     0
 42
0.00000001
 43
0.00000001
 12
1.0
 22
0.0
 32
0.0
 13
1.0
 23
0.0
 33
0.0
 40
0.0
 40
0.0
 40
0.0
 40
0.0
 40
0.2117958997130341
 40
0.4880069094718452
 40
1.0
 40
1.0
 40
1.0
 40
1.0
 10
671.3465140841276
 20
838.5572787657221
 30
0.0
 10
671.3491919416623
 20
838.5585026164787
 30
0.0
 10
671.3553620940652
 20
838.5613225371011
 30
0.0
 10
671.3632181571879
 20
838.5690445686903
 30
0.0
 10
671.3657245366525
 20
838.5751742771727
 30
0.0
 10
671.3673526035044
 20
838.5791559468809
 30
0.0
  0
LINE
  5
153
330
1F
100
AcDbEntity
  8
0
  6
Continuous
 62
     7
370
    15
100
AcDbLine
 10
653.655002554
 20
794.8764110245
 30
0.0
 11
640.5179200233
 21
806.4476247276
 31
0.0
  0
SPLINE
  5
154
330
1F
100
AcDbEntity
  8
0
  6
Continuous
 62
     7
370
    15
100
AcDbSpline
210
0.0
220
0.0
230
1.0
 70
     8
 71
     3
 72
    10
 73
     6
 74
     0
 42
0.00000001
 43
0.00000001
 12
1.0
 22
0.0
 32
0.0
 13
1.0
 23
0.0
 33
0.0
 40
0.0
 40
0.0
 40
0.0
 40
0.0
 40
0.2857669779336542
 40
0.6445560549562777
 40
1.0
 40
1.0
 40
1.0
 40
1.0
 10
656.718373696695
 20
793.5364919158337
 30
0.0
 10
656.4681720861869
 20
793.5281754929784
 30
0.0
 10
655.9038347922874
 20
793.5094175498958
 30
0.0
 10
654.8068973815411
 20
793.9857975271345
 30
0.0
 10
654.037766747674
 20
794.5804682447907
 30
0.0
 10
653.6550025540433
 20
794.8764110244653
 30
0.0
  0
ARC
  5
155
330
1F
100
AcDbEntity
  8
0
  6
Continuous
 62
     7
370
    15
100
AcDbCircle
 10
657.2843263225
 20
792.9273532248
 30
0.0
 40
4.119565186148429
100
AcDbArc
 50
134.7107706092
 51
151.7628422056
  0
SPLINE
  5
156
330
1F
100
AcDbEntity
  8
0
  6
Continuous
 62
     7
370
    15
100
AcDbSpline
210
0.0
220
0.0
230
1.0
 70
     8
 71
     3
 72
    10
 73
     6
 74
     0
 42
0.00000001
 43
0.00000001
 12
1.0
 22
0.0
 32
0.0
 13
1.0
 23
0.0
 33
0.0
 40
0.0
 40
0.0
 40
0.0
 40
0.0
 40
0.355443945043719
 40
0.7142330220663323
 40
1.0
 40
1.0
 40
1.0
 40
1.0
 10
668.0579006446804
 20
839.2039733656308
 30
0.0
 10
668.5427667622845
 20
839.2222679964833
 30
0.0
 10
669.5170621393843
 20
839.2590294314821
 30
0.0
 10
670.6930171052675
 20
839.0258404828362
 30
0.0
 10
671.1457796616363
 20
838.7012066930563
 30
0.0
 10
671.3465140841276
 20
838.5572787657221
 30
0.0
  0
LINE
  5
157
330
1F
100
AcDbEntity
  8
0
  6
Continuous
 62
     7
370
    15
100
AcDbLine
 10
650.6032810544
 20
837.4871743395
 30
0.0
 11
668.0579006447
 21
839.2039733656
 31
0.0
  0
LINE
  5
158
330
1F
100
AcDbEntity
  8
0
  6
Continuous
 62
     7
370
    15
100
AcDbLine
 10
651.6010211524
 20
840.5579026135
 30
0.0
 11
650.6032810544
 21
837.4871743395
 31
0.0
  0
LINE
  5
159
330
1F
100
AcDbEntity
  8
0
  6
Continuous
 62
     7
370
    15
100
AcDbLine
 10
651.6010211524
 20
840.5579026135
 30
0.0
 11
653.0708504436
 21
840.7197832207
 31
0.0
  0
LINE
  5
15A
330
1F
100
AcDbEntity
  8
0
  6
Continuous
 62
     7
370
    15
100
AcDbLine
 10
669.290050832
 20
842.5153518348
 30
0.0
 11
653.0708504436
 21
840.7197832207
 31
0.0
  0
ARC
  5
15B
330
1F
100
AcDbEntity
  8
0
  6
Continuous
 62
     7
370
    15
100
AcDbCircle
 10
672.2946025827
 20
838.6743992735
 30
0.0
 40
4.26967118530839
100
AcDbArc
 50
172.8751654106
 51
189.1246706963
  0
LINE
  5
15C
330
1F
100
AcDbEntity
  8
0
  6
Continuous
 62
     7
370
    15
100
AcDbLine
 10
660.9974887877
 20
788.2576443151
 30
0.0
 11
661.1284811126
 21
788.6311430735
 31
0.0
  0
SPLINE
  5
15D
330
1F
100
AcDbEntity
  8
0
  6
Continuous
 62
     7
370
    15
100
AcDbSpline
210
0.0
220
0.0
230
1.0
 70
     8
 71
     3
 72
     9
 73
     5
 74
     0
 42
0.00000001
 43
0.00000001
 12
1.0
 22
0.0
 32
0.0
 13
1.0
 23
0.0
 33
0.0
 40
0.0
 40
0.0
 40
0.0
 40
0.0
 40
0.5005224124383266
 40
0.9999999999999999
 40
0.9999999999999999
 40
0.9999999999999999
 40
0.9999999999999999
 10
661.128481112629
 20
788.6311430734519
 30
0.0
 10
661.2395460630979
 20
788.5297107528771
 30
0.0
 10
661.4614441194263
 20
788.3270578485234
 30
0.0
 10
661.6165285769463
 20
788.0999931638229
 30
0.0
 10
661.6939897876564
 20
787.9865794428882
 30
0.0
  0
SPLINE
  5
15E
330
1F
100
AcDbEntity
  8
0
  6
Continuous
 62
     7
370
    15
100
AcDbSpline
210
0.0
220
0.0
230
1.0
 70
     8
 71
     3
 72
     9
 73
     5
 74
     0
 42
0.00000001
 43
0.00000001
 12
1.0
 22
0.0
 32
0.0
 13
1.0
 23
0.0
 33
0.0
 40
0.0
 40
0.0
 40
0.0
 40
0.0
 40
0.4996765497475413
 40
1.0
 40
1.0
 40
1.0
 40
1.0
 10
661.6939929294763
 20
787.986574408651
 30
0.0
 10
661.76728781533
 20
787.8441160382861
 30
0.0
 10
661.9139724774195
 20
787.5590148654635
 30
0.0
 10
661.8826580246808
 20
787.3700062834747
 30
0.0
 10
661.8669906696437
 20
787.2754408576069
 30
0.0
  0
SPLINE
  5
15F
330
1F
100
AcDbEntity
  8
0
  6
Continuous
 62
     7
370
    15
100
AcDbSpline
210
0.0
220
0.0
230
1.0
 70
     8
 71
     3
 72
    14
 73
    10
 74
     0
 42
0.00000001
 43
0.00000001
 12
1.0
 22
0.0
 32
0.0
 13
1.0
 23
0.0
 33
0.0
 40
0.0
 40
0.0
 40
0.0
 40
0.0
 40
0.2497184073722289
 40
0.4990368466146191
 40
0.6242978482281386
 40
0.7494806894433443
 40
0.8746179506578534
 40
0.9372980968417188
 40
1.0
 40
1.0
 40
1.0
 40
1.0
 10
661.8669906696437
 20
787.2754408576069
 30
0.0
 10
661.833689480926
 20
787.2128617300457
 30
0.0
 10
661.7671404412248
 20
787.0878037064479
 30
0.0
 10
661.5486971785492
 20
787.0702148387476
 30
0.0
 10
661.3364648196326
 20
787.1195630165109
 30
0.0
 10
661.158419486765
 20
787.1897906465092
 30
0.0
 10
660.9987412573851
 20
787.2796544752428
 30
0.0
 10
660.8698724577549
 20
787.3659060237462
 30
0.0
 10
660.8059396387089
 20
787.4139592947959
 30
0.0
 10
660.7739676822009
 20
787.4379900995528
 30
0.0
  0
SPLINE
  5
160
330
1F
100
AcDbEntity
  8
0
  6
Continuous
 62
     7
370
    15
100
AcDbSpline
210
0.0
220
0.0
230
1.0
 70
     8
 71
     3
 72
    11
 73
     7
 74
     0
 42
0.00000001
 43
0.00000001
 12
1.0
 22
0.0
 32
0.0
 13
1.0
 23
0.0
 33
0.0
 40
0.0
 40
0.0
 40
0.0
 40
0.0
 40
0.2498327384559132
 40
0.4996706489946168
 40
0.7496329001178356
 40
1.0
 40
1.0
 40
1.0
 40
1.0
 10
660.7739676822009
 20
787.4379900995528
 30
0.0
 10
660.6961800233291
 20
787.5018813567751
 30
0.0
 10
660.540603095211
 20
787.629665193908
 30
0.0
 10
660.3448219332872
 20
787.8520555347579
 30
0.0
 10
660.1953344361702
 20
788.0723260370577
 30
0.0
 10
660.1408615074505
 20
788.2055387269542
 30
0.0
 10
660.11360300431
 20
788.2721989673935
 30
0.0
  0
SPLINE
  5
161
330
1F
100
AcDbEntity
  8
0
  6
Continuous
 62
     7
370
    15
100
AcDbSpline
210
0.0
220
0.0
230
1.0
 70
     8
 71
     3
 72
    11
 73
     7
 74
     0
 42
0.00000001
 43
0.00000001
 12
1.0
 22
0.0
 32
0.0
 13
1.0
 23
0.0
 33
0.0
 40
0.0
 40
0.0
 40
0.0
 40
0.0
 40
0.2502521822413019
 40
0.5000355135374929
 40
0.7498626133024812
 40
1.0
 40
1.0
 40
1.0
 40
1.0
 10
660.1136026401922
 20
788.2721993301063
 30
0.0
 10
660.0626487325098
 20
788.2486335796582
 30
0.0
 10
659.9608363800003
 20
788.201546229523
 30
0.0
 10
659.7163397564673
 20
788.2455449208152
 30
0.0
 10
659.4236133566394
 20
788.3776322201046
 30
0.0
 10
659.219545321335
 20
788.5250673690965
 30
0.0
 10
659.1174479795403
 20
788.5988306940422
 30
0.0
  0
SPLINE
  5
162
330
1F
100
AcDbEntity
  8
0
  6
Continuous
 62
     7
370
    15
100
AcDbSpline
210
0.0
220
0.0
230
1.0
 70
     8
 71
     3
 72
    13
 73
     9
 74
     0
 42
0.00000001
 43
0.00000001
 12
1.0
 22
0.0
 32
0.0
 13
1.0
 23
0.0
 33
0.0
 40
0.0
 40
0.0
 40
0.0
 40
0.0
 40
0.1252225186885642
 40
0.2504100069949708
 40
0.3755981757422235
 40
0.5008751233690455
 40
0.750128138176772
 40
1.0
 40
1.0
 40
1.0
 40
1.0
 10
659.1174479795403
 20
788.5988306940422
 30
0.0
 10
659.0402883715425
 20
788.6609775802394
 30
0.0
 10
658.885990740567
 20
788.7852539673488
 30
0.0
 10
658.6724938880029
 20
788.9958439495476
 30
0.0
 10
658.4906357505471
 20
789.2139476912757
 30
0.0
 10
658.2960559979007
 20
789.5003648949709
 30
0.0
 10
658.1435150580804
 20
789.8439466589574
 30
0.0
 10
658.176001403021
 20
790.0346333252793
 30
0.0
 10
658.1922647148176
 20
790.1300948712163
 30
0.0
  0
SPLINE
  5
163
330
1F
100
AcDbEntity
  8
0
  6
Continuous
 62
     7
370
    15
100
AcDbSpline
210
0.0
220
0.0
230
1.0
 70
     8
 71
     3
 72
    13
 73
     9
 74
     0
 42
0.00000001
 43
0.00000001
 12
1.0
 22
0.0
 32
0.0
 13
1.0
 23
0.0
 33
0.0
 40
0.0
 40
0.0
 40
0.0
 40
0.0
 40
0.2496429360740592
 40
0.374492703221752
 40
0.4999931049032592
 40
0.6238140432781758
 40
0.7502879234927187
 40
1.0
 40
1.0
 40
1.0
 40
1.0
 10
658.1922647148175
 20
790.1300948712163
 30
0.0
 10
658.2327866469228
 20
790.2081492936404
 30
0.0
 10
658.2935741385801
 20
790.325239775397
 30
0.0
 10
658.4872503309891
 20
790.3801320031664
 30
0.0
 10
658.6676247575905
 20
790.3757687096986
 30
0.0
 10
658.8773940098008
 20
790.3256050156814
 30
0.0
 10
659.1832529794475
 20
790.1984916961152
 30
0.0
 10
659.4206708953981
 20
790.0384928476742
 30
0.0
 10
659.5782688060398
 20
789.9322856807953
 30
0.0
  0
LINE
  5
164
330
1F
100
AcDbEntity
  8
0
  6
Continuous
 62
     7
370
    15
100
AcDbLine
 10
659.578268806
 20
789.9322856808
 30
0.0
 11
659.4403687679
 21
789.5441844078
 31
0.0
  0
SPLINE
  5
165
330
1F
100
AcDbEntity
  8
0
  6
Continuous
 62
     7
370
    15
100
AcDbSpline
210
0.0
220
0.0
230
1.0
 70
     8
 71
     3
 72
    12
 73
     8
 74
     0
 42
0.00000001
 43
0.00000001
 12
1.0
 22
0.0
 32
0.0
 13
1.0
 23
0.0
 33
0.0
 40
0.0
 40
0.0
 40
0.0
 40
0.0
 40
0.2504102512661225
 40
0.4997181499294179
 40
0.6250872428127924
 40
0.7502651840962559
 40
1.0
 40
1.0
 40
1.0
 40
1.0
 10
659.4403687679193
 20
789.5441844077604
 30
0.0
 10
659.3674279883849
 20
789.5898816628916
 30
0.0
 10
659.221867528224
 20
789.6810750053186
 30
0.0
 10
659.0466081942766
 20
789.7454219882087
 30
0.0
 10
658.9354470759346
 20
789.75107017397
 30
0.0
 10
658.845090543696
 20
789.729089888055
 30
0.0
 10
658.8170893601181
 20
789.6750421799313
 30
0.0
 10
658.7984373663091
 20
789.6390402189963
 30
0.0
  0
SPLINE
  5
166
330
1F
100
AcDbEntity
  8
0
  6
Continuous
 62
     7
370
    15
100
AcDbSpline
210
0.0
220
0.0
230
1.0
 70
     8
 71
     3
 72
    13
 73
     9
 74
     0
 42
0.00000001
 43
0.00000001
 12
1.0
 22
0.0
 32
0.0
 13
1.0
 23
0.0
 33
0.0
 40
0.0
 40
0.0
 40
0.0
 40
0.0
 40
0.2497381979926752
 40
0.3739096695765177
 40
0.500290980363092
 40
0.7494861681724045
 40
0.8746527555355429
 40
1.0
 40
1.0
 40
1.0
 40
1.0
 10
658.7984359666381
 20
789.6390368933537
 30
0.0
 10
658.791665008625
 20
789.5957337771143
 30
0.0
 10
658.781527485836
 20
789.5309000671939
 30
0.0
 10
658.8223311719609
 20
789.4136275966448
 30
0.0
 10
658.8894340225238
 20
789.2877860968381
 30
0.0
 10
658.9913722569477
 20
789.1530348893748
 30
0.0
 10
659.1179605397518
 20
789.0273989390136
 30
0.0
 10
659.1870861293306
 20
788.9718961027786
 30
0.0
 10
659.2216738489485
 20
788.9441246718311
 30
0.0
  0
SPLINE
  5
167
330
1F
100
AcDbEntity
  8
0
  6
Continuous
 62
     7
370
    15
100
AcDbSpline
210
0.0
220
0.0
230
1.0
 70
     8
 71
     3
 72
    13
 73
     9
 74
     0
 42
0.00000001
 43
0.00000001
 12
1.0
 22
0.0
 32
0.0
 13
1.0
 23
0.0
 33
0.0
 40
0.0
 40
0.0
 40
0.0
 40
0.0
 40
0.1249313909873177
 40
0.2498860208899745
 40
0.3749299821460604
 40
0.5000474038982408
 40
0.7496433936924576
 40
0.9999999999999999
 40
0.9999999999999999
 40
0.9999999999999999
 40
0.9999999999999999
 10
659.2216738489485
 20
788.9441246718311
 30
0.0
 10
659.2682621421517
 20
788.9105436212175
 30
0.0
 10
659.3614473946058
 20
788.8433752734641
 30
0.0
 10
659.4983562062291
 20
788.7783845557979
 30
0.0
 10
659.61853951112
 20
788.7466908912047
 30
0.0
 10
659.755233132856
 20
788.7413754301622
 30
0.0
 10
659.8708678521107
 20
788.8051620394087
 30
0.0
 10
659.9144737350105
 20
788.901445585517
 30
0.0
 10
659.93630984696
 20
788.9496606003703
 30
0.0
  0
LINE
  5
168
330
1F
100
AcDbEntity
  8
0
  6
Continuous
 62
     7
370
    15
100
AcDbLine
 10
659.936309847
 20
788.9496606004
 30
0.0
 11
660.5082774261
 21
788.5090482512
 31
0.0
  0
SPLINE
  5
169
330
1F
100
AcDbEntity
  8
0
  6
Continuous
 62
     7
370
    15
100
AcDbSpline
210
0.0
220
0.0
230
1.0
 70
     8
 71
     3
 72
    14
 73
    10
 74
     0
 42
0.00000001
 43
0.00000001
 12
1.0
 22
0.0
 32
0.0
 13
1.0
 23
0.0
 33
0.0
 40
0.0
 40
0.0
 40
0.0
 40
0.0
 40
0.2504845438226428
 40
0.4999368393873297
 40
0.624958105713591
 40
0.749923555876944
 40
0.8748227137231992
 40
0.9373873657544645
 40
1.0
 40
1.0
 40
1.0
 40
1.0
 10
660.5082778468158
 20
788.5090479271109
 30
0.0
 10
660.5017531748607
 20
788.4652107373305
 30
0.0
 10
660.4887307191615
 20
788.3777170110831
 30
0.0
 10
660.5124510737728
 20
788.2429950321011
 30
0.0
 10
660.5753984798724
 20
788.1174107605589
 30
0.0
 10
660.6453981613245
 20
788.0186721825711
 30
0.0
 10
660.7179771505458
 20
787.9374310532419
 30
0.0
 10
660.7831441191686
 20
787.8769029562147
 30
0.0
 10
660.8175156338905
 20
787.8494320800988
 30
0.0
 10
660.8347079787942
 20
787.8356913770541
 30
0.0
  0
SPLINE
  5
16A
330
1F
100
AcDbEntity
  8
0
  6
Continuous
 62
     7
370
    15
100
AcDbSpline
210
0.0
220
0.0
230
1.0
 70
     8
 71
     3
 72
    13
 73
     9
 74
     0
 42
0.00000001
 43
0.00000001
 12
1.0
 22
0.0
 32
0.0
 13
1.0
 23
0.0
 33
0.0
 40
0.0
 40
0.0
 40
0.0
 40
0.0
 40
0.2492054822127191
 40
0.3730537246330688
 40
0.4995790460529543
 40
0.624539341004753
 40
0.7500441302229388
 40
1.0
 40
1.0
 40
1.0
 40
1.0
 10
660.8347079787942
 20
787.8356913770541
 30
0.0
 10
660.8815741439917
 20
787.8026819217708
 30
0.0
 10
660.9517314990022
 20
787.7532676788247
 30
0.0
 10
661.0396071253863
 20
787.7178336681925
 30
0.0
 10
661.0983610520555
 20
787.7045669450252
 30
0.0
 10
661.1484298187555
 20
787.7047320306742
 30
0.0
 10
661.2011462081268
 20
787.7222401988266
 30
0.0
 10
661.2183003732166
 20
787.7571962733875
 30
0.0
 10
661.2297204358853
 20
787.78046762236
 30
0.0
  0
SPLINE
  5
16B
330
1F
100
AcDbEntity
  8
0
  6
Continuous
 62
     7
370
    15
100
AcDbSpline
210
0.0
220
0.0
230
1.0
 70
     8
 71
     3
 72
    12
 73
     8
 74
     0
 42
0.00000001
 43
0.00000001
 12
1.0
 22
0.0
 32
0.0
 13
1.0
 23
0.0
 33
0.0
 40
0.0
 40
0.0
 40
0.0
 40
0.0
 40
0.2498175420406154
 40
0.4996156626585119
 40
0.7494658511181571
 40
0.8746710185999499
 40
1.0
 40
1.0
 40
1.0
 40
1.0
 10
661.2297210281677
 20
787.7804703007912
 30
0.0
 10
661.2338594744424
 20
787.8099918222053
 30
0.0
 10
661.2421360452586
 20
787.8690325699588
 30
0.0
 10
661.1972822194217
 20
787.9926269893243
 30
0.0
 10
661.1302688690615
 20
788.1040723503022
 30
0.0
 10
661.0589310328661
 20
788.1934177023059
 30
0.0
 10
661.0179762826942
 20
788.2362283918335
 30
0.0
 10
660.9974887876942
 20
788.2576443151136
 30
0.0
  0
LINE
  5
16C
330
1F
100
AcDbEntity
  8
0
  6
Continuous
 62
     7
370
    15
100
AcDbLine
 10
661.6939929295
 20
787.9865744087
 30
0.0
 11
661.7000309795
 21
787.993139161
 31
0.0
  0
LINE
  5
16D
330
1F
100
AcDbEntity
  8
0
  6
Continuous
 62
     7
370
    15
100
AcDbLine
 10
661.1284811126
 20
788.6311430735
 30
0.0
 11
661.1345023161
 21
788.6376559775
 31
0.0
  0
LINE
  5
16E
330
1F
100
AcDbEntity
  8
0
  6
Continuous
 62
     7
370
    15
100
AcDbLine
 10
661.8669906696
 20
787.2754408576
 30
0.0
 11
661.873073598
 21
787.2821437312
 31
0.0
  0
LINE
  5
16F
330
1F
100
AcDbEntity
  8
0
  6
Continuous
 62
     7
370
    15
100
AcDbLine
 10
659.578268806
 20
789.9322856808
 30
0.0
 11
659.5842797626
 21
789.9387670482
 31
0.0
  0
LINE
  5
170
330
1F
100
AcDbEntity
  8
0
  6
Continuous
 62
     7
370
    15
100
AcDbLine
 10
659.4403687679
 20
789.5441844078
 30
0.0
 11
659.4464194259
 21
789.5507879633
 31
0.0
  0
ARC
  5
171
330
1F
100
AcDbEntity
  8
0
  6
Continuous
 62
     7
370
    15
100
AcDbCircle
 10
645.0719600671
 20
803.4234052329
 30
0.0
 40
5.466734333382438
100
AcDbArc
 50
135.0433518306
 51
146.412897904
  0
LINE
  5
172
330
1F
100
AcDbEntity
  8
0
  6
Continuous
 62
     7
370
    15
100
AcDbLine
 10
641.2034714449
 20
807.2860442339
 30
0.0
 11
654.3860955962
 21
795.8549932265
 31
0.0
  0
LINE
  5
173
330
1F
100
AcDbEntity
  8
0
  6
Continuous
 62
     7
370
    15
100
AcDbLine
 10
650.6697009143
 20
836.420102831
 30
0.0
 11
641.2034714449
 21
807.2860442339
 31
0.0
  0
LINE
  5
174
330
1F
100
AcDbEntity
  8
0
  6
Continuous
 62
     7
370
    15
100
AcDbLine
 10
668.0789614615
 20
837.997301077
 30
0.0
 11
650.6697009143
 21
836.420102831
 31
0.0
  0
LINE
  5
175
330
1F
100
AcDbEntity
  8
0
  6
Continuous
 62
     7
370
    15
100
AcDbLine
 10
660.8347079788
 20
787.8356913771
 30
0.0
 11
660.8408092596
 21
787.8424507338
 31
0.0
  0
LINE
  5
176
330
1F
100
AcDbEntity
  8
0
  6
Continuous
 62
     7
370
    15
100
AcDbLine
 10
660.5082778468
 20
788.5090479271
 30
0.0
 11
660.5143459201
 21
788.5157050816
 31
0.0
  0
LINE
  5
177
330
1F
100
AcDbEntity
  8
0
  6
Continuous
 62
     7
370
    15
100
AcDbLine
 10
658.7984359666
 20
789.6390368934
 30
0.0
 11
658.8045186908
 21
789.6457391387
 31
0.0
  0
LINE
  5
178
330
1F
100
AcDbEntity
  8
0
  6
Continuous
 62
     7
370
    15
100
AcDbLine
 10
659.936309847
 20
788.9496606004
 30
0.0
 11
659.9423777457
 21
788.9563172178
 31
0.0
  0
LINE
  5
179
330
1F
100
AcDbEntity
  8
0
  6
Continuous
 62
     7
370
    15
100
AcDbLine
 10
659.2216738489
 20
788.9441246718
 30
0.0
 11
659.2277862553
 21
788.9509182693
 31
0.0
  0
ARC
  5
17A
330
1F
100
AcDbEntity
  8
0
  6
Continuous
 62
     7
370
    15
100
AcDbCircle
 10
656.4576068884
 20
837.3159739111
 30
0.0
 40
5.856828540839024
100
AcDbArc
 50
178.3249536245
 51
188.7986068579
  0
ARC
  5
17B
330
1F
100
AcDbEntity
  8
0
  6
Continuous
 62
     7
370
    15
100
AcDbCircle
 10
640.9883158971
 20
807.12892897
 30
0.0
 40
0.8279177186756442
100
AcDbArc
 50
165.3843820547
 51
235.3774670401
  0
ARC
  5
17C
330
1F
100
AcDbEntity
  8
0
  6
Continuous
 62
     7
370
    15
100
AcDbCircle
 10
640.6431600031
 20
806.288311209
 30
0.0
 40
1.14429895608488
100
AcDbArc
 50
60.6821068805
 51
113.4826722207
  0
LINE
  5
17D
330
1F
100
AcDbEntity
  8
0
  6
Continuous
 62
     7
370
    15
100
AcDbLine
 10
640.1871892445
 20
807.3378400406
 30
0.0
 11
649.8072377881
 21
836.94530507
 31
0.0
  0
ARC
  5
17E
330
1F
100
AcDbEntity
  8
0
  6
Continuous
 62
     7
370
    15
100
AcDbCircle
 10
650.8303959227
 20
837.6547387275
 30
0.0
 40
1.245049670726377
100
AcDbArc
 50
214.7365242011
 51
262.5843103768
  0
LINE
  5
17F
330
1F
100
AcDbEntity
  8
0
  6
Continuous
 62
     7
370
    15
100
AcDbLine
 10
639.1172174534
 20
804.0448054736
 30
0.0
 11
640.1871892445
 21
807.3378400406
 31
0.0
  0
ARC
  5
180
330
1F
100
AcDbEntity
  8
0
  6
Continuous
 62
     7
370
    15
100
AcDbCircle
 10
650.5949826461
 20
836.6437094538
 30
0.0
 40
0.8435057065514575
100
AcDbArc
 50
89.436315083
 51
159.0501798633
  0
SPLINE
  5
181
330
1F
100
AcDbEntity
  8
0
  6
Continuous
 62
     7
370
    15
100
AcDbSpline
210
0.0
220
0.0
230
1.0
 70
     8
 71
     3
 72
    11
 73
     7
 74
     0
 42
0.00000001
 43
0.00000001
 12
1.0
 22
0.0
 32
0.0
 13
1.0
 23
0.0
 33
0.0
 40
0.0
 40
0.0
 40
0.0
 40
0.0
 40
0.2947335968588936
 40
0.589483610822338
 40
0.8837752324726013
 40
1.0
 40
1.0
 40
1.0
 40
1.0
 10
650.7576288958353
 20
839.8703081360554
 30
0.0
 10
650.8031188280863
 20
839.9744475466686
 30
0.0
 10
650.8941012264457
 20
840.1827321686166
 30
0.0
 10
651.1517247067071
 20
840.4142499221881
 30
0.0
 10
651.4018897624483
 20
840.5277700448959
 30
0.0
 10
651.5570830640431
 20
840.5512539005038
 30
0.0
 10
651.6010211524487
 20
840.5579026135165
 30
0.0
  0
LINE
  5
182
330
1F
100
AcDbEntity
  8
0
  6
Continuous
 62
     7
370
    15
100
AcDbLine
 10
649.8072377881
 20
836.94530507
 30
0.0
 11
650.7576288958
 21
839.8703081361
 31
0.0
  0
LINE
  5
183
330
1F
100
AcDbEntity
  8
0
  6
Continuous
 62
     7
370
    15
100
AcDbLine
 10
673.8970980433
 20
814.004232065
 30
0.0
 11
675.2147426928
 21
813.574669844
 31
0.0
  0
LINE
  5
184
330
1F
100
AcDbEntity
  8
0
  6
Continuous
 62
     7
370
    15
100
AcDbLine
 10
673.2818264707
 20
812.1106208753
 30
0.0
 11
674.5997696551
 21
811.6819774502
 31
0.0
  0
LINE
  5
185
330
1F
100
AcDbEntity
  8
0
  6
Continuous
 62
     7
370
    15
100
AcDbLine
 10
673.1138378243
 20
811.5936049839
 30
0.0
 11
674.4393781708
 21
811.1883432195
 31
0.0
  0
LINE
  5
186
330
1F
100
AcDbEntity
  8
0
  6
Continuous
 62
     7
370
    15
100
AcDbLine
 10
673.1104469907
 20
811.583169071
 30
0.0
 11
674.435888282
 21
811.1776024462
 31
0.0
  0
LINE
  5
187
330
1F
100
AcDbEntity
  8
0
  6
Continuous
 62
     7
370
    15
100
AcDbLine
 10
672.1835232088
 20
808.7303910072
 30
0.0
 11
673.5022310208
 21
808.3041008641
 31
0.0
  0
SPLINE
  5
188
330
1F
100
AcDbEntity
  8
0
  6
Continuous
 62
     7
370
    15
100
AcDbSpline
210
0.0
220
0.0
230
1.0
 70
     8
 71
     3
 72
    13
 73
     9
 74
     0
 42
0.00000001
 43
0.00000001
 12
1.0
 22
0.0
 32
0.0
 13
1.0
 23
0.0
 33
0.0
 40
0.0
 40
0.0
 40
0.0
 40
0.0
 40
0.1254902436581504
 40
0.2493194740033388
 40
0.3731732632516888
 40
0.4989606843624868
 40
0.7492690339848503
 40
1.0
 40
1.0
 40
1.0
 40
1.0
 10
680.0865714851593
 20
843.3912995577405
 30
0.0
 10
680.0802596384475
 20
843.3927357354371
 30
0.0
 10
680.0677194898565
 20
843.3955890813024
 30
0.0
 10
679.9196441635224
 20
843.3851819631343
 30
0.0
 10
679.6672723611089
 20
843.3648351623522
 30
0.0
 10
679.2197120837973
 20
843.3290170145901
 30
0.0
 10
678.5617734866547
 20
843.2797624023509
 30
0.0
 10
678.0271186277847
 20
843.2435425512615
 30
0.0
 10
677.7595657131427
 20
843.2254173503655
 30
0.0
  0
SPLINE
  5
189
330
1F
100
AcDbEntity
  8
0
  6
Continuous
 62
     7
370
    15
100
AcDbSpline
210
0.0
220
0.0
230
1.0
 70
     8
 71
     3
 72
    13
 73
     9
 74
     0
 42
0.00000001
 43
0.00000001
 12
1.0
 22
0.0
 32
0.0
 13
1.0
 23
0.0
 33
0.0
 40
0.0
 40
0.0
 40
0.0
 40
0.0
 40
0.2505151290546351
 40
0.5001116384169456
 40
0.627153585985113
 40
0.7499772368252098
 40
0.8748431134467682
 40
1.0
 40
1.0
 40
1.0
 40
1.0
 10
677.7595657131427
 20
843.2254173503655
 30
0.0
 10
677.4932962123326
 20
843.2077644421437
 30
0.0
 10
676.9617336004724
 20
843.1725233575554
 30
0.0
 10
676.3034416729238
 20
843.1338931683399
 30
0.0
 10
675.845229980426
 20
843.109650383905
 30
0.0
 10
675.5748279244149
 20
843.0959139974888
 30
0.0
 10
675.4232775238308
 20
843.0873538594138
 30
0.0
 10
675.4066856657023
 20
843.0829992088945
 30
0.0
 10
675.398380080726
 20
843.0808193493727
 30
0.0
  0
SPLINE
  5
18A
330
1F
100
AcDbEntity
  8
0
  6
Continuous
 62
     7
370
    15
100
AcDbSpline
210
0.0
220
0.0
230
1.0
 70
     8
 71
     3
 72
     9
 73
     5
 74
     0
 42
0.00000001
 43
0.00000001
 12
1.0
 22
0.0
 32
0.0
 13
1.0
 23
0.0
 33
0.0
 40
0.0
 40
0.0
 40
0.0
 40
0.0
 40
0.4986356485528411
 40
1.0
 40
1.0
 40
1.0
 40
1.0
 10
676.4996714067947
 20
843.1579770559086
 30
0.0
 10
676.6996666612085
 20
843.1711350938522
 30
0.0
 10
677.100751611701
 20
843.1975231749725
 30
0.0
 10
677.5264449918367
 20
843.225738268239
 30
0.0
 10
677.7398724772836
 20
843.2398843101756
 30
0.0
  0
SPLINE
  5
18B
330
1F
100
AcDbEntity
  8
0
  6
Continuous
 62
     7
370
    15
100
AcDbSpline
210
0.0
220
0.0
230
1.0
 70
     8
 71
     3
 72
     9
 73
     5
 74
     0
 42
0.00000001
 43
0.00000001
 12
1.0
 22
0.0
 32
0.0
 13
1.0
 23
0.0
 33
0.0
 40
0.0
 40
0.0
 40
0.0
 40
0.0
 40
0.8008283373918704
 40
0.9999999999999999
 40
0.9999999999999999
 40
0.9999999999999999
 40
0.9999999999999999
 10
677.7398724772836
 20
843.2398843101756
 30
0.0
 10
678.0588257895675
 20
843.261212843776
 30
0.0
 10
678.457105042925
 20
843.2878459342954
 30
0.0
 10
678.8218756563996
 20
843.312251293064
 30
0.0
 10
678.894527625956
 20
843.3171121489466
 30
0.0
  0
LINE
  5
18C
330
1F
100
AcDbEntity
  8
0
  6
Continuous
 62
     7
370
    15
100
AcDbLine
 10
680.0865714852
 20
843.3912995577
 30
0.0
 11
680.087234965
 21
843.381323084
 31
0.0
  0
LINE
  5
18D
330
1F
100
AcDbEntity
  8
0
  6
Continuous
 62
     7
370
    15
100
AcDbLine
 10
677.7595657131
 20
843.2254173504
 30
0.0
 11
677.7602303509
 21
843.2154444403
 31
0.0
  0
LINE
  5
18E
330
1F
100
AcDbEntity
  8
0
  6
Continuous
 62
     7
370
    15
100
AcDbLine
 10
675.3983800807
 20
843.0808193494
 30
0.0
 11
675.3990434827
 21
843.0708426361
 31
0.0
  0
LINE
  5
18F
330
1F
100
AcDbEntity
  8
0
  6
Continuous
 62
     7
370
    15
100
AcDbLine
 10
673.1595518001
 20
805.2621621797
 30
0.0
 11
673.1694720465
 21
805.2926935585
 31
0.0
  0
LINE
  5
190
330
1F
100
AcDbEntity
  8
0
  6
Continuous
 62
     7
370
    15
100
AcDbLine
 10
675.3002435179
 20
813.8378143258
 30
0.0
 11
673.9821775669
 21
814.2660799142
 31
0.0
  0
LINE
  5
191
330
1F
100
AcDbEntity
  8
0
  6
Continuous
 62
     7
370
    15
100
AcDbLine
 10
702.972036874
 20
850.0719504093
 30
0.0
 11
702.972036874
 21
849.9666960043
 31
0.0
  0
LINE
  5
192
330
1F
100
AcDbEntity
  8
0
  6
Continuous
 62
     7
370
    15
100
AcDbLine
 10
768.7178950216
 20
877.4806210178
 30
0.0
 11
768.2010865232
 21
877.4806210178
 31
0.0
  0
LINE
  5
193
330
1F
100
AcDbEntity
  8
0
  6
Continuous
 62
     7
370
    15
100
AcDbLine
 10
768.2010865232
 20
869.9219504093
 30
0.0
 11
768.2010865232
 21
867.4719504093
 31
0.0
  0
LINE
  5
194
330
1F
100
AcDbEntity
  8
0
  6
Continuous
 62
     7
370
    15
100
AcDbLine
 10
710.7010865232
 20
867.4719504093
 30
0.0
 11
711.3749660895
 21
867.4719504093
 31
0.0
  0
LINE
  5
195
330
1F
100
AcDbEntity
  8
0
  6
Continuous
 62
     7
370
    15
100
AcDbLine
 10
710.7010865232
 20
869.9219504093
 30
0.0
 11
768.2010865232
 21
869.9219504093
 31
0.0
  0
LINE
  5
196
330
1F
100
AcDbEntity
  8
0
  6
Continuous
 62
     7
370
    15
100
AcDbLine
 10
710.7010865232
 20
867.4719504093
 30
0.0
 11
710.7010865232
 21
869.9219504093
 31
0.0
  0
LINE
  5
197
330
1F
100
AcDbEntity
  8
0
  6
Continuous
 62
     7
370
    15
100
AcDbLine
 10
707.2010865232
 20
850.0719504093
 30
0.0
 11
690.9010865232
 21
850.0719504093
 31
0.0
  0
ARC
  5
198
330
1F
100
AcDbEntity
  8
0
  6
Continuous
 62
     7
370
    15
100
AcDbCircle
 10
687.2010865232
 20
871.8773913456
 30
0.0
 40
0.2503511010933429
100
AcDbArc
 50
276.005776495
 51
100.1054407084
  0
ARC
  5
199
330
1F
100
AcDbEntity
  8
0
  6
Continuous
 62
     7
370
    15
100
AcDbCircle
 10
687.2010865232
 20
866.266509473
 30
0.0
 40
0.2503511010932536
100
AcDbArc
 50
259.8945592916
 51
83.994223505
  0
ARC
  5
19A
330
1F
100
AcDbEntity
  8
0
  6
Continuous
 62
     7
370
    15
100
AcDbCircle
 10
709.9510865232
 20
870.4219504093
 30
0.0
 40
0.75
100
AcDbArc
 50
0.0
 51
180.0
  0
LINE
  5
19B
330
1F
100
AcDbEntity
  8
0
  6
Continuous
 62
     7
370
    15
100
AcDbLine
 10
690.9010865232
 20
850.0719504093
 30
0.0
 11
663.8434997346
 21
861.5718198512
 31
0.0
  0
ARC
  5
19C
330
1F
100
AcDbEntity
  8
0
  6
Continuous
 62
     7
370
    15
100
AcDbCircle
 10
687.7010865232
 20
869.0719504093
 30
0.0
 40
3.100000000000037
100
AcDbArc
 50
100.1054407084
 51
259.8945592916
  0
ARC
  5
19D
330
1F
100
AcDbEntity
  8
0
  6
Continuous
 62
     7
370
    15
100
AcDbCircle
 10
688.2393992002
 20
871.8702334371
 30
0.0
 40
0.2504090746769378
100
AcDbArc
 50
79.1108926946
 51
263.5357377927
  0
LINE
  5
19E
330
1F
100
AcDbEntity
  8
0
  6
Continuous
 62
     7
370
    15
100
AcDbLine
 10
710.7010865232
 20
870.4219504093
 30
0.0
 11
710.7010865232
 21
869.9219504093
 31
0.0
  0
ARC
  5
19F
330
1F
100
AcDbEntity
  8
0
  6
Continuous
 62
     7
370
    15
100
AcDbCircle
 10
687.7010865232
 20
869.0719504093
 30
0.0
 40
2.600000000000101
100
AcDbArc
 50
281.299052931
 51
78.6851502045
  0
LINE
  5
1A0
330
1F
100
AcDbEntity
  8
0
  6
Continuous
 62
     7
370
    15
100
AcDbLine
 10
675.2010865232
 20
904.5719504093
 30
0.0
 11
766.2010865232
 21
904.5719504093
 31
0.0
  0
ARC
  5
1A1
330
1F
100
AcDbEntity
  8
0
  6
Continuous
 62
     7
370
    15
100
AcDbCircle
 10
687.7010865232
 20
869.0719504093
 30
0.0
 40
3.100000000000128
100
AcDbArc
 50
280.8889929003
 51
79.1108926947
  0
ARC
  5
1A2
330
1F
100
AcDbEntity
  8
0
  6
Continuous
 62
     7
370
    15
100
AcDbCircle
 10
688.2393992002
 20
866.2736372614
 30
0.0
 40
0.2503794968157809
100
AcDbArc
 50
96.6269392397
 51
280.8889929002
  0
ARC
  5
1A3
330
1F
100
AcDbEntity
  8
0
  6
Continuous
 62
     7
370
    15
100
AcDbCircle
 10
675.2010865232
 20
881.5719504093
 30
0.0
 40
23.00000000000009
100
AcDbArc
 50
90.0
 51
240.4088128277
  0
ARC
  5
1A4
330
1F
100
AcDbEntity
  8
0
  6
Continuous
 62
     7
370
    15
100
AcDbCircle
 10
766.2010865232
 20
902.5719504093
 30
0.0
 40
2.0
100
AcDbArc
 50
0.0
 51
90.0
  0
ARC
  5
1A5
330
1F
100
AcDbEntity
  8
0
  6
Continuous
 62
     7
370
    15
100
AcDbCircle
 10
707.2010865232
 20
852.0719504093
 30
0.0
 40
2.000000000000114
100
AcDbArc
 50
270.0
 51
0.0
  0
ARC
  5
1A6
330
1F
100
AcDbEntity
  8
0
  6
Continuous
 62
     7
370
    15
100
AcDbCircle
 10
687.7010865232
 20
869.0719504093
 30
0.0
 40
2.600000000000032
100
AcDbArc
 50
100.4998591652
 51
259.5001408348
  0
LINE
  5
1A7
330
1F
100
AcDbEntity
  8
0
  6
Continuous
 62
     7
370
    15
100
AcDbLine
 10
709.2010865232
 20
870.4219504093
 30
0.0
 11
709.2010865232
 21
852.0719504093
 31
0.0
  0
LINE
  5
1A8
330
1F
100
AcDbEntity
  8
0
  6
Continuous
 62
     7
370
    15
100
AcDbLine
 10
768.2010865232
 20
902.5719504093
 30
0.0
 11
768.2010865232
 21
869.9219504093
 31
0.0
  0
SPLINE
  5
1A9
330
1F
100
AcDbEntity
  8
0
  6
Continuous
 62
     7
370
    15
100
AcDbSpline
210
0.0
220
0.0
230
1.0
 70
     8
 71
     3
 72
    13
 73
     9
 74
     0
 42
0.00000001
 43
0.00000001
 12
1.0
 22
0.0
 32
0.0
 13
1.0
 23
0.0
 33
0.0
 40
0.0
 40
0.0
 40
0.0
 40
0.0
 40
0.2927165812337666
 40
0.4989084967279368
 40
0.6164450822380999
 40
0.7386690157982403
 40
0.8663078874240722
 40
0.9999999999999999
 40
0.9999999999999999
 40
0.9999999999999999
 40
0.9999999999999999
 10
1416.11789502164
 20
869.9219504093417
 30
0.0
 10
1416.475252084143
 20
869.7430019097598
 30
0.0
 10
1417.084334337347
 20
869.4380006469622
 30
0.0
 10
1417.72927979219
 20
869.0976984135384
 30
0.0
 10
1418.113878180628
 20
868.9123091318592
 30
0.0
 10
1418.360329377277
 20
868.80018019965
 30
0.0
 10
1418.533453233784
 20
868.718457240518
 30
0.0
 10
1418.556238499738
 20
868.6923681663934
 30
0.0
 10
1418.56789502164
 20
868.6790214771537
 30
0.0
  0
LINE
  5
1AA
330
1F
100
AcDbEntity
  8
0
  6
Continuous
 62
     7
370
    15
100
AcDbLine
 10
1418.5678950216
 20
868.6790214772
 30
0.0
 11
1417.3678950216
 21
868.6790214772
 31
0.0
  0
SPLINE
  5
1AB
330
1F
100
AcDbEntity
  8
0
  6
Continuous
 62
     7
370
    15
100
AcDbSpline
210
0.0
220
0.0
230
1.0
 70
     8
 71
     3
 72
    13
 73
     9
 74
     0
 42
0.00000001
 43
0.00000001
 12
1.0
 22
0.0
 32
0.0
 13
1.0
 23
0.0
 33
0.0
 40
0.0
 40
0.0
 40
0.0
 40
0.0
 40
0.3196051713926548
 40
0.5359032792209255
 40
0.6516211701438651
 40
0.7662248488730137
 40
0.8817031455999738
 40
1.0
 40
1.0
 40
1.0
 40
1.0
 10
1416.11789502164
 20
869.9219504093417
 30
0.0
 10
1416.299001060569
 20
869.7443362453913
 30
0.0
 10
1416.602673619201
 20
869.4465187461238
 30
0.0
 10
1416.932119712398
 20
869.1055231659517
 30
0.0
 10
1417.132775453939
 20
868.9154539873982
 30
0.0
 10
1417.260073637049
 20
868.8018722034543
 30
0.0
 10
1417.349846859254
 20
868.7190656635679
 30
0.0
 10
1417.361830805218
 20
868.6924763989181
 30
0.0
 10
1417.367895021641
 20
868.6790214771537
 30
0.0
  0
SPLINE
  5
1AC
330
1F
100
AcDbEntity
  8
0
  6
Continuous
 62
     7
370
    15
100
AcDbSpline
210
0.0
220
0.0
230
1.0
 70
     8
 71
     3
 72
    12
 73
     8
 74
     0
 42
0.00000001
 43
0.00000001
 12
1.0
 22
0.0
 32
0.0
 13
1.0
 23
0.0
 33
0.0
 40
0.0
 40
0.0
 40
0.0
 40
0.0
 40
0.1464279468384416
 40
0.2781137780274955
 40
0.4978867819032978
 40
0.7096243799801139
 40
1.0
 40
1.0
 40
1.0
 40
1.0
 10
1418.56789502164
 20
882.2012397312232
 30
0.0
 10
1418.5540375126
 20
882.1848570013271
 30
0.0
 10
1418.527717644867
 20
882.1537409268061
 30
0.0
 10
1418.290513010044
 20
882.0607300931576
 30
0.0
 10
1417.838795385137
 20
881.8901808429424
 30
0.0
 10
1417.078918231028
 20
881.5053278325339
 30
0.0
 10
1416.470023274882
 20
881.1990645997404
 30
0.0
 10
1416.11789502164
 20
881.0219504093417
 30
0.0
  0
LINE
  5
1AD
330
1F
100
AcDbEntity
  8
0
  6
Continuous
 62
     7
370
    15
100
AcDbLine
 10
1418.5678950216
 20
868.6790214772
 30
0.0
 11
1418.5678950216
 21
882.2012397312
 31
0.0
  0
LINE
  5
1AE
330
1F
100
AcDbEntity
  8
0
  6
Continuous
 62
     7
370
    15
100
AcDbLine
 10
1416.1178950216
 20
869.9219504093
 30
0.0
 11
1416.1178950216
 21
881.0219504093
 31
0.0
  0
SPLINE
  5
1AF
330
1F
100
AcDbEntity
  8
0
  6
Continuous
 62
     7
370
    15
100
AcDbSpline
210
0.0
220
0.0
230
1.0
 70
     8
 71
     3
 72
    12
 73
     8
 74
     0
 42
0.00000001
 43
0.00000001
 12
1.0
 22
0.0
 32
0.0
 13
1.0
 23
0.0
 33
0.0
 40
0.0
 40
0.0
 40
0.0
 40
0.0
 40
0.2256464046612411
 40
0.4513359764377679
 40
0.6770257472790739
 40
0.9027153045660582
 40
1.0
 40
1.0
 40
1.0
 40
1.0
 10
1417.360823953829
 20
867.4719504093416
 30
0.0
 10
1417.267304141252
 20
867.501894182261
 30
0.0
 10
1417.080246625363
 20
867.5617874564707
 30
0.0
 10
1416.799606558366
 20
868.0271651673268
 30
0.0
 10
1416.519126602994
 20
868.7059281137695
 30
0.0
 10
1416.29129514704
 20
869.3851268660857
 30
0.0
 10
1416.158034984066
 20
869.7976824665965
 30
0.0
 10
1416.11789502164
 20
869.9219504093415
 30
0.0
  0
LINE
  5
1B0
330
1F
100
AcDbEntity
  8
0
  6
Continuous
 62
     7
370
    15
100
AcDbLine
 10
768.7178950216
 20
869.9219504093
 30
0.0
 11
768.7178950216
 21
867.4719504093
 31
0.0
  0
LINE
  5
1B1
330
1F
100
AcDbEntity
  8
0
  6
Continuous
 62
     7
370
    15
100
AcDbLine
 10
768.7178950216
 20
869.9219504093
 30
0.0
 11
1416.1178950216
 21
869.9219504093
 31
0.0
  0
LINE
  5
1B2
330
1F
100
AcDbEntity
  8
0
  6
Continuous
 62
     7
370
    15
100
AcDbLine
 10
768.7178950216
 20
880.9719504093
 30
0.0
 11
768.7178950216
 21
869.9219504093
 31
0.0
  0
LINE
  5
1B3
330
1F
100
AcDbEntity
  8
0
  6
Continuous
 62
     7
370
    15
100
AcDbLine
 10
770.2178950216
 20
880.9719504093
 30
0.0
 11
768.7178950216
 21
880.9719504093
 31
0.0
  0
LINE
  5
1B4
330
1F
100
AcDbEntity
  8
0
  6
Continuous
 62
     7
370
    15
100
AcDbLine
 10
770.2178950216
 20
881.0219504093
 30
0.0
 11
770.2178950216
 21
880.9719504093
 31
0.0
  0
LINE
  5
1B5
330
1F
100
AcDbEntity
  8
0
  6
Continuous
 62
     7
370
    15
100
AcDbLine
 10
770.2178950216
 20
881.0219504093
 30
0.0
 11
1416.1178950216
 21
881.0219504093
 31
0.0
  0
SPLINE
  5
1B6
330
1F
100
AcDbEntity
  8
0
  6
Continuous
 62
     7
370
    15
100
AcDbSpline
210
0.0
220
0.0
230
1.0
 70
     8
 71
     3
 72
    11
 73
     7
 74
     0
 42
0.00000001
 43
0.00000001
 12
1.0
 22
0.0
 32
0.0
 13
1.0
 23
0.0
 33
0.0
 40
0.0
 40
0.0
 40
0.0
 40
0.0
 40
0.2684698853759402
 40
0.5229980957176288
 40
0.7774891618644133
 40
1.0
 40
1.0
 40
1.0
 40
1.0
 10
1417.360823953829
 20
868.6719504093415
 30
0.0
 10
1417.249503260494
 20
868.6936331790754
 30
0.0
 10
1417.032642771479
 20
868.7358727295738
 30
0.0
 10
1416.710579089942
 20
869.0503047830098
 30
0.0
 10
1416.407328468458
 20
869.4641833848392
 30
0.0
 10
1416.20996207765
 20
869.7763374446073
 30
0.0
 10
1416.11789502164
 20
869.9219504093415
 30
0.0
  0
LINE
  5
1B7
330
1F
100
AcDbEntity
  8
0
  6
Continuous
 62
     7
370
    15
100
AcDbLine
 10
1417.3608239538
 20
868.6719504093
 30
0.0
 11
1417.3608239538
 21
867.4719504093
 31
0.0
  0
SPLINE
  5
1B8
330
1F
100
AcDbEntity
  8
0
  6
Continuous
 62
     7
370
    15
100
AcDbSpline
210
0.0
220
0.0
230
1.0
 70
     8
 71
     3
 72
    12
 73
     8
 74
     0
 42
0.00000001
 43
0.00000001
 12
1.0
 22
0.0
 32
0.0
 13
1.0
 23
0.0
 33
0.0
 40
0.0
 40
0.0
 40
0.0
 40
0.0
 40
0.2245768996779682
 40
0.4491912330129921
 40
0.6738057308688628
 40
0.898420016407757
 40
1.0
 40
1.0
 40
1.0
 40
1.0
 10
1416.11789502164
 20
881.0219504093418
 30
0.0
 10
1416.206206702052
 20
881.3100753154025
 30
0.0
 10
1416.38284478313
 20
881.8863731536962
 30
0.0
 10
1416.64784989443
 20
882.6451921984174
 30
0.0
 10
1416.912708208947
 20
883.2003110771742
 30
0.0
 10
1417.129705686649
 20
883.4455972189531
 30
0.0
 10
1417.257414583867
 20
883.4656925370405
 30
0.0
 10
1417.297184343522
 20
883.4719504093417
 30
0.0
  0
LINE
  5
1B9
330
1F
100
AcDbEntity
  8
0
  6
Continuous
 62
     7
370
    15
100
AcDbLine
 10
1417.2971843435
 20
883.4719504093
 30
0.0
 11
1417.2971843435
 21
882.2719504093
 31
0.0
  0
SPLINE
  5
1BA
330
1F
100
AcDbEntity
  8
0
  6
Continuous
 62
     7
370
    15
100
AcDbSpline
210
0.0
220
0.0
230
1.0
 70
     8
 71
     3
 72
    11
 73
     7
 74
     0
 42
0.00000001
 43
0.00000001
 12
1.0
 22
0.0
 32
0.0
 13
1.0
 23
0.0
 33
0.0
 40
0.0
 40
0.0
 40
0.0
 40
0.0
 40
0.2698979297075183
 40
0.5207755755668879
 40
0.7716067421944863
 40
0.9999999999999999
 40
0.9999999999999999
 40
0.9999999999999999
 40
0.9999999999999999
 10
1416.11789502164
 20
881.0219504093418
 30
0.0
 10
1416.224093483584
 20
881.1989256856924
 30
0.0
 10
1416.429006374923
 20
881.5404044124929
 30
0.0
 10
1416.73221941762
 20
881.9561180561468
 30
0.0
 10
1417.019317171157
 20
882.2233086851553
 30
0.0
 10
1417.207498923942
 20
882.2562506294591
 30
0.0
 10
1417.297184343522
 20
882.2719504093418
 30
0.0
  0
LINE
  5
1BB
330
1F
100
AcDbEntity
  8
0
  6
Continuous
 62
     7
370
    15
100
AcDbLine
 10
770.2178950216
 20
883.4719504093
 30
0.0
 11
1364.5678950216
 21
883.4719504093
 31
0.0
  0
LINE
  5
1BC
330
1F
100
AcDbEntity
  8
0
  6
Continuous
 62
     7
370
    15
100
AcDbLine
 10
770.2178950216
 20
883.4719504093
 30
0.0
 11
770.2178950216
 21
881.0219504093
 31
0.0
  0
SPLINE
  5
1BD
330
1F
100
AcDbEntity
  8
0
  6
Continuous
 62
     7
370
    15
100
AcDbSpline
210
0.0
220
0.0
230
1.0
 70
     8
 71
     3
 72
    13
 73
     9
 74
     0
 42
0.00000001
 43
0.00000001
 12
1.0
 22
0.0
 32
0.0
 13
1.0
 23
0.0
 33
0.0
 40
0.0
 40
0.0
 40
0.0
 40
0.0
 40
0.1307222656868111
 40
0.2500868422493407
 40
0.3592589847419352
 40
0.4597687327573764
 40
0.680781125640463
 40
1.0
 40
1.0
 40
1.0
 40
1.0
 10
1417.367895021641
 20
882.2012397312232
 30
0.0
 10
1417.360779788224
 20
882.1848439411408
 30
0.0
 10
1417.34716752219
 20
882.1534768947822
 30
0.0
 10
1417.249367382283
 20
882.0782510128176
 30
0.0
 10
1417.122819879574
 20
881.9847818859208
 30
0.0
 10
1416.924325927196
 20
881.8196932683331
 30
0.0
 10
1416.597332328005
 20
881.4942901720646
 30
0.0
 10
1416.295968687413
 20
881.1973878897411
 30
0.0
 10
1416.11789502164
 20
881.0219504093417
 30
0.0
  0
LINE
  5
1BE
330
1F
100
AcDbEntity
  8
0
  6
Continuous
 62
     7
370
    15
100
AcDbLine
 10
1418.5678950216
 20
882.2012397312
 30
0.0
 11
1417.3678950216
 21
882.2012397312
 31
0.0
  0
ARC
  5
1BF
330
1F
100
AcDbEntity
  8
0
  6
Continuous
 62
     7
370
    15
100
AcDbCircle
 10
675.2010865232
 20
881.5719504093
 30
0.0
 40
23.30000000000007
100
AcDbArc
 50
90.0
 51
246.5
  0
LINE
  5
1C0
330
1F
100
AcDbEntity
  8
0
  6
Continuous
 62
     7
370
    15
100
AcDbLine
 10
675.2010865232
 20
904.8719504093
 30
0.0
 11
766.5178950216
 21
904.8719504093
 31
0.0
  0
LINE
  5
1C1
330
1F
100
AcDbEntity
  8
0
  6
Continuous
 62
     7
370
    15
100
AcDbLine
 10
689.3441029584
 20
850.7336911572
 30
0.0
 11
689.0813359702
 21
850.1293684577
 31
0.0
  0
LINE
  5
1C2
330
1F
100
AcDbEntity
  8
0
  6
Continuous
 62
     7
370
    15
100
AcDbLine
 10
689.0813359702
 20
850.1293684577
 30
0.0
 11
665.9102332172
 21
860.2044506762
 31
0.0
  0
LINE
  5
1C3
330
1F
100
AcDbEntity
  8
0
  6
Continuous
 62
     7
370
    15
100
AcDbLine
 10
768.2010865232
 20
884.7219504093
 30
0.0
 11
768.9678950216
 21
884.7219504093
 31
0.0
  0
LINE
  5
1C4
330
1F
100
AcDbEntity
  8
0
  6
Continuous
 62
     7
370
    15
100
AcDbLine
 10
768.9678950216
 20
902.4219504093
 30
0.0
 11
768.9678950216
 21
884.7219504093
 31
0.0
  0
ARC
  5
1C5
330
1F
100
AcDbEntity
  8
0
  6
Continuous
 62
     7
370
    15
100
AcDbCircle
 10
766.5178950216
 20
902.4219504093
 30
0.0
 40
2.450000000000045
100
AcDbArc
 50
0.0
 51
90.0
  0
LINE
  5
1C6
330
1F
100
AcDbEntity
  8
0
  6
Continuous
 62
     7
370
    15
100
AcDbLine
 10
1417.3608239538
 20
883.4719504093
 30
0.0
 11
1417.3608239538
 21
882.2719504093
 31
0.0
  0
LINE
  5
1C7
330
1F
100
AcDbEntity
  8
0
  6
Continuous
 62
     7
370
    15
100
AcDbLine
 10
1417.3608239538
 20
882.2719504093
 30
0.0
 11
1417.2971843435
 21
882.2719504093
 31
0.0
  0
ARC
  5
1C8
330
1F
100
AcDbEntity
  8
0
  6
Continuous
 62
     7
370
    15
100
AcDbCircle
 10
770.2178950216
 20
884.7219504093
 30
0.0
 40
2.450000000000045
100
AcDbArc
 50
214.5948765709
 51
270.0
  0
ARC
  5
1C9
330
1F
100
AcDbEntity
  8
0
  6
Continuous
 62
     7
370
    15
100
AcDbCircle
 10
770.2178950216
 20
884.7219504093
 30
0.0
 40
1.250000000000114
100
AcDbArc
 50
180.0
 51
270.0
  0
LWPOLYLINE
  5
1CA
330
1F
100
AcDbEntity
  8
0
  6
Continuous
 62
     7
370
    15
100
AcDbPolyline
 90
        3
 70
   128
 43
0.0
 10
1364.1178950216
 20
883.4719504093
 10
1364.3617579242
 20
883.4959688088
 10
1364.5678950216
 20
883.5557600304
  0
LINE
  5
1CB
330
1F
100
AcDbEntity
  8
0
  6
Continuous
 62
     7
370
    15
100
AcDbLine
 10
1418.5678950216
 20
882.2648793415
 30
0.0
 11
1418.5678950216
 21
882.2012397312
 31
0.0
  0
LINE
  5
1CC
330
1F
100
AcDbEntity
  8
0
  6
Continuous
 62
     7
370
    15
100
AcDbLine
 10
1419.5678950216
 20
1092.3804372852
 30
0.0
 11
1419.5678950216
 21
883.4719504093
 31
0.0
  0
LINE
  5
1CD
330
1F
100
AcDbEntity
  8
0
  6
Continuous
 62
     7
370
    15
100
AcDbLine
 10
1417.5178950216
 20
883.4719504093
 30
0.0
 11
1417.5178950216
 21
1092.3804372852
 31
0.0
  0
LINE
  5
1CE
330
1F
100
AcDbEntity
  8
0
  6
Continuous
 62
     7
370
    15
100
AcDbLine
 10
1417.5178950216
 20
1092.3804372852
 30
0.0
 11
1419.5678950216
 21
1092.3804372852
 31
0.0
  0
LINE
  5
1CF
330
1F
100
AcDbEntity
  8
0
  6
Continuous
 62
     7
370
    15
100
AcDbLine
 10
1419.5678950216
 20
883.4719504093
 30
0.0
 11
1417.5178950216
 21
883.4719504093
 31
0.0
  0
LINE
  5
1D0
330
1F
100
AcDbEntity
  8
0
  6
Continuous
 62
     7
370
    15
100
AcDbLine
 10
1366.6178950216
 20
883.4719504093
 30
0.0
 11
1366.6178950216
 21
1070.4887757099
 31
0.0
  0
LINE
  5
1D1
330
1F
100
AcDbEntity
  8
0
  6
Continuous
 62
     7
370
    15
100
AcDbLine
 10
1366.6678950216
 20
1070.4887757099
 30
0.0
 11
1366.6178950216
 21
1070.4887757099
 31
0.0
  0
LINE
  5
1D2
330
1F
100
AcDbEntity
  8
0
  6
Continuous
 62
     7
370
    15
100
AcDbLine
 10
1366.6678950216
 20
1070.9887757099
 30
0.0
 11
1366.6678950216
 21
1070.4887757099
 31
0.0
  0
LINE
  5
1D3
330
1F
100
AcDbEntity
  8
0
  6
Continuous
 62
     7
370
    15
100
AcDbLine
 10
1365.4678950216
 20
1070.9887757099
 30
0.0
 11
1366.6678950216
 21
1070.9887757099
 31
0.0
  0
ARC
  5
1D4
330
1F
100
AcDbEntity
  8
0
  6
Continuous
 62
     7
370
    15
100
AcDbCircle
 10
1390.3678950216
 20
1070.9887757099
 30
0.0
 40
24.90000000000011
100
AcDbArc
 50
105.0
 51
180.0
  0
LINE
  5
1D5
330
1F
100
AcDbEntity
  8
0
  6
Continuous
 62
     7
370
    15
100
AcDbLine
 10
1417.2202531198
 20
1103.9622202693
 30
0.0
 11
1383.9233007986
 21
1095.0403287845
 31
0.0
  0
ARC
  5
1D6
330
1F
100
AcDbEntity
  8
0
  6
Continuous
 62
     7
370
    15
100
AcDbCircle
 10
1417.5178950216
 20
1102.8514055691
 30
0.0
 40
1.150000000000091
100
AcDbArc
 50
0.0
 51
105.0
  0
LINE
  5
1D7
330
1F
100
AcDbEntity
  8
0
  6
Continuous
 62
     7
370
    15
100
AcDbLine
 10
1418.6678950216
 20
1092.7804372852
 30
0.0
 11
1418.6678950216
 21
1102.8514055691
 31
0.0
  0
LINE
  5
1D8
330
1F
100
AcDbEntity
  8
0
  6
Continuous
 62
     7
370
    15
100
AcDbLine
 10
1418.6678950216
 20
1092.7804372852
 30
0.0
 11
1417.1178950216
 21
1092.7804372852
 31
0.0
  0
LINE
  5
1D9
330
1F
100
AcDbEntity
  8
0
  6
Continuous
 62
     7
370
    15
100
AcDbLine
 10
1417.1178950216
 20
1092.7804372852
 30
0.0
 11
1417.1178950216
 21
1092.3804372852
 31
0.0
  0
LINE
  5
1DA
330
1F
100
AcDbEntity
  8
0
  6
Continuous
 62
     7
370
    15
100
AcDbLine
 10
1417.1178950216
 20
1092.3804372852
 30
0.0
 11
1417.5178950216
 21
1092.3804372852
 31
0.0
  0
ARC
  5
1DB
330
1F
100
AcDbEntity
  8
0
  6
Continuous
 62
     7
370
    15
100
AcDbCircle
 10
1393.6678950216
 20
1082.122242231
 30
0.0
 40
3.0999999999999
100
AcDbArc
 50
10.8891073053
 51
169.1110070997
  0
ARC
  5
1DC
330
1F
100
AcDbEntity
  8
0
  6
Continuous
 62
     7
370
    15
100
AcDbCircle
 10
1390.8695818737
 20
1082.660554908
 30
0.0
 40
0.2503794968157017
100
AcDbArc
 50
169.1110070997
 51
353.3730607602
  0
ARC
  5
1DD
330
1F
100
AcDbEntity
  8
0
  6
Continuous
 62
     7
370
    15
100
AcDbCircle
 10
1393.6678950216
 20
1082.122242231
 30
0.0
 40
2.600000000000035
100
AcDbArc
 50
11.3148497955
 51
168.700947069
  0
ARC
  5
1DE
330
1F
100
AcDbEntity
  8
0
  6
Continuous
 62
     7
370
    15
100
AcDbCircle
 10
1396.4661780494
 20
1082.660554908
 30
0.0
 40
0.2504090746769378
100
AcDbArc
 50
186.4642622074
 51
10.8891073054
  0
ARC
  5
1DF
330
1F
100
AcDbEntity
  8
0
  6
Continuous
 62
     7
370
    15
100
AcDbCircle
 10
1396.4733359579
 20
1081.622242231
 30
0.0
 40
0.2503511010933501
100
AcDbArc
 50
349.8945592916
 51
173.994223505
  0
ARC
  5
1E0
330
1F
100
AcDbEntity
  8
0
  6
Continuous
 62
     7
370
    15
100
AcDbCircle
 10
1393.6678950216
 20
1082.122242231
 30
0.0
 40
2.59999999999997
100
AcDbArc
 50
190.4998591652
 51
349.5001408348
  0
ARC
  5
1E1
330
1F
100
AcDbEntity
  8
0
  6
Continuous
 62
     7
370
    15
100
AcDbCircle
 10
1390.8624540853
 20
1081.622242231
 30
0.0
 40
0.2503511010933548
100
AcDbArc
 50
6.005776495
 51
190.1054407084
  0
ARC
  5
1E2
330
1F
100
AcDbEntity
  8
0
  6
Continuous
 62
     7
370
    15
100
AcDbCircle
 10
1393.6678950216
 20
1082.122242231
 30
0.0
 40
3.100000000000182
100
AcDbArc
 50
190.1054407084
 51
349.8945592916
  0
LINE
  5
1E3
330
1F
100
AcDbEntity
  8
0
  6
Continuous
 62
     7
370
    15
100
AcDbLine
 10
1366.6178950216
 20
883.4719504093
 30
0.0
 11
1417.5178950216
 21
883.4719504093
 31
0.0
  0
LINE
  5
1E4
330
1F
100
AcDbEntity
  8
0
  6
Continuous
 62
     7
370
    15
100
AcDbLine
 10
1366.6178950216
 20
883.4719504093
 30
0.0
 11
1364.5678950216
 21
883.4719504093
 31
0.0
  0
LINE
  5
1E5
330
1F
100
AcDbEntity
  8
0
  6
Continuous
 62
     7
370
    15
100
AcDbLine
 10
1364.5678950216
 20
883.4719504093
 30
0.0
 11
1364.5678950216
 21
1070.4887757099
 31
0.0
  0
LINE
  5
1E6
330
1F
100
AcDbEntity
  8
0
  6
Continuous
 62
     7
370
    15
100
AcDbLine
 10
1364.5678950216
 20
1070.4887757099
 30
0.0
 11
1366.6178950216
 21
1070.4887757099
 31
0.0
  0
ARC
  5
1E7
330
1F
100
AcDbEntity
  8
0
  6
Continuous
 62
     7
370
    15
100
AcDbCircle
 10
1390.3678950216
 20
1070.9887757099
 30
0.0
 40
25.80000000000006
100
AcDbArc
 50
105.0
 51
180.0
  0
LINE
  5
1E8
330
1F
100
AcDbEntity
  8
0
  6
Continuous
 62
     7
370
    15
100
AcDbLine
 10
1383.690363658
 20
1095.9096620281
 30
0.0
 11
1383.8974188941
 21
1095.1369213671
 31
0.0
  0
ARC
  5
1E9
330
1F
100
AcDbEntity
  8
0
  6
Continuous
 62
     7
370
    15
100
AcDbCircle
 10
1390.3678950216
 20
1070.9887757099
 30
0.0
 40
25.00000000000024
100
AcDbArc
 50
105.0
 51
180.0
  0
LINE
  5
1EA
330
1F
100
AcDbEntity
  8
0
  6
Continuous
 62
     7
370
    15
100
AcDbLine
 10
1365.3678950216
 20
1070.9887757099
 30
0.0
 11
1364.5678950216
 21
1070.9887757099
 31
0.0
  0
LINE
  5
1EB
330
1F
100
AcDbEntity
  8
0
  6
Continuous
 62
     7
370
    15
100
AcDbLine
 10
1419.5678950216
 20
1092.4804372852
 30
0.0
 11
1418.7678950216
 21
1092.4804372852
 31
0.0
  0
LINE
  5
1EC
330
1F
100
AcDbEntity
  8
0
  6
Continuous
 62
     7
370
    15
100
AcDbLine
 10
1418.7678950216
 20
1092.4804372852
 30
0.0
 11
1418.7678950216
 21
1102.8514055691
 31
0.0
  0
LINE
  5
1ED
330
1F
100
AcDbEntity
  8
0
  6
Continuous
 62
     7
370
    15
100
AcDbLine
 10
1419.5678950216
 20
1102.8514055691
 30
0.0
 11
1418.7678950216
 21
1102.8514055691
 31
0.0
  0
LINE
  5
1EE
330
1F
100
AcDbEntity
  8
0
  6
Continuous
 62
     7
370
    15
100
AcDbLine
 10
1419.5678950216
 20
1092.4804372852
 30
0.0
 11
1419.5678950216
 21
1102.8514055691
 31
0.0
  0
LINE
  5
1EF
330
1F
100
AcDbEntity
  8
0
  6
Continuous
 62
     7
370
    15
100
AcDbLine
 10
1365.3678950216
 20
1070.8887757099
 30
0.0
 11
1364.5678950216
 21
1070.8887757099
 31
0.0
  0
LINE
  5
1F0
330
1F
100
AcDbEntity
  8
0
  6
Continuous
 62
     7
370
    15
100
AcDbLine
 10
1364.5678950216
 20
1070.9887757099
 30
0.0
 11
1364.5678950216
 21
1070.8887757099
 31
0.0
  0
LINE
  5
1F1
330
1F
100
AcDbEntity
  8
0
  6
Continuous
 62
     7
370
    15
100
AcDbLine
 10
1365.3678950216
 20
1070.9887757099
 30
0.0
 11
1365.3678950216
 21
1070.8887757099
 31
0.0
  0
LINE
  5
1F2
330
1F
100
AcDbEntity
  8
0
  6
Continuous
 62
     7
370
    15
100
AcDbLine
 10
1417.1943712153
 20
1104.058812852
 30
0.0
 11
1416.9873159792
 21
1104.831553513
 31
0.0
  0
ARC
  5
1F3
330
1F
100
AcDbEntity
  8
0
  6
Continuous
 62
     7
370
    15
100
AcDbCircle
 10
1417.5178950216
 20
1102.8514055691
 30
0.0
 40
1.250000000000227
100
AcDbArc
 50
0.0
 51
105.0
  0
ARC
  5
1F4
330
1F
100
AcDbEntity
  8
0
  6
Continuous
 62
     7
370
    15
100
AcDbCircle
 10
1417.5178950216
 20
1102.8514055691
 30
0.0
 40
2.050000000000182
100
AcDbArc
 50
0.0
 51
105.0
  0
LINE
  5
1F5
330
1F
100
AcDbEntity
  8
0
  6
Continuous
 62
     7
370
    15
100
AcDbLine
 10
1416.9873159792
 20
1104.831553513
 30
0.0
 11
1383.690363658
 21
1095.9096620281
 31
0.0
  0
LINE
  5
1F6
330
1F
100
AcDbEntity
  8
0
  6
Continuous
 62
     7
370
    15
100
AcDbLine
 10
1417.1943712153
 20
1104.058812852
 30
0.0
 11
1383.8974188941
 21
1095.1369213671
 31
0.0
  0
LINE
  5
1F7
330
1F
100
AcDbEntity
  8
0
  6
Continuous
 62
     7
370
    15
100
AcDbLine
 10
1364.5678950216
 20
1070.8887757099
 30
0.0
 11
1364.5678950216
 21
1070.4887757099
 31
0.0
  0
LINE
  5
1F8
330
1F
100
AcDbEntity
  8
0
  6
Continuous
 62
     7
370
    15
100
AcDbLine
 10
1365.3678950216
 20
1070.4887757099
 30
0.0
 11
1365.3678950216
 21
1070.8887757099
 31
0.0
  0
LINE
  5
1F9
330
1F
100
AcDbEntity
  8
0
  6
Continuous
 62
     7
370
    15
100
AcDbLine
 10
895.5678950216
 20
883.4719504093
 30
0.0
 11
895.5678950216
 21
883.9719504093
 31
0.0
  0
LINE
  5
1FA
330
1F
100
AcDbEntity
  8
0
  6
Continuous
 62
     7
370
    15
100
AcDbLine
 10
1336.5678950216
 20
883.4719504093
 30
0.0
 11
1336.5678950216
 21
883.9719504093
 31
0.0
  0
ARC
  5
1FB
330
1F
100
AcDbEntity
  8
0
  6
Continuous
 62
     7
370
    15
100
AcDbCircle
 10
1339.2178950216
 20
885.5219504093
 30
0.0
 40
2.050000000000182
100
AcDbArc
 50
229.1213648535
 51
270.0
  0
ARC
  5
1FC
330
1F
100
AcDbEntity
  8
0
  6
Continuous
 62
     7
370
    15
100
AcDbCircle
 10
1346.7178950216
 20
885.5219504093
 30
0.0
 40
2.050000000000182
100
AcDbArc
 50
270.0
 51
310.8786351465
  0
ARC
  5
1FD
330
1F
100
AcDbEntity
  8
0
  6
Continuous
 62
     7
370
    15
100
AcDbCircle
 10
894.1178950216
 20
885.5219504093
 30
0.0
 40
2.049999999999955
100
AcDbArc
 50
270.0
 51
310.8786351465
  0
ARC
  5
1FE
330
1F
100
AcDbEntity
  8
0
  6
Continuous
 62
     7
370
    15
100
AcDbCircle
 10
886.6178950216
 20
885.5219504093
 30
0.0
 40
2.049999999999963
100
AcDbArc
 50
229.1213648535
 51
270.0
  0
ARC
  5
1FF
330
1F
100
AcDbEntity
  8
0
  6
Continuous
 62
     7
370
    15
100
AcDbCircle
 10
749.1324606436
 20
905.6925027702
 30
0.0
 40
2.449999999999932
100
AcDbArc
 50
90.0
 51
105.0
  0
LINE
  5
200
330
1F
100
AcDbEntity
  8
0
  6
Continuous
 62
     7
370
    15
100
AcDbLine
 10
749.1324606436
 20
906.9425027702
 30
0.0
 11
749.1324606436
 21
908.1425027702
 31
0.0
  0
LINE
  5
201
330
1F
100
AcDbEntity
  8
0
  6
Continuous
 62
     7
370
    15
100
AcDbLine
 10
748.8089368372
 20
906.899910053
 30
0.0
 11
748.4983539831
 21
908.0590210446
 31
0.0
  0
ARC
  5
202
330
1F
100
AcDbEntity
  8
0
  6
Continuous
 62
     7
370
    15
100
AcDbCircle
 10
749.1324606436
 20
905.6925027702
 30
0.0
 40
1.250000000000031
100
AcDbArc
 50
90.0
 51
105.0
  0
LINE
  5
203
330
1F
100
AcDbEntity
  8
0
  6
Continuous
 62
     7
370
    15
100
AcDbLine
 10
745.7595346886
 20
907.3251566264
 30
0.0
 11
746.0701175428
 21
906.1660456349
 31
0.0
  0
LINE
  5
204
330
1F
100
AcDbEntity
  8
0
  6
Continuous
 62
     7
370
    15
100
AcDbLine
 10
748.4983539831
 20
908.0590210446
 30
0.0
 11
745.7595346886
 21
907.3251566264
 31
0.0
  0
LINE
  5
205
330
1F
100
AcDbEntity
  8
0
  6
Continuous
 62
     7
370
    15
100
AcDbLine
 10
748.8089368372
 20
906.899910053
 30
0.0
 11
746.0701175428
 21
906.1660456349
 31
0.0
  0
LINE
  5
206
330
1F
100
AcDbEntity
  8
0
  6
Continuous
 62
     7
370
    15
100
AcDbLine
 10
772.7178950216
 20
906.9425027702
 30
0.0
 11
772.7178950216
 21
908.1425027702
 31
0.0
  0
ARC
  5
207
330
1F
100
AcDbEntity
  8
0
  6
Continuous
 62
     7
370
    15
100
AcDbCircle
 10
772.7178950216
 20
905.6925027702
 30
0.0
 40
1.250000000000048
100
AcDbArc
 50
30.2695413403
 51
90.0
  0
ARC
  5
208
330
1F
100
AcDbEntity
  8
0
  6
Continuous
 62
     7
370
    15
100
AcDbCircle
 10
772.7178950216
 20
905.6925027702
 30
0.0
 40
2.450000000000041
100
AcDbArc
 50
47.5403088187
 51
90.0
  0
LINE
  5
209
330
1F
100
AcDbEntity
  8
0
  6
Continuous
 62
     7
370
    15
100
AcDbLine
 10
740.9299055572
 20
906.0310614009
 30
0.0
 11
741.2404884113
 21
904.8719504093
 31
0.0
  0
LINE
  5
20A
330
1F
100
AcDbEntity
  8
0
  6
Continuous
 62
     7
370
    15
100
AcDbLine
 10
745.7595346886
 20
907.3251566264
 30
0.0
 11
740.9299055572
 21
906.0310614009
 31
0.0
  0
LINE
  5
20B
330
1F
100
AcDbEntity
  8
0
  6
Continuous
 62
     7
370
    15
100
AcDbLine
 10
746.0701175428
 20
906.1660456349
 30
0.0
 11
741.2404884113
 21
904.8719504093
 31
0.0
  0
LINE
  5
20C
330
1F
100
AcDbEntity
  8
0
  6
Continuous
 62
     7
370
    15
100
AcDbLine
 10
749.1324606436
 20
906.9425027702
 30
0.0
 11
772.7178950216
 21
906.9425027702
 31
0.0
  0
LINE
  5
20D
330
1F
100
AcDbEntity
  8
0
  6
Continuous
 62
     7
370
    15
100
AcDbLine
 10
749.1324606436
 20
908.1425027702
 30
0.0
 11
772.7178950216
 21
908.1425027702
 31
0.0
  0
SPLINE
  5
20E
330
1F
100
AcDbEntity
  8
0
  6
Continuous
 62
     7
370
    15
100
AcDbSpline
210
0.0
220
0.0
230
1.0
 70
     8
 71
     3
 72
    13
 73
     9
 74
     0
 42
0.00000001
 43
0.00000001
 12
1.0
 22
0.0
 32
0.0
 13
1.0
 23
0.0
 33
0.0
 40
0.0
 40
0.0
 40
0.0
 40
0.0
 40
0.2928322668253526
 40
0.5014695221856912
 40
0.6128947382434983
 40
0.7321869428432859
 40
0.8608295664689163
 40
1.0
 40
1.0
 40
1.0
 40
1.0
 10
708.517895021641
 20
725.1290214771525
 30
0.0
 10
708.6815292177046
 20
725.2928691517559
 30
0.0
 10
708.9617495738928
 20
725.573455085763
 30
0.0
 10
709.2798971514078
 20
725.893702257369
 30
0.0
 10
709.4893192442526
 20
726.0790189247933
 30
0.0
 10
709.6334067666751
 20
726.1982194772406
 30
0.0
 10
709.7443283867985
 20
726.2992732557994
 30
0.0
 10
709.7598362702104
 20
726.3470980229476
 30
0.0
 10
709.7678950216412
 20
726.3719504093407
 30
0.0
  0
LINE
  5
20F
330
1F
100
AcDbEntity
  8
0
  6
Continuous
 62
     7
370
    15
100
AcDbLine
 10
710.5678950216
 20
726.3719504093
 30
0.0
 11
709.7678950216
 21
726.3719504093
 31
0.0
  0
SPLINE
  5
210
330
1F
100
AcDbEntity
  8
0
  6
Continuous
 62
     7
370
    15
100
AcDbSpline
210
0.0
220
0.0
230
1.0
 70
     8
 71
     3
 72
    13
 73
     9
 74
     0
 42
0.00000001
 43
0.00000001
 12
1.0
 22
0.0
 32
0.0
 13
1.0
 23
0.0
 33
0.0
 40
0.0
 40
0.0
 40
0.0
 40
0.0
 40
0.2714130879667243
 40
0.4716364721526322
 40
0.5842710020125271
 40
0.7094219670561617
 40
0.8478208910625855
 40
0.9999999999999999
 40
0.9999999999999999
 40
0.9999999999999999
 40
0.9999999999999999
 10
708.5178950216408
 20
725.1290214771525
 30
0.0
 10
708.787876795165
 20
725.2939401918933
 30
0.0
 10
709.257026061931
 20
725.5805206268863
 30
0.0
 10
709.7783606787181
 20
725.8998465715447
 30
0.0
 10
710.115717062863
 20
726.0814028764935
 30
0.0
 10
710.3499171345364
 20
726.1995250767928
 30
0.0
 10
710.5300147006541
 20
726.2999671472237
 30
0.0
 10
710.5548752576468
 20
726.3472091964924
 30
0.0
 10
710.5678950216411
 20
726.3719504093407
 30
0.0
  0
SPLINE
  5
211
330
1F
100
AcDbEntity
  8
0
  6
Continuous
 62
     7
370
    15
100
AcDbSpline
210
0.0
220
0.0
230
1.0
 70
     8
 71
     3
 72
    11
 73
     7
 74
     0
 42
0.00000001
 43
0.00000001
 12
1.0
 22
0.0
 32
0.0
 13
1.0
 23
0.0
 33
0.0
 40
0.0
 40
0.0
 40
0.0
 40
0.0
 40
0.2542997317784616
 40
0.5087760894400334
 40
0.7632534766320255
 40
1.0
 40
1.0
 40
1.0
 40
1.0
 10
709.7608239538295
 20
726.3790214771526
 30
0.0
 10
709.6554485072934
 20
726.3595633084144
 30
0.0
 10
709.4446244248747
 20
726.3206334561135
 30
0.0
 10
709.128370541526
 20
726.0216656962394
 30
0.0
 10
708.8193019505657
 20
725.6056939736087
 30
0.0
 10
708.6159169181582
 20
725.2840422734123
 30
0.0
 10
708.5178950216413
 20
725.1290214771525
 30
0.0
  0
SPLINE
  5
212
330
1F
100
AcDbEntity
  8
0
  6
Continuous
 62
     7
370
    15
100
AcDbSpline
210
0.0
220
0.0
230
1.0
 70
     8
 71
     3
 72
    12
 73
     8
 74
     0
 42
0.00000001
 43
0.00000001
 12
1.0
 22
0.0
 32
0.0
 13
1.0
 23
0.0
 33
0.0
 40
0.0
 40
0.0
 40
0.0
 40
0.0
 40
0.2301699461467442
 40
0.4604227344550638
 40
0.6906759109412324
 40
0.9209289349060138
 40
1.0
 40
1.0
 40
1.0
 40
1.0
 10
709.7608239538295
 20
727.1790214771526
 30
0.0
 10
709.6654341515417
 20
727.1529440413399
 30
0.0
 10
709.4746202145195
 20
727.1007797839927
 30
0.0
 10
709.1883282390876
 20
726.69606886639
 30
0.0
 10
708.902213108867
 20
726.1080405983232
 30
0.0
 10
708.6780985381282
 20
725.5440163869602
 30
0.0
 10
708.5505099050789
 20
725.2135078286844
 30
0.0
 10
708.5178950216413
 20
725.1290214771525
 30
0.0
  0
LINE
  5
213
330
1F
100
AcDbEntity
  8
0
  6
Continuous
 62
     7
370
    15
100
AcDbLine
 10
709.7608239538
 20
726.3790214772
 30
0.0
 11
709.7608239538
 21
727.1790214772
 31
0.0
  0
SPLINE
  5
214
330
1F
100
AcDbEntity
  8
0
  6
Continuous
 62
     7
370
    15
100
AcDbSpline
210
0.0
220
0.0
230
1.0
 70
     8
 71
     3
 72
    12
 73
     8
 74
     0
 42
0.00000001
 43
0.00000001
 12
1.0
 22
0.0
 32
0.0
 13
1.0
 23
0.0
 33
0.0
 40
0.0
 40
0.0
 40
0.0
 40
0.0
 40
0.1739923010880308
 40
0.3328593111728957
 40
0.5080583169446754
 40
0.7775042085562246
 40
1.0
 40
1.0
 40
1.0
 40
1.0
 10
709.767895021641
 20
602.6860925449644
 30
0.0
 10
709.7546506945646
 20
602.7103211287216
 30
0.0
 10
709.7293133804419
 20
602.7566720859174
 30
0.0
 10
709.5515854159429
 20
602.9177194460636
 30
0.0
 10
709.2722042885466
 20
603.171205188755
 30
0.0
 10
708.9181547525721
 20
603.5323641531347
 30
0.0
 10
708.6425470853909
 20
603.8054913035689
 30
0.0
 10
708.5178950216408
 20
603.9290214771522
 30
0.0
  0
LWPOLYLINE
  5
215
330
1F
100
AcDbEntity
  8
0
  6
Continuous
 62
     7
370
    15
100
AcDbPolyline
 90
        2
 70
   128
 43
0.0
 10
708.5178950216
 20
603.9290214772
 10
708.5178950216
 20
603.9290214772
  0
SPLINE
  5
216
330
1F
100
AcDbEntity
  8
0
  6
Continuous
 62
     7
370
    15
100
AcDbSpline
210
0.0
220
0.0
230
1.0
 70
     8
 71
     3
 72
    12
 73
     8
 74
     0
 42
0.00000001
 43
0.00000001
 12
1.0
 22
0.0
 32
0.0
 13
1.0
 23
0.0
 33
0.0
 40
0.0
 40
0.0
 40
0.0
 40
0.0
 40
0.1878200079025069
 40
0.376268857503625
 40
0.5715065267136779
 40
0.7808736297736303
 40
1.0
 40
1.0
 40
1.0
 40
1.0
 10
710.567895021641
 20
602.6860925449644
 30
0.0
 10
710.5474817638401
 20
602.7094356243035
 30
0.0
 10
710.5065869024435
 20
602.7561999381359
 30
0.0
 10
710.1941958354419
 20
602.9279694161687
 30
0.0
 10
709.7349609957107
 20
603.1832508601259
 30
0.0
 10
709.1623142238043
 20
603.5397471763521
 30
0.0
 10
708.7359384341286
 20
603.7973079952211
 30
0.0
 10
708.5178950216408
 20
603.9290214771522
 30
0.0
  0
LINE
  5
217
330
1F
100
AcDbEntity
  8
0
  6
Continuous
 62
     7
370
    15
100
AcDbLine
 10
710.5678950216
 20
602.686092545
 30
0.0
 11
709.7678950216
 21
602.686092545
 31
0.0
  0
LINE
  5
218
330
1F
100
AcDbEntity
  8
0
  6
Continuous
 62
     7
370
    15
100
AcDbLine
 10
653.0178950216
 20
603.9290214772
 30
0.0
 11
708.5178950216
 21
603.9290214772
 31
0.0
  0
LINE
  5
219
330
1F
100
AcDbEntity
  8
0
  6
Continuous
 62
     7
370
    15
100
AcDbLine
 10
653.0178950216
 20
603.9290214772
 30
0.0
 11
653.0178950216
 21
725.1290214772
 31
0.0
  0
LINE
  5
21A
330
1F
100
AcDbEntity
  8
0
  6
Continuous
 62
     7
370
    15
100
AcDbLine
 10
708.5178950216
 20
725.1290214772
 30
0.0
 11
653.0178950216
 21
725.1290214772
 31
0.0
  0
LINE
  5
21B
330
1F
100
AcDbEntity
  8
0
  6
Continuous
 62
     7
370
    15
100
AcDbLine
 10
708.5178950216
 20
603.9290214772
 30
0.0
 11
708.5178950216
 21
725.1290214772
 31
0.0
  0
LINE
  5
21C
330
1F
100
AcDbEntity
  8
0
  6
Continuous
 62
     7
370
    15
100
AcDbLine
 10
710.5678950216
 20
726.3719504093
 30
0.0
 11
710.5678950216
 21
602.686092545
 31
0.0
  0
SPLINE
  5
21D
330
1F
100
AcDbEntity
  8
0
  6
Continuous
 62
     7
370
    15
100
AcDbSpline
210
0.0
220
0.0
230
1.0
 70
     8
 71
     3
 72
    11
 73
     7
 74
     0
 42
0.00000001
 43
0.00000001
 12
1.0
 22
0.0
 32
0.0
 13
1.0
 23
0.0
 33
0.0
 40
0.0
 40
0.0
 40
0.0
 40
0.0
 40
0.2500000000000013
 40
0.5000000000000049
 40
0.7500000000000062
 40
0.9999999999999999
 40
0.9999999999999999
 40
0.9999999999999999
 40
0.9999999999999999
 10
708.5178950216412
 20
603.9290214771524
 30
0.0
 10
708.6214724326567
 20
603.7652251723946
 30
0.0
 10
708.8286272546882
 20
603.437632562879
 30
0.0
 10
709.1393594877352
 20
603.0244513915079
 30
0.0
 10
709.4500917207822
 20
602.7353898751049
 30
0.0
 10
709.6572465428136
 20
602.6978109431366
 30
0.0
 10
709.7608239538291
 20
602.6790214771524
 30
0.0
  0
LINE
  5
21E
330
1F
100
AcDbEntity
  8
0
  6
Continuous
 62
     7
370
    15
100
AcDbLine
 10
709.7608239538
 20
602.6790214772
 30
0.0
 11
709.7608239538
 21
601.8790214772
 31
0.0
  0
SPLINE
  5
21F
330
1F
100
AcDbEntity
  8
0
  6
Continuous
 62
     7
370
    15
100
AcDbSpline
210
0.0
220
0.0
230
1.0
 70
     8
 71
     3
 72
    11
 73
     7
 74
     0
 42
0.00000001
 43
0.00000001
 12
1.0
 22
0.0
 32
0.0
 13
1.0
 23
0.0
 33
0.0
 40
0.0
 40
0.0
 40
0.0
 40
0.0
 40
0.25
 40
0.4999999999999968
 40
0.7500000000000047
 40
0.9999999999999999
 40
0.9999999999999999
 40
0.9999999999999999
 40
0.9999999999999999
 10
708.5178950216412
 20
603.9290214771524
 30
0.0
 10
708.6214724326567
 20
603.6603955373497
 30
0.0
 10
708.8286272546882
 20
603.123143657744
 30
0.0
 10
709.1393594877352
 20
602.4455265366954
 30
0.0
 10
709.4500917207822
 20
601.9714656497945
 30
0.0
 10
709.6572465428136
 20
601.9098362013665
 30
0.0
 10
709.7608239538291
 20
601.8790214771525
 30
0.0
  0
LINE
  5
220
330
1F
100
AcDbEntity
  8
0
  6
Continuous
 62
     7
370
    15
100
AcDbLine
 10
709.7608239538
 20
727.1790214772
 30
0.0
 11
653.3101284386
 21
727.1790214772
 31
0.0
  0
SPLINE
  5
221
330
1F
100
AcDbEntity
  8
0
  6
Continuous
 62
     7
370
    15
100
AcDbSpline
210
0.0
220
0.0
230
1.0
 70
     8
 71
     3
 72
    11
 73
     7
 74
     0
 42
0.00000001
 43
0.00000001
 12
1.0
 22
0.0
 32
0.0
 13
1.0
 23
0.0
 33
0.0
 40
0.0
 40
0.0
 40
0.0
 40
0.0
 40
0.2499999999999979
 40
0.5000000000000001
 40
0.7500000000000056
 40
1.0
 40
1.0
 40
1.0
 40
1.0
 10
653.0178950216412
 20
725.1290214771525
 30
0.0
 10
653.0422478063862
 20
725.3976474169551
 30
0.0
 10
653.0909533758761
 20
725.9348992965608
 30
0.0
 10
653.164011730111
 20
726.6125164176096
 30
0.0
 10
653.2370700843456
 20
727.0865773045105
 30
0.0
 10
653.2857756538357
 20
727.1482067529383
 30
0.0
 10
653.3101284385806
 20
727.1790214771524
 30
0.0
  0
SPLINE
  5
222
330
1F
100
AcDbEntity
  8
0
  6
Continuous
 62
     7
370
    15
100
AcDbSpline
210
0.0
220
0.0
230
1.0
 70
     8
 71
     3
 72
    11
 73
     7
 74
     0
 42
0.00000001
 43
0.00000001
 12
1.0
 22
0.0
 32
0.0
 13
1.0
 23
0.0
 33
0.0
 40
0.0
 40
0.0
 40
0.0
 40
0.0
 40
0.2499999999999863
 40
0.49999999999999
 40
0.7500000000000009
 40
1.0
 40
1.0
 40
1.0
 40
1.0
 10
653.4678950216414
 20
601.8790214771523
 30
0.0
 10
653.4303950216414
 20
601.9098362013664
 30
0.0
 10
653.3553950216415
 20
601.9714656497945
 30
0.0
 10
653.2428950216414
 20
602.4455265366954
 30
0.0
 10
653.1303950216413
 20
603.123143657744
 30
0.0
 10
653.0553950216411
 20
603.6603955373496
 30
0.0
 10
653.0178950216412
 20
603.9290214771523
 30
0.0
  0
LINE
  5
223
330
1F
100
AcDbEntity
  8
0
  6
Continuous
 62
     7
370
    15
100
AcDbLine
 10
653.4678950216
 20
601.8790214772
 30
0.0
 11
709.7608239538
 21
601.8790214772
 31
0.0
  0
LINE
  5
224
330
1F
100
AcDbEntity
  8
0
  6
Continuous
 62
     7
370
    15
100
AcDbLine
 10
650.9678950216
 20
725.1290214772
 30
0.0
 11
653.0178950216
 21
725.1290214772
 31
0.0
  0
LINE
  5
225
330
1F
100
AcDbEntity
  8
0
  6
Continuous
 62
     7
370
    15
100
AcDbLine
 10
650.9678950216
 20
603.9290214772
 30
0.0
 11
650.9678950216
 21
725.1290214772
 31
0.0
  0
LINE
  5
226
330
1F
100
AcDbEntity
  8
0
  6
Continuous
 62
     7
370
    15
100
AcDbLine
 10
653.0178950216
 20
603.9290214772
 30
0.0
 11
650.9678950216
 21
603.9290214772
 31
0.0
  0
LINE
  5
227
330
1F
100
AcDbEntity
  8
0
  6
Continuous
 62
     7
370
    15
100
AcDbLine
 10
653.0178950216
 20
726.3790214772
 30
0.0
 11
653.0178950216
 21
727.1790214772
 31
0.0
  0
SPLINE
  5
228
330
1F
100
AcDbEntity
  8
0
  6
Continuous
 62
     7
370
    15
100
AcDbSpline
210
0.0
220
0.0
230
1.0
 70
     8
 71
     3
 72
    12
 73
     8
 74
     0
 42
0.00000001
 43
0.00000001
 12
1.0
 22
0.0
 32
0.0
 13
1.0
 23
0.0
 33
0.0
 40
0.0
 40
0.0
 40
0.0
 40
0.0
 40
0.1986312370048842
 40
0.4263119925236636
 40
0.6540152424178124
 40
0.881718151785983
 40
1.0
 40
1.0
 40
1.0
 40
1.0
 10
653.0178950216412
 20
726.3790214771525
 30
0.0
 10
652.8880169060934
 20
726.3671424942627
 30
0.0
 10
652.609266196692
 20
726.3416472451706
 30
0.0
 10
652.2247877613854
 20
726.1283088852279
 30
0.0
 10
651.9260476877997
 20
725.7896731760627
 30
0.0
 10
651.7847793953857
 20
725.4317892898846
 30
0.0
 10
651.7721966769993
 20
725.20615805347
 30
0.0
 10
651.767895021641
 20
725.1290214771524
 30
0.0
  0
SPLINE
  5
229
330
1F
100
AcDbEntity
  8
0
  6
Continuous
 62
     7
370
    15
100
AcDbSpline
210
0.0
220
0.0
230
1.0
 70
     8
 71
     3
 72
    12
 73
     8
 74
     0
 42
0.00000001
 43
0.00000001
 12
1.0
 22
0.0
 32
0.0
 13
1.0
 23
0.0
 33
0.0
 40
0.0
 40
0.0
 40
0.0
 40
0.0
 40
0.2196136201280575
 40
0.4392502024697542
 40
0.6588868351486795
 40
0.8785233275786339
 40
1.0
 40
1.0
 40
1.0
 40
1.0
 10
653.0178950216412
 20
727.1790214771524
 30
0.0
 10
652.7821378934069
 20
727.1552989683411
 30
0.0
 10
652.3105989868026
 20
727.1078514703561
 30
0.0
 10
651.6858658701975
 20
726.7384331129792
 30
0.0
 10
651.2215141796793
 20
726.1969061866163
 30
0.0
 10
650.9961330100098
 20
725.623728846808
 30
0.0
 10
650.975310352862
 20
725.258932253927
 30
0.0
 10
650.9678950216411
 20
725.1290214771525
 30
0.0
  0
LINE
  5
22A
330
1F
100
AcDbEntity
  8
0
  6
Continuous
 62
     7
370
    15
100
AcDbLine
 10
653.0178950216
 20
602.6790214772
 30
0.0
 11
653.0178950216
 21
601.8790214772
 31
0.0
  0
SPLINE
  5
22B
330
1F
100
AcDbEntity
  8
0
  6
Continuous
 62
     7
370
    15
100
AcDbSpline
210
0.0
220
0.0
230
1.0
 70
     8
 71
     3
 72
    11
 73
     7
 74
     0
 42
0.00000001
 43
0.00000001
 12
1.0
 22
0.0
 32
0.0
 13
1.0
 23
0.0
 33
0.0
 40
0.0
 40
0.0
 40
0.0
 40
0.0
 40
0.2500000000000053
 40
0.4999999999999933
 40
0.7500000000000098
 40
1.0
 40
1.0
 40
1.0
 40
1.0
 10
651.767895021641
 20
603.9290214771524
 30
0.0
 10
651.7866844876253
 20
603.7652251723946
 30
0.0
 10
651.8242634195936
 20
603.437632562879
 30
0.0
 10
652.1133249359964
 20
603.0244513915078
 30
0.0
 10
652.5265061073679
 20
602.7353898751049
 30
0.0
 10
652.8540987168833
 20
602.6978109431366
 30
0.0
 10
653.0178950216412
 20
602.6790214771524
 30
0.0
  0
SPLINE
  5
22C
330
1F
100
AcDbEntity
  8
0
  6
Continuous
 62
     7
370
    15
100
AcDbSpline
210
0.0
220
0.0
230
1.0
 70
     8
 71
     3
 72
    11
 73
     7
 74
     0
 42
0.00000001
 43
0.00000001
 12
1.0
 22
0.0
 32
0.0
 13
1.0
 23
0.0
 33
0.0
 40
0.0
 40
0.0
 40
0.0
 40
0.0
 40
0.2500000000000006
 40
0.4999999999999969
 40
0.7500000000000042
 40
1.0
 40
1.0
 40
1.0
 40
1.0
 10
650.9678950216411
 20
603.9290214771524
 30
0.0
 10
650.9987097458553
 20
603.6603955373496
 30
0.0
 10
651.0603391942832
 20
603.123143657744
 30
0.0
 10
651.534400081184
 20
602.4455265366954
 30
0.0
 10
652.2120172022328
 20
601.9714656497945
 30
0.0
 10
652.7492690818383
 20
601.9098362013665
 30
0.0
 10
653.0178950216412
 20
601.8790214771525
 30
0.0
  0
LINE
  5
22D
330
1F
100
AcDbEntity
  8
0
  6
Continuous
 62
     7
370
    15
100
AcDbLine
 10
653.4678950216
 20
601.8790214772
 30
0.0
 11
653.0178950216
 21
601.8790214772
 31
0.0
  0
LINE
  5
22E
330
1F
100
AcDbEntity
  8
0
  6
Continuous
 62
     7
370
    15
100
AcDbLine
 10
653.0178950216
 20
727.1790214772
 30
0.0
 11
653.3101284386
 21
727.1790214772
 31
0.0
  0
LINE
  5
22F
330
1F
100
AcDbEntity
  8
0
  6
Continuous
 62
     7
370
    15
100
AcDbLine
 10
660.2382037788
 20
766.6297361778
 30
0.0
 11
659.9645876641
 21
767.3814902744
 31
0.0
  0
LINE
  5
230
330
1F
100
AcDbEntity
  8
0
  6
Continuous
 62
     7
370
    15
100
AcDbLine
 10
640.7878110184
 20
759.5503721682
 30
0.0
 11
660.2382037788
 21
766.6297361778
 31
0.0
  0
LINE
  5
231
330
1F
100
AcDbEntity
  8
0
  6
Continuous
 62
     7
370
    15
100
AcDbLine
 10
640.5141949038
 20
760.3021262648
 30
0.0
 11
640.7878110184
 21
759.5503721682
 31
0.0
  0
LINE
  5
232
330
1F
100
AcDbEntity
  8
0
  6
Continuous
 62
     7
370
    15
100
AcDbLine
 10
640.5141949038
 20
760.3021262648
 30
0.0
 11
659.9645876641
 21
767.3814902744
 31
0.0
  0
LINE
  5
233
330
1F
100
AcDbEntity
  8
0
  6
Continuous
 62
     7
370
    15
100
AcDbLine
 10
636.5475680205
 20
743.7255698635
 30
0.0
 11
635.934732466
 21
743.2113397757
 31
0.0
  0
LINE
  5
234
330
1F
100
AcDbEntity
  8
0
  6
Continuous
 62
     7
370
    15
100
AcDbLine
 10
648.966270167
 20
728.925536965
 30
0.0
 11
636.5475680205
 21
743.7255698635
 31
0.0
  0
LINE
  5
235
330
1F
100
AcDbEntity
  8
0
  6
Continuous
 62
     7
370
    15
100
AcDbLine
 10
648.3534346125
 20
728.4113068773
 30
0.0
 11
648.966270167
 21
728.925536965
 31
0.0
  0
LINE
  5
236
330
1F
100
AcDbEntity
  8
0
  6
Continuous
 62
     7
370
    15
100
AcDbLine
 10
648.3534346125
 20
728.4113068773
 30
0.0
 11
635.934732466
 21
743.2113397757
 31
0.0
  0
LINE
  5
237
330
1F
100
AcDbEntity
  8
0
  6
Continuous
 62
     7
370
    15
100
AcDbLine
 10
666.0549513938
 20
773.6882465385
 30
0.0
 11
666.8157966069
 21
773.441032943
 31
0.0
  0
LINE
  5
238
330
1F
100
AcDbEntity
  8
0
  6
Continuous
 62
     7
370
    15
100
AcDbLine
 10
666.0549513938
 20
773.6882465385
 30
0.0
 11
690.3790683474
 21
848.5501808428
 31
0.0
  0
LINE
  5
239
330
1F
100
AcDbEntity
  8
0
  6
Continuous
 62
     7
370
    15
100
AcDbLine
 10
691.1399135604
 20
848.3029672473
 30
0.0
 11
690.3790683474
 21
848.5501808428
 31
0.0
  0
LINE
  5
23A
330
1F
100
AcDbEntity
  8
0
  6
Continuous
 62
     7
370
    15
100
AcDbLine
 10
666.8157966069
 20
773.441032943
 30
0.0
 11
691.1399135604
 21
848.3029672473
 31
0.0
  0
ARC
  5
23B
330
1F
100
AcDbEntity
  8
0
  6
Continuous
 62
     7
370
    15
100
AcDbCircle
 10
656.5443862309
 20
776.7784164823
 30
0.0
 40
9.99999999999996
100
AcDbArc
 50
290.0
 51
342.0
  0
ARC
  5
23C
330
1F
100
AcDbEntity
  8
0
  6
Continuous
 62
     7
370
    15
100
AcDbCircle
 10
656.5443862309
 20
776.7784164823
 30
0.0
 40
10.79999999999996
100
AcDbArc
 50
290.0
 51
342.0
  0
ARC
  5
23D
330
1F
100
AcDbEntity
  8
0
  6
Continuous
 62
     7
370
    15
100
AcDbCircle
 10
644.2080124517
 20
750.1534459603
 30
0.0
 40
9.99999999999993
100
AcDbArc
 50
110.0
 51
220.0
  0
ARC
  5
23E
330
1F
100
AcDbEntity
  8
0
  6
Continuous
 62
     7
370
    15
100
AcDbCircle
 10
644.2080124517
 20
750.1534459603
 30
0.0
 40
10.79999999999997
100
AcDbArc
 50
110.0
 51
220.0
  0
LINE
  5
23F
330
1F
100
AcDbEntity
  8
0
  6
Continuous
 62
     7
370
    15
100
AcDbLine
 10
710.5678950216
 20
727.6790214772
 30
0.0
 11
649.9238257209
 21
727.6790214772
 31
0.0
  0
LINE
  5
240
330
1F
100
AcDbEntity
  8
0
  6
Continuous
 62
     7
370
    15
100
AcDbLine
 10
649.9238257209
 20
728.4790214772
 30
0.0
 11
649.9238257209
 21
727.6790214772
 31
0.0
  0
LINE
  5
241
330
1F
100
AcDbEntity
  8
0
  6
Continuous
 62
     7
370
    15
100
AcDbLine
 10
710.5678950216
 20
728.4790214772
 30
0.0
 11
649.9238257209
 21
728.4790214772
 31
0.0
  0
LINE
  5
242
330
1F
100
AcDbEntity
  8
0
  6
Continuous
 62
     7
370
    15
100
AcDbLine
 10
710.5678950216
 20
728.4790214772
 30
0.0
 11
710.5678950216
 21
727.6790214772
 31
0.0
  0
ARC
  5
243
330
1F
100
AcDbEntity
  8
0
  6
Continuous
 62
     7
370
    15
100
AcDbCircle
 10
649.9238257209
 20
729.7290214772
 30
0.0
 40
1.25
100
AcDbArc
 50
220.0
 51
270.0
  0
ARC
  5
244
330
1F
100
AcDbEntity
  8
0
  6
Continuous
 62
     7
370
    15
100
AcDbCircle
 10
649.9238257209
 20
729.7290214772
 30
0.0
 40
2.050000000000068
100
AcDbArc
 50
220.0
 51
270.0
  0
LINE
  5
245
330
1F
100
AcDbEntity
  8
0
  6
Continuous
 62
     7
370
    15
100
AcDbLine
 10
692.3287342058
 20
849.1666960043
 30
0.0
 11
692.3287342058
 21
849.9666960043
 31
0.0
  0
ARC
  5
246
330
1F
100
AcDbEntity
  8
0
  6
Continuous
 62
     7
370
    15
100
AcDbCircle
 10
692.3287342058
 20
847.9166960043
 30
0.0
 40
1.25
100
AcDbArc
 50
90.0
 51
162.0
  0
ARC
  5
247
330
1F
100
AcDbEntity
  8
0
  6
Continuous
 62
     7
370
    15
100
AcDbCircle
 10
692.3287342058
 20
847.9166960043
 30
0.0
 40
2.049999999999984
100
AcDbArc
 50
90.0
 51
162.0
  0
LINE
  5
248
330
1F
100
AcDbEntity
  8
0
  6
Continuous
 62
     7
370
    15
100
AcDbLine
 10
710.5678950216
 20
849.9666960043
 30
0.0
 11
710.5678950216
 21
849.1666960043
 31
0.0
  0
LINE
  5
249
330
1F
100
AcDbEntity
  8
0
  6
Continuous
 62
     7
370
    15
100
AcDbLine
 10
710.5678950216
 20
849.9666960043
 30
0.0
 11
692.3287342058
 21
849.9666960043
 31
0.0
  0
LINE
  5
24A
330
1F
100
AcDbEntity
  8
0
  6
Continuous
 62
     7
370
    15
100
AcDbLine
 10
710.5678950216
 20
849.1666960043
 30
0.0
 11
692.3287342058
 21
849.1666960043
 31
0.0
  0
ARC
  5
24B
330
1F
100
AcDbEntity
  8
0
  6
Continuous
 62
     7
370
    15
100
AcDbCircle
 10
688.8656766025
 20
847.9375249561
 30
0.0
 40
2.05000000000002
100
AcDbArc
 50
32.0194935567
 51
66.5
  0
ARC
  5
24C
330
1F
100
AcDbEntity
  8
0
  6
Continuous
 62
     7
370
    15
100
AcDbCircle
 10
688.8656766025
 20
847.9375249561
 30
0.0
 40
1.250000000000175
100
AcDbArc
 50
342.0
 51
66.5
  0
LINE
  5
24D
330
1F
100
AcDbEntity
  8
0
  6
Continuous
 62
     7
370
    15
100
AcDbLine
 10
689.3641129386
 20
849.0838500491
 30
0.0
 11
689.6831121938
 21
849.8174981086
 31
0.0
  0
LINE
  5
24E
330
1F
100
AcDbEntity
  8
0
  6
Continuous
 62
     7
370
    15
100
AcDbLine
 10
681.370347838
 20
853.4319909206
 30
0.0
 11
681.0513485828
 21
852.6983428611
 31
0.0
  0
LINE
  5
24F
330
1F
100
AcDbEntity
  8
0
  6
Continuous
 62
     7
370
    15
100
AcDbLine
 10
681.0513485828
 20
852.6983428611
 30
0.0
 11
676.4660482109
 21
854.6920882057
 31
0.0
  0
LINE
  5
250
330
1F
100
AcDbEntity
  8
0
  6
Continuous
 62
     7
370
    15
100
AcDbLine
 10
676.4660482109
 20
854.6920882057
 30
0.0
 11
676.785047466
 21
855.4257362652
 31
0.0
  0
LINE
  5
251
330
1F
100
AcDbEntity
  8
0
  6
Continuous
 62
     7
370
    15
100
AcDbLine
 10
676.785047466
 20
855.4257362652
 30
0.0
 11
681.370347838
 21
853.4319909206
 31
0.0
  0
LINE
  5
252
330
1F
100
AcDbEntity
  8
0
  6
Continuous
 62
     7
370
    15
100
AcDbLine
 10
681.370347838
 20
853.4319909206
 30
0.0
 11
689.6831121938
 21
849.8174981086
 31
0.0
  0
LINE
  5
253
330
1F
100
AcDbEntity
  8
0
  6
Continuous
 62
     7
370
    15
100
AcDbLine
 10
681.0513485828
 20
852.6983428611
 30
0.0
 11
689.3641129386
 21
849.0838500491
 31
0.0
  0
LINE
  5
254
330
1F
100
AcDbEntity
  8
0
  6
Continuous
 62
     7
370
    15
100
AcDbLine
 10
690.8614723477
 20
849.3483533096
 30
0.0
 11
690.6597108327
 21
849.4139095998
 31
0.0
  0
LINE
  5
255
330
1F
100
AcDbEntity
  8
0
  6
Continuous
 62
     7
370
    15
100
AcDbLine
 10
690.6597108327
 20
849.4139095998
 30
0.0
 11
690.5565904339
 21
849.0965376458
 31
0.0
  0
LINE
  5
256
330
1F
100
AcDbEntity
  8
0
  6
Continuous
 62
     7
370
    15
100
AcDbLine
 10
710.5678950216
 20
602.6790214772
 30
0.0
 11
710.5678950216
 21
727.6790214772
 31
0.0
  0
LINE
  5
257
330
1F
100
AcDbEntity
  8
0
  6
Continuous
 62
     7
370
    15
100
AcDbLine
 10
710.5678950216
 20
728.4790214772
 30
0.0
 11
710.5678950216
 21
729.4790214772
 31
0.0
  0
LINE
  5
258
330
1F
100
AcDbEntity
  8
0
  6
Continuous
 62
     7
370
    15
100
AcDbLine
 10
710.5678950216
 20
848.1666960043
 30
0.0
 11
710.5678950216
 21
849.1666960043
 31
0.0
  0
LINE
  5
259
330
1F
100
AcDbEntity
  8
0
  6
Continuous
 62
     7
370
    15
100
AcDbLine
 10
710.5678950216
 20
849.9666960043
 30
0.0
 11
710.5678950216
 21
866.6648793415
 31
0.0
  0
SPLINE
  5
25A
330
1F
100
AcDbEntity
  8
0
  6
Continuous
 62
     7
370
    15
100
AcDbSpline
210
0.0
220
0.0
230
1.0
 70
     8
 71
     3
 72
    11
 73
     7
 74
     0
 42
0.00000001
 43
0.00000001
 12
1.0
 22
0.0
 32
0.0
 13
1.0
 23
0.0
 33
0.0
 40
0.0
 40
0.0
 40
0.0
 40
0.0
 40
0.2500000000000022
 40
0.4999999999999909
 40
0.7500000000000021
 40
0.9999999999999999
 40
0.9999999999999999
 40
0.9999999999999999
 40
0.9999999999999999
 10
712.6178950216422
 20
865.4219504093394
 30
0.0
 10
712.3492690818393
 20
865.5255278203551
 30
0.0
 10
711.8120172022338
 20
865.7326826423864
 30
0.0
 10
711.134400081185
 20
866.0434148754334
 30
0.0
 10
710.6603391942843
 20
866.3541471084804
 30
0.0
 10
710.5987097458564
 20
866.5613019305118
 30
0.0
 10
710.5678950216424
 20
866.6648793415275
 30
0.0
  0
LINE
  5
25B
330
1F
100
AcDbEntity
  8
0
  6
Continuous
 62
     7
370
    15
100
AcDbLine
 10
712.6178950216
 20
865.4219504093
 30
0.0
 11
712.6178950216
 21
603.9219504093
 31
0.0
  0
SPLINE
  5
25C
330
1F
100
AcDbEntity
  8
0
  6
Continuous
 62
     7
370
    15
100
AcDbSpline
210
0.0
220
0.0
230
1.0
 70
     8
 71
     3
 72
    11
 73
     7
 74
     0
 42
0.00000001
 43
0.00000001
 12
1.0
 22
0.0
 32
0.0
 13
1.0
 23
0.0
 33
0.0
 40
0.0
 40
0.0
 40
0.0
 40
0.0
 40
0.2499999999999992
 40
0.500000000000006
 40
0.7499999999999963
 40
1.0
 40
1.0
 40
1.0
 40
1.0
 10
710.5678950216424
 20
602.679021477151
 30
0.0
 10
710.5987097458564
 20
602.7825988881667
 30
0.0
 10
710.6603391942843
 20
602.9897537101983
 30
0.0
 10
711.1344000811854
 20
603.3004859432456
 30
0.0
 10
711.8120172022338
 20
603.6112181762928
 30
0.0
 10
712.3492690818395
 20
603.8183729983243
 30
0.0
 10
712.6178950216422
 20
603.9219504093401
 30
0.0
  0
LINE
  5
25D
330
1F
100
AcDbEntity
  8
0
  6
Continuous
 62
     7
370
    15
100
AcDbLine
 10
711.3678950216
 20
866.6648793415
 30
0.0
 11
710.5678950216
 21
866.6648793415
 31
0.0
  0
SPLINE
  5
25E
330
1F
100
AcDbEntity
  8
0
  6
Continuous
 62
     7
370
    15
100
AcDbSpline
210
0.0
220
0.0
230
1.0
 70
     8
 71
     3
 72
    11
 73
     7
 74
     0
 42
0.00000001
 43
0.00000001
 12
1.0
 22
0.0
 32
0.0
 13
1.0
 23
0.0
 33
0.0
 40
0.0
 40
0.0
 40
0.0
 40
0.0
 40
0.2499999999999804
 40
0.4999999999999717
 40
0.7499999999999956
 40
0.9999999999999999
 40
0.9999999999999999
 40
0.9999999999999999
 40
0.9999999999999999
 10
712.6178950216422
 20
865.4219504093394
 30
0.0
 10
712.4540987168843
 20
865.525527820355
 30
0.0
 10
712.1265061073686
 20
865.7326826423864
 30
0.0
 10
711.713324935998
 20
866.0434148754333
 30
0.0
 10
711.4242634195947
 20
866.3541471084806
 30
0.0
 10
711.3866844876262
 20
866.5613019305118
 30
0.0
 10
711.3678950216423
 20
866.6648793415275
 30
0.0
  0
LWPOLYLINE
  5
25F
330
1F
100
AcDbEntity
  8
0
  6
Continuous
 62
     7
370
    15
100
AcDbPolyline
 90
        2
 70
   128
 43
0.0
 10
712.6178950216
 20
865.4219504093
 10
712.6178950216
 20
865.4219504093
  0
LINE
  5
260
330
1F
100
AcDbEntity
  8
0
  6
Continuous
 62
     7
370
    15
100
AcDbLine
 10
1416.1178950216
 20
865.4219504093
 30
0.0
 11
712.6178950216
 21
865.4219504093
 31
0.0
  0
LINE
  5
261
330
1F
100
AcDbEntity
  8
0
  6
Continuous
 62
     7
370
    15
100
AcDbLine
 10
1416.1178950216
 20
603.9219504093
 30
0.0
 11
1416.1178950216
 21
865.4219504093
 31
0.0
  0
LINE
  5
262
330
1F
100
AcDbEntity
  8
0
  6
Continuous
 62
     7
370
    15
100
AcDbLine
 10
712.6178950216
 20
603.9219504093
 30
0.0
 11
1416.1178950216
 21
603.9219504093
 31
0.0
  0
LINE
  5
263
330
1F
100
AcDbEntity
  8
0
  6
Continuous
 62
     7
370
    15
100
AcDbLine
 10
1417.3608239538
 20
867.4719504093
 30
0.0
 11
711.3749660895
 21
867.4719504093
 31
0.0
  0
SPLINE
  5
264
330
1F
100
AcDbEntity
  8
0
  6
Continuous
 62
     7
370
    15
100
AcDbSpline
210
0.0
220
0.0
230
1.0
 70
     8
 71
     3
 72
    11
 73
     7
 74
     0
 42
0.00000001
 43
0.00000001
 12
1.0
 22
0.0
 32
0.0
 13
1.0
 23
0.0
 33
0.0
 40
0.0
 40
0.0
 40
0.0
 40
0.0
 40
0.2499999999999843
 40
0.5000000000000051
 40
0.7500000000000155
 40
0.9999999999999999
 40
0.9999999999999999
 40
0.9999999999999999
 40
0.9999999999999999
 10
1416.117895021642
 20
865.4219504093395
 30
0.0
 10
1416.221472432657
 20
865.6905763491422
 30
0.0
 10
1416.428627254688
 20
866.227828228748
 30
0.0
 10
1416.739359487736
 20
866.9054453497965
 30
0.0
 10
1417.050091720783
 20
867.3795062366974
 30
0.0
 10
1417.257246542814
 20
867.4411356851256
 30
0.0
 10
1417.36082395383
 20
867.4719504093395
 30
0.0
  0
SPLINE
  5
265
330
1F
100
AcDbEntity
  8
0
  6
Continuous
 62
     7
370
    15
100
AcDbSpline
210
0.0
220
0.0
230
1.0
 70
     8
 71
     3
 72
    12
 73
     8
 74
     0
 42
0.00000001
 43
0.00000001
 12
1.0
 22
0.0
 32
0.0
 13
1.0
 23
0.0
 33
0.0
 40
0.0
 40
0.0
 40
0.0
 40
0.0
 40
0.1888373427195874
 40
0.3778465298973791
 40
0.5698166436434761
 40
0.7755805609699159
 40
1.0
 40
1.0
 40
1.0
 40
1.0
 10
711.3749660894538
 20
867.4719504093393
 30
0.0
 10
711.3966379296254
 20
867.4513496744718
 30
0.0
 10
711.4400013316272
 20
867.4101294577978
 30
0.0
 10
711.6036996406666
 20
867.0946235429313
 30
0.0
 10
711.8729964506106
 20
866.6447848397439
 30
0.0
 10
712.2255226575403
 20
866.0749884915552
 30
0.0
 10
712.4833768276114
 20
865.6458334130616
 30
0.0
 10
712.6178950216419
 20
865.4219504093394
 30
0.0
  0
SPLINE
  5
266
330
1F
100
AcDbEntity
  8
0
  6
Continuous
 62
     7
370
    15
100
AcDbSpline
210
0.0
220
0.0
230
1.0
 70
     8
 71
     3
 72
    12
 73
     8
 74
     0
 42
0.00000001
 43
0.00000001
 12
1.0
 22
0.0
 32
0.0
 13
1.0
 23
0.0
 33
0.0
 40
0.0
 40
0.0
 40
0.0
 40
0.0
 40
0.17594217004724
 40
0.3356055874214685
 40
0.5051407185127681
 40
0.7914119719738366
 40
0.9999999999999999
 40
0.9999999999999999
 40
0.9999999999999999
 40
0.9999999999999999
 10
711.3749660894539
 20
866.6719504093393
 30
0.0
 10
711.3976267272099
 20
866.6583955934387
 30
0.0
 10
711.4408513654158
 20
866.6325400981274
 30
0.0
 10
711.5964107188927
 20
866.4515162102018
 30
0.0
 10
711.8669131356303
 20
866.1711054487458
 30
0.0
 10
712.2279489675449
 20
865.8175143568918
 30
0.0
 10
712.5022672022435
 20
865.5392440611344
 30
0.0
 10
712.6178950216419
 20
865.4219504093394
 30
0.0
  0
LINE
  5
267
330
1F
100
AcDbEntity
  8
0
  6
Continuous
 62
     7
370
    15
100
AcDbLine
 10
711.3749660895
 20
867.4719504093
 30
0.0
 11
711.3749660895
 21
866.6719504093
 31
0.0
  0
SPLINE
  5
268
330
1F
100
AcDbEntity
  8
0
  6
Continuous
 62
     7
370
    15
100
AcDbSpline
210
0.0
220
0.0
230
1.0
 70
     8
 71
     3
 72
    12
 73
     8
 74
     0
 42
0.00000001
 43
0.00000001
 12
1.0
 22
0.0
 32
0.0
 13
1.0
 23
0.0
 33
0.0
 40
0.0
 40
0.0
 40
0.0
 40
0.0
 40
0.238087340362562
 40
0.5042845330745767
 40
0.7007412162911725
 40
0.8974573373945083
 40
0.9999999999999999
 40
0.9999999999999999
 40
0.9999999999999999
 40
0.9999999999999999
 10
712.6178950216428
 20
603.9219504093401
 30
0.0
 10
712.4756537231381
 20
603.6845502850947
 30
0.0
 10
712.1743773650957
 20
603.1817213206291
 30
0.0
 10
711.7771912791118
 20
602.551948108782
 30
0.0
 10
711.524252244429
 20
602.0974514049716
 30
0.0
 10
711.4145840659944
 20
601.8962593123929
 30
0.0
 10
711.3850768863142
 20
601.8781542188756
 30
0.0
 10
711.374966089455
 20
601.87195040934
 30
0.0
  0
LINE
  5
269
330
1F
100
AcDbEntity
  8
0
  6
Continuous
 62
     7
370
    15
100
AcDbLine
 10
711.3749660895
 20
601.8719504093
 30
0.0
 11
711.3749660895
 21
602.6719504093
 31
0.0
  0
SPLINE
  5
26A
330
1F
100
AcDbEntity
  8
0
  6
Continuous
 62
     7
370
    15
100
AcDbSpline
210
0.0
220
0.0
230
1.0
 70
     8
 71
     3
 72
    12
 73
     8
 74
     0
 42
0.00000001
 43
0.00000001
 12
1.0
 22
0.0
 32
0.0
 13
1.0
 23
0.0
 33
0.0
 40
0.0
 40
0.0
 40
0.0
 40
0.0
 40
0.3459314186338018
 40
0.5713408300406533
 40
0.7492319585071695
 40
0.9278027827053532
 40
1.0
 40
1.0
 40
1.0
 40
1.0
 10
712.6178950216428
 20
603.9219504093401
 30
0.0
 10
712.4256707819887
 20
603.7262963077472
 30
0.0
 10
712.1081929504822
 20
603.4031537113148
 30
0.0
 10
711.7218105474202
 20
603.0295841981855
 30
0.0
 10
711.5054318455841
 20
602.7870102593293
 30
0.0
 10
711.4087792300876
 20
602.6824380663389
 30
0.0
 10
711.3825248425878
 20
602.674294870952
 30
0.0
 10
711.374966089455
 20
602.6719504093401
 30
0.0
  0
SPLINE
  5
26B
330
1F
100
AcDbEntity
  8
0
  6
Continuous
 62
     7
370
    15
100
AcDbSpline
210
0.0
220
0.0
230
1.0
 70
     8
 71
     3
 72
    11
 73
     7
 74
     0
 42
0.00000001
 43
0.00000001
 12
1.0
 22
0.0
 32
0.0
 13
1.0
 23
0.0
 33
0.0
 40
0.0
 40
0.0
 40
0.0
 40
0.0
 40
0.2499999999999979
 40
0.5000000000000211
 40
0.750000000000016
 40
1.0
 40
1.0
 40
1.0
 40
1.0
 10
711.3678950216423
 20
602.679021477151
 30
0.0
 10
711.3866844876266
 20
602.7825988881667
 30
0.0
 10
711.4242634195947
 20
602.9897537101983
 30
0.0
 10
711.713324935998
 20
603.3004859432456
 30
0.0
 10
712.126506107369
 20
603.6112181762928
 30
0.0
 10
712.4540987168846
 20
603.8183729983243
 30
0.0
 10
712.6178950216422
 20
603.9219504093401
 30
0.0
  0
LINE
  5
26C
330
1F
100
AcDbEntity
  8
0
  6
Continuous
 62
     7
370
    15
100
AcDbLine
 10
711.3678950216
 20
602.6790214772
 30
0.0
 11
710.5678950216
 21
602.6790214772
 31
0.0
  0
SPLINE
  5
26D
330
1F
100
AcDbEntity
  8
0
  6
Continuous
 62
     7
370
    15
100
AcDbSpline
210
0.0
220
0.0
230
1.0
 70
     8
 71
     3
 72
    11
 73
     7
 74
     0
 42
0.00000001
 43
0.00000001
 12
1.0
 22
0.0
 32
0.0
 13
1.0
 23
0.0
 33
0.0
 40
0.0
 40
0.0
 40
0.0
 40
0.0
 40
0.2500000000000029
 40
0.5000000000000046
 40
0.7500000000000007
 40
1.0
 40
1.0
 40
1.0
 40
1.0
 10
1417.360823953831
 20
601.8719504093402
 30
0.0
 10
1417.257246542815
 20
601.9027651335543
 30
0.0
 10
1417.050091720784
 20
601.9643945819822
 30
0.0
 10
1416.739359487737
 20
602.4384554688831
 30
0.0
 10
1416.42862725469
 20
603.1160725899318
 30
0.0
 10
1416.221472432658
 20
603.6533244695374
 30
0.0
 10
1416.117895021643
 20
603.9219504093402
 30
0.0
  0
LINE
  5
26E
330
1F
100
AcDbEntity
  8
0
  6
Continuous
 62
     7
370
    15
100
AcDbLine
 10
711.3749660895
 20
601.8719504093
 30
0.0
 11
1417.3608239538
 21
601.8719504093
 31
0.0
  0
SPLINE
  5
26F
330
1F
100
AcDbEntity
  8
0
  6
Continuous
 62
     7
370
    15
100
AcDbSpline
210
0.0
220
0.0
230
1.0
 70
     8
 71
     3
 72
    11
 73
     7
 74
     0
 42
0.00000001
 43
0.00000001
 12
1.0
 22
0.0
 32
0.0
 13
1.0
 23
0.0
 33
0.0
 40
0.0
 40
0.0
 40
0.0
 40
0.0
 40
0.2500000000000016
 40
0.5000000000000009
 40
0.7500000000000018
 40
1.0
 40
1.0
 40
1.0
 40
1.0
 10
1417.360823953831
 20
602.6719504093402
 30
0.0
 10
1417.257246542815
 20
602.6907398753244
 30
0.0
 10
1417.050091720784
 20
602.7283188072927
 30
0.0
 10
1416.739359487737
 20
603.0173803236958
 30
0.0
 10
1416.42862725469
 20
603.4305614950667
 30
0.0
 10
1416.221472432658
 20
603.7581541045824
 30
0.0
 10
1416.117895021643
 20
603.9219504093402
 30
0.0
  0
LINE
  5
270
330
1F
100
AcDbEntity
  8
0
  6
Continuous
 62
     7
370
    15
100
AcDbLine
 10
1417.3608239538
 20
602.6719504093
 30
0.0
 11
1417.3608239538
 21
601.8719504093
 31
0.0
  0
SPLINE
  5
271
330
1F
100
AcDbEntity
  8
0
  6
Continuous
 62
     7
370
    15
100
AcDbSpline
210
0.0
220
0.0
230
1.0
 70
     8
 71
     3
 72
    12
 73
     8
 74
     0
 42
0.00000001
 43
0.00000001
 12
1.0
 22
0.0
 32
0.0
 13
1.0
 23
0.0
 33
0.0
 40
0.0
 40
0.0
 40
0.0
 40
0.0
 40
0.2380877779910142
 40
0.5042843550254628
 40
0.7007409474482361
 40
0.8974569651915084
 40
1.0
 40
1.0
 40
1.0
 40
1.0
 10
1416.117895021642
 20
603.9219504093393
 30
0.0
 10
1416.355296344208
 20
603.7797102446586
 30
0.0
 10
1416.858126745007
 20
603.4784369482722
 30
0.0
 10
1417.487896772509
 20
603.0812457456586
 30
0.0
 10
1417.942393704754
 20
602.8283083891092
 30
0.0
 10
1418.143585991535
 20
602.7186400237633
 30
0.0
 10
1418.161691167061
 20
602.6891324400658
 30
0.0
 10
1418.167895021643
 20
602.6790214771512
 30
0.0
  0
LINE
  5
272
330
1F
100
AcDbEntity
  8
0
  6
Continuous
 62
     7
370
    15
100
AcDbLine
 10
1418.1678950216
 20
602.6790214772
 30
0.0
 11
1417.3678950216
 21
602.6790214772
 31
0.0
  0
SPLINE
  5
273
330
1F
100
AcDbEntity
  8
0
  6
Continuous
 62
     7
370
    15
100
AcDbSpline
210
0.0
220
0.0
230
1.0
 70
     8
 71
     3
 72
    12
 73
     8
 74
     0
 42
0.00000001
 43
0.00000001
 12
1.0
 22
0.0
 32
0.0
 13
1.0
 23
0.0
 33
0.0
 40
0.0
 40
0.0
 40
0.0
 40
0.0
 40
0.3459289781739776
 40
0.5713386755082277
 40
0.7492300277590817
 40
0.92780106207057
 40
1.0
 40
1.0
 40
1.0
 40
1.0
 10
1416.117895021642
 20
603.9219504093393
 30
0.0
 10
1416.313548627681
 20
603.7297286936302
 30
0.0
 10
1416.636691466777
 20
603.4122539881668
 30
0.0
 10
1417.010257741889
 20
603.0258683356494
 30
0.0
 10
1417.252833359898
 20
602.8094893737465
 30
0.0
 10
1417.357407005961
 20
602.712835580075
 30
0.0
 10
1417.36555045048
 20
602.6865805400864
 30
0.0
 10
1417.367895021643
 20
602.6790214771512
 30
0.0
  0
SPLINE
  5
274
330
1F
100
AcDbEntity
  8
0
  6
Continuous
 62
     7
370
    15
100
AcDbSpline
210
0.0
220
0.0
230
1.0
 70
     8
 71
     3
 72
    12
 73
     8
 74
     0
 42
0.00000001
 43
0.00000001
 12
1.0
 22
0.0
 32
0.0
 13
1.0
 23
0.0
 33
0.0
 40
0.0
 40
0.0
 40
0.0
 40
0.0
 40
0.197757500682276
 40
0.3957381025020633
 40
0.593208643100141
 40
0.8430098783573384
 40
0.9999999999999999
 40
0.9999999999999999
 40
0.9999999999999999
 40
0.9999999999999999
 10
1418.167895021643
 20
866.6648793415277
 30
0.0
 10
1418.145671452623
 20
866.6335602426452
 30
0.0
 10
1418.101199242951
 20
866.5708867120783
 30
0.0
 10
1417.758610587097
 20
866.411683495176
 30
0.0
 10
1417.248083267456
 20
866.1148250523681
 30
0.0
 10
1416.674514739261
 20
865.7649624076738
 30
0.0
 10
1416.272890885295
 20
865.5174652451278
 30
0.0
 10
1416.117895021642
 20
865.4219504093395
 30
0.0
  0
LWPOLYLINE
  5
275
330
1F
100
AcDbEntity
  8
0
  6
Continuous
 62
     7
370
    15
100
AcDbPolyline
 90
        2
 70
   128
 43
0.0
 10
1416.1178950216
 20
865.4219504093
 10
1416.1178950216
 20
865.4219504093
  0
SPLINE
  5
276
330
1F
100
AcDbEntity
  8
0
  6
Continuous
 62
     7
370
    15
100
AcDbSpline
210
0.0
220
0.0
230
1.0
 70
     8
 71
     3
 72
    12
 73
     8
 74
     0
 42
0.00000001
 43
0.00000001
 12
1.0
 22
0.0
 32
0.0
 13
1.0
 23
0.0
 33
0.0
 40
0.0
 40
0.0
 40
0.0
 40
0.0
 40
0.1758338688415079
 40
0.3538979628353142
 40
0.5337263845109501
 40
0.8227437630312692
 40
1.0
 40
1.0
 40
1.0
 40
1.0
 10
1417.367895021642
 20
866.6648793415277
 30
0.0
 10
1417.354870580167
 20
866.6344295237509
 30
0.0
 10
1417.328656499025
 20
866.5731436716515
 30
0.0
 10
1417.130596264155
 20
866.4202024622949
 30
0.0
 10
1416.824002460852
 20
866.1341360994362
 30
0.0
 10
1416.474816333453
 20
865.7820585412858
 30
0.0
 10
1416.216206744687
 20
865.5211399218801
 30
0.0
 10
1416.117895021642
 20
865.4219504093395
 30
0.0
  0
LINE
  5
277
330
1F
100
AcDbEntity
  8
0
  6
Continuous
 62
     7
370
    15
100
AcDbLine
 10
1418.1678950216
 20
866.6648793415
 30
0.0
 11
1417.3678950216
 21
866.6648793415
 31
0.0
  0
LINE
  5
278
330
1F
100
AcDbEntity
  8
0
  6
Continuous
 62
     7
370
    15
100
AcDbLine
 10
1417.3608239538
 20
866.6719504093
 30
0.0
 11
1417.3608239538
 21
867.4719504093
 31
0.0
  0
SPLINE
  5
279
330
1F
100
AcDbEntity
  8
0
  6
Continuous
 62
     7
370
    15
100
AcDbSpline
210
0.0
220
0.0
230
1.0
 70
     8
 71
     3
 72
    11
 73
     7
 74
     0
 42
0.00000001
 43
0.00000001
 12
1.0
 22
0.0
 32
0.0
 13
1.0
 23
0.0
 33
0.0
 40
0.0
 40
0.0
 40
0.0
 40
0.0
 40
0.2499999999999701
 40
0.4999999999999939
 40
0.7500000000000319
 40
1.0
 40
1.0
 40
1.0
 40
1.0
 10
1416.117895021642
 20
865.4219504093395
 30
0.0
 10
1416.221472432657
 20
865.5857467140974
 30
0.0
 10
1416.428627254688
 20
865.913339323613
 30
0.0
 10
1416.739359487736
 20
866.3265204949842
 30
0.0
 10
1417.050091720783
 20
866.6155820113869
 30
0.0
 10
1417.257246542814
 20
866.6531609433553
 30
0.0
 10
1417.36082395383
 20
866.6719504093395
 30
0.0
  0
LINE
  5
27A
330
1F
100
AcDbEntity
  8
0
  6
Continuous
 62
     7
370
    15
100
AcDbLine
 10
1418.1678950216
 20
602.6790214772
 30
0.0
 11
1418.1678950216
 21
866.6648793415
 31
0.0
  0
LINE
  5
27B
330
1F
100
AcDbEntity
  8
0
  6
Continuous
 62
     7
370
    15
100
AcDbLine
 10
768.2010865232
 20
875.4719504093
 30
0.0
 11
768.7178950216
 21
875.4719504093
 31
0.0
  0
LINE
  5
27C
330
1F
100
AcDbEntity
  8
0
  6
Continuous
 62
     7
370
    15
100
AcDbLine
 10
1418.1678950216
 20
1092.3804372852
 30
0.0
 11
1418.1678950216
 21
1092.7804372852
 31
0.0
  0
LINE
  5
27D
330
1F
100
AcDbEntity
  8
0
  6
Continuous
 62
     7
370
    15
100
AcDbLine
 10
1417.3678950216
 20
1092.3804372852
 30
0.0
 11
1417.3678950216
 21
1092.7804372852
 31
0.0
  0
LINE
  5
27E
330
1F
100
AcDbEntity
  8
0
  6
Continuous
 62
     7
370
    15
100
AcDbLine
 10
1418.1678950216
 20
866.6648793415
 30
0.0
 11
1418.1678950216
 21
866.6790214772
 31
0.0
  0
LINE
  5
27F
330
1F
100
AcDbEntity
  8
0
  6
Continuous
 62
     7
370
    15
100
AcDbLine
 10
1418.1678950216
 20
882.2648793415
 30
0.0
 11
1418.1678950216
 21
883.4719504093
 31
0.0
  0
LINE
  5
280
330
1F
100
AcDbEntity
  8
0
  6
Continuous
 62
     7
370
    15
100
AcDbLine
 10
1418.1678950216
 20
866.6790214772
 30
0.0
 11
1418.1678950216
 21
868.6790214772
 31
0.0
  0
ARC
  5
281
330
1F
100
AcDbEntity
  8
0
  6
Continuous
 62
     7
370
    15
100
AcDbCircle
 10
674.5115886686
 20
823.9856096903
 30
0.0
 40
24.5000000000001
100
AcDbArc
 50
72.0
 51
135.0012287339
  0
LINE
  5
282
330
1F
100
AcDbEntity
  8
0
  6
Continuous
 62
     7
370
    15
100
AcDbLine
 10
682.0825050308
 20
847.2864943395
 30
0.0
 11
681.6189795393
 21
845.8599095651
 31
0.0
  0
ARC
  5
283
330
1F
100
AcDbEntity
  8
0
  6
Continuous
 62
     7
370
    15
100
AcDbCircle
 10
674.5115886686
 20
823.9856096903
 30
0.0
 40
23.00000000000026
100
AcDbArc
 50
72.0
 51
130.3815139743
  0
LINE
  5
284
330
1F
100
AcDbEntity
  8
0
  6
Continuous
 62
     7
370
    15
100
AcDbLine
 10
667.1207138052
 20
776.9683259666
 30
0.0
 11
665.6941290308
 21
777.4318514582
 31
0.0
  0
LINE
  5
285
330
1F
100
AcDbEntity
  8
0
  6
Continuous
 62
     7
370
    15
100
AcDbLine
 10
665.6941290308
 20
777.4318514582
 30
0.0
 11
667.2392140027
 21
782.1871340397
 31
0.0
  0
LINE
  5
286
330
1F
100
AcDbEntity
  8
0
  6
Continuous
 62
     7
370
    15
100
AcDbLine
 10
667.2392140027
 20
782.1871340397
 30
0.0
 11
668.6657987771
 21
781.7236085481
 31
0.0
  0
ARC
  5
287
330
1F
100
AcDbEntity
  8
0
  6
Continuous
 62
     7
370
    15
100
AcDbCircle
 10
685.7502267487
 20
843.2032581964
 30
0.0
 40
2.750000000000162
100
AcDbArc
 50
342.0
 51
72.0
  0
LINE
  5
288
330
1F
100
AcDbEntity
  8
0
  6
Continuous
 62
     7
370
    15
100
AcDbLine
 10
688.3656321685
 20
842.3534614619
 30
0.0
 11
686.9390473941
 21
842.8169869535
 31
0.0
  0
ARC
  5
289
330
1F
100
AcDbEntity
  8
0
  6
Continuous
 62
     7
370
    15
100
AcDbCircle
 10
685.7502267487
 20
843.2032581964
 30
0.0
 40
1.250000000000175
100
AcDbArc
 50
342.0
 51
72.0
  0
LINE
  5
28A
330
1F
100
AcDbEntity
  8
0
  6
Continuous
 62
     7
370
    15
100
AcDbLine
 10
686.1364979917
 20
844.3920788418
 30
0.0
 11
686.6000234832
 21
845.8186636163
 31
0.0
  0
LINE
  5
28B
330
1F
100
AcDbEntity
  8
0
  6
Continuous
 62
     7
370
    15
100
AcDbLine
 10
667.2392140027
 20
782.1871340397
 30
0.0
 11
674.443755588
 21
804.3604330696
 31
0.0
  0
LINE
  5
28C
330
1F
100
AcDbEntity
  8
0
  6
Continuous
 62
     7
370
    15
100
AcDbLine
 10
678.9829890278
 20
818.3307570989
 30
0.0
 11
686.9390473941
 21
842.8169869535
 31
0.0
  0
LINE
  5
28D
330
1F
100
AcDbEntity
  8
0
  6
Continuous
 62
     7
370
    15
100
AcDbLine
 10
686.1364979917
 20
844.3920788418
 30
0.0
 11
681.6189795393
 21
845.8599095651
 31
0.0
  0
LINE
  5
28E
330
1F
100
AcDbEntity
  8
0
  6
Continuous
 62
     7
370
    15
100
AcDbLine
 10
686.6000234832
 20
845.8186636163
 30
0.0
 11
682.0825050308
 21
847.2864943395
 31
0.0
  0
LINE
  5
28F
330
1F
100
AcDbEntity
  8
0
  6
Continuous
 62
     7
370
    15
100
AcDbLine
 10
1442.2678950216
 20
657.1377357238
 30
0.0
 11
1436.8678950216
 21
657.1377357238
 31
0.0
  0
LINE
  5
290
330
1F
100
AcDbEntity
  8
0
  6
Continuous
 62
     7
370
    15
100
AcDbLine
 10
1442.2678950216
 20
657.1377357238
 30
0.0
 11
1442.2678950216
 21
641.5514393753
 31
0.0
  0
LINE
  5
291
330
1F
100
AcDbEntity
  8
0
  6
Continuous
 62
     7
370
    15
100
AcDbLine
 10
1442.2678950216
 20
641.5514393753
 30
0.0
 11
1436.8678950216
 21
641.5514393753
 31
0.0
  0
LINE
  5
292
330
1F
100
AcDbEntity
  8
0
  6
Continuous
 62
     7
370
    15
100
AcDbLine
 10
1436.8678950216
 20
657.1377357238
 30
0.0
 11
1436.8678950216
 21
641.5514393753
 31
0.0
  0
LINE
  5
293
330
1F
100
AcDbEntity
  8
0
  6
Continuous
 62
     7
370
    15
100
AcDbLine
 10
1421.9678950216
 20
656.7493114174
 30
0.0
 11
1418.1678950216
 21
656.7493114174
 31
0.0
  0
LINE
  5
294
330
1F
100
AcDbEntity
  8
0
  6
Continuous
 62
     7
370
    15
100
AcDbLine
 10
1421.9678950216
 20
642.3778611857
 30
0.0
 11
1418.1678950216
 21
642.3778611857
 31
0.0
  0
LINE
  5
295
330
1F
100
AcDbEntity
  8
0
  6
Continuous
 62
     7
370
    15
100
AcDbLine
 10
1421.9678950216
 20
656.7493114174
 30
0.0
 11
1421.9678950216
 21
642.3778611857
 31
0.0
  0
LINE
  5
296
330
1F
100
AcDbEntity
  8
0
  6
Continuous
 62
     7
370
    15
100
AcDbLine
 10
1451.2178950216
 20
670.3040214771
 30
0.0
 11
1451.2178950216
 21
649.0540214771
 31
0.0
  0
LINE
  5
297
330
1F
100
AcDbEntity
  8
0
  6
Continuous
 62
     7
370
    15
100
AcDbLine
 10
1430.2678950216
 20
676.5540214771
 30
0.0
 11
1430.2678950216
 21
642.8040214771
 31
0.0
  0
LINE
  5
298
330
1F
100
AcDbEntity
  8
0
  6
Continuous
 62
     7
370
    15
100
AcDbLine
 10
1424.9178950216
 20
675.5290214771
 30
0.0
 11
1424.9178950216
 21
643.8290214771
 31
0.0
  0
LINE
  5
299
330
1F
100
AcDbEntity
  8
0
  6
Continuous
 62
     7
370
    15
100
AcDbLine
 10
1442.2678950216
 20
675.2653178256
 30
0.0
 11
1436.8678950216
 21
675.2653178256
 31
0.0
  0
LINE
  5
29A
330
1F
100
AcDbEntity
  8
0
  6
Continuous
 62
     7
370
    15
100
AcDbLine
 10
1436.8678950216
 20
675.2653178256
 30
0.0
 11
1436.8678950216
 21
657.1377357238
 31
0.0
  0
LINE
  5
29B
330
1F
100
AcDbEntity
  8
0
  6
Continuous
 62
     7
370
    15
100
AcDbLine
 10
1442.2678950216
 20
675.2653178256
 30
0.0
 11
1442.2678950216
 21
657.1377357238
 31
0.0
  0
LINE
  5
29C
330
1F
100
AcDbEntity
  8
0
  6
Continuous
 62
     7
370
    15
100
AcDbLine
 10
1421.9678950216
 20
657.6831646478
 30
0.0
 11
1418.1678950216
 21
657.6831646478
 31
0.0
  0
LINE
  5
29D
330
1F
100
AcDbEntity
  8
0
  6
Continuous
 62
     7
370
    15
100
AcDbLine
 10
1421.9678950216
 20
657.6831646478
 30
0.0
 11
1421.9678950216
 21
656.7493114174
 31
0.0
  0
LINE
  5
29E
330
1F
100
AcDbEntity
  8
0
  6
Continuous
 62
     7
370
    15
100
AcDbLine
 10
1421.9678950216
 20
674.4112578246
 30
0.0
 11
1418.1678950216
 21
674.4112578246
 31
0.0
  0
LINE
  5
29F
330
1F
100
AcDbEntity
  8
0
  6
Continuous
 62
     7
370
    15
100
AcDbLine
 10
1421.9678950216
 20
674.4112578246
 30
0.0
 11
1421.9678950216
 21
657.6831646478
 31
0.0
  0
LINE
  5
2A0
330
1F
100
AcDbEntity
  8
0
  6
Continuous
 62
     7
370
    15
100
AcDbLine
 10
1442.2678950216
 20
677.806603579
 30
0.0
 11
1436.8678950216
 21
677.806603579
 31
0.0
  0
LINE
  5
2A1
330
1F
100
AcDbEntity
  8
0
  6
Continuous
 62
     7
370
    15
100
AcDbLine
 10
1436.8678950216
 20
677.806603579
 30
0.0
 11
1436.8678950216
 21
675.2653178256
 31
0.0
  0
LINE
  5
2A2
330
1F
100
AcDbEntity
  8
0
  6
Continuous
 62
     7
370
    15
100
AcDbLine
 10
1442.2678950216
 20
677.806603579
 30
0.0
 11
1442.2678950216
 21
675.2653178256
 31
0.0
  0
LINE
  5
2A3
330
1F
100
AcDbEntity
  8
0
  6
Continuous
 62
     7
370
    15
100
AcDbLine
 10
1421.9678950216
 20
674.9843315904
 30
0.0
 11
1418.1678950216
 21
674.9843315904
 31
0.0
  0
LINE
  5
2A4
330
1F
100
AcDbEntity
  8
0
  6
Continuous
 62
     7
370
    15
100
AcDbLine
 10
1421.9678950216
 20
674.9843315904
 30
0.0
 11
1421.9678950216
 21
674.4112578246
 31
0.0
  0
LINE
  5
2A5
330
1F
100
AcDbEntity
  8
0
  6
Continuous
 62
     7
370
    15
100
AcDbLine
 10
1421.9678950216
 20
677.3409667937
 30
0.0
 11
1418.1678950216
 21
677.3409667937
 31
0.0
  0
LINE
  5
2A6
330
1F
100
AcDbEntity
  8
0
  6
Continuous
 62
     7
370
    15
100
AcDbLine
 10
1421.9678950216
 20
677.3409667937
 30
0.0
 11
1421.9678950216
 21
674.9843315904
 31
0.0
  0
LINE
  5
2A7
330
1F
100
AcDbEntity
  8
0
  6
Continuous
 62
     7
370
    15
100
AcDbLine
 10
1421.9678950216
 20
642.0170761606
 30
0.0
 11
1418.1678950216
 21
642.0170761606
 31
0.0
  0
LINE
  5
2A8
330
1F
100
AcDbEntity
  8
0
  6
Continuous
 62
     7
370
    15
100
AcDbLine
 10
1421.9678950216
 20
642.3778611857
 30
0.0
 11
1421.9678950216
 21
642.0170761606
 31
0.0
  0
LINE
  5
2A9
330
1F
100
AcDbEntity
  8
0
  6
Continuous
 62
     7
370
    15
100
AcDbLine
 10
1417.3678950216
 20
882.2012397312
 30
0.0
 11
1417.3678950216
 21
882.2535915238
 31
0.0
  0
LINE
  5
2AA
330
1F
100
AcDbEntity
  8
0
  6
Continuous
 62
     7
370
    15
100
AcDbLine
 10
769.3678950216
 20
881.8290214772
 30
0.0
 11
769.3678950216
 21
880.9719504093
 31
0.0
  0
LINE
  5
2AB
330
1F
100
AcDbEntity
  8
0
  6
Continuous
 62
     7
370
    15
100
AcDbLine
 10
770.2178950216
 20
881.8290214772
 30
0.0
 11
769.3678950216
 21
881.8290214772
 31
0.0
  0
LINE
  5
2AC
330
1F
100
AcDbEntity
  8
0
  6
Continuous
 62
     7
370
    15
100
AcDbLine
 10
830.3678950216
 20
601.4790214772
 30
0.0
 11
1250.3678950216
 21
601.4790214772
 31
0.0
  0
LINE
  5
2AD
330
1F
100
AcDbEntity
  8
0
  6
Continuous
 62
     7
370
    15
100
AcDbLine
 10
825.3678950216
 20
601.4790214772
 30
0.0
 11
825.3678950216
 21
601.8719504093
 31
0.0
  0
LINE
  5
2AE
330
1F
100
AcDbEntity
  8
0
  6
Continuous
 62
     7
370
    15
100
AcDbLine
 10
825.3678950216
 20
601.4790214772
 30
0.0
 11
830.3678950216
 21
601.4790214772
 31
0.0
  0
LINE
  5
2AF
330
1F
100
AcDbEntity
  8
0
  6
Continuous
 62
     7
370
    15
100
AcDbLine
 10
1255.3678950216
 20
601.4790214772
 30
0.0
 11
1255.3678950216
 21
601.8719504093
 31
0.0
  0
LINE
  5
2B0
330
1F
100
AcDbEntity
  8
0
  6
Continuous
 62
     7
370
    15
100
AcDbLine
 10
1250.3678950216
 20
601.4790214772
 30
0.0
 11
1255.3678950216
 21
601.4790214772
 31
0.0
  0
LINE
  5
2B1
330
1F
100
AcDbEntity
  8
0
  6
Continuous
 62
     7
370
    15
100
AcDbLine
 10
700.3678950216
 20
601.4790214772
 30
0.0
 11
721.3678950216
 21
601.4790214772
 31
0.0
  0
LINE
  5
2B2
330
1F
100
AcDbEntity
  8
0
  6
Continuous
 62
     7
370
    15
100
AcDbLine
 10
811.3678950216
 20
601.4790214772
 30
0.0
 11
825.3678950216
 21
601.4790214772
 31
0.0
  0
LINE
  5
2B3
330
1F
100
AcDbEntity
  8
0
  6
Continuous
 62
     7
370
    15
100
AcDbLine
 10
1255.3678950216
 20
601.4790214772
 30
0.0
 11
1295.3678950216
 21
601.4790214772
 31
0.0
  0
LINE
  5
2B4
330
1F
100
AcDbEntity
  8
0
  6
Continuous
 62
     7
370
    15
100
AcDbLine
 10
695.3678950216
 20
601.4790214772
 30
0.0
 11
695.3678950216
 21
601.8790214772
 31
0.0
  0
LINE
  5
2B5
330
1F
100
AcDbEntity
  8
0
  6
Continuous
 62
     7
370
    15
100
AcDbLine
 10
695.3678950216
 20
601.4790214772
 30
0.0
 11
700.3678950216
 21
601.4790214772
 31
0.0
  0
LINE
  5
2B6
330
1F
100
AcDbEntity
  8
0
  6
Continuous
 62
     7
370
    15
100
AcDbLine
 10
1418.2678950218
 20
712.9132092256
 30
0.0
 11
1418.2678950218
 21
693.9132092256
 31
0.0
  0
LINE
  5
2B7
330
1F
100
AcDbEntity
  8
0
  6
Continuous
 62
     7
370
    15
100
AcDbLine
 10
1418.3678950218
 20
702.6812963725
 30
0.0
 11
1418.2678950218
 21
702.6812963725
 31
0.0
  0
LINE
  5
2B8
330
1F
100
AcDbEntity
  8
0
  6
Continuous
 62
     7
370
    15
100
AcDbLine
 10
1418.3678950218
 20
702.3736040648
 30
0.0
 11
1418.3678950218
 21
702.6812963725
 31
0.0
  0
LINE
  5
2B9
330
1F
100
AcDbEntity
  8
0
  6
Continuous
 62
     7
370
    15
100
AcDbLine
 10
1418.3678950218
 20
702.3736040648
 30
0.0
 11
1418.2678950218
 21
702.3736040648
 31
0.0
  0
LINE
  5
2BA
330
1F
100
AcDbEntity
  8
0
  6
Continuous
 62
     7
370
    15
100
AcDbLine
 10
1418.3678950218
 20
699.6812963725
 30
0.0
 11
1418.2678950218
 21
699.6812963725
 31
0.0
  0
LINE
  5
2BB
330
1F
100
AcDbEntity
  8
0
  6
Continuous
 62
     7
370
    15
100
AcDbLine
 10
1418.3678950218
 20
699.6812963725
 30
0.0
 11
1418.3678950218
 21
702.3736040648
 31
0.0
  0
LINE
  5
2BC
330
1F
100
AcDbEntity
  8
0
  6
Continuous
 62
     7
370
    15
100
AcDbLine
 10
1418.3678950218
 20
708.6812963725
 30
0.0
 11
1418.2678950218
 21
708.6812963725
 31
0.0
  0
LINE
  5
2BD
330
1F
100
AcDbEntity
  8
0
  6
Continuous
 62
     7
370
    15
100
AcDbLine
 10
1418.3678950218
 20
705.6812963725
 30
0.0
 11
1418.2678950218
 21
705.6812963725
 31
0.0
  0
LINE
  5
2BE
330
1F
100
AcDbEntity
  8
0
  6
Continuous
 62
     7
370
    15
100
AcDbLine
 10
1418.3678950218
 20
705.6812963725
 30
0.0
 11
1418.3678950218
 21
708.6812963725
 31
0.0
  0
LINE
  5
2BF
330
1F
100
AcDbEntity
  8
0
  6
Continuous
 62
     7
370
    15
100
AcDbLine
 10
1418.3678950218
 20
699.6043732955
 30
0.0
 11
1418.2678950218
 21
699.6043732955
 31
0.0
  0
LINE
  5
2C0
330
1F
100
AcDbEntity
  8
0
  6
Continuous
 62
     7
370
    15
100
AcDbLine
 10
1418.3678950218
 20
702.7582194494
 30
0.0
 11
1418.2678950218
 21
702.7582194494
 31
0.0
  0
LINE
  5
2C1
330
1F
100
AcDbEntity
  8
0
  6
Continuous
 62
     7
370
    15
100
AcDbLine
 10
1418.3678950218
 20
708.7582194494
 30
0.0
 11
1418.2678950218
 21
708.7582194494
 31
0.0
  0
LINE
  5
2C2
330
1F
100
AcDbEntity
  8
0
  6
Continuous
 62
     7
370
    15
100
AcDbLine
 10
1418.3678950218
 20
705.6043732955
 30
0.0
 11
1418.2678950218
 21
705.6043732955
 31
0.0
  0
SPLINE
  5
2C3
330
1F
100
AcDbEntity
  8
0
  6
Continuous
 62
     7
370
    15
100
AcDbSpline
210
0.0
220
0.0
230
1.0
 70
     8
 71
     3
 72
    13
 73
     9
 74
     0
 42
0.00000001
 43
0.00000001
 12
1.0
 22
0.0
 32
0.0
 13
1.0
 23
0.0
 33
0.0
 40
0.0
 40
0.0
 40
0.0
 40
0.0
 40
0.1695411050600738
 40
0.3386458383076631
 40
0.5184804584265333
 40
0.727723621148541
 40
0.992453776885359
 40
1.0
 40
1.0
 40
1.0
 40
1.0
 10
1429.617895021642
 20
676.9480162225287
 30
0.0
 10
1429.593283874356
 20
676.9473134191334
 30
0.0
 10
1429.544124924957
 20
676.9459096212469
 30
0.0
 10
1429.477989131577
 20
676.935271695555
 30
0.0
 10
1429.422317528473
 20
676.9192790312256
 30
0.0
 10
1429.3795987492
 20
676.8964027861456
 30
0.0
 10
1429.368013089588
 20
676.8779381869645
 30
0.0
 10
1429.367898205684
 20
676.8676458443209
 30
0.0
 10
1429.367895021642
 20
676.8673605888966
 30
0.0
  0
LINE
  5
2C4
330
1F
100
AcDbEntity
  8
0
  6
Continuous
 62
     7
370
    15
100
AcDbLine
 10
1429.3678950216
 20
676.8673605889
 30
0.0
 11
1429.3678950216
 21
683.6351712268
 31
0.0
  0
SPLINE
  5
2C5
330
1F
100
AcDbEntity
  8
0
  6
Continuous
 62
     7
370
    15
100
AcDbSpline
210
0.0
220
0.0
230
1.0
 70
     8
 71
     3
 72
    13
 73
     9
 74
     0
 42
0.00000001
 43
0.00000001
 12
1.0
 22
0.0
 32
0.0
 13
1.0
 23
0.0
 33
0.0
 40
0.0
 40
0.0
 40
0.0
 40
0.0
 40
0.0075462231145804
 40
0.272276378851462
 40
0.4815195415734189
 40
0.6613541616923647
 40
0.8304588949399535
 40
0.9999999999999999
 40
0.9999999999999999
 40
0.9999999999999999
 40
0.9999999999999999
 10
1430.567895021642
 20
676.867360588897
 30
0.0
 10
1430.5678918376
 20
676.8676458443213
 30
0.0
 10
1430.567776953698
 20
676.8779381869629
 30
0.0
 10
1430.556191294084
 20
676.8964027861463
 30
0.0
 10
1430.513472514812
 20
676.9192790312255
 30
0.0
 10
1430.457800911707
 20
676.9352716955553
 30
0.0
 10
1430.391665118327
 20
676.9459096212469
 30
0.0
 10
1430.342506168929
 20
676.9473134191334
 30
0.0
 10
1430.317895021642
 20
676.9480162225287
 30
0.0
  0
LINE
  5
2C6
330
1F
100
AcDbEntity
  8
0
  6
Continuous
 62
     7
370
    15
100
AcDbLine
 10
1430.5678950216
 20
683.2898808769
 30
0.0
 11
1430.5678950216
 21
676.8673605889
 31
0.0
  0
LINE
  5
2C7
330
1F
100
AcDbEntity
  8
0
  6
Continuous
 62
     7
370
    15
100
AcDbLine
 10
1430.3178950216
 20
676.9480162225
 30
0.0
 11
1429.6178950216
 21
676.9480162225
 31
0.0
  0
LINE
  5
2C8
330
1F
100
AcDbEntity
  8
0
  6
Continuous
 62
     7
370
    15
100
AcDbLine
 10
1429.3678950216
 20
675.5290214771
 30
0.0
 11
1429.3678950216
 21
676.6606093326
 31
0.0
  0
ARC
  5
2C9
330
1F
100
AcDbEntity
  8
0
  6
Continuous
 62
     7
370
    15
100
AcDbCircle
 10
1429.5918237577
 20
676.6264601711
 30
0.0
 40
0.2265176462360694
100
AcDbArc
 50
83.3908406061
 51
171.329191247
  0
LINE
  5
2CA
330
1F
100
AcDbEntity
  8
0
  6
Continuous
 62
     7
370
    15
100
AcDbLine
 10
1429.6178950216
 20
676.9480162225
 30
0.0
 11
1429.6178950216
 21
676.8514724669
 31
0.0
  0
LINE
  5
2CB
330
1F
100
AcDbEntity
  8
0
  6
Continuous
 62
     7
370
    15
100
AcDbLine
 10
1430.3178950216
 20
676.8514724669
 30
0.0
 11
1430.3178950216
 21
676.9480162225
 31
0.0
  0
ARC
  5
2CC
330
1F
100
AcDbEntity
  8
0
  6
Continuous
 62
     7
370
    15
100
AcDbCircle
 10
1430.3439662856
 20
676.6264601711
 30
0.0
 40
0.2265176462354982
100
AcDbArc
 50
8.6708087529
 51
96.6091593941
  0
LINE
  5
2CD
330
1F
100
AcDbEntity
  8
0
  6
Continuous
 62
     7
370
    15
100
AcDbLine
 10
1429.3678950216
 20
676.6606093326
 30
0.0
 11
1429.3678950216
 21
676.8673605889
 31
0.0
  0
LINE
  5
2CE
330
1F
100
AcDbEntity
  8
0
  6
Continuous
 62
     7
370
    15
100
AcDbLine
 10
1430.5678950216
 20
676.8673605889
 30
0.0
 11
1430.5678950216
 21
676.6606093326
 31
0.0
  0
LINE
  5
2CF
330
1F
100
AcDbEntity
  8
0
  6
Continuous
 62
     7
370
    15
100
AcDbLine
 10
1435.9178950216
 20
687.8115516593
 30
0.0
 11
1435.9178950216
 21
688.2875306074
 31
0.0
  0
LINE
  5
2D0
330
1F
100
AcDbEntity
  8
0
  6
Continuous
 62
     7
370
    15
100
AcDbLine
 10
1435.9178950216
 20
687.406048875
 30
0.0
 11
1435.9178950216
 21
687.8115516593
 31
0.0
  0
ARC
  5
2D1
330
1F
100
AcDbEntity
  8
0
  6
Continuous
 62
     7
370
    15
100
AcDbCircle
 10
1435.9439662856
 20
687.5865393635
 30
0.0
 40
0.2265176462358958
100
AcDbArc
 50
8.670808753
 51
96.6091593941
  0
ARC
  5
2D2
330
1F
100
AcDbEntity
  8
0
  6
Continuous
 62
     7
370
    15
100
AcDbCircle
 10
1435.9343248423
 20
687.6398250413
 30
0.0
 40
0.2343528001292175
100
AcDbArc
 50
265.9798550465
 51
355.316190911
  0
LINE
  5
2D3
330
1F
100
AcDbEntity
  8
0
  6
Continuous
 62
     7
370
    15
100
AcDbLine
 10
1436.1678950216
 20
687.620688525
 30
0.0
 11
1436.1678950216
 21
685.4088095136
 31
0.0
  0
LINE
  5
2D4
330
1F
100
AcDbEntity
  8
0
  6
Continuous
 62
     7
370
    15
100
AcDbLine
 10
1436.1678950216
 20
688.096667473
 30
0.0
 11
1436.1678950216
 21
687.620688525
 31
0.0
  0
ARC
  5
2D5
330
1F
100
AcDbEntity
  8
0
  6
Continuous
 62
     7
370
    15
100
AcDbCircle
 10
1435.9439662856
 20
688.0625183116
 30
0.0
 40
0.2265176462359992
100
AcDbArc
 50
8.670808753
 51
96.6091593939
  0
SPLINE
  5
2D6
330
1F
100
AcDbEntity
  8
0
  6
Continuous
 62
     7
370
    15
100
AcDbSpline
210
0.0
220
0.0
230
1.0
 70
     8
 71
     3
 72
    13
 73
     9
 74
     0
 42
0.00000001
 43
0.00000001
 12
1.0
 22
0.0
 32
0.0
 13
1.0
 23
0.0
 33
0.0
 40
0.0
 40
0.0
 40
0.0
 40
0.0
 40
0.1695411050600284
 40
0.3386458383077561
 40
0.5184804584270418
 40
0.7277236211487168
 40
0.9924537768852887
 40
1.0
 40
1.0
 40
1.0
 40
1.0
 10
1430.817895021642
 20
683.2226170203853
 30
0.0
 10
1430.793283874355
 20
683.2230670116215
 30
0.0
 10
1430.744124924957
 20
683.2239658358882
 30
0.0
 10
1430.677989131576
 20
683.2307649780158
 30
0.0
 10
1430.622317528472
 20
683.2409506696273
 30
0.0
 10
1430.5795987492
 20
683.2554481844047
 30
0.0
 10
1430.568013089588
 20
683.2670631428381
 30
0.0
 10
1430.567898205685
 20
683.2735063680237
 30
0.0
 10
1430.567895021642
 20
683.2736849439804
 30
0.0
  0
LINE
  5
2D7
330
1F
100
AcDbEntity
  8
0
  6
Continuous
 62
     7
370
    15
100
AcDbLine
 10
1430.5678950216
 20
676.85578001
 30
0.0
 11
1430.5678950216
 21
683.273684944
 31
0.0
  0
SPLINE
  5
2D8
330
1F
100
AcDbEntity
  8
0
  6
Continuous
 62
     7
370
    15
100
AcDbSpline
210
0.0
220
0.0
230
1.0
 70
     8
 71
     3
 72
    13
 73
     9
 74
     0
 42
0.00000001
 43
0.00000001
 12
1.0
 22
0.0
 32
0.0
 13
1.0
 23
0.0
 33
0.0
 40
0.0
 40
0.0
 40
0.0
 40
0.0
 40
0.0075462231145191
 40
0.2722763788514247
 40
0.4815195415730574
 40
0.6613541616925456
 40
0.8304588949399374
 40
0.9999999999999999
 40
0.9999999999999999
 40
0.9999999999999999
 40
0.9999999999999999
 10
1431.767895021642
 20
683.2736849439804
 30
0.0
 10
1431.7678918376
 20
683.2735063680237
 30
0.0
 10
1431.767776953696
 20
683.2670631428368
 30
0.0
 10
1431.756191294084
 20
683.2554481844052
 30
0.0
 10
1431.713472514811
 20
683.2409506696272
 30
0.0
 10
1431.657800911708
 20
683.2307649780158
 30
0.0
 10
1431.591665118327
 20
683.223965835888
 30
0.0
 10
1431.542506168929
 20
683.2230670116215
 30
0.0
 10
1431.517895021642
 20
683.2226170203854
 30
0.0
  0
LINE
  5
2D9
330
1F
100
AcDbEntity
  8
0
  6
Continuous
 62
     7
370
    15
100
AcDbLine
 10
1431.7678950216
 20
683.273684944
 30
0.0
 11
1431.7678950216
 21
676.6790214771
 31
0.0
  0
LINE
  5
2DA
330
1F
100
AcDbEntity
  8
0
  6
Continuous
 62
     7
370
    15
100
AcDbLine
 10
1430.8178950216
 20
683.2226170204
 30
0.0
 11
1431.5178950216
 21
683.2226170204
 31
0.0
  0
SPLINE
  5
2DB
330
1F
100
AcDbEntity
  8
0
  6
Continuous
 62
     7
370
    15
100
AcDbSpline
210
0.0
220
0.0
230
1.0
 70
     8
 71
     3
 72
    12
 73
     8
 74
     0
 42
0.00000001
 43
0.00000001
 12
1.0
 22
0.0
 32
0.0
 13
1.0
 23
0.0
 33
0.0
 40
0.0
 40
0.0
 40
0.0
 40
0.0
 40
0.2289440738516248
 40
0.4594214300241801
 40
0.6825355698157433
 40
0.8947175231628361
 40
1.0
 40
1.0
 40
1.0
 40
1.0
 10
1431.767895021642
 20
687.6739434240623
 30
0.0
 10
1431.750560537065
 20
687.8080354406817
 30
0.0
 10
1431.715775475546
 20
688.0771175138436
 30
0.0
 10
1431.441905629733
 20
688.4297245692858
 30
0.0
 10
1431.04486909525
 20
688.6827341379528
 30
0.0
 10
1430.643993105898
 20
688.7960769828186
 30
0.0
 10
1430.399107712811
 20
688.805716637399
 30
0.0
 10
1430.317895021642
 20
688.8089134891201
 30
0.0
  0
SPLINE
  5
2DC
330
1F
100
AcDbEntity
  8
0
  6
Continuous
 62
     7
370
    15
100
AcDbSpline
210
0.0
220
0.0
230
1.0
 70
     8
 71
     3
 72
    12
 73
     8
 74
     0
 42
0.00000001
 43
0.00000001
 12
1.0
 22
0.0
 32
0.0
 13
1.0
 23
0.0
 33
0.0
 40
0.0
 40
0.0
 40
0.0
 40
0.0
 40
0.2028202020467384
 40
0.4049472449426691
 40
0.6098312030740518
 40
0.8226939241827698
 40
1.0
 40
1.0
 40
1.0
 40
1.0
 10
1430.317895021642
 20
684.5340400753314
 30
0.0
 10
1430.475035862178
 20
684.5234131250946
 30
0.0
 10
1430.78878049807
 20
684.5021955433297
 30
0.0
 10
1431.209176748539
 20
684.3376122893167
 30
0.0
 10
1431.536255283979
 20
684.093840219479
 30
0.0
 10
1431.734464550245
 20
683.8019369825929
 30
0.0
 10
1431.757449756167
 20
683.5969839864242
 30
0.0
 10
1431.767895021642
 20
683.503846319435
 30
0.0
  0
LINE
  5
2DD
330
1F
100
AcDbEntity
  8
0
  6
Continuous
 62
     7
370
    15
100
AcDbLine
 10
1430.3178950216
 20
684.5340400753
 30
0.0
 11
1430.3178950216
 21
688.8089134891
 31
0.0
  0
LINE
  5
2DE
330
1F
100
AcDbEntity
  8
0
  6
Continuous
 62
     7
370
    15
100
AcDbLine
 10
1431.7678950216
 20
687.6739434241
 30
0.0
 11
1431.7678950216
 21
683.5038463194
 31
0.0
  0
LINE
  5
2DF
330
1F
100
AcDbEntity
  8
0
  6
Continuous
 62
     7
370
    15
100
AcDbLine
 10
1430.3178950216
 20
688.8089134891
 30
0.0
 11
1425.2178950216
 21
688.8089134891
 31
0.0
  0
LINE
  5
2E0
330
1F
100
AcDbEntity
  8
0
  6
Continuous
 62
     7
370
    15
100
AcDbLine
 10
1425.2178950216
 20
684.5340400753
 30
0.0
 11
1430.3178950216
 21
684.5340400753
 31
0.0
  0
LINE
  5
2E1
330
1F
100
AcDbEntity
  8
0
  6
Continuous
 62
     7
370
    15
100
AcDbLine
 10
1425.2178950216
 20
688.8089134891
 30
0.0
 11
1425.2178950216
 21
684.5340400753
 31
0.0
  0
LWPOLYLINE
  5
2E2
330
1F
100
AcDbEntity
  8
0
  6
Continuous
 62
     7
370
    15
100
AcDbPolyline
 90
        9
 70
   128
 43
0.0
 10
1425.2178950216
 20
684.5340400753
 10
1425.1691224411
 20
684.5317536091
 10
1425.1222241636
 20
684.5249820781
 10
1425.0790024634
 20
684.5139857085
 10
1425.0411183263
 20
684.4991870845
 10
1425.0100276186
 20
684.4811549091
 10
1424.9869251385
 20
684.4605821484
 10
1424.9726987015
 20
684.4382594024
 10
1424.9678950216
 20
684.4150445215
  0
LINE
  5
2E3
330
1F
100
AcDbEntity
  8
0
  6
Continuous
 62
     7
370
    15
100
AcDbLine
 10
1424.9678950216
 20
684.4150445215
 30
0.0
 11
1424.9678950216
 21
688.5851416261
 31
0.0
  0
ARC
  5
2E4
330
1F
100
AcDbEntity
  8
0
  6
Continuous
 62
     7
370
    15
100
AcDbCircle
 10
1425.2054688683
 20
688.5712590124
 30
0.0
 40
0.2379791158750155
100
AcDbArc
 50
87.0069219842
 51
176.65572755
  0
SPLINE
  5
2E5
330
1F
100
AcDbEntity
  8
0
  6
Continuous
 62
     7
370
    15
100
AcDbSpline
210
0.0
220
0.0
230
1.0
 70
     8
 71
     3
 72
    12
 73
     8
 74
     0
 42
0.00000001
 43
0.00000001
 12
1.0
 22
0.0
 32
0.0
 13
1.0
 23
0.0
 33
0.0
 40
0.0
 40
0.0
 40
0.0
 40
0.0
 40
0.1789601577904013
 40
0.3929009169381209
 40
0.5976976172812744
 40
0.7987833678438235
 40
1.0
 40
1.0
 40
1.0
 40
1.0
 10
1431.517895021642
 20
683.3300922734092
 30
0.0
 10
1431.509283051788
 20
683.4131059029211
 30
0.0
 10
1431.490375765976
 20
683.5953594925262
 30
0.0
 10
1431.326839740824
 20
683.853550299549
 30
0.0
 10
1431.056267429059
 20
684.068509677728
 30
0.0
 10
1430.708137309499
 20
684.213297361031
 30
0.0
 10
1430.448003994105
 20
684.231957413729
 30
0.0
 10
1430.317895021642
 20
684.2412904754284
 30
0.0
  0
LINE
  5
2E6
330
1F
100
AcDbEntity
  8
0
  6
Continuous
 62
     7
370
    15
100
AcDbLine
 10
1430.3178950216
 20
684.2412904754
 30
0.0
 11
1430.3178950216
 21
684.5340400753
 31
0.0
  0
ARC
  5
2E7
330
1F
100
AcDbEntity
  8
0
  6
Continuous
 62
     7
370
    15
100
AcDbCircle
 10
1431.5502045531
 20
683.5503337714
 30
0.0
 40
0.2225987944103298
100
AcDbArc
 50
261.6542123667
 51
347.9456391698
  0
LINE
  5
2E8
330
1F
100
AcDbEntity
  8
0
  6
Continuous
 62
     7
370
    15
100
AcDbLine
 10
1430.3178950216
 20
684.2412904754
 30
0.0
 11
1425.2178950216
 21
684.2412904754
 31
0.0
  0
LINE
  5
2E9
330
1F
100
AcDbEntity
  8
0
  6
Continuous
 62
     7
370
    15
100
AcDbLine
 10
1425.2178950216
 20
684.2412904754
 30
0.0
 11
1425.2178950216
 21
684.5340400753
 31
0.0
  0
ARC
  5
2EA
330
1F
100
AcDbEntity
  8
0
  6
Continuous
 62
     7
370
    15
100
AcDbCircle
 10
1425.1855854902
 20
684.4615319734
 30
0.0
 40
0.222598794409013
100
AcDbArc
 50
192.0543608297
 51
278.3457876335
  0
LINE
  5
2EB
330
1F
100
AcDbEntity
  8
0
  6
Continuous
 62
     7
370
    15
100
AcDbLine
 10
1425.2178950216
 20
683.7114171808
 30
0.0
 11
1430.3178950216
 21
683.7114171808
 31
0.0
  0
LINE
  5
2EC
330
1F
100
AcDbEntity
  8
0
  6
Continuous
 62
     7
370
    15
100
AcDbLine
 10
1425.2178950216
 20
684.2412904754
 30
0.0
 11
1425.2178950216
 21
683.7114171808
 31
0.0
  0
LINE
  5
2ED
330
1F
100
AcDbEntity
  8
0
  6
Continuous
 62
     7
370
    15
100
AcDbLine
 10
1431.5178950216
 20
683.2226170204
 30
0.0
 11
1431.5178950216
 21
683.3300922734
 31
0.0
  0
LINE
  5
2EE
330
1F
100
AcDbEntity
  8
0
  6
Continuous
 62
     7
370
    15
100
AcDbLine
 10
1430.8178950216
 20
683.3300922734
 30
0.0
 11
1430.8178950216
 21
683.2226170204
 31
0.0
  0
SPLINE
  5
2EF
330
1F
100
AcDbEntity
  8
0
  6
Continuous
 62
     7
370
    15
100
AcDbSpline
210
0.0
220
0.0
230
1.0
 70
     8
 71
     3
 72
    12
 73
     8
 74
     0
 42
0.00000001
 43
0.00000001
 12
1.0
 22
0.0
 32
0.0
 13
1.0
 23
0.0
 33
0.0
 40
0.0
 40
0.0
 40
0.0
 40
0.0
 40
0.1818603118645787
 40
0.3964966430177372
 40
0.6005836871107647
 40
0.8002123703305275
 40
1.0
 40
1.0
 40
1.0
 40
1.0
 10
1430.817895021642
 20
683.3300922734092
 30
0.0
 10
1430.814177270048
 20
683.3653142339803
 30
0.0
 10
1430.806071730079
 20
683.4421060803364
 30
0.0
 10
1430.736917031072
 20
683.5502410233654
 30
0.0
 10
1430.624077624119
 20
683.6396297357626
 30
0.0
 10
1430.479656523373
 20
683.69977229815
 30
0.0
 10
1430.371829825316
 20
683.7075345235842
 30
0.0
 10
1430.317895021642
 20
683.7114171807779
 30
0.0
  0
ARC
  5
2F0
330
1F
100
AcDbEntity
  8
0
  6
Continuous
 62
     7
370
    15
100
AcDbCircle
 10
1425.1855854902
 20
683.9316586788
 30
0.0
 40
0.2225987944087906
100
AcDbArc
 50
192.0543608297
 51
278.3457876336
  0
LINE
  5
2F1
330
1F
100
AcDbEntity
  8
0
  6
Continuous
 62
     7
370
    15
100
AcDbLine
 10
1424.9678950216
 20
683.8851712268
 30
0.0
 11
1424.9678950216
 21
684.4150445215
 31
0.0
  0
ARC
  5
2F2
330
1F
100
AcDbEntity
  8
0
  6
Continuous
 62
     7
370
    15
100
AcDbCircle
 10
1430.7855854902
 20
683.5503337714
 30
0.0
 40
0.2225987944095202
100
AcDbArc
 50
192.0543608301
 51
278.3457876334
  0
LINE
  5
2F3
330
1F
100
AcDbEntity
  8
0
  6
Continuous
 62
     7
370
    15
100
AcDbLine
 10
1430.5678950216
 20
683.273684944
 30
0.0
 11
1430.5678950216
 21
683.5038463194
 31
0.0
  0
LINE
  5
2F4
330
1F
100
AcDbEntity
  8
0
  6
Continuous
 62
     7
370
    15
100
AcDbLine
 10
1431.7678950216
 20
683.5038463194
 30
0.0
 11
1431.7678950216
 21
683.273684944
 31
0.0
  0
LINE
  5
2F5
330
1F
100
AcDbEntity
  8
0
  6
Continuous
 62
     7
370
    15
100
AcDbLine
 10
1430.3178950216
 20
688.8089134891
 30
0.0
 11
1430.3178950216
 21
688.8351416261
 31
0.0
  0
LINE
  5
2F6
330
1F
100
AcDbEntity
  8
0
  6
Continuous
 62
     7
370
    15
100
AcDbLine
 10
1431.7678950216
 20
688.1290214771
 30
0.0
 11
1431.7678950216
 21
687.6739434241
 31
0.0
  0
LINE
  5
2F7
330
1F
100
AcDbEntity
  8
0
  6
Continuous
 62
     7
370
    15
100
AcDbLine
 10
1419.164477009
 20
678.6025020651
 30
0.0
 11
1418.7178950216
 21
681.3277889503
 31
0.0
  0
SPLINE
  5
2F8
330
1F
100
AcDbEntity
  8
0
  6
Continuous
 62
     7
370
    15
100
AcDbSpline
210
0.0
220
0.0
230
1.0
 70
     8
 71
     3
 72
     9
 73
     5
 74
     0
 42
0.00000001
 43
0.00000001
 12
1.0
 22
0.0
 32
0.0
 13
1.0
 23
0.0
 33
0.0
 40
0.0
 40
0.0
 40
0.0
 40
0.0
 40
0.0702005767034292
 40
1.0
 40
1.0
 40
1.0
 40
1.0
 10
1418.717895021642
 20
681.3277889502646
 30
0.0
 10
1418.71834113791
 20
681.3923943747968
 30
0.0
 10
1418.72469601829
 20
682.3126920071816
 30
0.0
 10
1418.952585500185
 20
683.2145390112032
 30
0.0
 10
1419.164477009027
 20
684.053075835444
 30
0.0
  0
LINE
  5
2F9
330
1F
100
AcDbEntity
  8
0
  6
Continuous
 62
     7
370
    15
100
AcDbLine
 10
1419.164477009
 20
684.0530758354
 30
0.0
 11
1423.4713130343
 21
684.0530758354
 31
0.0
  0
SPLINE
  5
2FA
330
1F
100
AcDbEntity
  8
0
  6
Continuous
 62
     7
370
    15
100
AcDbSpline
210
0.0
220
0.0
230
1.0
 70
     8
 71
     3
 72
     9
 73
     5
 74
     0
 42
0.00000001
 43
0.00000001
 12
1.0
 22
0.0
 32
0.0
 13
1.0
 23
0.0
 33
0.0
 40
0.0
 40
0.0
 40
0.0
 40
0.0
 40
0.0702005767034438
 40
0.9999999999999999
 40
0.9999999999999999
 40
0.9999999999999999
 40
0.9999999999999999
 10
1423.917895021642
 20
681.3277889502646
 30
0.0
 10
1423.917448905375
 20
681.3923943747968
 30
0.0
 10
1423.911094024994
 20
682.3126920071816
 30
0.0
 10
1423.683204543099
 20
683.2145390112032
 30
0.0
 10
1423.471313034257
 20
684.053075835444
 30
0.0
  0
LINE
  5
2FB
330
1F
100
AcDbEntity
  8
0
  6
Continuous
 62
     7
370
    15
100
AcDbLine
 10
1423.4713130343
 20
678.6025020651
 30
0.0
 11
1423.9178950216
 21
681.3277889503
 31
0.0
  0
LINE
  5
2FC
330
1F
100
AcDbEntity
  8
0
  6
Continuous
 62
     7
370
    15
100
AcDbLine
 10
1419.164477009
 20
678.6025020651
 30
0.0
 11
1423.4713130343
 21
678.6025020651
 31
0.0
  0
SPLINE
  5
2FD
330
1F
100
AcDbEntity
  8
0
  6
Continuous
 62
     7
370
    15
100
AcDbSpline
210
0.0
220
0.0
230
1.0
 70
     8
 71
     3
 72
     9
 73
     5
 74
     0
 42
0.00000001
 43
0.00000001
 12
1.0
 22
0.0
 32
0.0
 13
1.0
 23
0.0
 33
0.0
 40
0.0
 40
0.0
 40
0.0
 40
0.0
 40
0.0702005767034203
 40
1.0
 40
1.0
 40
1.0
 40
1.0
 10
1423.917895021642
 20
676.4154748859373
 30
0.0
 10
1423.917448905375
 20
676.4673203705872
 30
0.0
 10
1423.911094024994
 20
677.2058539708024
 30
0.0
 10
1423.683204543099
 20
677.9295810470065
 30
0.0
 10
1423.471313034257
 20
678.602502065085
 30
0.0
  0
LINE
  5
2FE
330
1F
100
AcDbEntity
  8
0
  6
Continuous
 62
     7
370
    15
100
AcDbLine
 10
1423.9178950216
 20
681.3277889503
 30
0.0
 11
1423.9178950216
 21
676.4154748859
 31
0.0
  0
LINE
  5
2FF
330
1F
100
AcDbEntity
  8
0
  6
Continuous
 62
     7
370
    15
100
AcDbLine
 10
1418.8886730675
 20
677.3409667937
 30
0.0
 11
1419.164477009
 21
678.6025020651
 31
0.0
  0
LINE
  5
300
330
1F
100
AcDbEntity
  8
0
  6
Continuous
 62
     7
370
    15
100
AcDbLine
 10
1423.548003659
 20
674.6040214771
 30
0.0
 11
1423.9178950216
 21
676.4154748859
 31
0.0
  0
SPLINE
  5
301
330
1F
100
AcDbEntity
  8
0
  6
Continuous
 62
     7
370
    15
100
AcDbSpline
210
0.0
220
0.0
230
1.0
 70
     8
 71
     3
 72
     9
 73
     5
 74
     0
 42
0.00000001
 43
0.00000001
 12
1.0
 22
0.0
 32
0.0
 13
1.0
 23
0.0
 33
0.0
 40
0.0
 40
0.0
 40
0.0
 40
0.0
 40
0.2575513451038167
 40
0.9999999999999999
 40
0.9999999999999999
 40
0.9999999999999999
 40
0.9999999999999999
 10
1419.164477009027
 20
684.053075835444
 30
0.0
 10
1419.097061786252
 20
684.0982636729526
 30
0.0
 10
1418.835307289309
 20
684.273715435747
 30
0.0
 10
1418.767923801516
 20
684.4559992033842
 30
0.0
 10
1418.717895021642
 20
684.5913355414758
 30
0.0
  0
SPLINE
  5
302
330
1F
100
AcDbEntity
  8
0
  6
Continuous
 62
     7
370
    15
100
AcDbSpline
210
0.0
220
0.0
230
1.0
 70
     8
 71
     3
 72
     9
 73
     5
 74
     0
 42
0.00000001
 43
0.00000001
 12
1.0
 22
0.0
 32
0.0
 13
1.0
 23
0.0
 33
0.0
 40
0.0
 40
0.0
 40
0.0
 40
0.0
 40
0.2575513451038093
 40
1.0
 40
1.0
 40
1.0
 40
1.0
 10
1423.471313034257
 20
684.053075835444
 30
0.0
 10
1423.538728257032
 20
684.0982636729526
 30
0.0
 10
1423.800482753976
 20
684.273715435747
 30
0.0
 10
1423.867866241768
 20
684.4559992033842
 30
0.0
 10
1423.917895021642
 20
684.5913355414758
 30
0.0
  0
LINE
  5
303
330
1F
100
AcDbEntity
  8
0
  6
Continuous
 62
     7
370
    15
100
AcDbLine
 10
1423.9178950216
 20
684.5913355415
 30
0.0
 11
1423.9178950216
 21
681.3277889503
 31
0.0
  0
LINE
  5
304
330
1F
100
AcDbEntity
  8
0
  6
Continuous
 62
     7
370
    15
100
AcDbLine
 10
1423.9178950216
 20
676.4154748859
 30
0.0
 11
1423.9178950216
 21
674.6870442646
 31
0.0
  0
SPLINE
  5
305
330
1F
100
AcDbEntity
  8
0
  6
Continuous
 62
     7
370
    15
100
AcDbSpline
210
0.0
220
0.0
230
1.0
 70
     8
 71
     3
 72
     9
 73
     5
 74
     0
 42
0.00000001
 43
0.00000001
 12
1.0
 22
0.0
 32
0.0
 13
1.0
 23
0.0
 33
0.0
 40
0.0
 40
0.0
 40
0.0
 40
0.0
 40
0.2686336050555636
 40
1.0
 40
1.0
 40
1.0
 40
1.0
 10
1418.717895021642
 20
684.5913355414758
 30
0.0
 10
1418.724523974227
 20
684.6402784102507
 30
0.0
 10
1418.749200531663
 20
684.8224703171974
 30
0.0
 10
1418.989055295263
 20
684.9998590728106
 30
0.0
 10
1419.164477009027
 20
685.1295952475075
 30
0.0
  0
LINE
  5
306
330
1F
100
AcDbEntity
  8
0
  6
Continuous
 62
     7
370
    15
100
AcDbLine
 10
1419.164477009
 20
685.1295952475
 30
0.0
 11
1423.4713130343
 21
685.1295952475
 31
0.0
  0
SPLINE
  5
307
330
1F
100
AcDbEntity
  8
0
  6
Continuous
 62
     7
370
    15
100
AcDbSpline
210
0.0
220
0.0
230
1.0
 70
     8
 71
     3
 72
     9
 73
     5
 74
     0
 42
0.00000001
 43
0.00000001
 12
1.0
 22
0.0
 32
0.0
 13
1.0
 23
0.0
 33
0.0
 40
0.0
 40
0.0
 40
0.0
 40
0.0
 40
0.2686336050555657
 40
1.0
 40
1.0
 40
1.0
 40
1.0
 10
1423.917895021642
 20
684.5913355414758
 30
0.0
 10
1423.911266069058
 20
684.6402784102507
 30
0.0
 10
1423.886589511621
 20
684.8224703171974
 30
0.0
 10
1423.646734748021
 20
684.9998590728106
 30
0.0
 10
1423.471313034257
 20
685.1295952475074
 30
0.0
  0
LINE
  5
308
330
1F
100
AcDbEntity
  8
0
  6
Continuous
 62
     7
370
    15
100
AcDbLine
 10
1423.4713130343
 20
685.1295952475
 30
0.0
 11
1423.9178950216
 21
682.9425680684
 31
0.0
  0
LINE
  5
309
330
1F
100
AcDbEntity
  8
0
  6
Continuous
 62
     7
370
    15
100
AcDbLine
 10
1419.164477009
 20
685.1295952475
 30
0.0
 11
1418.7178950216
 21
682.9425680684
 31
0.0
  0
LINE
  5
30A
330
1F
100
AcDbEntity
  8
0
  6
Continuous
 62
     7
370
    15
100
AcDbLine
 10
1424.614477009
 20
675.7906439162
 30
0.0
 11
1424.1678950216
 21
678.6107365449
 31
0.0
  0
SPLINE
  5
30B
330
1F
100
AcDbEntity
  8
0
  6
Continuous
 62
     7
370
    15
100
AcDbSpline
210
0.0
220
0.0
230
1.0
 70
     8
 71
     3
 72
     9
 73
     5
 74
     0
 42
0.00000001
 43
0.00000001
 12
1.0
 22
0.0
 32
0.0
 13
1.0
 23
0.0
 33
0.0
 40
0.0
 40
0.0
 40
0.0
 40
0.0
 40
0.0702005767034272
 40
1.0
 40
1.0
 40
1.0
 40
1.0
 10
1424.167895021642
 20
678.6107365449349
 30
0.0
 10
1424.16834113791
 20
678.6775894265486
 30
0.0
 10
1424.17469601829
 20
679.6299018540681
 30
0.0
 10
1424.402585500186
 20
680.5631218031682
 30
0.0
 10
1424.614477009027
 20
681.4308291736503
 30
0.0
  0
LINE
  5
30C
330
1F
100
AcDbEntity
  8
0
  6
Continuous
 62
     7
370
    15
100
AcDbLine
 10
1424.614477009
 20
681.4308291737
 30
0.0
 11
1428.9213130343
 21
681.4308291737
 31
0.0
  0
SPLINE
  5
30D
330
1F
100
AcDbEntity
  8
0
  6
Continuous
 62
     7
370
    15
100
AcDbSpline
210
0.0
220
0.0
230
1.0
 70
     8
 71
     3
 72
     9
 73
     5
 74
     0
 42
0.00000001
 43
0.00000001
 12
1.0
 22
0.0
 32
0.0
 13
1.0
 23
0.0
 33
0.0
 40
0.0
 40
0.0
 40
0.0
 40
0.0
 40
0.0702005767034255
 40
1.0
 40
1.0
 40
1.0
 40
1.0
 10
1429.367895021642
 20
678.6107365449349
 30
0.0
 10
1429.367448905375
 20
678.6775894265486
 30
0.0
 10
1429.361094024994
 20
679.6299018540681
 30
0.0
 10
1429.133204543099
 20
680.5631218031681
 30
0.0
 10
1428.921313034257
 20
681.4308291736503
 30
0.0
  0
LINE
  5
30E
330
1F
100
AcDbEntity
  8
0
  6
Continuous
 62
     7
370
    15
100
AcDbLine
 10
1428.9213130343
 20
675.7906439162
 30
0.0
 11
1429.3678950216
 21
678.6107365449
 31
0.0
  0
LINE
  5
30F
330
1F
100
AcDbEntity
  8
0
  6
Continuous
 62
     7
370
    15
100
AcDbLine
 10
1424.614477009
 20
675.7906439162
 30
0.0
 11
1428.9213130343
 21
675.7906439162
 31
0.0
  0
LINE
  5
310
330
1F
100
AcDbEntity
  8
0
  6
Continuous
 62
     7
370
    15
100
AcDbLine
 10
1428.9213130343
 20
681.4308291737
 30
0.0
 11
1429.3678950216
 21
683.3750179541
 31
0.0
  0
LINE
  5
311
330
1F
100
AcDbEntity
  8
0
  6
Continuous
 62
     7
370
    15
100
AcDbLine
 10
1424.614477009
 20
681.4308291737
 30
0.0
 11
1424.1678950216
 21
683.3750179541
 31
0.0
  0
LINE
  5
312
330
1F
100
AcDbEntity
  8
0
  6
Continuous
 62
     7
370
    15
100
AcDbLine
 10
1424.1678950216
 20
678.6107365449
 30
0.0
 11
1424.1678950216
 21
683.3750179541
 31
0.0
  0
SPLINE
  5
313
330
1F
100
AcDbEntity
  8
0
  6
Continuous
 62
     7
370
    15
100
AcDbSpline
210
0.0
220
0.0
230
1.0
 70
     8
 71
     3
 72
     9
 73
     5
 74
     0
 42
0.00000001
 43
0.00000001
 12
1.0
 22
0.0
 32
0.0
 13
1.0
 23
0.0
 33
0.0
 40
0.0
 40
0.0
 40
0.0
 40
0.0
 40
0.8493205471672939
 40
1.0
 40
1.0
 40
1.0
 40
1.0
 10
1428.921313034257
 20
675.7906439162193
 30
0.0
 10
1428.998603014009
 20
675.7176750832054
 30
0.0
 10
1429.089605145077
 20
675.6317607211223
 30
0.0
 10
1429.121665437256
 20
675.5424750006554
 30
0.0
 10
1429.126496264539
 20
675.5290214771496
 30
0.0
  0
SPLINE
  5
314
330
1F
100
AcDbEntity
  8
0
  6
Continuous
 62
     7
370
    15
100
AcDbSpline
210
0.0
220
0.0
230
1.0
 70
     8
 71
     3
 72
     9
 73
     5
 74
     0
 42
0.00000001
 43
0.00000001
 12
1.0
 22
0.0
 32
0.0
 13
1.0
 23
0.0
 33
0.0
 40
0.0
 40
0.0
 40
0.0
 40
0.0
 40
0.2575513451038099
 40
1.0
 40
1.0
 40
1.0
 40
1.0
 10
1424.614477009027
 20
675.7906439162193
 30
0.0
 10
1424.547061786253
 20
675.7171102663394
 30
0.0
 10
1424.285307289309
 20
675.4315996243724
 30
0.0
 10
1424.217923801516
 20
675.1349713392568
 30
0.0
 10
1424.167895021642
 20
674.9147400679685
 30
0.0
  0
LINE
  5
315
330
1F
100
AcDbEntity
  8
0
  6
Continuous
 62
     7
370
    15
100
AcDbLine
 10
1424.1678950216
 20
674.914740068
 30
0.0
 11
1424.1678950216
 21
678.6107365449
 31
0.0
  0
SPLINE
  5
316
330
1F
100
AcDbEntity
  8
0
  6
Continuous
 62
     7
370
    15
100
AcDbSpline
210
0.0
220
0.0
230
1.0
 70
     8
 71
     3
 72
     9
 73
     5
 74
     0
 42
0.00000001
 43
0.00000001
 12
1.0
 22
0.0
 32
0.0
 13
1.0
 23
0.0
 33
0.0
 40
0.0
 40
0.0
 40
0.0
 40
0.0
 40
0.0702005767034297
 40
1.0
 40
1.0
 40
1.0
 40
1.0
 10
1424.167895021642
 20
683.3750179541148
 30
0.0
 10
1424.16834113791
 20
683.4211067318562
 30
0.0
 10
1424.17469601829
 20
684.0776366338275
 30
0.0
 10
1424.402585500186
 20
684.7210040666101
 30
0.0
 10
1424.614477009027
 20
685.3192067345794
 30
0.0
  0
LINE
  5
317
330
1F
100
AcDbEntity
  8
0
  6
Continuous
 62
     7
370
    15
100
AcDbLine
 10
1424.614477009
 20
685.3192067346
 30
0.0
 11
1424.9678950216
 21
685.3192067346
 31
0.0
  0
SPLINE
  5
318
330
1F
100
AcDbEntity
  8
0
  6
Continuous
 62
     7
370
    15
100
AcDbSpline
210
0.0
220
0.0
230
1.0
 70
     8
 71
     3
 72
     9
 73
     5
 74
     0
 42
0.00000001
 43
0.00000001
 12
1.0
 22
0.0
 32
0.0
 13
1.0
 23
0.0
 33
0.0
 40
0.0
 40
0.0
 40
0.0
 40
0.0
 40
0.5278771639355394
 40
0.9999999999999999
 40
0.9999999999999999
 40
0.9999999999999999
 40
0.9999999999999999
 10
1429.367895021642
 20
683.3750179541148
 30
0.0
 10
1429.369821478954
 20
683.4212476982174
 30
0.0
 10
1429.37347092137
 20
683.5088244059459
 30
0.0
 10
1429.347659235612
 20
683.5946506819623
 30
0.0
 10
1429.335472949329
 20
683.635171226804
 30
0.0
  0
SPLINE
  5
319
330
1F
100
AcDbEntity
  8
0
  6
Continuous
 62
     7
370
    15
100
AcDbSpline
210
0.0
220
0.0
230
1.0
 70
     8
 71
     3
 72
     9
 73
     5
 74
     0
 42
0.00000001
 43
0.00000001
 12
1.0
 22
0.0
 32
0.0
 13
1.0
 23
0.0
 33
0.0
 40
0.0
 40
0.0
 40
0.0
 40
0.0
 40
0.7639622131435735
 40
1.0
 40
1.0
 40
1.0
 40
1.0
 10
1424.167895021642
 20
674.9147400679685
 30
0.0
 10
1424.164979966549
 20
674.8347492231168
 30
0.0
 10
1424.161164260689
 20
674.7300439857692
 30
0.0
 10
1424.233012110247
 20
674.6280871443524
 30
0.0
 10
1424.249970917647
 20
674.6040214771497
 30
0.0
  0
SPLINE
  5
31A
330
1F
100
AcDbEntity
  8
0
  6
Continuous
 62
     7
370
    15
100
AcDbSpline
210
0.0
220
0.0
230
1.0
 70
     8
 71
     3
 72
     9
 73
     5
 74
     0
 42
0.00000001
 43
0.00000001
 12
1.0
 22
0.0
 32
0.0
 13
1.0
 23
0.0
 33
0.0
 40
0.0
 40
0.0
 40
0.0
 40
0.0
 40
0.5569342110492354
 40
1.0
 40
1.0
 40
1.0
 40
1.0
 10
1424.614477009027
 20
685.3192067345794
 30
0.0
 10
1424.542066032783
 20
685.2459588320675
 30
0.0
 10
1424.412048923387
 20
685.1144389845549
 30
0.0
 10
1424.37191768177
 20
684.9777778404751
 30
0.0
 10
1424.354136901542
 20
684.9172279628546
 30
0.0
  0
LINE
  5
31B
330
1F
100
AcDbEntity
  8
0
  6
Continuous
 62
     7
370
    15
100
AcDbLine
 10
1424.1678950216
 20
683.3750179541
 30
0.0
 11
1424.1678950216
 21
684.6790214771
 31
0.0
  0
LINE
  5
31C
330
1F
100
AcDbEntity
  8
0
  6
Continuous
 62
     7
370
    15
100
AcDbLine
 10
1424.1678950216
 20
674.914740068
 30
0.0
 11
1424.1678950216
 21
674.6790214771
 31
0.0
  0
LINE
  5
31D
330
1F
100
AcDbEntity
  8
0
  6
Continuous
 62
     7
370
    15
100
AcDbLine
 10
1432.214477009
 20
677.4282502426
 30
0.0
 11
1431.7678950216
 21
680.2931442608
 31
0.0
  0
SPLINE
  5
31E
330
1F
100
AcDbEntity
  8
0
  6
Continuous
 62
     7
370
    15
100
AcDbSpline
210
0.0
220
0.0
230
1.0
 70
     8
 71
     3
 72
     9
 73
     5
 74
     0
 42
0.00000001
 43
0.00000001
 12
1.0
 22
0.0
 32
0.0
 13
1.0
 23
0.0
 33
0.0
 40
0.0
 40
0.0
 40
0.0
 40
0.0
 40
0.0702005767034284
 40
1.0
 40
1.0
 40
1.0
 40
1.0
 10
1431.767895021642
 20
680.2931442607746
 30
0.0
 10
1431.76834113791
 20
680.3610592004063
 30
0.0
 10
1431.77469601829
 20
681.3285005352343
 30
0.0
 10
1432.002585500186
 20
682.2765460790657
 30
0.0
 10
1432.214477009028
 20
683.1580382789791
 30
0.0
  0
LINE
  5
31F
330
1F
100
AcDbEntity
  8
0
  6
Continuous
 62
     7
370
    15
100
AcDbLine
 10
1432.214477009
 20
683.158038279
 30
0.0
 11
1436.5213130343
 21
683.158038279
 31
0.0
  0
SPLINE
  5
320
330
1F
100
AcDbEntity
  8
0
  6
Continuous
 62
     7
370
    15
100
AcDbSpline
210
0.0
220
0.0
230
1.0
 70
     8
 71
     3
 72
     9
 73
     5
 74
     0
 42
0.00000001
 43
0.00000001
 12
1.0
 22
0.0
 32
0.0
 13
1.0
 23
0.0
 33
0.0
 40
0.0
 40
0.0
 40
0.0
 40
0.0
 40
0.0702005767034204
 40
1.0
 40
1.0
 40
1.0
 40
1.0
 10
1436.967895021642
 20
680.2931442607746
 30
0.0
 10
1436.967448905375
 20
680.3610592004063
 30
0.0
 10
1436.961094024994
 20
681.3285005352341
 30
0.0
 10
1436.733204543099
 20
682.2765460790656
 30
0.0
 10
1436.521313034257
 20
683.1580382789791
 30
0.0
  0
LINE
  5
321
330
1F
100
AcDbEntity
  8
0
  6
Continuous
 62
     7
370
    15
100
AcDbLine
 10
1436.5213130343
 20
677.4282502426
 30
0.0
 11
1436.9678950216
 21
680.2931442608
 31
0.0
  0
LINE
  5
322
330
1F
100
AcDbEntity
  8
0
  6
Continuous
 62
     7
370
    15
100
AcDbLine
 10
1432.214477009
 20
677.4282502426
 30
0.0
 11
1436.5213130343
 21
677.4282502426
 31
0.0
  0
SPLINE
  5
323
330
1F
100
AcDbEntity
  8
0
  6
Continuous
 62
     7
370
    15
100
AcDbSpline
210
0.0
220
0.0
230
1.0
 70
     8
 71
     3
 72
     9
 73
     5
 74
     0
 42
0.00000001
 43
0.00000001
 12
1.0
 22
0.0
 32
0.0
 13
1.0
 23
0.0
 33
0.0
 40
0.0
 40
0.0
 40
0.0
 40
0.0
 40
0.5091925817602347
 40
1.0
 40
1.0
 40
1.0
 40
1.0
 10
1436.521313034257
 20
677.4282502425702
 30
0.0
 10
1436.592927353654
 20
677.2826924777705
 30
0.0
 10
1436.733570249804
 20
676.9968325300543
 30
0.0
 10
1436.775899626376
 20
676.6998048606941
 30
0.0
 10
1436.796675198406
 20
676.5540214771497
 30
0.0
  0
LINE
  5
324
330
1F
100
AcDbEntity
  8
0
  6
Continuous
 62
     7
370
    15
100
AcDbLine
 10
1436.9678950216
 20
680.2931442608
 30
0.0
 11
1436.9678950216
 21
677.806603579
 31
0.0
  0
SPLINE
  5
325
330
1F
100
AcDbEntity
  8
0
  6
Continuous
 62
     7
370
    15
100
AcDbSpline
210
0.0
220
0.0
230
1.0
 70
     8
 71
     3
 72
     9
 73
     5
 74
     0
 42
0.00000001
 43
0.00000001
 12
1.0
 22
0.0
 32
0.0
 13
1.0
 23
0.0
 33
0.0
 40
0.0
 40
0.0
 40
0.0
 40
0.0
 40
0.5174000252722804
 40
1.0
 40
1.0
 40
1.0
 40
1.0
 10
1432.214477009027
 20
677.4282502425702
 30
0.0
 10
1432.142725733348
 20
677.2827080350373
 30
0.0
 10
1432.004049134633
 20
677.0014127114504
 30
0.0
 10
1431.962126522024
 20
676.7091268182104
 30
0.0
 10
1431.941894670239
 20
676.5680696535195
 30
0.0
  0
LINE
  5
326
330
1F
100
AcDbEntity
  8
0
  6
Continuous
 62
     7
370
    15
100
AcDbLine
 10
1436.5213130343
 20
683.158038279
 30
0.0
 11
1436.9678950216
 21
684.2834238963
 31
0.0
  0
LINE
  5
327
330
1F
100
AcDbEntity
  8
0
  6
Continuous
 62
     7
370
    15
100
AcDbLine
 10
1436.9678950216
 20
684.2834238963
 30
0.0
 11
1436.9678950216
 21
680.2931442608
 31
0.0
  0
LINE
  5
328
330
1F
100
AcDbEntity
  8
0
  6
Continuous
 62
     7
370
    15
100
AcDbLine
 10
1432.214477009
 20
683.158038279
 30
0.0
 11
1431.7678950216
 21
684.2834238963
 31
0.0
  0
LINE
  5
329
330
1F
100
AcDbEntity
  8
0
  6
Continuous
 62
     7
370
    15
100
AcDbLine
 10
1432.214477009
 20
685.4088095136
 30
0.0
 11
1436.5213130343
 21
685.4088095136
 31
0.0
  0
SPLINE
  5
32A
330
1F
100
AcDbEntity
  8
0
  6
Continuous
 62
     7
370
    15
100
AcDbSpline
210
0.0
220
0.0
230
1.0
 70
     8
 71
     3
 72
     9
 73
     5
 74
     0
 42
0.00000001
 43
0.00000001
 12
1.0
 22
0.0
 32
0.0
 13
1.0
 23
0.0
 33
0.0
 40
0.0
 40
0.0
 40
0.0
 40
0.0
 40
0.0702005767034399
 40
0.9999999999999999
 40
0.9999999999999999
 40
0.9999999999999999
 40
0.9999999999999999
 10
1436.967895021642
 20
684.2834238962682
 30
0.0
 10
1436.967448905375
 20
684.3101021942348
 30
0.0
 10
1436.961094024994
 20
684.6901318068027
 30
0.0
 10
1436.733204543099
 20
685.0625423786366
 30
0.0
 10
1436.521313034257
 20
685.4088095135573
 30
0.0
  0
LINE
  5
32B
330
1F
100
AcDbEntity
  8
0
  6
Continuous
 62
     7
370
    15
100
AcDbLine
 10
1436.9678950216
 20
684.6790214771
 30
0.0
 11
1436.9678950216
 21
684.2834238963
 31
0.0
  0
LINE
  5
32C
330
1F
100
AcDbEntity
  8
0
  6
Continuous
 62
     7
370
    15
100
AcDbLine
 10
1418.7178950216
 20
677.3532732087
 30
0.0
 11
1418.7178950216
 21
685.7790214771
 31
0.0
  0
LINE
  5
32D
330
1F
100
AcDbEntity
  8
0
  6
Continuous
 62
     7
370
    15
100
AcDbLine
 10
650.9678950216
 20
634.4290214772
 30
0.0
 11
649.3678950216
 21
634.4290214772
 31
0.0
  0
SPLINE
  5
32E
330
1F
100
AcDbEntity
  8
0
  6
Continuous
 62
     7
370
    15
100
AcDbSpline
210
0.0
220
0.0
230
1.0
 70
    24
 71
     3
 72
    11
 73
     7
 74
     0
 42
0.00000001
 43
0.00000001
 12
1.0
 22
0.0
 32
0.0
 13
1.0
 23
0.0
 33
0.0
 40
0.0
 40
0.0
 40
0.0
 40
0.0
 40
0.2833229682742947
 40
0.5580462786215553
 40
0.775426897886709
 40
0.9999999999999999
 40
0.9999999999999999
 40
0.9999999999999999
 40
0.9999999999999999
 10
649.3678950216411
 20
636.4273762253946
 30
0.0
 10
649.3678950216411
 20
636.1302625327414
 30
0.0
 10
649.3678950216411
 20
635.5450533930712
 30
0.0
 10
649.3678950216411
 20
634.8958791978771
 30
0.0
 10
649.3678950216411
 20
634.5007190808276
 30
0.0
 10
649.3678950216411
 20
634.4531785743674
 30
0.0
 10
649.3678950216411
 20
634.4290214771523
 30
0.0
  0
LINE
  5
32F
330
1F
100
AcDbEntity
  8
0
  6
Continuous
 62
     7
370
    15
100
AcDbLine
 10
650.9678950216
 20
636.4273762254
 30
0.0
 11
649.3678950216
 21
636.4273762254
 31
0.0
  0
LINE
  5
330
330
1F
100
AcDbEntity
  8
0
  6
Continuous
 62
     7
370
    15
100
AcDbLine
 10
650.9678950216
 20
692.430273042
 30
0.0
 11
649.3678950216
 21
692.430273042
 31
0.0
  0
LINE
  5
331
330
1F
100
AcDbEntity
  8
0
  6
Continuous
 62
     7
370
    15
100
AcDbLine
 10
649.3678950216
 20
692.430273042
 30
0.0
 11
649.3678950216
 21
636.4273762254
 31
0.0
  0
LINE
  5
332
330
1F
100
AcDbEntity
  8
0
  6
Continuous
 62
     7
370
    15
100
AcDbLine
 10
650.9678950216
 20
694.4290214772
 30
0.0
 11
649.3678950216
 21
694.4290214772
 31
0.0
  0
SPLINE
  5
333
330
1F
100
AcDbEntity
  8
0
  6
Continuous
 62
     7
370
    15
100
AcDbSpline
210
0.0
220
0.0
230
1.0
 70
    24
 71
     3
 72
    11
 73
     7
 74
     0
 42
0.00000001
 43
0.00000001
 12
1.0
 22
0.0
 32
0.0
 13
1.0
 23
0.0
 33
0.0
 40
0.0
 40
0.0
 40
0.0
 40
0.0
 40
0.2833048031626426
 40
0.5580362635661691
 40
0.7754301448953714
 40
1.0
 40
1.0
 40
1.0
 40
1.0
 10
649.3678950216411
 20
694.4290214771524
 30
0.0
 10
649.3678950216411
 20
694.3900746590173
 30
0.0
 10
649.3678950216411
 20
694.3133596276191
 30
0.0
 10
649.3678950216411
 20
693.7788280386416
 30
0.0
 10
649.3678950216413
 20
693.1274238322345
 30
0.0
 10
649.3678950216411
 20
692.6651585060445
 30
0.0
 10
649.3678950216411
 20
692.4302730420017
 30
0.0
  0
LINE
  5
334
330
1F
100
AcDbEntity
  8
0
  6
Continuous
 62
     7
370
    15
100
AcDbLine
 10
647.9678950216
 20
636.9667369852
 30
0.0
 11
647.9678950216
 21
691.8913059691
 31
0.0
  0
SPLINE
  5
335
330
1F
100
AcDbEntity
  8
0
  6
Continuous
 62
     7
370
    15
100
AcDbSpline
210
0.0
220
0.0
230
1.0
 70
     8
 71
     3
 72
    11
 73
     7
 74
     0
 42
0.00000001
 43
0.00000001
 12
1.0
 22
0.0
 32
0.0
 13
1.0
 23
0.0
 33
0.0
 40
0.0
 40
0.0
 40
0.0
 40
0.0
 40
0.251438126228126
 40
0.5021657261619451
 40
0.7628277148386585
 40
1.0
 40
1.0
 40
1.0
 40
1.0
 10
647.9678950216411
 20
691.8913059690625
 30
0.0
 10
647.9862058613887
 20
691.9448357640993
 30
0.0
 10
648.0227757972074
 20
692.0517440870299
 30
0.0
 10
648.3200356075952
 20
692.2039123453073
 30
0.0
 10
648.7636400176727
 20
692.3358630824192
 30
0.0
 10
649.1729137138464
 20
692.3998087888845
 30
0.0
 10
649.3678950216411
 20
692.4302730420017
 30
0.0
  0
SPLINE
  5
336
330
1F
100
AcDbEntity
  8
0
  6
Continuous
 62
     7
370
    15
100
AcDbSpline
210
0.0
220
0.0
230
1.0
 70
     8
 71
     3
 72
    11
 73
     7
 74
     0
 42
0.00000001
 43
0.00000001
 12
1.0
 22
0.0
 32
0.0
 13
1.0
 23
0.0
 33
0.0
 40
0.0
 40
0.0
 40
0.0
 40
0.0
 40
0.2514401112120284
 40
0.5021687776352156
 40
0.7628238824258137
 40
1.0
 40
1.0
 40
1.0
 40
1.0
 10
647.9678950216411
 20
636.9667369852424
 30
0.0
 10
647.98620579228
 20
636.9131680959522
 30
0.0
 10
648.022775523597
 20
636.806181889478
 30
0.0
 10
648.320032101018
 20
636.653904331597
 30
0.0
 10
648.7636329569208
 20
636.5218554577913
 30
0.0
 10
649.1729084919562
 20
636.4578632917321
 30
0.0
 10
649.3678950216411
 20
636.4273762253947
 30
0.0
  0
SPLINE
  5
337
330
1F
100
AcDbEntity
  8
0
  6
Continuous
 62
     7
370
    15
100
AcDbSpline
210
0.0
220
0.0
230
1.0
 70
     8
 71
     3
 72
    11
 73
     7
 74
     0
 42
0.00000001
 43
0.00000001
 12
1.0
 22
0.0
 32
0.0
 13
1.0
 23
0.0
 33
0.0
 40
0.0
 40
0.0
 40
0.0
 40
0.0
 40
0.2514401155114604
 40
0.5021687862218993
 40
0.762830131072806
 40
1.0
 40
1.0
 40
1.0
 40
1.0
 10
647.9678950216411
 20
636.9667369852424
 30
0.0
 10
647.9862058016106
 20
636.7145942208267
 30
0.0
 10
648.0227755515626
 20
636.2110221249277
 30
0.0
 10
648.3200344175693
 20
635.495315925228
 30
0.0
 10
648.7636376558439
 20
634.8719425819814
 30
0.0
 10
649.1729134854005
 20
634.5719430902617
 30
0.0
 10
649.3678950216411
 20
634.4290214771523
 30
0.0
  0
SPLINE
  5
338
330
1F
100
AcDbEntity
  8
0
  6
Continuous
 62
     7
370
    15
100
AcDbSpline
210
0.0
220
0.0
230
1.0
 70
    24
 71
     3
 72
    13
 73
     9
 74
     0
 42
0.00000001
 43
0.00000001
 12
1.0
 22
0.0
 32
0.0
 13
1.0
 23
0.0
 33
0.0
 40
0.0
 40
0.0
 40
0.0
 40
0.0
 40
0.1275744813591049
 40
0.2546483440425906
 40
0.5000017710082056
 40
0.7453551979738147
 40
0.8725131741728124
 40
1.0
 40
1.0
 40
1.0
 40
1.0
 10
649.3678950216411
 20
634.4290214771523
 30
0.0
 10
649.3678950216411
 20
634.436575739597
 30
0.0
 10
649.3678950216413
 20
634.4516546205886
 30
0.0
 10
649.3678950216411
 20
634.6131571258599
 30
0.0
 10
649.3678950216411
 20
634.9799880399632
 30
0.0
 10
649.3678950216411
 20
635.5282877881535
 30
0.0
 10
649.3678950216411
 20
636.0284377924702
 30
0.0
 10
649.3678950216411
 20
636.2942823100867
 30
0.0
 10
649.3678950216411
 20
636.4273762253946
 30
0.0
  0
SPLINE
  5
339
330
1F
100
AcDbEntity
  8
0
  6
Continuous
 62
     7
370
    15
100
AcDbSpline
210
0.0
220
0.0
230
1.0
 70
     8
 71
     3
 72
    11
 73
     7
 74
     0
 42
0.00000001
 43
0.00000001
 12
1.0
 22
0.0
 32
0.0
 13
1.0
 23
0.0
 33
0.0
 40
0.0
 40
0.0
 40
0.0
 40
0.0
 40
0.237176117707616
 40
0.4978312223648372
 40
0.7485598887880008
 40
0.9999999999999999
 40
0.9999999999999999
 40
0.9999999999999999
 40
0.9999999999999999
 10
649.3678950216411
 20
694.4290214771524
 30
0.0
 10
649.1729084918505
 20
694.2860956918287
 30
0.0
 10
648.7636329568242
 20
693.9860953414437
 30
0.0
 10
648.3200321009674
 20
693.3627212202887
 30
0.0
 10
648.0227755235968
 20
692.6470208190785
 30
0.0
 10
647.98620579228
 20
692.1434487300419
 30
0.0
 10
647.9678950216411
 20
691.8913059690625
 30
0.0
  0
SPLINE
  5
33A
330
1F
100
AcDbEntity
  8
0
  6
Continuous
 62
     7
370
    15
100
AcDbSpline
210
0.0
220
0.0
230
1.0
 70
    24
 71
     3
 72
    13
 73
     9
 74
     0
 42
0.00000001
 43
0.00000001
 12
1.0
 22
0.0
 32
0.0
 13
1.0
 23
0.0
 33
0.0
 40
0.0
 40
0.0
 40
0.0
 40
0.0
 40
0.1275693177285173
 40
0.2546459829165763
 40
0.5000146894810205
 40
0.7453717616663734
 40
0.8725249485133847
 40
1.0
 40
1.0
 40
1.0
 40
1.0
 10
649.3678950216411
 20
692.4302730420017
 30
0.0
 10
649.3678950216411
 20
692.5634684771592
 30
0.0
 10
649.3678950216411
 20
692.8293449677575
 30
0.0
 10
649.3678950216411
 20
693.3295073850103
 30
0.0
 10
649.367895021641
 20
693.8778304302697
 30
0.0
 10
649.3678950216411
 20
694.244901151227
 30
0.0
 10
649.3678950216411
 20
694.4063129484483
 30
0.0
 10
649.3678950216411
 20
694.4214455914093
 30
0.0
 10
649.3678950216411
 20
694.4290214771524
 30
0.0
  0
LINE
  5
33B
330
1F
100
AcDbEntity
  8
0
  6
Continuous
 62
     7
370
    15
100
AcDbLine
 10
1418.1678950216
 20
612.6790214772
 30
0.0
 11
1418.3678950216
 21
612.6790214772
 31
0.0
  0
LINE
  5
33C
330
1F
100
AcDbEntity
  8
0
  6
Continuous
 62
     7
370
    15
100
AcDbLine
 10
1418.3678950216
 20
612.6790214772
 30
0.0
 11
1418.3678950216
 21
615.3006491988
 31
0.0
  0
LINE
  5
33D
330
1F
100
AcDbEntity
  8
0
  6
Continuous
 62
     7
370
    15
100
AcDbLine
 10
1418.3678950216
 20
635.8006491988
 30
0.0
 11
1418.3678950216
 21
642.0170761606
 31
0.0
  0
LINE
  5
33E
330
1F
100
AcDbEntity
  8
0
  6
Continuous
 62
     7
370
    15
100
AcDbLine
 10
650.7678950216
 20
620.8790214772
 30
0.0
 11
650.9678950216
 21
620.8790214772
 31
0.0
  0
LINE
  5
33F
330
1F
100
AcDbEntity
  8
0
  6
Continuous
 62
     7
370
    15
100
AcDbLine
 10
650.7678950216
 20
621.8790214772
 30
0.0
 11
650.9678950216
 21
621.8790214772
 31
0.0
  0
LINE
  5
340
330
1F
100
AcDbEntity
  8
0
  6
Continuous
 62
     7
370
    15
100
AcDbLine
 10
650.7678950216
 20
620.8790214772
 30
0.0
 11
650.7678950216
 21
621.8790214772
 31
0.0
  0
LINE
  5
341
330
1F
100
AcDbEntity
  8
0
  6
Continuous
 62
     7
370
    15
100
AcDbLine
 10
650.7678950216
 20
611.8790214772
 30
0.0
 11
650.9678950216
 21
611.8790214772
 31
0.0
  0
LINE
  5
342
330
1F
100
AcDbEntity
  8
0
  6
Continuous
 62
     7
370
    15
100
AcDbLine
 10
650.7678950216
 20
612.8790214772
 30
0.0
 11
650.9678950216
 21
612.8790214772
 31
0.0
  0
LINE
  5
343
330
1F
100
AcDbEntity
  8
0
  6
Continuous
 62
     7
370
    15
100
AcDbLine
 10
650.7678950216
 20
611.8790214772
 30
0.0
 11
650.7678950216
 21
612.8790214772
 31
0.0
  0
LINE
  5
344
330
1F
100
AcDbEntity
  8
0
  6
Continuous
 62
     7
370
    15
100
AcDbLine
 10
650.7678950216
 20
612.8790214772
 30
0.0
 11
650.7678950216
 21
620.8790214772
 31
0.0
  0
ARC
  5
345
330
1F
100
AcDbEntity
  8
0
  6
Continuous
 62
     7
370
    15
100
AcDbCircle
 10
709.5678950216
 20
848.1666960043
 30
0.0
 40
0.75
100
AcDbArc
 50
0.0
 51
90.0
  0
LINE
  5
346
330
1F
100
AcDbEntity
  8
0
  6
Continuous
 62
     7
370
    15
100
AcDbLine
 10
709.5678950216
 20
848.9166960043
 30
0.0
 11
709.5678950216
 21
849.1666960043
 31
0.0
  0
ARC
  5
347
330
1F
100
AcDbEntity
  8
0
  6
Continuous
 62
     7
370
    15
100
AcDbCircle
 10
709.5678950216
 20
848.1666960043
 30
0.0
 40
1.000000000000114
100
AcDbArc
 50
0.0
 51
90.0
  0
LINE
  5
348
330
1F
100
AcDbEntity
  8
0
  6
Continuous
 62
     7
370
    15
100
AcDbLine
 10
710.3178950216
 20
848.1666960043
 30
0.0
 11
710.5678950216
 21
848.1666960043
 31
0.0
  0
ARC
  5
349
330
1F
100
AcDbEntity
  8
0
  6
Continuous
 62
     7
370
    15
100
AcDbCircle
 10
709.5678950216
 20
729.4790214772
 30
0.0
 40
0.7500000000002274
100
AcDbArc
 50
270.0
 51
0.0
  0
LINE
  5
34A
330
1F
100
AcDbEntity
  8
0
  6
Continuous
 62
     7
370
    15
100
AcDbLine
 10
710.3178950216
 20
729.4790214772
 30
0.0
 11
710.5678950216
 21
729.4790214772
 31
0.0
  0
ARC
  5
34B
330
1F
100
AcDbEntity
  8
0
  6
Continuous
 62
     7
370
    15
100
AcDbCircle
 10
709.5678950216
 20
729.4790214772
 30
0.0
 40
1.000000000000114
100
AcDbArc
 50
270.0
 51
0.0
  0
LINE
  5
34C
330
1F
100
AcDbEntity
  8
0
  6
Continuous
 62
     7
370
    15
100
AcDbLine
 10
709.5678950216
 20
728.7290214772
 30
0.0
 11
709.5678950216
 21
728.4790214772
 31
0.0
  0
LINE
  5
34D
330
1F
100
AcDbEntity
  8
0
  6
Continuous
 62
     7
370
    15
100
AcDbLine
 10
691.4338061866
 20
848.3984587501
 30
0.0
 11
667.0535607359
 21
773.3637786944
 31
0.0
  0
LINE
  5
34E
330
1F
100
AcDbEntity
  8
0
  6
Continuous
 62
     7
370
    15
100
AcDbLine
 10
666.8157966069
 20
773.441032943
 30
0.0
 11
667.0535607359
 21
773.3637786944
 31
0.0
  0
ARC
  5
34F
330
1F
100
AcDbEntity
  8
0
  6
Continuous
 62
     7
370
    15
100
AcDbCircle
 10
692.1470985738
 20
848.1666960043
 30
0.0
 40
0.7500000000000112
100
AcDbArc
 50
90.0
 51
162.0
  0
LINE
  5
350
330
1F
100
AcDbEntity
  8
0
  6
Continuous
 62
     7
370
    15
100
AcDbLine
 10
649.9238257209
 20
728.7290214772
 30
0.0
 11
709.5678950216
 21
728.7290214772
 31
0.0
  0
LINE
  5
351
330
1F
100
AcDbEntity
  8
0
  6
Continuous
 62
     7
370
    15
100
AcDbLine
 10
649.9238257209
 20
728.4790214772
 30
0.0
 11
649.9238257209
 21
728.7290214772
 31
0.0
  0
LINE
  5
352
330
1F
100
AcDbEntity
  8
0
  6
Continuous
 62
     7
370
    15
100
AcDbLine
 10
636.5475680205
 20
743.7255698635
 30
0.0
 11
636.7390791313
 21
743.8862667659
 31
0.0
  0
LINE
  5
353
330
1F
100
AcDbEntity
  8
0
  6
Continuous
 62
     7
370
    15
100
AcDbLine
 10
636.7390791313
 20
743.8862667659
 30
0.0
 11
649.1577812777
 21
729.0862338675
 31
0.0
  0
LINE
  5
354
330
1F
100
AcDbEntity
  8
0
  6
Continuous
 62
     7
370
    15
100
AcDbLine
 10
648.966270167
 20
728.925536965
 30
0.0
 11
649.1577812777
 21
729.0862338675
 31
0.0
  0
LINE
  5
355
330
1F
100
AcDbEntity
  8
0
  6
Continuous
 62
     7
370
    15
100
AcDbLine
 10
640.7878110184
 20
759.5503721682
 30
0.0
 11
640.8733160542
 21
759.315449013
 31
0.0
  0
ARC
  5
356
330
1F
100
AcDbEntity
  8
0
  6
Continuous
 62
     7
370
    15
100
AcDbCircle
 10
644.2080124517
 20
750.1534459603
 30
0.0
 40
9.750000000000052
100
AcDbArc
 50
110.0
 51
220.0
  0
LINE
  5
357
330
1F
100
AcDbEntity
  8
0
  6
Continuous
 62
     7
370
    15
100
AcDbLine
 10
710.3178950216
 20
729.4790214772
 30
0.0
 11
710.3178950216
 21
848.1666960043
 31
0.0
  0
LINE
  5
358
330
1F
100
AcDbEntity
  8
0
  6
Continuous
 62
     7
370
    15
100
AcDbLine
 10
710.5678950216
 20
848.1666960043
 30
0.0
 11
710.5678950216
 21
729.4790214772
 31
0.0
  0
ARC
  5
359
330
1F
100
AcDbEntity
  8
0
  6
Continuous
 62
     7
370
    15
100
AcDbCircle
 10
649.9238257209
 20
729.7290214772
 30
0.0
 40
1.000000000000044
100
AcDbArc
 50
220.0
 51
270.0
  0
LINE
  5
35A
330
1F
100
AcDbEntity
  8
0
  6
Continuous
 62
     7
370
    15
100
AcDbLine
 10
709.5678950216
 20
848.9166960043
 30
0.0
 11
692.1470985738
 21
848.9166960043
 31
0.0
  0
ARC
  5
35B
330
1F
100
AcDbEntity
  8
0
  6
Continuous
 62
     7
370
    15
100
AcDbCircle
 10
656.5443862309
 20
776.7784164823
 30
0.0
 40
11.04999999999996
100
AcDbArc
 50
290.0
 51
342.0
  0
LINE
  5
35C
330
1F
100
AcDbEntity
  8
0
  6
Continuous
 62
     7
370
    15
100
AcDbLine
 10
660.2382037788
 20
766.6297361778
 30
0.0
 11
660.3237088146
 21
766.3948130226
 31
0.0
  0
LINE
  5
35D
330
1F
100
AcDbEntity
  8
0
  6
Continuous
 62
     7
370
    15
100
AcDbLine
 10
660.3237088146
 20
766.3948130226
 30
0.0
 11
640.8733160542
 21
759.315449013
 31
0.0
  0
LINE
  5
35E
330
1F
100
AcDbEntity
  8
0
  6
Continuous
 62
     7
370
    15
100
AcDbLine
 10
674.7027404519
 20
811.9988889762
 30
0.0
 11
676.7577034644
 21
818.3234148095
 31
0.0
  0
LINE
  5
35F
330
1F
100
AcDbEntity
  8
0
  6
Continuous
 62
     7
370
    15
100
AcDbLine
 10
672.6477774393
 20
805.6743631428
 30
0.0
 11
674.7027404519
 21
811.9988889762
 31
0.0
  0
LINE
  5
360
330
1F
100
AcDbEntity
  8
0
  6
Continuous
 62
     7
370
    15
100
AcDbLine
 10
678.0314382589
 20
810.9173294959
 30
0.0
 11
680.441770815
 21
818.335570323
 31
0.0
  0
LINE
  5
361
330
1F
100
AcDbEntity
  8
0
  6
Continuous
 62
     7
370
    15
100
AcDbLine
 10
675.6211057028
 20
803.4990886688
 30
0.0
 11
678.0314382589
 21
810.9173294959
 31
0.0
  0
LINE
  5
362
330
1F
100
AcDbEntity
  8
0
  6
Continuous
 62
     7
370
    15
100
AcDbLine
 10
650.8678950216
 20
696.1290214772
 30
0.0
 11
650.9678950216
 21
696.1290214772
 31
0.0
  0
LINE
  5
363
330
1F
100
AcDbEntity
  8
0
  6
Continuous
 62
     7
370
    15
100
AcDbLine
 10
650.8678950216
 20
696.1290214772
 30
0.0
 11
650.8678950216
 21
720.1290214772
 31
0.0
  0
LINE
  5
364
330
1F
100
AcDbEntity
  8
0
  6
Continuous
 62
     7
370
    15
100
AcDbLine
 10
650.8678950216
 20
720.1290214772
 30
0.0
 11
650.9678950216
 21
720.1290214772
 31
0.0
  0
LINE
  5
365
330
1F
100
AcDbEntity
  8
0
  6
Continuous
 62
     7
370
    15
100
AcDbLine
 10
650.7678950216
 20
697.8922389937
 30
0.0
 11
650.8678950216
 21
697.8922389937
 31
0.0
  0
LINE
  5
366
330
1F
100
AcDbEntity
  8
0
  6
Continuous
 62
     7
370
    15
100
AcDbLine
 10
650.7678950216
 20
698.6422389937
 30
0.0
 11
650.8678950216
 21
698.6422389937
 31
0.0
  0
LINE
  5
367
330
1F
100
AcDbEntity
  8
0
  6
Continuous
 62
     7
370
    15
100
AcDbLine
 10
650.7678950216
 20
697.8922389937
 30
0.0
 11
650.7678950216
 21
698.6422389937
 31
0.0
  0
LINE
  5
368
330
1F
100
AcDbEntity
  8
0
  6
Continuous
 62
     7
370
    15
100
AcDbLine
 10
650.7678950216
 20
718.1422389937
 30
0.0
 11
650.8678950216
 21
718.1422389937
 31
0.0
  0
LINE
  5
369
330
1F
100
AcDbEntity
  8
0
  6
Continuous
 62
     7
370
    15
100
AcDbLine
 10
650.7678950216
 20
698.6422389937
 30
0.0
 11
650.7678950216
 21
718.1422389937
 31
0.0
  0
LINE
  5
36A
330
1F
100
AcDbEntity
  8
0
  6
Continuous
 62
     7
370
    15
100
AcDbLine
 10
650.7678950216
 20
718.1422389937
 30
0.0
 11
650.7678950216
 21
718.3922389937
 31
0.0
  0
LINE
  5
36B
330
1F
100
AcDbEntity
  8
0
  6
Continuous
 62
     7
370
    15
100
AcDbLine
 10
1418.2678950216
 20
637.5374316823
 30
0.0
 11
1418.1678950216
 21
637.5374316823
 31
0.0
  0
LINE
  5
36C
330
1F
100
AcDbEntity
  8
0
  6
Continuous
 62
     7
370
    15
100
AcDbLine
 10
1418.2678950216
 20
637.5374316823
 30
0.0
 11
1418.2678950216
 21
613.5374316823
 31
0.0
  0
LINE
  5
36D
330
1F
100
AcDbEntity
  8
0
  6
Continuous
 62
     7
370
    15
100
AcDbLine
 10
1418.2678950216
 20
613.5374316823
 30
0.0
 11
1418.1678950216
 21
613.5374316823
 31
0.0
  0
LINE
  5
36E
330
1F
100
AcDbEntity
  8
0
  6
Continuous
 62
     7
370
    15
100
AcDbLine
 10
1418.3678950216
 20
616.0506491988
 30
0.0
 11
1418.2678950216
 21
616.0506491988
 31
0.0
  0
LINE
  5
36F
330
1F
100
AcDbEntity
  8
0
  6
Continuous
 62
     7
370
    15
100
AcDbLine
 10
1418.3678950216
 20
616.0506491988
 30
0.0
 11
1418.3678950216
 21
615.3006491988
 31
0.0
  0
LINE
  5
370
330
1F
100
AcDbEntity
  8
0
  6
Continuous
 62
     7
370
    15
100
AcDbLine
 10
1418.3678950216
 20
615.3006491988
 30
0.0
 11
1418.2678950216
 21
615.3006491988
 31
0.0
  0
LINE
  5
371
330
1F
100
AcDbEntity
  8
0
  6
Continuous
 62
     7
370
    15
100
AcDbLine
 10
1418.3678950216
 20
635.5506491988
 30
0.0
 11
1418.2678950216
 21
635.5506491988
 31
0.0
  0
LINE
  5
372
330
1F
100
AcDbEntity
  8
0
  6
Continuous
 62
     7
370
    15
100
AcDbLine
 10
1418.3678950216
 20
635.5506491988
 30
0.0
 11
1418.3678950216
 21
616.0506491988
 31
0.0
  0
LINE
  5
373
330
1F
100
AcDbEntity
  8
0
  6
Continuous
 62
     7
370
    15
100
AcDbLine
 10
1418.3678950216
 20
635.8006491988
 30
0.0
 11
1418.3678950216
 21
635.5506491988
 31
0.0
  0
LINE
  5
374
330
1F
100
AcDbEntity
  8
0
  6
Continuous
 62
     7
370
    15
100
AcDbLine
 10
1340.3678950216
 20
452.6790214772
 30
0.0
 11
1313.8678950216
 21
452.6790214772
 31
0.0
  0
LINE
  5
375
330
1F
100
AcDbEntity
  8
0
  6
Continuous
 62
     7
370
    15
100
AcDbLine
 10
1366.8678950216
 20
452.6790214772
 30
0.0
 11
1340.3678950216
 21
452.6790214772
 31
0.0
  0
LINE
  5
376
330
1F
100
AcDbEntity
  8
0
  6
Continuous
 62
     7
370
    15
100
AcDbLine
 10
1340.3678950216
 20
458.6790214772
 30
0.0
 11
1311.8678950216
 21
458.6790214772
 31
0.0
  0
LINE
  5
377
330
1F
100
AcDbEntity
  8
0
  6
Continuous
 62
     7
370
    15
100
AcDbLine
 10
1368.8678950216
 20
458.6790214772
 30
0.0
 11
1340.3678950216
 21
458.6790214772
 31
0.0
  0
LINE
  5
378
330
1F
100
AcDbEntity
  8
0
  6
Continuous
 62
     7
370
    15
100
AcDbLine
 10
766.3678950216
 20
458.6790214772
 30
0.0
 11
737.8678950216
 21
458.6790214772
 31
0.0
  0
LINE
  5
379
330
1F
100
AcDbEntity
  8
0
  6
Continuous
 62
     7
370
    15
100
AcDbLine
 10
794.8678950216
 20
458.6790214772
 30
0.0
 11
766.3678950216
 21
458.6790214772
 31
0.0
  0
LINE
  5
37A
330
1F
100
AcDbEntity
  8
0
  6
Continuous
 62
     7
370
    15
100
AcDbLine
 10
766.3678950216
 20
452.6790214772
 30
0.0
 11
739.8678950216
 21
452.6790214772
 31
0.0
  0
LINE
  5
37B
330
1F
100
AcDbEntity
  8
0
  6
Continuous
 62
     7
370
    15
100
AcDbLine
 10
792.8678950216
 20
452.6790214772
 30
0.0
 11
766.3678950216
 21
452.6790214772
 31
0.0
  0
LINE
  5
37C
330
1F
100
AcDbEntity
  8
0
  6
Continuous
 62
     7
370
    15
100
AcDbLine
 10
811.3678950216
 20
600.6790214772
 30
0.0
 11
811.3678950216
 21
601.8719504093
 31
0.0
  0
LINE
  5
37D
330
1F
100
AcDbEntity
  8
0
  6
Continuous
 62
     7
370
    15
100
AcDbLine
 10
721.3678950216
 20
600.6790214772
 30
0.0
 11
811.3678950216
 21
600.6790214772
 31
0.0
  0
LINE
  5
37E
330
1F
100
AcDbEntity
  8
0
  6
Continuous
 62
     7
370
    15
100
AcDbLine
 10
721.3678950216
 20
600.6790214772
 30
0.0
 11
721.3678950216
 21
601.8719504093
 31
0.0
  0
LINE
  5
37F
330
1F
100
AcDbEntity
  8
0
  6
Continuous
 62
     7
370
    15
100
AcDbLine
 10
766.3678950216
 20
506.6790214772
 30
0.0
 11
735.4082448013
 21
506.6790214772
 31
0.0
  0
LINE
  5
380
330
1F
100
AcDbEntity
  8
0
  6
Continuous
 62
     7
370
    15
100
AcDbLine
 10
797.327545242
 20
506.6790214772
 30
0.0
 11
766.3678950216
 21
506.6790214772
 31
0.0
  0
LINE
  5
381
330
1F
100
AcDbEntity
  8
0
  6
Continuous
 62
     7
370
    15
100
AcDbLine
 10
1385.3678950216
 20
600.6790214772
 30
0.0
 11
1385.3678950216
 21
601.8719504093
 31
0.0
  0
LINE
  5
382
330
1F
100
AcDbEntity
  8
0
  6
Continuous
 62
     7
370
    15
100
AcDbLine
 10
1295.3678950216
 20
600.6790214772
 30
0.0
 11
1295.3678950216
 21
601.8719504093
 31
0.0
  0
LINE
  5
383
330
1F
100
AcDbEntity
  8
0
  6
Continuous
 62
     7
370
    15
100
AcDbLine
 10
1295.3678950216
 20
600.6790214772
 30
0.0
 11
1385.3678950216
 21
600.6790214772
 31
0.0
  0
LINE
  5
384
330
1F
100
AcDbEntity
  8
0
  6
Continuous
 62
     7
370
    15
100
AcDbLine
 10
1340.3678950216
 20
506.6790214772
 30
0.0
 11
1309.4082448013
 21
506.6790214772
 31
0.0
  0
LINE
  5
385
330
1F
100
AcDbEntity
  8
0
  6
Continuous
 62
     7
370
    15
100
AcDbLine
 10
1371.327545242
 20
506.6790214772
 30
0.0
 11
1340.3678950216
 21
506.6790214772
 31
0.0
  0
LINE
  5
386
330
1F
100
AcDbEntity
  8
0
  6
Continuous
 62
     7
370
    15
100
AcDbLine
 10
1418.3678950216
 20
861.6790214772
 30
0.0
 11
1418.1678950216
 21
861.6790214772
 31
0.0
  0
LINE
  5
387
330
1F
100
AcDbEntity
  8
0
  6
Continuous
 62
     7
370
    15
100
AcDbLine
 10
1418.3678950216
 20
793.6790214772
 30
0.0
 11
1418.1678950216
 21
793.6790214772
 31
0.0
  0
LINE
  5
388
330
1F
100
AcDbEntity
  8
0
  6
Continuous
 62
     7
370
    15
100
AcDbLine
 10
1418.3678950216
 20
861.6790214772
 30
0.0
 11
1418.3678950216
 21
793.6790214772
 31
0.0
  0
LINE
  5
389
330
1F
100
AcDbEntity
  8
0
  6
Continuous
 62
     7
370
    15
100
AcDbLine
 10
1418.3678950216
 20
862.6790214772
 30
0.0
 11
1418.1678950216
 21
862.6790214772
 31
0.0
  0
LINE
  5
38A
330
1F
100
AcDbEntity
  8
0
  6
Continuous
 62
     7
370
    15
100
AcDbLine
 10
1418.3678950216
 20
862.6790214772
 30
0.0
 11
1418.3678950216
 21
861.6790214772
 31
0.0
  0
LINE
  5
38B
330
1F
100
AcDbEntity
  8
0
  6
Continuous
 62
     7
370
    15
100
AcDbLine
 10
1418.3678950216
 20
792.6790214772
 30
0.0
 11
1418.1678950216
 21
792.6790214772
 31
0.0
  0
LINE
  5
38C
330
1F
100
AcDbEntity
  8
0
  6
Continuous
 62
     7
370
    15
100
AcDbLine
 10
1418.3678950216
 20
793.6790214772
 30
0.0
 11
1418.3678950216
 21
792.6790214772
 31
0.0
  0
LINE
  5
38D
330
1F
100
AcDbEntity
  8
0
  6
Continuous
 62
     8
370
    15
100
AcDbLine
 10
818.0491234334
 20
883.4719504093
 30
0.0
 11
818.0491234334
 21
883.9719504093
 31
0.0
  0
LINE
  5
38E
330
1F
100
AcDbEntity
  8
0
  6
Continuous
 62
     8
370
    15
100
AcDbLine
 10
829.2377632533
 20
883.4719504093
 30
0.0
 11
829.3793593467
 21
883.9719504093
 31
0.0
  0
LINE
  5
38F
330
1F
100
AcDbEntity
  8
0
  6
Continuous
 62
     8
370
    15
100
AcDbLine
 10
788.8604836135
 20
883.4719504093
 30
0.0
 11
788.7188875201
 21
883.9719504093
 31
0.0
  0
LINE
  5
390
330
1F
100
AcDbEntity
  8
0
  6
Continuous
 62
     8
370
    15
100
AcDbLine
 10
800.0491234334
 20
883.4719504093
 30
0.0
 11
800.0491234334
 21
883.9719504093
 31
0.0
  0
LINE
  5
391
330
1F
100
AcDbEntity
  8
0
  6
Continuous
 62
     8
370
    15
100
AcDbLine
 10
640.5179200233
 20
806.4476247276
 30
0.0
 11
639.3961947266
 21
802.9953092486
 31
0.0
  0
LINE
  5
392
330
1F
100
AcDbEntity
  8
0
  6
Continuous
 62
     8
370
    15
100
AcDbLine
 10
673.7794519261
 20
813.642154547
 30
0.0
 11
675.0958132239
 21
813.2086425756
 31
0.0
  0
LINE
  5
393
330
1F
100
AcDbEntity
  8
0
  6
Continuous
 62
     8
370
    15
100
AcDbLine
 10
671.8472643692
 20
807.6954927126
 30
0.0
 11
673.1614868035
 21
807.255397996
 31
0.0
  0
LINE
  5
394
330
1F
100
AcDbEntity
  8
0
  6
Continuous
 62
     8
370
    15
100
AcDbLine
 10
671.6503096831
 20
807.0893285176
 30
0.0
 11
672.9734392472
 21
806.6766471277
 31
0.0
  0
LINE
  5
395
330
1F
100
AcDbEntity
  8
0
  6
Continuous
 62
     8
370
    15
100
AcDbLine
 10
671.3167439397
 20
806.0627187206
 30
0.0
 11
672.702648675
 21
805.6342195771
 31
0.0
  0
LINE
  5
396
330
1F
100
AcDbEntity
  8
0
  6
Continuous
 62
     8
370
    15
100
AcDbLine
 10
666.0896838243
 20
860.6171588175
 30
0.0
 11
665.9102332172
 21
860.2044506762
 31
0.0
  0
LINE
  5
397
330
1F
100
AcDbEntity
  8
0
  6
Continuous
 62
     8
370
    15
100
AcDbLine
 10
675.2010865232
 20
904.8719504093
 30
0.0
 11
675.2010865232
 21
904.5719504093
 31
0.0
  0
LINE
  5
398
330
1F
100
AcDbEntity
  8
0
  6
Continuous
 62
     8
370
    15
100
AcDbLine
 10
766.5178950216
 20
904.546699096
 30
0.0
 11
766.5178950216
 21
904.8719504093
 31
0.0
  0
LINE
  5
399
330
1F
100
AcDbEntity
  8
0
  6
Continuous
 62
     8
370
    15
100
AcDbLine
 10
768.9678950216
 20
902.4219504093
 30
0.0
 11
768.2010865232
 21
902.4219504093
 31
0.0
  0
LINE
  5
39A
330
1F
100
AcDbEntity
  8
0
  6
Continuous
 62
     8
370
    15
100
AcDbLine
 10
1346.7178950216
 20
883.4719504093
 30
0.0
 11
1346.7178950216
 21
883.9719504093
 31
0.0
  0
LINE
  5
39B
330
1F
100
AcDbEntity
  8
0
  6
Continuous
 62
     8
370
    15
100
AcDbLine
 10
1339.2178950216
 20
883.9719504093
 30
0.0
 11
1339.2178950216
 21
883.4719504093
 31
0.0
  0
LINE
  5
39C
330
1F
100
AcDbEntity
  8
0
  6
Continuous
 62
     8
370
    15
100
AcDbLine
 10
894.1178950216
 20
883.4719504093
 30
0.0
 11
894.1178950216
 21
883.9719504093
 31
0.0
  0
LINE
  5
39D
330
1F
100
AcDbEntity
  8
0
  6
Continuous
 62
     8
370
    15
100
AcDbLine
 10
886.6178950216
 20
883.9719504093
 30
0.0
 11
886.6178950216
 21
883.4719504093
 31
0.0
  0
LINE
  5
39E
330
1F
100
AcDbEntity
  8
0
  6
Continuous
 62
     8
370
    15
100
AcDbLine
 10
768.7178950216
 20
868.7219504093
 30
0.0
 11
768.2010865232
 21
868.7219504093
 31
0.0
  0
LINE
  5
39F
330
1F
100
AcDbEntity
  8
0
  6
Continuous
 62
     8
370
    15
100
AcDbLine
 10
1443.4116475236
 20
642.8040214771
 30
0.0
 11
1443.4116475236
 21
676.5540214771
 31
0.0
  0
LINE
  5
3A0
330
1F
100
AcDbEntity
  8
0
  6
Continuous
 62
     8
370
    15
100
AcDbLine
 10
1250.3678950216
 20
601.4790214772
 30
0.0
 11
1250.3678950216
 21
601.8719504093
 31
0.0
  0
LINE
  5
3A1
330
1F
100
AcDbEntity
  8
0
  6
Continuous
 62
     8
370
    15
100
AcDbLine
 10
830.3678950216
 20
601.4790214772
 30
0.0
 11
830.3678950216
 21
601.8719504093
 31
0.0
  0
LINE
  5
3A2
330
1F
100
AcDbEntity
  8
0
  6
Continuous
 62
     8
370
    15
100
AcDbLine
 10
700.3678950216
 20
601.4790214772
 30
0.0
 11
700.3678950216
 21
601.8790214772
 31
0.0
  0
LINE
  5
3A3
330
1F
100
AcDbEntity
  8
0
  6
Continuous
 62
     8
370
    15
100
AcDbLine
 10
1429.6178950216
 20
683.6351712268
 30
0.0
 11
1429.6178950216
 21
676.9480162225
 31
0.0
  0
LINE
  5
3A4
330
1F
100
AcDbEntity
  8
0
  6
Continuous
 62
     8
370
    15
100
AcDbLine
 10
1430.3178950216
 20
676.9480162225
 30
0.0
 11
1430.3178950216
 21
683.6351712268
 31
0.0
  0
SPLINE
  5
3A5
330
1F
100
AcDbEntity
  8
0
  6
Continuous
 62
     8
370
    15
100
AcDbSpline
210
0.0
220
0.0
230
1.0
 70
     8
 71
     3
 72
    11
 73
     7
 74
     0
 42
0.00000001
 43
0.00000001
 12
1.0
 22
0.0
 32
0.0
 13
1.0
 23
0.0
 33
0.0
 40
0.0
 40
0.0
 40
0.0
 40
0.0
 40
0.2110212987494613
 40
0.4826763374325517
 40
0.7649103945268005
 40
1.0
 40
1.0
 40
1.0
 40
1.0
 10
1430.267895021641
 20
675.8228114723591
 30
0.0
 10
1430.155862375389
 20
675.8549989130751
 30
0.0
 10
1429.899606216953
 20
675.9286223628794
 30
0.0
 10
1429.600873302955
 20
676.139076660167
 30
0.0
 10
1429.401050854596
 20
676.3957909440207
 30
0.0
 10
1429.378254477037
 20
676.5778675028608
 30
0.0
 10
1429.367895021642
 20
676.6606093325523
 30
0.0
  0
SPLINE
  5
3A6
330
1F
100
AcDbEntity
  8
0
  6
Continuous
 62
     8
370
    15
100
AcDbSpline
210
0.0
220
0.0
230
1.0
 70
     8
 71
     3
 72
    11
 73
     7
 74
     0
 42
0.00000001
 43
0.00000001
 12
1.0
 22
0.0
 32
0.0
 13
1.0
 23
0.0
 33
0.0
 40
0.0
 40
0.0
 40
0.0
 40
0.0
 40
0.2556980075146134
 40
0.5613762462669185
 40
0.8539894673873648
 40
1.0
 40
1.0
 40
1.0
 40
1.0
 10
1429.617895021642
 20
676.8514724668933
 30
0.0
 10
1429.626366132309
 20
676.7767200104238
 30
0.0
 10
1429.644964166584
 20
676.6126035442069
 30
0.0
 10
1429.811128293569
 20
676.3840748735911
 30
0.0
 10
1430.03024912204
 20
676.2110718553569
 30
0.0
 10
1430.208543722574
 20
676.1542007098939
 30
0.0
 10
1430.267895021641
 20
676.1352692540192
 30
0.0
  0
SPLINE
  5
3A7
330
1F
100
AcDbEntity
  8
0
  6
Continuous
 62
     8
370
    15
100
AcDbSpline
210
0.0
220
0.0
230
1.0
 70
     8
 71
     3
 72
    11
 73
     7
 74
     0
 42
0.00000001
 43
0.00000001
 12
1.0
 22
0.0
 32
0.0
 13
1.0
 23
0.0
 33
0.0
 40
0.0
 40
0.0
 40
0.0
 40
0.0
 40
0.27111270579574
 40
0.591087063611867
 40
0.8953348138473761
 40
1.0
 40
1.0
 40
1.0
 40
1.0
 10
1430.317895021642
 20
676.8514724668933
 30
0.0
 10
1430.321531103054
 20
676.8197353434591
 30
0.0
 10
1430.329458583539
 20
676.7505412308368
 30
0.0
 10
1430.400107666234
 20
676.6551916723895
 30
0.0
 10
1430.484943148156
 20
676.5864556528021
 30
0.0
 10
1430.55098975855
 20
676.5648138425439
 30
0.0
 10
1430.567895021642
 20
676.559274413737
 30
0.0
  0
LINE
  5
3A8
330
1F
100
AcDbEntity
  8
0
  6
Continuous
 62
     8
370
    15
100
AcDbLine
 10
1430.8178950216
 20
676.5540214771
 30
0.0
 11
1430.8178950216
 21
676.5680551928
 31
0.0
  0
LINE
  5
3A9
330
1F
100
AcDbEntity
  8
0
  6
Continuous
 62
     8
370
    15
100
AcDbLine
 10
1435.9178950216
 20
676.5540214771
 30
0.0
 11
1435.9178950216
 21
676.5680696535
 31
0.0
  0
LINE
  5
3AA
330
1F
100
AcDbEntity
  8
0
  6
Continuous
 62
     8
370
    15
100
AcDbLine
 10
1435.9178950216
 20
688.2875306074
 30
0.0
 11
1431.7112207976
 21
688.2875306074
 31
0.0
  0
LINE
  5
3AB
330
1F
100
AcDbEntity
  8
0
  6
Continuous
 62
     8
370
    15
100
AcDbLine
 10
1431.7678950216
 20
687.8115516593
 30
0.0
 11
1435.9178950216
 21
687.8115516593
 31
0.0
  0
LINE
  5
3AC
330
1F
100
AcDbEntity
  8
0
  6
Continuous
 62
     8
370
    15
100
AcDbLine
 10
1435.9178950216
 20
687.406048875
 30
0.0
 11
1431.7678950216
 21
687.406048875
 31
0.0
  0
LINE
  5
3AD
330
1F
100
AcDbEntity
  8
0
  6
Continuous
 62
     8
370
    15
100
AcDbLine
 10
1435.9178950216
 20
685.4088095136
 30
0.0
 11
1435.9178950216
 21
687.406048875
 31
0.0
  0
LINE
  5
3AE
330
1F
100
AcDbEntity
  8
0
  6
Continuous
 62
     8
370
    15
100
AcDbLine
 10
1435.9178950216
 20
688.346667473
 30
0.0
 11
1435.9178950216
 21
688.2875306074
 31
0.0
  0
LINE
  5
3AF
330
1F
100
AcDbEntity
  8
0
  6
Continuous
 62
     8
370
    15
100
AcDbLine
 10
1430.8178950216
 20
683.2226170204
 30
0.0
 11
1430.8178950216
 21
676.5584886269
 31
0.0
  0
LINE
  5
3B0
330
1F
100
AcDbEntity
  8
0
  6
Continuous
 62
     8
370
    15
100
AcDbLine
 10
1431.5178950216
 20
676.5680696535
 30
0.0
 11
1431.5178950216
 21
683.2226170204
 31
0.0
  0
LINE
  5
3B1
330
1F
100
AcDbEntity
  8
0
  6
Continuous
 62
     8
370
    15
100
AcDbLine
 10
1430.3178950216
 20
683.7114171808
 30
0.0
 11
1430.3178950216
 21
683.6351838494
 31
0.0
  0
LINE
  5
3B2
330
1F
100
AcDbEntity
  8
0
  6
Continuous
 62
     8
370
    15
100
AcDbLine
 10
1425.2178950216
 20
683.7114171808
 30
0.0
 11
1425.2178950216
 21
683.6351712268
 31
0.0
  0
LINE
  5
3B3
330
1F
100
AcDbEntity
  8
0
  6
Continuous
 62
     8
370
    15
100
AcDbLine
 10
1425.2178950216
 20
688.8089134891
 30
0.0
 11
1425.2178950216
 21
688.8351416261
 31
0.0
  0
LINE
  5
3B4
330
1F
100
AcDbEntity
  8
0
  6
Continuous
 62
     8
370
    15
100
AcDbLine
 10
691.4338061866
 20
848.3984587501
 30
0.0
 11
691.2086597305
 21
848.4716132682
 31
0.0
  0
LINE
  5
3B5
330
1F
100
AcDbEntity
  8
0
  6
Continuous
 62
     8
370
    15
100
AcDbLine
 10
692.1470985738
 20
848.9166960043
 30
0.0
 11
692.1470985738
 21
849.1534289978
 31
0.0
  0
LINE
  5
3B6
330
1F
100
AcDbEntity
  8
0
  6
Continuous
 62
     8
370
    15
100
AcDbLine
 10
1340.3678950216
 20
454.6790214772
 30
0.0
 11
1311.8678950216
 21
454.6790214772
 31
0.0
  0
LINE
  5
3B7
330
1F
100
AcDbEntity
  8
0
  6
Continuous
 62
     8
370
    15
100
AcDbLine
 10
1368.8678950216
 20
454.6790214772
 30
0.0
 11
1340.3678950216
 21
454.6790214772
 31
0.0
  0
LINE
  5
3B8
330
1F
100
AcDbEntity
  8
0
  6
Continuous
 62
     8
370
    15
100
AcDbLine
 10
766.3678950216
 20
454.6790214772
 30
0.0
 11
737.8678950216
 21
454.6790214772
 31
0.0
  0
LINE
  5
3B9
330
1F
100
AcDbEntity
  8
0
  6
Continuous
 62
     8
370
    15
100
AcDbLine
 10
794.8678950216
 20
454.6790214772
 30
0.0
 11
766.3678950216
 21
454.6790214772
 31
0.0
  0
LINE
  5
3BA
330
1F
100
AcDbEntity
  8
0
  6
Continuous
 62
     8
370
    15
100
AcDbLine
 10
766.3678950216
 20
599.1790214772
 30
0.0
 11
734.4678950216
 21
599.1790214772
 31
0.0
  0
LINE
  5
3BB
330
1F
100
AcDbEntity
  8
0
  6
Continuous
 62
     8
370
    15
100
AcDbLine
 10
798.2678950216
 20
599.1790214772
 30
0.0
 11
766.3678950216
 21
599.1790214772
 31
0.0
  0
LINE
  5
3BC
330
1F
100
AcDbEntity
  8
0
  6
Continuous
 62
     8
370
    15
100
AcDbLine
 10
766.3678950216
 20
511.9391241983
 30
0.0
 11
734.5318082486
 21
511.9391241983
 31
0.0
  0
LINE
  5
3BD
330
1F
100
AcDbEntity
  8
0
  6
Continuous
 62
     8
370
    15
100
AcDbLine
 10
798.2039817946
 20
511.9391241983
 30
0.0
 11
766.3678950216
 21
511.9391241983
 31
0.0
  0
LINE
  5
3BE
330
1F
100
AcDbEntity
  8
0
  6
Continuous
 62
     8
370
    15
100
AcDbLine
 10
766.3678950216
 20
512.7115874228
 30
0.0
 11
734.4678950216
 21
512.7115874228
 31
0.0
  0
LINE
  5
3BF
330
1F
100
AcDbEntity
  8
0
  6
Continuous
 62
     8
370
    15
100
AcDbLine
 10
798.2678950216
 20
512.7115874228
 30
0.0
 11
766.3678950216
 21
512.7115874228
 31
0.0
  0
LINE
  5
3C0
330
1F
100
AcDbEntity
  8
0
  6
Continuous
 62
     8
370
    15
100
AcDbLine
 10
1340.3678950216
 20
599.1790214772
 30
0.0
 11
1308.4678950216
 21
599.1790214772
 31
0.0
  0
LINE
  5
3C1
330
1F
100
AcDbEntity
  8
0
  6
Continuous
 62
     8
370
    15
100
AcDbLine
 10
1372.2678950216
 20
599.1790214772
 30
0.0
 11
1340.3678950216
 21
599.1790214772
 31
0.0
  0
LINE
  5
3C2
330
1F
100
AcDbEntity
  8
0
  6
Continuous
 62
     8
370
    15
100
AcDbLine
 10
1340.3678950216
 20
511.9391241983
 30
0.0
 11
1308.5318082486
 21
511.9391241983
 31
0.0
  0
LINE
  5
3C3
330
1F
100
AcDbEntity
  8
0
  6
Continuous
 62
     8
370
    15
100
AcDbLine
 10
1372.2039817946
 20
511.9391241983
 30
0.0
 11
1340.3678950216
 21
511.9391241983
 31
0.0
  0
LINE
  5
3C4
330
1F
100
AcDbEntity
  8
0
  6
Continuous
 62
     8
370
    15
100
AcDbLine
 10
1340.3678950216
 20
512.7115874228
 30
0.0
 11
1308.4678950216
 21
512.7115874228
 31
0.0
  0
LINE
  5
3C5
330
1F
100
AcDbEntity
  8
0
  6
Continuous
 62
     8
370
    15
100
AcDbLine
 10
1372.2678950216
 20
512.7115874228
 30
0.0
 11
1340.3678950216
 21
512.7115874228
 31
0.0
  0
ENDSEC
  0
SECTION
  2
OBJECTS
  0
DICTIONARY
  5
C
330
0
100
AcDbDictionary
281
     1
  3
ACAD_GROUP
350
D
  3
ACAD_LAYOUT
350
1A
  3
ACAD_MLINESTYLE
350
17
  3
ACAD_PLOTSETTINGS
350
19
  3
ACAD_PLOTSTYLENAME
350
E
  0
DICTIONARY
  5
D
102
{ACAD_REACTORS
330
C
102
}
330
C
100
AcDbDictionary
281
     1
  0
DICTIONARY
  5
1A
102
{ACAD_REACTORS
330
C
102
}
330
C
100
AcDbDictionary
281
     1
  3
Layout1
350
1E
  3
Layout2
350
26
  3
Model
350
22
  0
DICTIONARY
  5
17
102
{ACAD_REACTORS
330
C
102
}
330
C
100
AcDbDictionary
281
     1
  3
Standard
350
18
  0
DICTIONARY
  5
19
102
{ACAD_REACTORS
330
C
102
}
330
C
100
AcDbDictionary
281
     1
  0
ACDBDICTIONARYWDFLT
  5
E
102
{ACAD_REACTORS
330
C
102
}
330
C
100
AcDbDictionary
281
     1
  3
Normal
350
F
100
AcDbDictionaryWithDefault
340
F
  0
LAYOUT
  5
1E
102
{ACAD_REACTORS
330
1A
102
}
330
1A
100
AcDbPlotSettings
  1

  2
none_device
  4

  6

 40
0.0
 41
0.0
 42
0.0
 43
0.0
 44
0.0
 45
0.0
 46
0.0
 47
0.0
 48
0.0
 49
0.0
140
0.0
141
0.0
142
1.0
143
1.0
 70
   688
 72
     0
 73
     0
 74
     5
  7

 75
    16
147
1.0
148
0.0
149
0.0
100
AcDbLayout
  1
Layout1
 70
     1
 71
     1
 10
0.0
 20
0.0
 11
420.0
 21
297.0
 12
0.0
 22
0.0
 32
0.0
 14
1.0000000000E+20
 24
1.0000000000E+20
 34
1.0000000000E+20
 15
-1.0000000000E+20
 25
-1.0000000000E+20
 35
-1.0000000000E+20
146
0.0
 13
0.0
 23
0.0
 33
0.0
 16
1.0
 26
0.0
 36
0.0
 17
0.0
 27
1.0
 37
0.0
 76
     0
330
1B
  0
LAYOUT
  5
26
102
{ACAD_REACTORS
330
1A
102
}
330
1A
100
AcDbPlotSettings
  1

  2
none_device
  4

  6

 40
0.0
 41
0.0
 42
0.0
 43
0.0
 44
0.0
 45
0.0
 46
0.0
 47
0.0
 48
0.0
 49
0.0
140
0.0
141
0.0
142
1.0
143
1.0
 70
   688
 72
     0
 73
     0
 74
     5
  7

 75
    16
147
1.0
148
0.0
149
0.0
100
AcDbLayout
  1
Layout2
 70
     1
 71
     2
 10
0.0
 20
0.0
 11
0.0
 21
0.0
 12
0.0
 22
0.0
 32
0.0
 14
0.0
 24
0.0
 34
0.0
 15
0.0
 25
0.0
 35
0.0
146
0.0
 13
0.0
 23
0.0
 33
0.0
 16
1.0
 26
0.0
 36
0.0
 17
0.0
 27
1.0
 37
0.0
 76
     0
330
23
  0
LAYOUT
  5
22
102
{ACAD_REACTORS
330
1A
102
}
330
1A
100
AcDbPlotSettings
  1

  2
none_device
  4

  6

 40
0.0
 41
0.0
 42
0.0
 43
0.0
 44
0.0
 45
0.0
 46
0.0
 47
0.0
 48
0.0
 49
0.0
140
0.0
141
0.0
142
1.0
143
1.0
 70
  1712
 72
     0
 73
     0
 74
     0
  7

 75
     0
147
1.0
148
0.0
149
0.0
100
AcDbLayout
  1
Model
 70
     1
 71
     0
 10
0.0
 20
0.0
 11
2159.0
 21
1397.0
 12
0.0
 22
0.0
 32
0.0
 14
0.0
 24
0.0
 34
0.0
 15
2159.0
 25
1397.0
 35
0.0
146
0.0
 13
0.0
 23
0.0
 33
0.0
 16
1.0
 26
0.0
 36
0.0
 17
0.0
 27
1.0
 37
0.0
 76
     0
330
1F
331
29
  0
MLINESTYLE
  5
18
102
{ACAD_REACTORS
330
17
102
}
330
17
100
AcDbMlineStyle
  2
Standard
 70
     0
  3

 62
   256
 51
90.0
 52
90.0
 71
     2
 49
0.5
 62
   256
  6
BYLAYER
 49
-0.5
 62
   256
  6
BYLAYER
  0
ACDBPLACEHOLDER
  5
F
102
{ACAD_REACTORS
330
E
102
}
330
E
  0
ENDSEC
  0
EOF
