  0
SECTION
  2
HEADER
  9
$ACADVER
  1
AC1021
  9
$ACADMAINTVER
 70
    25
  9
$DWGCODEPAGE
  3
ANSI_1252
  9
$INSBASE
 10
0.0
 20
0.0
 30
0.0
  9
$EXTMIN
 10
0.0
 20
0.0
 30
0.0
  9
$EXTMAX
 10
841.0
 20
594.0
 30
0.0
  9
$LIMMIN
 10
0.0
 20
0.0
  9
$LIMMAX
 10
841.0
 20
594.0
  9
$ORTHOMODE
 70
     0
  9
$REGENMODE
 70
     1
  9
$FILLMODE
 70
     1
  9
$QTEXTMODE
 70
     0
  9
$MIRRTEXT
 70
     1
  9
$LTSCALE
 40
1.0
  9
$ATTMODE
 70
     1
  9
$TEXTSIZE
 40
3.5
  9
$TRACEWID
 40
1.0
  9
$TEXTSTYLE
  7
STANDARD
  9
$CLAYER
  8
0
  9
$CELTYPE
  6
ByLayer
  9
$CECOLOR
 62
   256
  9
$CELTSCALE
 40
1.0
  9
$DISPSILH
 70
     0
  9
$DIMSCALE
 40
1.0
  9
$DIMASZ
 40
3.302
  9
$DIMEXO
 40
1.0
  9
$DIMDLI
 40
3.75
  9
$DIMRND
 40
0.0
  9
$DIMDLE
 40
0.0
  9
$DIMEXE
 40
1.0
  9
$DIMTP
 40
0.0
  9
$DIMTM
 40
0.0
  9
$DIMTXT
 40
3.5
  9
$DIMCEN
 40
2.5
  9
$DIMTSZ
 40
0.0
  9
$DIMTOL
 70
     0
  9
$DIMLIM
 70
     0
  9
$DIMTIH
 70
     1
  9
$DIMTOH
 70
     1
  9
$DIMSE1
 70
     0
  9
$DIMSE2
 70
     0
  9
$DIMTAD
 70
     1
  9
$DIMZIN
 70
     0
  9
$DIMBLK
  1

  9
$DIMASO
 70
     1
  9
$DIMSHO
 70
     1
  9
$DIMPOST
  1

  9
$DIMAPOST
  1

  9
$DIMALT
 70
     0
  9
$DIMALTD
 70
     3
  9
$DIMALTF
 40
0.0393700787
  9
$DIMLFAC
 40
1.0
  9
$DIMTOFL
 70
     1
  9
$DIMTVP
 40
0.0
  9
$DIMTIX
 70
     0
  9
$DIMSOXD
 70
     0
  9
$DIMSAH
 70
     0
  9
$DIMBLK1
  1

  9
$DIMBLK2
  1

  9
$DIMSTYLE
  2
ISO-25
  9
$DIMCLRD
 70
     0
  9
$DIMCLRE
 70
     0
  9
$DIMCLRT
 70
     0
  9
$DIMTFAC
 40
1.0
  9
$DIMGAP
 40
1.524
  9
$DIMJUST
 70
     0
  9
$DIMSD1
 70
     0
  9
$DIMSD2
 70
     0
  9
$DIMTOLJ
 70
     0
  9
$DIMTZIN
 70
     0
  9
$DIMALTZ
 70
     0
  9
$DIMALTTZ
 70
     0
  9
$DIMUPT
 70
     0
  9
$DIMDEC
 70
     1
  9
$DIMTDEC
 70
     1
  9
$DIMALTU
 70
     2
  9
$DIMALTTD
 70
     3
  9
$DIMTXSTY
  7
STANDARD
  9
$DIMAUNIT
 70
     0
  9
$DIMADEC
 70
     1
  9
$DIMALTRND
 40
0.0
  9
$DIMAZIN
 70
     0
  9
$DIMDSEP
 70
    44
  9
$DIMATFIT
 70
     3
  9
$DIMFRAC
 70
     0
  9
$DIMLDRBLK
  1

  9
$DIMLUNIT
 70
     2
  9
$DIMLWD
 70
    -2
  9
$DIMLWE
 70
    -2
  9
$DIMTMOVE
 70
     0
  9
$DIMFXL
 40
1.0
  9
$DIMFXLON
 70
     0
  9
$DIMJOGANG
 40
0.7853981634
  9
$DIMTFILL
 70
     0
  9
$DIMTFILLCLR
 70
     0
  9
$DIMARCSYM
 70
     0
  9
$DIMLTYPE
  6

  9
$DIMLTEX1
  6

  9
$DIMLTEX2
  6

  9
$LUNITS
 70
     2
  9
$LUPREC
 70
     1
  9
$SKETCHINC
 40
1.0
  9
$FILLETRAD
 40
10.0
  9
$AUNITS
 70
     0
  9
$AUPREC
 70
     1
  9
$MENU
  1
.
  9
$ELEVATION
 40
0.0
  9
$PELEVATION
 40
0.0
  9
$THICKNESS
 40
0.0
  9
$LIMCHECK
 70
     0
  9
$CHAMFERA
 40
10.0
  9
$CHAMFERB
 40
10.0
  9
$CHAMFERC
 40
20.0
  9
$CHAMFERD
 40
0.0
  9
$SKPOLY
 70
     0
  9
$TDCREATE
 40
2455700.638784676
  9
$TDUCREATE
 40
2455700.597118009
  9
$TDUPDATE
 40
2455700.638784688
  9
$TDUUPDATE
 40
2455700.597118021
  9
$TDINDWG
 40
0.0000000116
  9
$TDUSRTIMER
 40
0.0000000116
  9
$USRTIMER
 70
     1
  9
$ANGBASE
 50
0.0
  9
$ANGDIR
 70
     0
  9
$PDMODE
 70
     0
  9
$PDSIZE
 40
-1.0
  9
$PLINEWID
 40
0.0
  9
$SPLFRAME
 70
     0
  9
$SPLINETYPE
 70
     6
  9
$SPLINESEGS
 70
     8
  9
$HANDSEED
  5
359
  9
$SURFTAB1
 70
     6
  9
$SURFTAB2
 70
     6
  9
$SURFTYPE
 70
     6
  9
$SURFU
 70
     6
  9
$SURFV
 70
     6
  9
$UCSBASE
  2

  9
$UCSNAME
  2

  9
$UCSORG
 10
0.0
 20
0.0
 30
0.0
  9
$UCSXDIR
 10
1.0
 20
0.0
 30
0.0
  9
$UCSYDIR
 10
0.0
 20
1.0
 30
0.0
  9
$UCSORTHOREF
  2

  9
$UCSORTHOVIEW
 70
     0
  9
$UCSORGTOP
 10
0.0
 20
0.0
 30
0.0
  9
$UCSORGBOTTOM
 10
0.0
 20
0.0
 30
0.0
  9
$UCSORGLEFT
 10
0.0
 20
0.0
 30
0.0
  9
$UCSORGRIGHT
 10
0.0
 20
0.0
 30
0.0
  9
$UCSORGFRONT
 10
0.0
 20
0.0
 30
0.0
  9
$UCSORGBACK
 10
0.0
 20
0.0
 30
0.0
  9
$PUCSBASE
  2

  9
$PUCSNAME
  2

  9
$PUCSORG
 10
0.0
 20
0.0
 30
0.0
  9
$PUCSXDIR
 10
1.0
 20
0.0
 30
0.0
  9
$PUCSYDIR
 10
0.0
 20
1.0
 30
0.0
  9
$PUCSORTHOREF
  2

  9
$PUCSORTHOVIEW
 70
     0
  9
$PUCSORGTOP
 10
0.0
 20
0.0
 30
0.0
  9
$PUCSORGBOTTOM
 10
0.0
 20
0.0
 30
0.0
  9
$PUCSORGLEFT
 10
0.0
 20
0.0
 30
0.0
  9
$PUCSORGRIGHT
 10
0.0
 20
0.0
 30
0.0
  9
$PUCSORGFRONT
 10
0.0
 20
0.0
 30
0.0
  9
$PUCSORGBACK
 10
0.0
 20
0.0
 30
0.0
  9
$USERI1
 70
     0
  9
$USERI2
 70
     0
  9
$USERI3
 70
     0
  9
$USERI4
 70
     0
  9
$USERI5
 70
     0
  9
$USERR1
 40
0.0
  9
$USERR2
 40
0.0
  9
$USERR3
 40
0.0
  9
$USERR4
 40
0.0
  9
$USERR5
 40
0.0
  9
$WORLDVIEW
 70
     1
  9
$SHADEDGE
 70
     3
  9
$SHADEDIF
 70
    70
  9
$TILEMODE
 70
     1
  9
$MAXACTVP
 70
    64
  9
$PINSBASE
 10
0.0
 20
0.0
 30
0.0
  9
$PLIMCHECK
 70
     0
  9
$PEXTMIN
 10
1.0000000000E+20
 20
1.0000000000E+20
 30
1.0000000000E+20
  9
$PEXTMAX
 10
-1.0000000000E+20
 20
-1.0000000000E+20
 30
-1.0000000000E+20
  9
$PLIMMIN
 10
0.0
 20
0.0
  9
$PLIMMAX
 10
420.0
 20
297.0
  9
$UNITMODE
 70
     0
  9
$VISRETAIN
 70
     1
  9
$PLINEGEN
 70
     0
  9
$PSLTSCALE
 70
     1
  9
$TREEDEPTH
 70
  3020
  9
$CMLSTYLE
  2
Standard
  9
$CMLJUST
 70
     0
  9
$CMLSCALE
 40
20.0
  9
$PROXYGRAPHICS
 70
     1
  9
$MEASUREMENT
 70
     1
  9
$CELWEIGHT
370
    -1
  9
$ENDCAPS
280
     0
  9
$JOINSTYLE
280
     0
  9
$LWDISPLAY
290
     1
  9
$INSUNITS
 70
     4
  9
$HYPERLINKBASE
  1

  9
$STYLESHEET
  1

  9
$XEDIT
290
     1
  9
$CEPSNTYPE
380
     0
  9
$PSTYLEMODE
290
     1
  9
$FINGERPRINTGUID
  2
{64BA0E6C-DE24-4FC3-A3CD-CDF363EE3F63}
  9
$VERSIONGUID
  2
{FAEB1C32-E019-11D5-929B-00C0DF256EC4}
  9
$EXTNAMES
290
     1
  9
$PSVPSCALE
 40
0.0
  9
$OLESTARTUP
290
     0
  9
$SORTENTS
280
   127
  9
$INDEXCTL
280
     0
  9
$HIDETEXT
280
     1
  9
$XCLIPFRAME
290
     0
  9
$HALOGAP
280
     0
  9
$OBSCOLOR
 70
   257
  9
$OBSLTYPE
280
     0
  9
$INTERSECTIONDISPLAY
280
     0
  9
$INTERSECTIONCOLOR
 70
   257
  9
$DIMASSOC
280
     2
  9
$PROJECTNAME
  1

  9
$CAMERADISPLAY
290
     0
  9
$LENSLENGTH
 40
50.0
  9
$CAMERAHEIGHT
 40
0.0
  9
$STEPSPERSEC
 40
2.0
  9
$STEPSIZE
 40
6.0
  9
$3DDWFPREC
 40
2.0
  9
$PSOLWIDTH
 40
5.0
  9
$PSOLHEIGHT
 40
80.0
  9
$LOFTANG1
 40
1.5707963268
  9
$LOFTANG2
 40
1.5707963268
  9
$LOFTMAG1
 40
0.0
  9
$LOFTMAG2
 40
0.0
  9
$LOFTPARAM
 70
     7
  9
$LOFTNORMALS
280
     1
  9
$LATITUDE
 40
37.795
  9
$LONGITUDE
 40
-122.394
  9
$NORTHDIRECTION
 40
0.0
  9
$TIMEZONE
 70
 -8000
  9
$LIGHTGLYPHDISPLAY
280
     1
  9
$TILEMODELIGHTSYNCH
280
     1
  9
$SOLIDHIST
280
     1
  9
$SHOWHIST
280
     1
  9
$DWFFRAME
280
     2
  9
$DGNFRAME
280
     2
  9
$REALWORLDSCALE
290
     1
  9
$INTERFERECOLOR
 62
   256
  9
$CSHADOW
280
     0
  9
$SHADOWPLANELOCATION
 40
0.0
  0
ENDSEC
  0
SECTION
  2
CLASSES
  0
CLASS
  1
ACDBDICTIONARYWDFLT
  2
AcDbDictionaryWithDefault
  3
ObjectDBX Classes
 90
        0
 91
        4
280
     0
281
     0
  0
CLASS
  1
VISUALSTYLE
  2
AcDbVisualStyle
  3
ObjectDBX Classes
 90
     4095
 91
        4
280
     0
281
     0
  0
CLASS
  1
MATERIAL
  2
AcDbMaterial
  3
ObjectDBX Classes
 90
     1153
 91
        4
280
     0
281
     0
  0
ENDSEC
  0
SECTION
  2
TABLES
  0
TABLE
  2
VPORT
  5
8
330
0
100
AcDbSymbolTable
 70
     1
  0
VPORT
  5
29
330
8
100
AcDbSymbolTableRecord
100
AcDbViewportTableRecord
  2
*Active
 70
     0
 10
0.0
 20
0.0
 11
1.0
 21
1.0
 12
420.5
 22
297.0
 13
0.0
 23
0.0
 14
10.0
 24
10.0
 15
10.0
 25
10.0
 16
0.0
 26
0.0
 36
1.0
 17
0.0
 27
0.0
 37
0.0
 40
594.0
 41
1.4158249158
 42
50.0
 43
0.0
 44
0.0
 50
0.0
 51
0.0
 71
     0
 72
  2000
 73
     1
 74
     3
 75
     0
 76
     0
 77
     0
 78
     0
281
     0
 65
     1
110
0.0
120
0.0
130
0.0
111
1.0
121
0.0
131
0.0
112
0.0
122
1.0
132
0.0
 79
     0
146
0.0
 60
     3
 61
     5
292
     1
282
     1
141
0.0
142
0.0
 63
   250
  0
ENDTAB
  0
TABLE
  2
LTYPE
  5
5
330
0
100
AcDbSymbolTable
 70
     8
  0
LTYPE
  5
14
330
5
100
AcDbSymbolTableRecord
100
AcDbLinetypeTableRecord
  2
ByBlock
 70
     0
  3

 72
    65
 73
     0
 40
0.0
  0
LTYPE
  5
15
330
5
100
AcDbSymbolTableRecord
100
AcDbLinetypeTableRecord
  2
ByLayer
 70
     0
  3

 72
    65
 73
     0
 40
0.0
  0
LTYPE
  5
16
330
5
100
AcDbSymbolTableRecord
100
AcDbLinetypeTableRecord
  2
Continuous
 70
     0
  3
Solid line
 72
    65
 73
     0
 40
0.0
  0
LTYPE
  5
3F
330
5
100
AcDbSymbolTableRecord
100
AcDbLinetypeTableRecord
  2
SLD-Solid
 70
     0
  3
SolidWorks Line Style
 72
    65
 73
     0
 40
0.0
  0
LTYPE
  5
40
330
5
100
AcDbSymbolTableRecord
100
AcDbLinetypeTableRecord
  2
SLD-Dashed
 70
     0
  3
SolidWorks Line Style
 72
    65
 73
     2
 40
1.905
 49
1.27
 74
     0
 49
-0.635
 74
     0
  0
LTYPE
  5
41
330
5
100
AcDbSymbolTableRecord
100
AcDbLinetypeTableRecord
  2
SLD-Phantom
 70
     0
  3
SolidWorks Line Style
 72
    65
 73
     6
 40
12.7
 49
6.35
 74
     0
 49
-1.27
 74
     0
 49
1.27
 74
     0
 49
-1.27
 74
     0
 49
1.27
 74
     0
 49
-1.27
 74
     0
  0
LTYPE
  5
42
330
5
100
AcDbSymbolTableRecord
100
AcDbLinetypeTableRecord
  2
SLD-Chain
 70
     0
  3
SolidWorks Line Style
 72
    65
 73
     4
 40
10.16
 49
6.35
 74
     0
 49
-1.27
 74
     0
 49
1.27
 74
     0
 49
-1.27
 74
     0
  0
LTYPE
  5
43
330
5
100
AcDbSymbolTableRecord
100
AcDbLinetypeTableRecord
  2
SLD-Center
 70
     0
  3
SolidWorks Line Style
 72
    65
 73
     4
 40
19.05
 49
15.24
 74
     0
 49
-1.27
 74
     0
 49
1.27
 74
     0
 49
-1.27
 74
     0
  0
LTYPE
  5
44
330
5
100
AcDbSymbolTableRecord
100
AcDbLinetypeTableRecord
  2
SLD-Stitch
 70
     0
  3
SolidWorks Line Style
 72
    65
 73
     2
 40
0.635
 49
0.0
 74
     0
 49
-0.635
 74
     0
  0
LTYPE
  5
45
330
5
100
AcDbSymbolTableRecord
100
AcDbLinetypeTableRecord
  2
SLD-Thin-Thick-Chain
 70
     0
  3
SolidWorks Line Style
 72
    65
 73
     4
 40
10.16
 49
6.35
 74
     0
 49
-1.27
 74
     0
 49
1.27
 74
     0
 49
-1.27
 74
     0
  0
ENDTAB
  0
TABLE
  2
LAYER
  5
2
330
0
100
AcDbSymbolTable
 70
     1
  0
LAYER
  5
10
330
2
100
AcDbSymbolTableRecord
100
AcDbLayerTableRecord
  2
0
 70
     0
 62
     7
  6
Continuous
370
    -3
390
F
347
3E
  0
ENDTAB
  0
TABLE
  2
STYLE
  5
3
330
0
100
AcDbSymbolTable
 70
     1
  0
STYLE
  5
11
330
3
100
AcDbSymbolTableRecord
100
AcDbTextStyleTableRecord
  2
STANDARD
 70
     0
 40
0.0
 41
1.0
 50
0.0
 71
     0
 42
2.5
  3
GOTHIC.TTF
  4

1001
ACAD
1000
CENTURY GOTHIC
1071
       34
  0
ENDTAB
  0
TABLE
  2
VIEW
  5
6
330
0
100
AcDbSymbolTable
 70
     0
  0
ENDTAB
  0
TABLE
  2
UCS
  5
7
330
0
100
AcDbSymbolTable
 70
     0
  0
ENDTAB
  0
TABLE
  2
APPID
  5
9
330
0
100
AcDbSymbolTable
 70
     1
  0
APPID
  5
12
330
9
100
AcDbSymbolTableRecord
100
AcDbRegAppTableRecord
  2
ACAD
 70
     0
  0
ENDTAB
  0
TABLE
  2
DIMSTYLE
  5
A
330
0
100
AcDbSymbolTable
 70
     1
100
AcDbDimStyleTable
  0
DIMSTYLE
105
27
330
A
100
AcDbSymbolTableRecord
100
AcDbDimStyleTableRecord
  2
ISO-25
 70
     0
 41
2.5
 42
0.625
 43
3.75
 44
1.25
 73
     0
 74
     0
 77
     1
 78
     8
140
2.5
141
2.5
143
0.0393700787
147
0.625
171
     3
172
     1
271
     2
272
     2
274
     3
278
    44
283
     0
284
     8
340
11
  0
ENDTAB
  0
TABLE
  2
BLOCK_RECORD
  5
1
330
0
100
AcDbSymbolTable
 70
     1
  0
BLOCK_RECORD
  5
1F
330
1
100
AcDbSymbolTableRecord
100
AcDbBlockTableRecord
  2
*Model_Space
340
22
 70
     0
280
     1
281
     0
  0
BLOCK_RECORD
  5
1B
330
1
100
AcDbSymbolTableRecord
100
AcDbBlockTableRecord
  2
*Paper_Space
340
1E
 70
     0
280
     1
281
     0
  0
BLOCK_RECORD
  5
23
330
1
100
AcDbSymbolTableRecord
100
AcDbBlockTableRecord
  2
*Paper_Space0
340
26
 70
     0
280
     1
281
     0
  0
ENDTAB
  0
ENDSEC
  0
SECTION
  2
BLOCKS
  0
BLOCK
  5
20
330
1F
100
AcDbEntity
  8
0
100
AcDbBlockBegin
  2
*Model_Space
 70
     0
 10
0.0
 20
0.0
 30
0.0
  3
*Model_Space
  1

  0
ENDBLK
  5
21
330
1F
100
AcDbEntity
  8
0
100
AcDbBlockEnd
  0
BLOCK
  5
1C
330
1B
100
AcDbEntity
 67
     1
  8
0
100
AcDbBlockBegin
  2
*Paper_Space
 70
     0
 10
0.0
 20
0.0
 30
0.0
  3
*Paper_Space
  1

  0
ENDBLK
  5
1D
330
1B
100
AcDbEntity
 67
     1
  8
0
100
AcDbBlockEnd
  0
BLOCK
  5
24
330
23
100
AcDbEntity
  8
0
100
AcDbBlockBegin
  2
*Paper_Space0
 70
     0
 10
0.0
 20
0.0
 30
0.0
  3
*Paper_Space0
  1

  0
ENDBLK
  5
25
330
23
100
AcDbEntity
  8
0
100
AcDbBlockEnd
  0
ENDSEC
  0
SECTION
  2
ENTITIES
  0
LINE
  5
46
330
1F
100
AcDbEntity
  8
0
  6
SLD-Solid
 62
     7
370
    15
100
AcDbLine
 10
195.80806
 20
703.1921332553
 30
0.0
 11
196.1341966554
 21
702.9637699107
 31
0.0
  0
LINE
  5
47
330
1F
100
AcDbEntity
  8
0
  6
SLD-Solid
 62
     7
370
    15
100
AcDbLine
 10
147.5688187037
 20
-81.6415269571
 30
0.0
 11
147.5620856407
 21
-81.2746752432
 31
0.0
  0
ARC
  5
48
330
1F
100
AcDbEntity
  8
0
  6
SLD-Solid
 62
     7
370
    15
100
AcDbCircle
 10
167.9428632604
 20
-80.8682775303
 30
0.0
 40
1.000000000000027
100
AcDbArc
 50
320.2453421196
 51
336.0212552781
  0
SPLINE
  5
49
330
1F
100
AcDbEntity
  8
0
  6
SLD-Solid
 62
     7
370
    15
100
AcDbSpline
210
0.0
220
0.0
230
1.0
 70
     8
 71
     3
 72
    12
 73
     8
 74
     0
 42
0.00000001
 43
0.00000001
 40
0.0
 40
0.0
 40
0.0
 40
0.0
 40
0.1457385529867163
 40
0.4224065763362191
 40
0.7025645190516411
 40
0.9915723830907036
 40
1.0
 40
1.0
 40
1.0
 40
1.0
 10
145.9044668934616
 20
-81.50777903339318
 30
0.0
 10
146.0734154539064
 20
-81.72108868768969
 30
0.0
 10
146.5630935900747
 20
-82.33934239560931
 30
0.0
 10
147.1505712083413
 20
-83.35403586019096
 30
0.0
 10
147.53939552968
 20
-84.5466250781226
 30
0.0
 10
147.6957088665338
 20
-85.34001174794109
 30
0.0
 10
147.6387138027449
 20
-85.75211275229744
 30
0.0
 10
147.6370988892793
 20
-85.76378933298511
 30
0.0
  0
SPLINE
  5
4A
330
1F
100
AcDbEntity
  8
0
  6
SLD-Solid
 62
     7
370
    15
100
AcDbSpline
210
0.0
220
0.0
230
1.0
 70
     8
 71
     3
 72
    11
 73
     7
 74
     0
 42
0.00000001
 43
0.00000001
 40
0.0
 40
0.0
 40
0.0
 40
0.0
 40
0.2706728893345983
 40
0.5972761992793696
 40
0.9114942371264104
 40
1.0
 40
1.0
 40
1.0
 40
1.0
 10
167.0035130290801
 20
-85.41290971314835
 30
0.0
 10
167.0328495159714
 20
-85.07096078307002
 30
0.0
 10
167.0975844269327
 20
-84.31640439655158
 30
0.0
 10
167.5767426120957
 20
-83.13520923076939
 30
0.0
 10
168.1783351571532
 20
-82.1663106869156
 30
0.0
 10
168.615564199311
 20
-81.62642793136466
 30
0.0
 10
168.7116531065409
 20
-81.50777903339323
 30
0.0
  0
SPLINE
  5
4B
330
1F
100
AcDbEntity
  8
0
  6
SLD-Solid
 62
     7
370
    15
100
AcDbSpline
210
0.0
220
0.0
230
1.0
 70
     8
 71
     3
 72
    11
 73
     7
 74
     0
 42
0.00000001
 43
0.00000001
 40
0.0
 40
0.0
 40
0.0
 40
0.0
 40
0.0925535171470358
 40
0.4249799083405266
 40
0.7579032427927617
 40
1.0
 40
1.0
 40
1.0
 40
1.0
 10
161.3013788847905
 20
-92.36479786408015
 30
0.0
 10
161.5285719830607
 20
-92.3528205136575
 30
0.0
 10
162.5717792544285
 20
-92.29782386478192
 30
0.0
 10
164.362098358142
 20
-92.10113629114342
 30
0.0
 10
166.4277539430713
 20
-91.81113305020683
 30
0.0
 10
167.6393157235235
 20
-91.56970633233752
 30
0.0
 10
168.1494112531549
 20
-91.46806010058467
 30
0.0
  0
SPLINE
  5
4C
330
1F
100
AcDbEntity
  8
0
  6
SLD-Solid
 62
     7
370
    15
100
AcDbSpline
210
0.0
220
0.0
230
1.0
 70
     8
 71
     3
 72
    12
 73
     8
 74
     0
 42
0.00000001
 43
0.00000001
 40
0.0
 40
0.0
 40
0.0
 40
0.0
 40
0.1036834819917779
 40
0.3447565350564913
 40
0.5855730551620251
 40
0.826305209657588
 40
0.9999999999999999
 40
0.9999999999999999
 40
0.9999999999999999
 40
0.9999999999999999
 10
151.1539328081842
 20
-92.1784984344946
 30
0.0
 10
151.4886953764257
 20
-92.2166585785858
 30
0.0
 10
152.60180983667
 20
-92.34354435442404
 30
0.0
 10
154.5899714086429
 20
-92.45877730684671
 30
0.0
 10
157.0629925717409
 20
-92.51986613506996
 30
0.0
 10
159.3218700022321
 20
-92.49164048753778
 30
0.0
 10
160.7167543763433
 20
-92.4022593309331
 30
0.0
 10
161.3013788847905
 20
-92.36479786408015
 30
0.0
  0
SPLINE
  5
4D
330
1F
100
AcDbEntity
  8
0
  6
SLD-Solid
 62
     7
370
    15
100
AcDbSpline
210
0.0
220
0.0
230
1.0
 70
     8
 71
     3
 72
    10
 73
     6
 74
     0
 42
0.00000001
 43
0.00000001
 40
0.0
 40
0.0
 40
0.0
 40
0.0
 40
0.2502355006436262
 40
0.7279697107284129
 40
0.9999999999999999
 40
0.9999999999999999
 40
0.9999999999999999
 40
0.9999999999999999
 10
146.4667087468476
 20
-91.46806010058467
 30
0.0
 10
146.8339912108766
 20
-91.54184945450116
 30
0.0
 10
147.9024667405563
 20
-91.75651289948516
 30
0.0
 10
149.4612921048301
 20
-92.0070223375204
 30
0.0
 10
150.7033046142544
 20
-92.13284671187655
 30
0.0
 10
151.1539328081842
 20
-92.1784984344946
 30
0.0
  0
SPLINE
  5
4E
330
1F
100
AcDbEntity
  8
0
  6
SLD-Solid
 62
     7
370
    15
100
AcDbSpline
210
0.0
220
0.0
230
1.0
 70
     8
 71
     3
 72
     9
 73
     5
 74
     0
 42
0.00000001
 43
0.00000001
 40
0.0
 40
0.0
 40
0.0
 40
0.0
 40
0.7251810361218061
 40
0.9999999999999999
 40
0.9999999999999999
 40
0.9999999999999999
 40
0.9999999999999999
 10
168.9305243226082
 20
-90.65283193889361
 30
0.0
 10
169.310481836539
 20
-88.40252160728335
 30
0.0
 10
169.8344303335415
 20
-85.29942014775716
 30
0.0
 10
170.5050865182474
 20
-82.14230920213367
 30
0.0
 10
170.6893955560467
 20
-81.27467524320886
 30
0.0
  0
LINE
  5
4F
330
1F
100
AcDbEntity
  8
0
  6
SLD-Solid
 62
     7
370
    15
100
AcDbLine
 10
145.5658125384
 20
-90.0991013437
 30
0.0
 11
145.6551934357
 21
-90.6397582852
 31
0.0
  0
SPLINE
  5
50
330
1F
100
AcDbEntity
  8
0
  6
SLD-Solid
 62
     7
370
    15
100
AcDbSpline
210
0.0
220
0.0
230
1.0
 70
     8
 71
     3
 72
     9
 73
     5
 74
     0
 42
0.00000001
 43
0.00000001
 40
0.0
 40
0.0
 40
0.0
 40
0.0
 40
0.6448772260972625
 40
1.0
 40
1.0
 40
1.0
 40
1.0
 10
143.9261013163431
 20
-81.27467524320892
 30
0.0
 10
144.3224686614687
 20
-83.18999917160103
 30
0.0
 10
144.937108672133
 20
-86.16005897660206
 30
0.0
 10
145.4010547280608
 20
-89.06683793636822
 30
0.0
 10
145.5658125383832
 20
-90.09910134368249
 30
0.0
  0
LINE
  5
51
330
1F
100
AcDbEntity
  8
0
  6
SLD-Solid
 62
     7
370
    15
100
AcDbLine
 10
-1.19194
 20
-99.4155146837
 30
0.0
 11
898.80806
 21
-99.4155146837
 31
0.0
  0
LINE
  5
52
330
1F
100
AcDbEntity
  8
0
  6
SLD-Solid
 62
     7
370
    15
100
AcDbLine
 10
0.00806
 20
-81.2746752432
 30
0.0
 11
897.60806
 21
-81.2746752432
 31
0.0
  0
LINE
  5
53
330
1F
100
AcDbEntity
  8
0
  6
SLD-Solid
 62
     7
370
    15
100
AcDbLine
 10
-1.19194
 20
-79.9746752432
 30
0.0
 11
0.00806
 21
-79.9746752432
 31
0.0
  0
LINE
  5
54
330
1F
100
AcDbEntity
  8
0
  6
SLD-Solid
 62
     7
370
    15
100
AcDbLine
 10
897.60806
 20
-79.9746752432
 30
0.0
 11
898.80806
 21
-79.9746752432
 31
0.0
  0
SPLINE
  5
55
330
1F
100
AcDbEntity
  8
0
  6
SLD-Solid
 62
     7
370
    15
100
AcDbSpline
210
0.0
220
0.0
230
1.0
 70
     8
 71
     3
 72
    11
 73
     7
 74
     0
 42
0.00000001
 43
0.00000001
 40
0.0
 40
0.0
 40
0.0
 40
0.0
 40
0.2706728893346763
 40
0.5972761992795164
 40
0.911494237126525
 40
1.0
 40
1.0
 40
1.0
 40
1.0
 10
312.753513029077
 20
-85.41290971314908
 30
0.0
 10
312.7828495159685
 20
-85.07096078307053
 30
0.0
 10
312.8475844269298
 20
-84.3164043965518
 30
0.0
 10
313.3267426120927
 20
-83.13520923076977
 30
0.0
 10
313.9283351571503
 20
-82.16631068691626
 30
0.0
 10
314.3655641993082
 20
-81.62642793136516
 30
0.0
 10
314.4616531065379
 20
-81.50777903339396
 30
0.0
  0
SPLINE
  5
56
330
1F
100
AcDbEntity
  8
0
  6
SLD-Solid
 62
     7
370
    15
100
AcDbSpline
210
0.0
220
0.0
230
1.0
 70
     8
 71
     3
 72
    12
 73
     8
 74
     0
 42
0.00000001
 43
0.00000001
 40
0.0
 40
0.0
 40
0.0
 40
0.0
 40
0.1457385529867229
 40
0.4224065763362382
 40
0.7025645190516718
 40
0.9915723830907467
 40
1.0
 40
1.0
 40
1.0
 40
1.0
 10
291.6544668934585
 20
-81.5077790333939
 30
0.0
 10
291.8234154539034
 20
-81.72108868769045
 30
0.0
 10
292.3130935900717
 20
-82.33934239561003
 30
0.0
 10
292.9005712083385
 20
-83.35403586019163
 30
0.0
 10
293.2893955296763
 20
-84.5466250781235
 30
0.0
 10
293.4457088665322
 20
-85.34001174794138
 30
0.0
 10
293.3887138027418
 20
-85.75211275229799
 30
0.0
 10
293.3870988892762
 20
-85.76378933298557
 30
0.0
  0
SPLINE
  5
57
330
1F
100
AcDbEntity
  8
0
  6
SLD-Solid
 62
     7
370
    15
100
AcDbSpline
210
0.0
220
0.0
230
1.0
 70
     8
 71
     3
 72
    11
 73
     7
 74
     0
 42
0.00000001
 43
0.00000001
 40
0.0
 40
0.0
 40
0.0
 40
0.0
 40
0.0925535171469517
 40
0.4249799083405246
 40
0.7579032427927621
 40
1.0
 40
1.0
 40
1.0
 40
1.0
 10
307.0513788847869
 20
-92.36479786408076
 30
0.0
 10
307.2785719830568
 20
-92.35282051365817
 30
0.0
 10
308.3217792544247
 20
-92.29782386478269
 30
0.0
 10
310.1120983581386
 20
-92.10113629114386
 30
0.0
 10
312.177753943068
 20
-91.81113305020772
 30
0.0
 10
313.3893157235204
 20
-91.56970633233807
 30
0.0
 10
313.8994112531519
 20
-91.46806010058533
 30
0.0
  0
SPLINE
  5
58
330
1F
100
AcDbEntity
  8
0
  6
SLD-Solid
 62
     7
370
    15
100
AcDbSpline
210
0.0
220
0.0
230
1.0
 70
     8
 71
     3
 72
    10
 73
     6
 74
     0
 42
0.00000001
 43
0.00000001
 40
0.0
 40
0.0
 40
0.0
 40
0.0
 40
0.2502355006436254
 40
0.7279697107284026
 40
1.0
 40
1.0
 40
1.0
 40
1.0
 10
292.2167087468445
 20
-91.46806010058522
 30
0.0
 10
292.5839912108736
 20
-91.54184945450172
 30
0.0
 10
293.6524667405533
 20
-91.75651289948556
 30
0.0
 10
295.2112921048271
 20
-92.00702233752112
 30
0.0
 10
296.4533046142513
 20
-92.13284671187716
 30
0.0
 10
296.9039328081811
 20
-92.17849843449527
 30
0.0
  0
SPLINE
  5
59
330
1F
100
AcDbEntity
  8
0
  6
SLD-Solid
 62
     7
370
    15
100
AcDbSpline
210
0.0
220
0.0
230
1.0
 70
     8
 71
     3
 72
     9
 73
     5
 74
     0
 42
0.00000001
 43
0.00000001
 40
0.0
 40
0.0
 40
0.0
 40
0.0
 40
0.7251810361201031
 40
0.9999999999999999
 40
0.9999999999999999
 40
0.9999999999999999
 40
0.9999999999999999
 10
314.6805243226053
 20
-90.65283193889417
 30
0.0
 10
315.0604818365351
 20
-88.40252160728912
 30
0.0
 10
315.5844303335377
 20
-85.29942014776287
 30
0.0
 10
316.2550865182435
 20
-82.14230920213905
 30
0.0
 10
316.439395556044
 20
-81.27467524320886
 30
0.0
  0
LINE
  5
5A
330
1F
100
AcDbEntity
  8
0
  6
SLD-Solid
 62
     7
370
    15
100
AcDbLine
 10
291.3158125384
 20
-90.0991013437
 30
0.0
 11
291.4051934357
 21
-90.6397582852
 31
0.0
  0
SPLINE
  5
5B
330
1F
100
AcDbEntity
  8
0
  6
SLD-Solid
 62
     7
370
    15
100
AcDbSpline
210
0.0
220
0.0
230
1.0
 70
     8
 71
     3
 72
     9
 73
     5
 74
     0
 42
0.00000001
 43
0.00000001
 40
0.0
 40
0.0
 40
0.0
 40
0.0
 40
0.6448772260980329
 40
1.0
 40
1.0
 40
1.0
 40
1.0
 10
289.6761013163402
 20
-81.27467524320886
 30
0.0
 10
290.0724686614662
 20
-83.1899991716029
 30
0.0
 10
290.6871086721303
 20
-86.16005897660357
 30
0.0
 10
291.1510547280579
 20
-89.06683793636944
 30
0.0
 10
291.3158125383799
 20
-90.09910134368127
 30
0.0
  0
LINE
  5
5C
330
1F
100
AcDbEntity
  8
0
  6
SLD-Solid
 62
     7
370
    15
100
AcDbLine
 10
223.9683662277
 20
-99.4155146837
 30
0.0
 11
228.2031190203
 21
-118.839351895
 31
0.0
  0
SPLINE
  5
5D
330
1F
100
AcDbEntity
  8
0
  6
SLD-Solid
 62
     7
370
    15
100
AcDbSpline
210
0.0
220
0.0
230
1.0
 70
     8
 71
     3
 72
    14
 73
    10
 74
     0
 42
0.00000001
 43
0.00000001
 40
0.0
 40
0.0
 40
0.0
 40
0.0
 40
0.0819099345891166
 40
0.2358998983332563
 40
0.389890521496862
 40
0.5438811446682441
 40
0.6978717678395985
 40
0.8518623910109159
 40
1.0
 40
1.0
 40
1.0
 40
1.0
 10
234.1713322163117
 20
-124.2938333450216
 30
0.0
 10
238.8142428634784
 20
-124.8670989189153
 30
0.0
 10
252.1857850961899
 20
-126.5180987796509
 30
0.0
 10
274.3151034382675
 20
-129.0056322415785
 30
0.0
 10
300.5670693394824
 20
-131.6544861117053
 30
0.0
 10
326.8493455582533
 20
-133.9861897552537
 30
0.0
 10
353.1577790972267
 20
-135.998269645468
 30
0.0
 10
379.153878995484
 20
-137.6954144937827
 30
0.0
 10
396.3877618753852
 20
-138.5640557258401
 30
0.0
 10
404.8377706189278
 20
-138.9899624154142
 30
0.0
  0
LINE
  5
5E
330
1F
100
AcDbEntity
  8
0
  6
SLD-Solid
 62
     7
370
    15
100
AcDbLine
 10
412.0109240742
 20
-133.4668517076
 30
0.0
 11
419.3203733754
 21
-99.4155146837
 31
0.0
  0
SPLINE
  5
5F
330
1F
100
AcDbEntity
  8
0
  6
SLD-Solid
 62
     7
370
    15
100
AcDbSpline
210
0.0
220
0.0
230
1.0
 70
     8
 71
     3
 72
    15
 73
    11
 74
     0
 42
0.00000001
 43
0.00000001
 40
0.0
 40
0.0
 40
0.0
 40
0.0
 40
0.0335901279329185
 40
0.1846274129412898
 40
0.3359340611057225
 40
0.4872417244125063
 40
0.6385493897437178
 40
0.7898570532296699
 40
0.9411647151438404
 40
1.0
 40
1.0
 40
1.0
 40
1.0
 10
404.8377706189278
 20
-138.9899624154148
 30
0.0
 10
404.9477527779626
 20
-138.9935003500828
 30
0.0
 10
405.5522673404807
 20
-139.0129465315975
 30
0.0
 10
406.6561434136036
 20
-138.8902786345654
 30
0.0
 10
408.0775191827383
 20
-138.4224894957949
 30
0.0
 10
409.3687702626008
 20
-137.6622176543287
 30
0.0
 10
410.4711794716345
 20
-136.6470285400565
 30
0.0
 10
411.3307872146702
 20
-135.4215424739733
 30
0.0
 10
411.8041470896729
 20
-134.3237100069103
 30
0.0
 10
411.9656944557641
 20
-133.6542776632969
 30
0.0
 10
412.010924074211
 20
-133.4668517076141
 30
0.0
  0
SPLINE
  5
60
330
1F
100
AcDbEntity
  8
0
  6
SLD-Solid
 62
     7
370
    15
100
AcDbSpline
210
0.0
220
0.0
230
1.0
 70
     8
 71
     3
 72
    14
 73
    10
 74
     0
 42
0.00000001
 43
0.00000001
 40
0.0
 40
0.0
 40
0.0
 40
0.0
 40
0.0383625118853687
 40
0.210858718151756
 40
0.3836625602079179
 40
0.5564675652322489
 40
0.7292725766644387
 40
0.9020775898517159
 40
1.0
 40
1.0
 40
1.0
 40
1.0
 10
228.2031190203321
 20
-118.8393518949644
 30
0.0
 10
228.2281549144548
 20
-118.9465045847071
 30
0.0
 10
228.3657641658576
 20
-119.5354670299501
 30
0.0
 10
228.7698370267226
 20
-120.5700970963701
 30
0.0
 10
229.589429644689
 20
-121.8217511362779
 30
0.0
 10
230.657852279353
 20
-122.8734987388893
 30
0.0
 10
231.9237730935437
 20
-123.6714649157427
 30
0.0
 10
233.1265255237639
 20
-124.1242636581841
 30
0.0
 10
233.8938060107349
 20
-124.2487914898113
 30
0.0
 10
234.1713322163118
 20
-124.2938333450221
 30
0.0
  0
SPLINE
  5
61
330
1F
100
AcDbEntity
  8
0
  6
SLD-Solid
 62
     7
370
    15
100
AcDbSpline
210
0.0
220
0.0
230
1.0
 70
     8
 71
     3
 72
    15
 73
    11
 74
     0
 42
0.00000001
 43
0.00000001
 40
0.0
 40
0.0
 40
0.0
 40
0.0
 40
0.0286198884013853
 40
0.1784612790675704
 40
0.3285735264390922
 40
0.4786867981121435
 40
0.6288000760328595
 40
0.7789133562180587
 40
0.9290266381151471
 40
1.0
 40
1.0
 40
1.0
 40
1.0
 10
394.4256658382917
 20
-110.6597648370022
 30
0.0
 10
394.4046470059529
 20
-110.7518972958784
 30
0.0
 10
394.2735826338255
 20
-111.3263955686916
 30
0.0
 10
393.8858541989265
 20
-112.3503528347295
 30
0.0
 10
393.0784731858126
 20
-113.6102960986193
 30
0.0
 10
392.0205074629425
 20
-114.671381296761
 30
0.0
 10
390.7626378833963
 20
-115.4861785977463
 30
0.0
 10
389.3616518220942
 20
-116.0129537045947
 30
0.0
 10
388.1389075594997
 20
-116.205524704916
 30
0.0
 10
387.4087147055715
 20
-116.1852613063138
 30
0.0
 10
387.1743077745102
 20
-116.1787563384088
 30
0.0
  0
LINE
  5
62
330
1F
100
AcDbEntity
  8
0
  6
SLD-Solid
 62
     7
370
    15
100
AcDbLine
 10
396.8393530414
 20
-99.4155146837
 30
0.0
 11
394.4256658383
 21
-110.659764837
 31
0.0
  0
SPLINE
  5
63
330
1F
100
AcDbEntity
  8
0
  6
SLD-Solid
 62
     7
370
    15
100
AcDbSpline
210
0.0
220
0.0
230
1.0
 70
     8
 71
     3
 72
    12
 73
     8
 74
     0
 42
0.00000001
 43
0.00000001
 40
0.0
 40
0.0
 40
0.0
 40
0.0
 40
0.1457385529867555
 40
0.4224065763362729
 40
0.7025645190517201
 40
0.9915723830908324
 40
1.0
 40
1.0
 40
1.0
 40
1.0
 10
583.1544668934603
 20
-81.50777903339556
 30
0.0
 10
583.3234154539051
 20
-81.72108868769207
 30
0.0
 10
583.8130935900734
 20
-82.33934239561181
 30
0.0
 10
584.4005712083401
 20
-83.3540358601928
 30
0.0
 10
584.7893955296782
 20
-84.54662507812516
 30
0.0
 10
584.9457088665331
 20
-85.34001174794138
 30
0.0
 10
584.8887138027436
 20
-85.75211275229888
 30
0.0
 10
584.887098889278
 20
-85.76378933298633
 30
0.0
  0
SPLINE
  5
64
330
1F
100
AcDbEntity
  8
0
  6
SLD-Solid
 62
     7
370
    15
100
AcDbSpline
210
0.0
220
0.0
230
1.0
 70
     8
 71
     3
 72
    11
 73
     7
 74
     0
 42
0.00000001
 43
0.00000001
 40
0.0
 40
0.0
 40
0.0
 40
0.0
 40
0.2706728893345112
 40
0.5972761992793282
 40
0.9114942371262909
 40
1.0
 40
1.0
 40
1.0
 40
1.0
 10
604.2535130290788
 20
-85.41290971315118
 30
0.0
 10
604.2828495159703
 20
-85.07096078307292
 30
0.0
 10
604.3475844269313
 20
-84.3164043965543
 30
0.0
 10
604.8267426120941
 20
-83.13520923077216
 30
0.0
 10
605.4283351571517
 20
-82.1663106869187
 30
0.0
 10
605.8655641993097
 20
-81.6264279313672
 30
0.0
 10
605.9616531065398
 20
-81.50777903339562
 30
0.0
  0
SPLINE
  5
65
330
1F
100
AcDbEntity
  8
0
  6
SLD-Solid
 62
     7
370
    15
100
AcDbSpline
210
0.0
220
0.0
230
1.0
 70
     8
 71
     3
 72
    11
 73
     7
 74
     0
 42
0.00000001
 43
0.00000001
 40
0.0
 40
0.0
 40
0.0
 40
0.0
 40
0.0925535171471835
 40
0.4249799083407279
 40
0.7579032427930293
 40
1.0
 40
1.0
 40
1.0
 40
1.0
 10
598.5513788847887
 20
-92.36479786408242
 30
0.0
 10
598.7785719830592
 20
-92.35282051365989
 30
0.0
 10
599.8217792544278
 20
-92.29782386478391
 30
0.0
 10
601.612098358142
 20
-92.10113629114564
 30
0.0
 10
603.6777539430709
 20
-91.81113305020882
 30
0.0
 10
604.8893157235229
 20
-91.56970633233968
 30
0.0
 10
605.3994112531537
 20
-91.46806010058694
 30
0.0
  0
SPLINE
  5
66
330
1F
100
AcDbEntity
  8
0
  6
SLD-Solid
 62
     7
370
    15
100
AcDbSpline
210
0.0
220
0.0
230
1.0
 70
     8
 71
     3
 72
    10
 73
     6
 74
     0
 42
0.00000001
 43
0.00000001
 40
0.0
 40
0.0
 40
0.0
 40
0.0
 40
0.2502355006436238
 40
0.7279697107284269
 40
0.9999999999999999
 40
0.9999999999999999
 40
0.9999999999999999
 40
0.9999999999999999
 10
583.7167087468463
 20
-91.46806010058694
 30
0.0
 10
584.0839912108753
 20
-91.54184945450339
 30
0.0
 10
585.152466740555
 20
-91.75651289948749
 30
0.0
 10
586.7112921048289
 20
-92.00702233752284
 30
0.0
 10
587.953304614253
 20
-92.13284671187877
 30
0.0
 10
588.403932808183
 20
-92.17849843449687
 30
0.0
  0
LINE
  5
67
330
1F
100
AcDbEntity
  8
0
  6
SLD-Solid
 62
     7
370
    15
100
AcDbLine
 10
582.8158125384
 20
-90.0991013437
 30
0.0
 11
582.9051934357
 21
-90.6397582852
 31
0.0
  0
SPLINE
  5
68
330
1F
100
AcDbEntity
  8
0
  6
SLD-Solid
 62
     7
370
    15
100
AcDbSpline
210
0.0
220
0.0
230
1.0
 70
     8
 71
     3
 72
     9
 73
     5
 74
     0
 42
0.00000001
 43
0.00000001
 40
0.0
 40
0.0
 40
0.0
 40
0.0
 40
0.6448772260973952
 40
1.0
 40
1.0
 40
1.0
 40
1.0
 10
581.1761013163417
 20
-81.2746752432088
 30
0.0
 10
581.5724686614673
 20
-83.18999917160136
 30
0.0
 10
582.1871086721316
 20
-86.16005897660261
 30
0.0
 10
582.6510547280593
 20
-89.06683793636904
 30
0.0
 10
582.8158125383816
 20
-90.09910134368293
 30
0.0
  0
SPLINE
  5
69
330
1F
100
AcDbEntity
  8
0
  6
SLD-Solid
 62
     7
370
    15
100
AcDbSpline
210
0.0
220
0.0
230
1.0
 70
     8
 71
     3
 72
     9
 73
     5
 74
     0
 42
0.00000001
 43
0.00000001
 40
0.0
 40
0.0
 40
0.0
 40
0.0
 40
0.7251810361229475
 40
1.0
 40
1.0
 40
1.0
 40
1.0
 10
606.1805243226069
 20
-90.65283193889596
 30
0.0
 10
606.5604818365383
 20
-88.40252160728174
 30
0.0
 10
607.084430333541
 20
-85.29942014775499
 30
0.0
 10
607.7550865182471
 20
-82.14230920213028
 30
0.0
 10
607.9393955560458
 20
-81.27467524320886
 30
0.0
  0
LINE
  5
6A
330
1F
100
AcDbEntity
  8
0
  6
SLD-Solid
 62
     7
370
    15
100
AcDbLine
 10
207.50806
 20
697.0421332553
 30
0.0
 11
207.50806
 21
697.7421332553
 31
0.0
  0
LINE
  5
6B
330
1F
100
AcDbEntity
  8
0
  6
SLD-Solid
 62
     7
370
    15
100
AcDbLine
 10
750.0540343593
 20
-81.2746752432
 30
0.0
 11
750.0473012963
 21
-81.6415269571
 31
0.0
  0
ARC
  5
6C
330
1F
100
AcDbEntity
  8
0
  6
SLD-Solid
 62
     7
370
    15
100
AcDbCircle
 10
729.6732567396
 20
-80.8682775303
 30
0.0
 40
1.000000000000035
100
AcDbArc
 50
203.9787447219
 51
219.7546578804
  0
SPLINE
  5
6D
330
1F
100
AcDbEntity
  8
0
  6
SLD-Solid
 62
     7
370
    15
100
AcDbSpline
210
0.0
220
0.0
230
1.0
 70
     8
 71
     3
 72
    11
 73
     7
 74
     0
 42
0.00000001
 43
0.00000001
 40
0.0
 40
0.0
 40
0.0
 40
0.0
 40
0.2706728893346315
 40
0.5972761992793979
 40
0.911494237126364
 40
1.0
 40
1.0
 40
1.0
 40
1.0
 10
750.0035130290798
 20
-85.41290971314908
 30
0.0
 10
750.0328495159714
 20
-85.07096078307063
 30
0.0
 10
750.0975844269326
 20
-84.31640439655197
 30
0.0
 10
750.5767426120955
 20
-83.13520923076977
 30
0.0
 10
751.1783351571528
 20
-82.16631068691599
 30
0.0
 10
751.6155641993109
 20
-81.62642793136493
 30
0.0
 10
751.7116531065409
 20
-81.50777903339358
 30
0.0
  0
SPLINE
  5
6E
330
1F
100
AcDbEntity
  8
0
  6
SLD-Solid
 62
     7
370
    15
100
AcDbSpline
210
0.0
220
0.0
230
1.0
 70
     8
 71
     3
 72
    12
 73
     8
 74
     0
 42
0.00000001
 43
0.00000001
 40
0.0
 40
0.0
 40
0.0
 40
0.0
 40
0.1457385529867322
 40
0.4224065763362274
 40
0.7025645190516158
 40
0.9915723830906961
 40
1.0
 40
1.0
 40
1.0
 40
1.0
 10
728.9044668934614
 20
-81.50777903339352
 30
0.0
 10
729.0734154539063
 20
-81.72108868769018
 30
0.0
 10
729.5630935900746
 20
-82.33934239560986
 30
0.0
 10
730.1505712083411
 20
-83.35403586019058
 30
0.0
 10
730.5393955296795
 20
-84.54662507812304
 30
0.0
 10
730.695708866534
 20
-85.34001174794037
 30
0.0
 10
730.6387138027449
 20
-85.75211275229738
 30
0.0
 10
730.6370988892792
 20
-85.76378933298496
 30
0.0
  0
SPLINE
  5
6F
330
1F
100
AcDbEntity
  8
0
  6
SLD-Solid
 62
     7
370
    15
100
AcDbSpline
210
0.0
220
0.0
230
1.0
 70
     8
 71
     3
 72
    11
 73
     7
 74
     0
 42
0.00000001
 43
0.00000001
 40
0.0
 40
0.0
 40
0.0
 40
0.0
 40
0.0925535171469186
 40
0.4249799083405191
 40
0.7579032427927592
 40
1.0
 40
1.0
 40
1.0
 40
1.0
 10
744.30137888479
 20
-92.36479786408047
 30
0.0
 10
744.5285719830599
 20
-92.35282051365795
 30
0.0
 10
745.5717792544277
 20
-92.29782386478213
 30
0.0
 10
747.3620983581415
 20
-92.10113629114397
 30
0.0
 10
749.427753943071
 20
-91.81113305020727
 30
0.0
 10
750.6393157235234
 20
-91.56970633233786
 30
0.0
 10
751.1494112531549
 20
-91.468060100585
 30
0.0
  0
SPLINE
  5
70
330
1F
100
AcDbEntity
  8
0
  6
SLD-Solid
 62
     7
370
    15
100
AcDbSpline
210
0.0
220
0.0
230
1.0
 70
     8
 71
     3
 72
    12
 73
     8
 74
     0
 42
0.00000001
 43
0.00000001
 40
0.0
 40
0.0
 40
0.0
 40
0.0
 40
0.1036834819917082
 40
0.3447565350564501
 40
0.5855730551619456
 40
0.8263052096575506
 40
0.9999999999999999
 40
0.9999999999999999
 40
0.9999999999999999
 40
0.9999999999999999
 10
734.1539328081841
 20
-92.178498434495
 30
0.0
 10
734.4886953764253
 20
-92.21665857858608
 30
0.0
 10
735.6018098366696
 20
-92.34354435442398
 30
0.0
 10
737.5899714086419
 20
-92.45877730684715
 30
0.0
 10
740.0629925717402
 20
-92.51986613507019
 30
0.0
 10
742.3218700022311
 20
-92.49164048753843
 30
0.0
 10
743.7167543763427
 20
-92.40225933093349
 30
0.0
 10
744.30137888479
 20
-92.36479786408047
 30
0.0
  0
SPLINE
  5
71
330
1F
100
AcDbEntity
  8
0
  6
SLD-Solid
 62
     7
370
    15
100
AcDbSpline
210
0.0
220
0.0
230
1.0
 70
     8
 71
     3
 72
    10
 73
     6
 74
     0
 42
0.00000001
 43
0.00000001
 40
0.0
 40
0.0
 40
0.0
 40
0.0
 40
0.2502355006436259
 40
0.7279697107284072
 40
1.0
 40
1.0
 40
1.0
 40
1.0
 10
729.4667087468475
 20
-91.468060100585
 30
0.0
 10
729.8339912108765
 20
-91.5418494545015
 30
0.0
 10
730.9024667405563
 20
-91.7565128994855
 30
0.0
 10
732.46129210483
 20
-92.00702233752067
 30
0.0
 10
733.7033046142544
 20
-92.13284671187694
 30
0.0
 10
734.1539328081841
 20
-92.178498434495
 30
0.0
  0
SPLINE
  5
72
330
1F
100
AcDbEntity
  8
0
  6
SLD-Solid
 62
     7
370
    15
100
AcDbSpline
210
0.0
220
0.0
230
1.0
 70
     8
 71
     3
 72
     9
 73
     5
 74
     0
 42
0.00000001
 43
0.00000001
 40
0.0
 40
0.0
 40
0.0
 40
0.0
 40
0.7251810361216459
 40
1.0
 40
1.0
 40
1.0
 40
1.0
 10
751.9305243226081
 20
-90.65283193889401
 30
0.0
 10
752.3104818365388
 20
-88.40252160728429
 30
0.0
 10
752.8344303335414
 20
-85.29942014775821
 30
0.0
 10
753.5050865182474
 20
-82.14230920213423
 30
0.0
 10
753.6893955560467
 20
-81.27467524320886
 30
0.0
  0
LINE
  5
73
330
1F
100
AcDbEntity
  8
0
  6
SLD-Solid
 62
     7
370
    15
100
AcDbLine
 10
728.5658125384
 20
-90.0991013437
 30
0.0
 11
728.6551934357
 21
-90.6397582852
 31
0.0
  0
SPLINE
  5
74
330
1F
100
AcDbEntity
  8
0
  6
SLD-Solid
 62
     7
370
    15
100
AcDbSpline
210
0.0
220
0.0
230
1.0
 70
     8
 71
     3
 72
     9
 73
     5
 74
     0
 42
0.00000001
 43
0.00000001
 40
0.0
 40
0.0
 40
0.0
 40
0.0
 40
0.6448772260991252
 40
1.0
 40
1.0
 40
1.0
 40
1.0
 10
726.9261013163431
 20
-81.27467524320886
 30
0.0
 10
727.3224686614697
 20
-83.18999917160625
 30
0.0
 10
727.937108672134
 20
-86.16005897660695
 30
0.0
 10
728.4010547280615
 20
-89.0668379363727
 30
0.0
 10
728.5658125383829
 20
-90.09910134368138
 30
0.0
  0
LINE
  5
75
330
1F
100
AcDbEntity
  8
0
  6
SLD-Solid
 62
     7
370
    15
100
AcDbLine
 10
798.80806
 20
686.4921332553
 30
0.0
 11
798.80806
 21
688.8414351706
 31
0.0
  0
LINE
  5
76
330
1F
100
AcDbEntity
  8
0
  6
SLD-Solid
 62
     7
370
    15
100
AcDbLine
 10
207.4757059959
 20
697.0421332553
 30
0.0
 11
207.4757059959
 21
702.1421332553
 31
0.0
  0
ARC
  5
77
330
1F
100
AcDbEntity
  8
0
  6
SLD-Solid
 62
     7
370
    15
100
AcDbCircle
 10
190.35806
 20
697.0421332553
 30
0.0
 40
0.2500000000001137
100
AcDbArc
 50
180.0
 51
270.0
  0
LINE
  5
78
330
1F
100
AcDbEntity
  8
0
  6
SLD-Solid
 62
     7
370
    15
100
AcDbLine
 10
190.10806
 20
697.7421332553
 30
0.0
 11
190.10806
 21
697.0421332553
 31
0.0
  0
LINE
  5
79
330
1F
100
AcDbEntity
  8
0
  6
SLD-Solid
 62
     7
370
    15
100
AcDbLine
 10
772.30806
 20
688.8414351706
 30
0.0
 11
772.30806
 21
686.4921332553
 31
0.0
  0
LINE
  5
7A
330
1F
100
AcDbEntity
  8
0
  6
SLD-Solid
 62
     7
370
    15
100
AcDbLine
 10
772.30806
 20
679.0819250814
 30
0.0
 11
772.30806
 21
678.2921332552
 31
0.0
  0
LINE
  5
7B
330
1F
100
AcDbEntity
  8
0
  6
SLD-Solid
 62
     7
370
    15
100
AcDbLine
 10
797.30806
 20
686.4921332553
 30
0.0
 11
797.30806
 21
688.8414351706
 31
0.0
  0
LINE
  5
7C
330
1F
100
AcDbEntity
  8
0
  6
SLD-Solid
 62
     7
370
    15
100
AcDbLine
 10
669.5130011202
 20
-118.8393519048
 30
0.0
 11
673.7477539195
 21
-99.4155146837
 31
0.0
  0
ARC
  5
7D
330
1F
100
AcDbEntity
  8
0
  6
SLD-Solid
 62
     7
370
    15
100
AcDbCircle
 10
389.2757446977
 20
2062.4735758644
 30
0.0
 40
2203.900000016601
100
AcDbArc
 50
272.6943964884
 51
277.1488297193
  0
LINE
  5
7E
330
1F
100
AcDbEntity
  8
0
  6
SLD-Solid
 62
     7
370
    15
100
AcDbLine
 10
478.395746662
 20
-99.4155146837
 30
0.0
 11
485.7051959729
 21
-133.4668517173
 31
0.0
  0
ARC
  5
7F
330
1F
100
AcDbEntity
  8
0
  6
SLD-Solid
 62
     7
370
    15
100
AcDbCircle
 10
492.5492880657
 20
-131.9977010587
 30
0.0
 40
7.000000016603451
100
AcDbArc
 50
192.1152418025
 51
270.0
  0
ARC
  5
80
330
1F
100
AcDbEntity
  8
0
  6
SLD-Solid
 62
     7
370
    15
100
AcDbCircle
 10
492.5492880657
 20
-131.9977010587
 30
0.0
 40
7.000000016603454
100
AcDbArc
 50
270.0
 51
272.6943964884
  0
ARC
  5
81
330
1F
100
AcDbEntity
  8
0
  6
SLD-Solid
 62
     7
370
    15
100
AcDbCircle
 10
662.6736580007
 20
-117.3482496529
 30
0.0
 40
7.000000016602931
100
AcDbArc
 50
277.1488297193
 51
347.7009253301
  0
ARC
  5
82
330
1F
100
AcDbEntity
  8
0
  6
SLD-Solid
 62
     7
370
    15
100
AcDbCircle
 10
510.1345459223
 20
-109.1906142328
 30
0.0
 40
6.99999971080763
100
AcDbArc
 50
192.1152418025
 51
273.335403964
  0
LINE
  5
83
330
1F
100
AcDbEntity
  8
0
  6
SLD-Solid
 62
     7
370
    15
100
AcDbLine
 10
503.2904541285
 20
-110.6597648273
 30
0.0
 11
500.8767669249
 21
-99.4155146837
 31
0.0
  0
LINE
  5
84
330
1F
100
AcDbEntity
  8
0
  6
SLD-Solid
 62
     7
370
    15
100
AcDbLine
 10
201.80806
 20
702.6376332553
 30
0.0
 11
201.5429321351
 21
702.9027611202
 31
0.0
  0
ARC
  5
85
330
1F
100
AcDbEntity
  8
0
  6
SLD-Solid
 62
     7
370
    15
100
AcDbCircle
 10
190.35806
 20
696.5421332553
 30
0.0
 40
0.25
100
AcDbArc
 50
90.0
 51
180.0
  0
ARC
  5
86
330
1F
100
AcDbEntity
  8
0
  6
SLD-Solid
 62
   142
420
    32960
370
     0
100
AcDbCircle
 10
459.4428632604
 20
-80.8682775303
 30
0.0
 40
1.000000000000093
100
AcDbArc
 50
320.2453421196
 51
336.0212552781
  0
ARC
  5
87
330
1F
100
AcDbEntity
  8
0
  6
SLD-Solid
 62
     7
370
    15
100
AcDbCircle
 10
438.1732567396
 20
-80.8682775303
 30
0.0
 40
1.000000000000005
100
AcDbArc
 50
203.9787447219
 51
219.7546578804
  0
SPLINE
  5
88
330
1F
100
AcDbEntity
  8
0
  6
SLD-Solid
 62
     7
370
    15
100
AcDbSpline
210
0.0
220
0.0
230
1.0
 70
     8
 71
     3
 72
    12
 73
     8
 74
     0
 42
0.00000001
 43
0.00000001
 40
0.0
 40
0.0
 40
0.0
 40
0.0
 40
0.1457385529867415
 40
0.4224065763362123
 40
0.7025645190516463
 40
0.9915723830907176
 40
1.0
 40
1.0
 40
1.0
 40
1.0
 10
437.4044668934616
 20
-81.50777903339329
 30
0.0
 10
437.5734154539063
 20
-81.72108868768979
 30
0.0
 10
438.0630935900746
 20
-82.33934239560925
 30
0.0
 10
438.6505712083411
 20
-83.35403586019096
 30
0.0
 10
439.0393955296795
 20
-84.54662507812166
 30
0.0
 10
439.1957088665342
 20
-85.34001174794147
 30
0.0
 10
439.1387138027448
 20
-85.75211275229688
 30
0.0
 10
439.1370988892792
 20
-85.76378933298446
 30
0.0
  0
SPLINE
  5
89
330
1F
100
AcDbEntity
  8
0
  6
SLD-Solid
 62
   142
420
    32960
370
     0
100
AcDbSpline
210
0.0
220
0.0
230
1.0
 70
     8
 71
     3
 72
    11
 73
     7
 74
     0
 42
0.00000001
 43
0.00000001
 40
0.0
 40
0.0
 40
0.0
 40
0.0
 40
0.2706728893346281
 40
0.5972761992794138
 40
0.911494237126417
 40
1.0
 40
1.0
 40
1.0
 40
1.0
 10
458.50351302908
 20
-85.41290971314875
 30
0.0
 10
458.5328495159713
 20
-85.07096078307036
 30
0.0
 10
458.5975844269327
 20
-84.31640439655152
 30
0.0
 10
459.0767426120956
 20
-83.13520923076956
 30
0.0
 10
459.6783351571531
 20
-82.16631068691576
 30
0.0
 10
460.1155641993111
 20
-81.6264279313647
 30
0.0
 10
460.2116531065409
 20
-81.50777903339329
 30
0.0
  0
SPLINE
  5
8A
330
1F
100
AcDbEntity
  8
0
  6
SLD-Solid
 62
     7
370
    15
100
AcDbSpline
210
0.0
220
0.0
230
1.0
 70
     8
 71
     3
 72
    11
 73
     7
 74
     0
 42
0.00000001
 43
0.00000001
 40
0.0
 40
0.0
 40
0.0
 40
0.0
 40
0.0925535171470156
 40
0.4249799083404802
 40
0.7579032427927104
 40
1.0
 40
1.0
 40
1.0
 40
1.0
 10
452.8013788847906
 20
-92.36479786408024
 30
0.0
 10
453.0285719830607
 20
-92.35282051365768
 30
0.0
 10
454.0717792544285
 20
-92.2978238647818
 30
0.0
 10
455.8620983581417
 20
-92.10113629114369
 30
0.0
 10
457.9277539430711
 20
-91.81113305020699
 30
0.0
 10
459.1393157235234
 20
-91.56970633233763
 30
0.0
 10
459.6494112531548
 20
-91.46806010058484
 30
0.0
  0
SPLINE
  5
8B
330
1F
100
AcDbEntity
  8
0
  6
SLD-Solid
 62
     7
370
    15
100
AcDbSpline
210
0.0
220
0.0
230
1.0
 70
     8
 71
     3
 72
    10
 73
     6
 74
     0
 42
0.00000001
 43
0.00000001
 40
0.0
 40
0.0
 40
0.0
 40
0.0
 40
0.2502355006436173
 40
0.7279697107283912
 40
1.0
 40
1.0
 40
1.0
 40
1.0
 10
437.9667087468475
 20
-91.46806010058478
 30
0.0
 10
438.3339912108765
 20
-91.54184945450133
 30
0.0
 10
439.4024667405563
 20
-91.75651289948533
 30
0.0
 10
440.9612921048301
 20
-92.00702233752051
 30
0.0
 10
442.2033046142544
 20
-92.13284671187655
 30
0.0
 10
442.6539328081842
 20
-92.17849843449477
 30
0.0
  0
SPLINE
  5
8C
330
1F
100
AcDbEntity
  8
0
  6
SLD-Solid
 62
   142
420
    32960
370
     0
100
AcDbSpline
210
0.0
220
0.0
230
1.0
 70
     8
 71
     3
 72
     9
 73
     5
 74
     0
 42
0.00000001
 43
0.00000001
 40
0.0
 40
0.0
 40
0.0
 40
0.0
 40
0.7251810361214192
 40
1.0
 40
1.0
 40
1.0
 40
1.0
 10
460.4305243226081
 20
-90.65283193889361
 30
0.0
 10
460.8104818365387
 20
-88.40252160728463
 30
0.0
 10
461.3344303335413
 20
-85.29942014775854
 30
0.0
 10
462.0050865182471
 20
-82.14230920213494
 30
0.0
 10
462.1893955560467
 20
-81.27467524320886
 30
0.0
  0
LINE
  5
8D
330
1F
100
AcDbEntity
  8
0
  6
SLD-Solid
 62
     7
370
    15
100
AcDbLine
 10
437.0658125384
 20
-90.0991013437
 30
0.0
 11
437.1551934357
 21
-90.6397582852
 31
0.0
  0
SPLINE
  5
8E
330
1F
100
AcDbEntity
  8
0
  6
SLD-Solid
 62
     7
370
    15
100
AcDbSpline
210
0.0
220
0.0
230
1.0
 70
     8
 71
     3
 72
     9
 73
     5
 74
     0
 42
0.00000001
 43
0.00000001
 40
0.0
 40
0.0
 40
0.0
 40
0.0
 40
0.6448772260978932
 40
1.0
 40
1.0
 40
1.0
 40
1.0
 10
435.4261013163431
 20
-81.27467524320886
 30
0.0
 10
435.8224686614691
 20
-83.18999917160296
 30
0.0
 10
436.4371086721335
 20
-86.1600589766045
 30
0.0
 10
436.9010547280612
 20
-89.06683793637093
 30
0.0
 10
437.0658125383832
 20
-90.09910134368337
 30
0.0
  0
LINE
  5
8F
330
1F
100
AcDbEntity
  8
0
  6
SLD-Solid
 62
   142
420
    32960
370
     0
100
AcDbLine
 10
485.30806
 20
-81.2746752432
 30
0.0
 11
485.30806
 21
-86.0777350119
 31
0.0
  0
ARC
  5
90
330
1F
100
AcDbEntity
  8
0
  6
SLD-Solid
 62
   142
420
    32960
370
     0
100
AcDbCircle
 10
486.2791983032
 20
-86.0470476272
 30
0.0
 40
0.9716230336753278
100
AcDbArc
 50
181.809909826
 51
271.7021999702
  0
LINE
  5
91
330
1F
100
AcDbEntity
  8
0
  6
SLD-Solid
 62
   142
420
    32960
370
     0
100
AcDbLine
 10
506.30806
 20
-87.0182419034
 30
0.0
 11
486.30806
 21
-87.0182419034
 31
0.0
  0
ARC
  5
92
330
1F
100
AcDbEntity
  8
0
  6
SLD-Solid
 62
   142
420
    32960
370
     0
100
AcDbCircle
 10
506.3369216968
 20
-86.0470476272
 30
0.0
 40
0.9716230336756208
100
AcDbArc
 50
268.2978000298
 51
358.190090174
  0
LINE
  5
93
330
1F
100
AcDbEntity
  8
0
  6
SLD-Solid
 62
   142
420
    32960
370
     0
100
AcDbLine
 10
507.30806
 20
-86.0777350119
 30
0.0
 11
507.30806
 21
-81.2746752432
 31
0.0
  0
LINE
  5
94
330
1F
100
AcDbEntity
  8
0
  6
SLD-Solid
 62
   142
420
    32960
370
     0
100
AcDbLine
 10
499.30806
 20
-81.2746752432
 30
0.0
 11
499.30806
 21
-83.2562143375
 31
0.0
  0
ARC
  5
95
330
1F
100
AcDbEntity
  8
0
  6
SLD-Solid
 62
   142
420
    32960
370
     0
100
AcDbCircle
 10
497.3657833936
 20
-83.1948395681
 30
0.0
 40
1.943246067350655
100
AcDbArc
 50
268.2978000298
 51
358.190090174
  0
LINE
  5
96
330
1F
100
AcDbEntity
  8
0
  6
SLD-Solid
 62
   142
420
    32960
370
     0
100
AcDbLine
 10
495.30806
 20
-85.1372281204
 30
0.0
 11
497.30806
 21
-85.1372281204
 31
0.0
  0
ARC
  5
97
330
1F
100
AcDbEntity
  8
0
  6
SLD-Solid
 62
   142
420
    32960
370
     0
100
AcDbCircle
 10
495.2503366065
 20
-83.1948395681
 30
0.0
 40
1.943246067350847
100
AcDbArc
 50
181.809909826
 51
271.7021999702
  0
LINE
  5
98
330
1F
100
AcDbEntity
  8
0
  6
SLD-Solid
 62
   142
420
    32960
370
     0
100
AcDbLine
 10
493.30806
 20
-81.2746752432
 30
0.0
 11
493.30806
 21
-83.2562143375
 31
0.0
  0
CIRCLE
  5
99
330
1F
100
AcDbEntity
  8
0
  6
SLD-Solid
 62
     7
370
    15
100
AcDbCircle
 10
203.90806
 20
453.8921332552
 30
0.0
 40
91.49999999999991
  0
CIRCLE
  5
9A
330
1F
100
AcDbEntity
  8
0
  6
SLD-Solid
 62
     7
370
    15
100
AcDbCircle
 10
203.90806
 20
453.8921332552
 30
0.0
 40
27.49999999999998
  0
CIRCLE
  5
9B
330
1F
100
AcDbEntity
  8
0
  6
SLD-Solid
 62
     7
370
    15
100
AcDbCircle
 10
203.90806
 20
453.8921332552
 30
0.0
 40
93.5
  0
CIRCLE
  5
9C
330
1F
100
AcDbEntity
  8
0
  6
SLD-Solid
 62
     7
370
    15
100
AcDbCircle
 10
203.9117747279
 20
453.8947534401
 30
0.0
 40
14.00000000000001
  0
LINE
  5
9D
330
1F
100
AcDbEntity
  8
0
  6
SLD-Solid
 62
     7
370
    15
100
AcDbLine
 10
-1.19194
 20
686.4921332553
 30
0.0
 11
-1.19194
 21
683.9115542128
 31
0.0
  0
LINE
  5
9E
330
1F
100
AcDbEntity
  8
0
  6
SLD-Solid
 62
     7
370
    15
100
AcDbLine
 10
898.80806
 20
686.4921332553
 30
0.0
 11
898.80806
 21
683.9115542128
 31
0.0
  0
LINE
  5
9F
330
1F
100
AcDbEntity
  8
0
  6
SLD-Solid
 62
     7
370
    15
100
AcDbLine
 10
898.80806
 20
686.4921332553
 30
0.0
 11
-1.19194
 21
686.4921332553
 31
0.0
  0
LINE
  5
A0
330
1F
100
AcDbEntity
  8
0
  6
SLD-Solid
 62
     7
370
    15
100
AcDbLine
 10
898.80806
 20
683.9115542128
 30
0.0
 11
898.80806
 21
650.6146018916
 31
0.0
  0
LINE
  5
A1
330
1F
100
AcDbEntity
  8
0
  6
SLD-Solid
 62
     7
370
    15
100
AcDbLine
 10
-1.19194
 20
683.9115542128
 30
0.0
 11
-1.19194
 21
650.6146018916
 31
0.0
  0
LINE
  5
A2
330
1F
100
AcDbEntity
  8
0
  6
SLD-Solid
 62
     7
370
    15
100
AcDbLine
 10
493.156439409
 20
679.0819250814
 30
0.0
 11
414.3749348283
 21
679.0819250814
 31
0.0
  0
LINE
  5
A3
330
1F
100
AcDbEntity
  8
0
  6
SLD-Solid
 62
     7
370
    15
100
AcDbLine
 10
409.9180091772
 20
676.4413093019
 30
0.0
 11
400.0027549399
 21
657.6057556892
 31
0.0
  0
ARC
  5
A4
330
1F
100
AcDbEntity
  8
0
  6
SLD-Solid
 62
     7
370
    15
100
AcDbCircle
 10
404.3019322653
 20
655.4220032887
 30
0.0
 40
4.822001682067662
100
AcDbArc
 50
153.0718636158
 51
265.540211537
  0
LINE
  5
A5
330
1F
100
AcDbEntity
  8
0
  6
SLD-Solid
 62
     7
370
    15
100
AcDbLine
 10
393.156439409
 20
679.0819250814
 30
0.0
 11
314.3749348283
 21
679.0819250814
 31
0.0
  0
ARC
  5
A6
330
1F
100
AcDbEntity
  8
0
  6
SLD-Solid
 62
     7
370
    15
100
AcDbCircle
 10
314.3389875775
 20
674.061011075
 30
0.0
 40
5.021042686941362
100
AcDbArc
 50
89.5897976815
 51
151.7015410578
  0
ARC
  5
A7
330
1F
100
AcDbEntity
  8
0
  6
SLD-Solid
 62
     7
370
    15
100
AcDbCircle
 10
304.3019322653
 20
655.4220032887
 30
0.0
 40
4.822001682067713
100
AcDbArc
 50
153.0718636158
 51
265.540211537
  0
ARC
  5
A8
330
1F
100
AcDbEntity
  8
0
  6
SLD-Solid
 62
     7
370
    15
100
AcDbCircle
 10
283.2916276345
 20
655.5919623155
 30
0.0
 40
5.000669288031438
100
AcDbArc
 50
275.5341758578
 51
331.784876003
  0
LINE
  5
A9
330
1F
100
AcDbEntity
  8
0
  6
SLD-Solid
 62
     7
370
    15
100
AcDbLine
 10
287.6981108228
 20
653.2277289853
 30
0.0
 11
297.6133650601
 21
672.0632825979
 31
0.0
  0
ARC
  5
AA
330
1F
100
AcDbEntity
  8
0
  6
SLD-Solid
 62
     7
370
    15
100
AcDbCircle
 10
293.2902858696
 20
674.2424962828
 30
0.0
 40
4.841279373382908
100
AcDbArc
 50
333.2478610927
 51
91.5842536627
  0
LINE
  5
AB
330
1F
100
AcDbEntity
  8
0
  6
SLD-Solid
 62
     7
370
    15
100
AcDbLine
 10
293.156439409
 20
679.0819250814
 30
0.0
 11
214.3749348283
 21
679.0819250814
 31
0.0
  0
ARC
  5
AC
330
1F
100
AcDbEntity
  8
0
  6
SLD-Solid
 62
     7
370
    15
100
AcDbCircle
 10
214.3389875775
 20
674.061011075
 30
0.0
 40
5.021042686941195
100
AcDbArc
 50
89.5897976815
 51
151.7015410578
  0
LINE
  5
AD
330
1F
100
AcDbEntity
  8
0
  6
SLD-Solid
 62
     7
370
    15
100
AcDbLine
 10
187.6981108228
 20
653.2277289853
 30
0.0
 11
197.6133650601
 21
672.0632825979
 31
0.0
  0
LINE
  5
AE
330
1F
100
AcDbEntity
  8
0
  6
SLD-Solid
 62
     7
370
    15
100
AcDbLine
 10
193.156439409
 20
679.0819250814
 30
0.0
 11
114.3749348283
 21
679.0819250814
 31
0.0
  0
LINE
  5
AF
330
1F
100
AcDbEntity
  8
0
  6
SLD-Solid
 62
     7
370
    15
100
AcDbLine
 10
87.6981108228
 20
653.2277289853
 30
0.0
 11
97.6133650601
 21
672.0632825979
 31
0.0
  0
LINE
  5
B0
330
1F
100
AcDbEntity
  8
0
  6
SLD-Solid
 62
     7
370
    15
100
AcDbLine
 10
93.156439409
 20
679.0819250814
 30
0.0
 11
23.80806
 21
679.0819250814
 31
0.0
  0
LINE
  5
B1
330
1F
100
AcDbEntity
  8
0
  6
SLD-Solid
 62
     7
370
    15
100
AcDbLine
 10
18.80806
 20
674.2522959499
 30
0.0
 11
18.80806
 21
655.4167423373
 31
0.0
  0
LINE
  5
B2
330
1F
100
AcDbEntity
  8
0
  6
SLD-Solid
 62
     7
370
    15
100
AcDbLine
 10
878.80806
 20
655.4167423373
 30
0.0
 11
878.80806
 21
674.2522959499
 31
0.0
  0
LINE
  5
B3
330
1F
100
AcDbEntity
  8
0
  6
SLD-Solid
 62
     7
370
    15
100
AcDbLine
 10
873.80806
 20
679.0819250814
 30
0.0
 11
814.3749348283
 21
679.0819250814
 31
0.0
  0
LINE
  5
B4
330
1F
100
AcDbEntity
  8
0
  6
SLD-Solid
 62
     7
370
    15
100
AcDbLine
 10
809.9180091772
 20
676.4413093019
 30
0.0
 11
800.0027549399
 21
657.6057556892
 31
0.0
  0
ARC
  5
B5
330
1F
100
AcDbEntity
  8
0
  6
SLD-Solid
 62
     7
370
    15
100
AcDbCircle
 10
804.3019322653
 20
655.4220032887
 30
0.0
 40
4.822001682067258
100
AcDbArc
 50
153.0718636158
 51
265.5402115369
  0
ARC
  5
B6
330
1F
100
AcDbEntity
  8
0
  6
SLD-Solid
 62
     7
370
    15
100
AcDbCircle
 10
793.2902858696
 20
674.2424962828
 30
0.0
 40
4.84127937338305
100
AcDbArc
 50
333.2478610927
 51
91.5842536627
  0
LINE
  5
B7
330
1F
100
AcDbEntity
  8
0
  6
SLD-Solid
 62
     7
370
    15
100
AcDbLine
 10
793.156439409
 20
679.0819250814
 30
0.0
 11
714.3749348283
 21
679.0819250814
 31
0.0
  0
ARC
  5
B8
330
1F
100
AcDbEntity
  8
0
  6
SLD-Solid
 62
     7
370
    15
100
AcDbCircle
 10
704.3019322653
 20
655.4220032887
 30
0.0
 40
4.822001682068524
100
AcDbArc
 50
153.0718636158
 51
265.5402115372
  0
ARC
  5
B9
330
1F
100
AcDbEntity
  8
0
  6
SLD-Solid
 62
     7
370
    15
100
AcDbCircle
 10
683.2916276345
 20
655.5919623155
 30
0.0
 40
5.00066928803118
100
AcDbArc
 50
275.5341758578
 51
331.784876003
  0
LINE
  5
BA
330
1F
100
AcDbEntity
  8
0
  6
SLD-Solid
 62
     7
370
    15
100
AcDbLine
 10
693.156439409
 20
679.0819250814
 30
0.0
 11
614.3749348283
 21
679.0819250814
 31
0.0
  0
ARC
  5
BB
330
1F
100
AcDbEntity
  8
0
  6
SLD-Solid
 62
     7
370
    15
100
AcDbCircle
 10
614.3389875775
 20
674.061011075
 30
0.0
 40
5.021042686941507
100
AcDbArc
 50
89.5897976815
 51
151.7015410578
  0
ARC
  5
BC
330
1F
100
AcDbEntity
  8
0
  6
SLD-Solid
 62
     7
370
    15
100
AcDbCircle
 10
604.3019322653
 20
655.4220032887
 30
0.0
 40
4.822001682067512
100
AcDbArc
 50
153.0718636158
 51
265.540211537
  0
ARC
  5
BD
330
1F
100
AcDbEntity
  8
0
  6
SLD-Solid
 62
     7
370
    15
100
AcDbCircle
 10
583.2916276345
 20
655.5919623155
 30
0.0
 40
5.000669288030919
100
AcDbArc
 50
275.5341758578
 51
331.784876003
  0
LINE
  5
BE
330
1F
100
AcDbEntity
  8
0
  6
SLD-Solid
 62
     7
370
    15
100
AcDbLine
 10
587.6981108228
 20
653.2277289853
 30
0.0
 11
597.6133650601
 21
672.0632825979
 31
0.0
  0
ARC
  5
BF
330
1F
100
AcDbEntity
  8
0
  6
SLD-Solid
 62
     7
370
    15
100
AcDbCircle
 10
593.2902858696
 20
674.2424962828
 30
0.0
 40
4.841279373382908
100
AcDbArc
 50
333.2478610927
 51
91.5842536627
  0
LINE
  5
C0
330
1F
100
AcDbEntity
  8
0
  6
SLD-Solid
 62
     7
370
    15
100
AcDbLine
 10
593.156439409
 20
679.0819250814
 30
0.0
 11
514.3749348283
 21
679.0819250814
 31
0.0
  0
LINE
  5
C1
330
1F
100
AcDbEntity
  8
0
  6
SLD-Solid
 62
     7
370
    15
100
AcDbLine
 10
509.9180091772
 20
676.4413093019
 30
0.0
 11
500.0027549399
 21
657.6057556892
 31
0.0
  0
ARC
  5
C2
330
1F
100
AcDbEntity
  8
0
  6
SLD-Solid
 62
     7
370
    15
100
AcDbCircle
 10
504.3019322653
 20
655.4220032887
 30
0.0
 40
4.822001682067764
100
AcDbArc
 50
153.0718636158
 51
265.540211537
  0
ARC
  5
C3
330
1F
100
AcDbEntity
  8
0
  6
SLD-Solid
 62
   142
420
    32960
370
     0
100
AcDbCircle
 10
514.3389875775
 20
674.061011075
 30
0.0
 40
5.021042686941477
100
AcDbArc
 50
89.5897976815
 51
151.7015410578
  0
LINE
  5
C4
330
1F
100
AcDbEntity
  8
0
  6
SLD-Solid
 62
   142
420
    32960
370
     0
100
AcDbLine
 10
609.9180091772
 20
676.4413093019
 30
0.0
 11
600.0027549399
 21
657.6057556892
 31
0.0
  0
ARC
  5
C5
330
1F
100
AcDbEntity
  8
0
  6
SLD-Solid
 62
   142
420
    32960
370
     0
100
AcDbCircle
 10
693.2902858696
 20
674.2424962828
 30
0.0
 40
4.841279373382807
100
AcDbArc
 50
333.2478610927
 51
91.5842536627
  0
LINE
  5
C6
330
1F
100
AcDbEntity
  8
0
  6
SLD-Solid
 62
   142
420
    32960
370
     0
100
AcDbLine
 10
687.6981108228
 20
653.2277289853
 30
0.0
 11
697.6133650601
 21
672.0632825979
 31
0.0
  0
LINE
  5
C7
330
1F
100
AcDbEntity
  8
0
  6
SLD-Solid
 62
   142
420
    32960
370
     0
100
AcDbLine
 10
709.9180091772
 20
676.4413093019
 30
0.0
 11
700.0027549399
 21
657.6057556892
 31
0.0
  0
ARC
  5
C8
330
1F
100
AcDbEntity
  8
0
  6
SLD-Solid
 62
   142
420
    32960
370
     0
100
AcDbCircle
 10
714.3389875775
 20
674.061011075
 30
0.0
 40
5.021042686941701
100
AcDbArc
 50
89.5897976815
 51
151.7015410578
  0
LINE
  5
C9
330
1F
100
AcDbEntity
  8
0
  6
SLD-Solid
 62
   142
420
    32960
370
     0
100
AcDbLine
 10
787.6981108228
 20
653.2277289853
 30
0.0
 11
797.6133650601
 21
672.063282598
 31
0.0
  0
ARC
  5
CA
330
1F
100
AcDbEntity
  8
0
  6
SLD-Solid
 62
   142
420
    32960
370
     0
100
AcDbCircle
 10
783.2916276345
 20
655.5919623155
 30
0.0
 40
5.000669288032365
100
AcDbArc
 50
275.5341758576
 51
331.784876003
  0
ARC
  5
CB
330
1F
100
AcDbEntity
  8
0
  6
SLD-Solid
 62
   142
420
    32960
370
     0
100
AcDbCircle
 10
814.3389875775
 20
674.061011075
 30
0.0
 40
5.021042686942383
100
AcDbArc
 50
89.5897976815
 51
151.7015410578
  0
ARC
  5
CC
330
1F
100
AcDbEntity
  8
0
  6
SLD-Solid
 62
   142
420
    32960
370
     0
100
AcDbCircle
 10
873.8917941226
 20
674.1656080073
 30
0.0
 40
4.917030097157294
100
AcDbArc
 50
1.0101851092
 51
90.9757604995
  0
ARC
  5
CD
330
1F
100
AcDbEntity
  8
0
  6
SLD-Solid
 62
   142
420
    32960
370
     0
100
AcDbCircle
 10
873.9134005991
 20
655.4911360387
 30
0.0
 40
4.895224721419787
100
AcDbArc
 50
275.0084220182
 51
359.1292311494
  0
ARC
  5
CE
330
1F
100
AcDbEntity
  8
0
  6
SLD-Solid
 62
   142
420
    32960
370
     0
100
AcDbCircle
 10
23.7027194009
 20
655.4911360387
 30
0.0
 40
4.895224721419329
100
AcDbArc
 50
180.8707688506
 51
264.9915779818
  0
ARC
  5
CF
330
1F
100
AcDbEntity
  8
0
  6
SLD-Solid
 62
   142
420
    32960
370
     0
100
AcDbCircle
 10
23.7243258774
 20
674.1656080073
 30
0.0
 40
4.917030097157147
100
AcDbArc
 50
89.0242395005
 51
178.9898148908
  0
ARC
  5
D0
330
1F
100
AcDbEntity
  8
0
  6
SLD-Solid
 62
   142
420
    32960
370
     0
100
AcDbCircle
 10
93.2902858696
 20
674.2424962828
 30
0.0
 40
4.841279373383277
100
AcDbArc
 50
333.2478610927
 51
91.5842536627
  0
ARC
  5
D1
330
1F
100
AcDbEntity
  8
0
  6
SLD-Solid
 62
   142
420
    32960
370
     0
100
AcDbCircle
 10
83.2916276345
 20
655.5919623155
 30
0.0
 40
5.000669288030195
100
AcDbArc
 50
275.534175858
 51
331.784876003
  0
ARC
  5
D2
330
1F
100
AcDbEntity
  8
0
  6
SLD-Solid
 62
   142
420
    32960
370
     0
100
AcDbCircle
 10
104.3019322653
 20
655.4220032887
 30
0.0
 40
4.82200168206722
100
AcDbArc
 50
153.0718636158
 51
265.5402115369
  0
LINE
  5
D3
330
1F
100
AcDbEntity
  8
0
  6
SLD-Solid
 62
   142
420
    32960
370
     0
100
AcDbLine
 10
109.9180091772
 20
676.4413093019
 30
0.0
 11
100.0027549399
 21
657.6057556892
 31
0.0
  0
ARC
  5
D4
330
1F
100
AcDbEntity
  8
0
  6
SLD-Solid
 62
   142
420
    32960
370
     0
100
AcDbCircle
 10
114.3389875775
 20
674.061011075
 30
0.0
 40
5.021042686941927
100
AcDbArc
 50
89.5897976815
 51
151.7015410578
  0
ARC
  5
D5
330
1F
100
AcDbEntity
  8
0
  6
SLD-Solid
 62
   142
420
    32960
370
     0
100
AcDbCircle
 10
193.2902858696
 20
674.2424962828
 30
0.0
 40
4.841279373383163
100
AcDbArc
 50
333.2478610927
 51
91.5842536627
  0
ARC
  5
D6
330
1F
100
AcDbEntity
  8
0
  6
SLD-Solid
 62
   142
420
    32960
370
     0
100
AcDbCircle
 10
183.2916276345
 20
655.5919623155
 30
0.0
 40
5.0006692880301
100
AcDbArc
 50
275.534175858
 51
331.784876003
  0
ARC
  5
D7
330
1F
100
AcDbEntity
  8
0
  6
SLD-Solid
 62
   142
420
    32960
370
     0
100
AcDbCircle
 10
204.3019322653
 20
655.4220032887
 30
0.0
 40
4.822001682067638
100
AcDbArc
 50
153.0718636158
 51
265.540211537
  0
LINE
  5
D8
330
1F
100
AcDbEntity
  8
0
  6
SLD-Solid
 62
   142
420
    32960
370
     0
100
AcDbLine
 10
209.9180091772
 20
676.4413093019
 30
0.0
 11
200.0027549399
 21
657.6057556892
 31
0.0
  0
LINE
  5
D9
330
1F
100
AcDbEntity
  8
0
  6
SLD-Solid
 62
   142
420
    32960
370
     0
100
AcDbLine
 10
309.9180091772
 20
676.4413093019
 30
0.0
 11
300.0027549399
 21
657.6057556892
 31
0.0
  0
ARC
  5
DA
330
1F
100
AcDbEntity
  8
0
  6
SLD-Solid
 62
   142
420
    32960
370
     0
100
AcDbCircle
 10
393.2902858696
 20
674.2424962828
 30
0.0
 40
4.841279373383049
100
AcDbArc
 50
333.2478610927
 51
91.5842536627
  0
LINE
  5
DB
330
1F
100
AcDbEntity
  8
0
  6
SLD-Solid
 62
   142
420
    32960
370
     0
100
AcDbLine
 10
387.6981108228
 20
653.2277289853
 30
0.0
 11
397.6133650601
 21
672.0632825979
 31
0.0
  0
ARC
  5
DC
330
1F
100
AcDbEntity
  8
0
  6
SLD-Solid
 62
   142
420
    32960
370
     0
100
AcDbCircle
 10
383.2916276345
 20
655.5919623155
 30
0.0
 40
5.000669288030561
100
AcDbArc
 50
275.5341758579
 51
331.784876003
  0
ARC
  5
DD
330
1F
100
AcDbEntity
  8
0
  6
SLD-Solid
 62
   142
420
    32960
370
     0
100
AcDbCircle
 10
414.3389875775
 20
674.061011075
 30
0.0
 40
5.021042686941869
100
AcDbArc
 50
89.5897976815
 51
151.7015410578
  0
ARC
  5
DE
330
1F
100
AcDbEntity
  8
0
  6
SLD-Solid
 62
   142
420
    32960
370
     0
100
AcDbCircle
 10
493.2902858696
 20
674.2424962828
 30
0.0
 40
4.84127937338294
100
AcDbArc
 50
333.2478610927
 51
91.5842536627
  0
LINE
  5
DF
330
1F
100
AcDbEntity
  8
0
  6
SLD-Solid
 62
   142
420
    32960
370
     0
100
AcDbLine
 10
487.6981108228
 20
653.2277289853
 30
0.0
 11
497.6133650601
 21
672.0632825979
 31
0.0
  0
ARC
  5
E0
330
1F
100
AcDbEntity
  8
0
  6
SLD-Solid
 62
   142
420
    32960
370
     0
100
AcDbCircle
 10
483.2916276345
 20
655.5919623155
 30
0.0
 40
5.000669288031284
100
AcDbArc
 50
275.5341758579
 51
331.784876003
  0
LWPOLYLINE
  5
E1
330
1F
100
AcDbEntity
  8
0
  6
SLD-Solid
 62
     7
370
    15
100
AcDbPolyline
 90
        3
 70
   128
 43
0.0
 10
597.6133650601
 20
672.270337834
 10
598.0410500692
 20
673.4277628895
 10
598.1552905287
 20
674.355823568
  0
LINE
  5
E2
330
1F
100
AcDbEntity
  8
0
  6
SLD-Solid
 62
     7
370
    15
100
AcDbLine
 10
587.6981108228
 20
653.4347842214
 30
0.0
 11
597.6133650601
 21
672.270337834
 31
0.0
  0
ARC
  5
E3
330
1F
100
AcDbEntity
  8
0
  6
SLD-Solid
 62
   142
420
    32960
370
     0
100
AcDbCircle
 10
583.2916276345
 20
655.7990175516
 30
0.0
 40
5.000669288031027
100
AcDbArc
 50
275.5341758578
 51
331.784876003
  0
ARC
  5
E4
330
1F
100
AcDbEntity
  8
0
  6
SLD-Solid
 62
   142
420
    32960
370
     0
100
AcDbCircle
 10
604.356870739
 20
655.7021798471
 30
0.0
 40
4.899419486466894
100
AcDbArc
 50
182.1278164205
 51
264.9661675259
  0
ARC
  5
E5
330
1F
100
AcDbEntity
  8
0
  6
SLD-Solid
 62
   142
420
    32960
370
     0
100
AcDbCircle
 10
683.2916276345
 20
655.7990175516
 30
0.0
 40
5.000669288031596
100
AcDbArc
 50
275.5341758578
 51
331.784876003
  0
ARC
  5
E6
330
1F
100
AcDbEntity
  8
0
  6
SLD-Solid
 62
   142
420
    32960
370
     0
100
AcDbCircle
 10
704.356870739
 20
655.7021798471
 30
0.0
 40
4.899419486466523
100
AcDbArc
 50
182.1278164198
 51
264.9661675261
  0
LWPOLYLINE
  5
E7
330
1F
100
AcDbEntity
  8
0
  6
SLD-Solid
 62
     7
370
    15
100
AcDbPolyline
 90
        3
 70
   128
 43
0.0
 10
797.6133650601
 20
672.270337834
 10
798.0410500692
 20
673.4277628895
 10
798.1552905287
 20
674.3558235694
  0
ARC
  5
E8
330
1F
100
AcDbEntity
  8
0
  6
SLD-Solid
 62
     7
370
    15
100
AcDbCircle
 10
804.3568707391
 20
655.7021798473
 30
0.0
 40
4.899419486626704
100
AcDbArc
 50
182.1278164867
 51
264.9661675251
  0
LINE
  5
E9
330
1F
100
AcDbEntity
  8
0
  6
SLD-Solid
 62
     7
370
    15
100
AcDbLine
 10
87.6981108228
 20
653.4347842214
 30
0.0
 11
97.6133650601
 21
672.270337834
 31
0.0
  0
LINE
  5
EA
330
1F
100
AcDbEntity
  8
0
  6
SLD-Solid
 62
     7
370
    15
100
AcDbLine
 10
187.6981108228
 20
653.4347842214
 30
0.0
 11
197.6133650601
 21
672.270337834
 31
0.0
  0
LWPOLYLINE
  5
EB
330
1F
100
AcDbEntity
  8
0
  6
SLD-Solid
 62
   142
420
    32960
370
     0
100
AcDbPolyline
 90
        3
 70
   128
 43
0.0
 10
297.6133650601
 20
672.270337834
 10
298.0410500692
 20
673.4277628895
 10
298.1552905285
 20
674.3558235584
  0
LINE
  5
EC
330
1F
100
AcDbEntity
  8
0
  6
SLD-Solid
 62
   142
420
    32960
370
     0
100
AcDbLine
 10
287.6981108228
 20
653.4347842214
 30
0.0
 11
297.6133650601
 21
672.270337834
 31
0.0
  0
ARC
  5
ED
330
1F
100
AcDbEntity
  8
0
  6
SLD-Solid
 62
   142
420
    32960
370
     0
100
AcDbCircle
 10
283.2916276345
 20
655.7990175516
 30
0.0
 40
5.000669288031165
100
AcDbArc
 50
275.5341758578
 51
331.784876003
  0
ARC
  5
EE
330
1F
100
AcDbEntity
  8
0
  6
SLD-Solid
 62
   142
420
    32960
370
     0
100
AcDbCircle
 10
304.3568707391
 20
655.7021798473
 30
0.0
 40
4.899419486586161
100
AcDbArc
 50
182.1278164699
 51
264.9661675254
  0
ARC
  5
EF
330
1F
100
AcDbEntity
  8
0
  6
SLD-Solid
 62
   142
420
    32960
370
     0
100
AcDbCircle
 10
404.356870739
 20
655.702179847
 30
0.0
 40
4.899419486312886
100
AcDbArc
 50
182.1278163569
 51
264.9661675265
  0
ARC
  5
F0
330
1F
100
AcDbEntity
  8
0
  6
SLD-Solid
 62
     7
370
    15
100
AcDbCircle
 10
504.356870739
 20
655.7021798471
 30
0.0
 40
4.899419486444437
100
AcDbArc
 50
182.1278164112
 51
264.966167526
  0
ARC
  5
F1
330
1F
100
AcDbEntity
  8
0
  6
SLD-Solid
 62
   142
420
    32960
370
     0
100
AcDbCircle
 10
483.2916276345
 20
655.7990175516
 30
0.0
 40
5.000669288030769
100
AcDbArc
 50
275.5341758579
 51
331.784876003
  0
LINE
  5
F2
330
1F
100
AcDbEntity
  8
0
  6
SLD-Solid
 62
   142
420
    32960
370
     0
100
AcDbLine
 10
487.6981108228
 20
653.4347842214
 30
0.0
 11
497.6133650601
 21
672.270337834
 31
0.0
  0
LWPOLYLINE
  5
F3
330
1F
100
AcDbEntity
  8
0
  6
SLD-Solid
 62
   142
420
    32960
370
     0
100
AcDbPolyline
 90
        3
 70
   128
 43
0.0
 10
497.6133650601
 20
672.270337834
 10
498.0410500692
 20
673.4277628895
 10
498.1552905288
 20
674.3558235699
  0
ARC
  5
F4
330
1F
100
AcDbEntity
  8
0
  6
SLD-Solid
 62
   142
420
    32960
370
     0
100
AcDbCircle
 10
383.2916276345
 20
655.7990175516
 30
0.0
 40
5.000669288030959
100
AcDbArc
 50
275.5341758579
 51
331.784876003
  0
LINE
  5
F5
330
1F
100
AcDbEntity
  8
0
  6
SLD-Solid
 62
   142
420
    32960
370
     0
100
AcDbLine
 10
387.6981108228
 20
653.4347842214
 30
0.0
 11
397.6133650601
 21
672.270337834
 31
0.0
  0
LWPOLYLINE
  5
F6
330
1F
100
AcDbEntity
  8
0
  6
SLD-Solid
 62
   142
420
    32960
370
     0
100
AcDbPolyline
 90
        3
 70
   128
 43
0.0
 10
397.6133650601
 20
672.270337834
 10
398.0410500692
 20
673.4277628895
 10
398.1552905288
 20
674.3558235734
  0
ARC
  5
F7
330
1F
100
AcDbEntity
  8
0
  6
SLD-Solid
 62
   142
420
    32960
370
     0
100
AcDbCircle
 10
204.356870739
 20
655.7021798469
 30
0.0
 40
4.899419486259711
100
AcDbArc
 50
182.1278163349
 51
264.9661675268
  0
ARC
  5
F8
330
1F
100
AcDbEntity
  8
0
  6
SLD-Solid
 62
   142
420
    32960
370
     0
100
AcDbCircle
 10
183.2916276345
 20
655.7990175516
 30
0.0
 40
5.000669288031188
100
AcDbArc
 50
275.534175858
 51
331.784876003
  0
LWPOLYLINE
  5
F9
330
1F
100
AcDbEntity
  8
0
  6
SLD-Solid
 62
   142
420
    32960
370
     0
100
AcDbPolyline
 90
        3
 70
   128
 43
0.0
 10
197.6133650601
 20
672.270337834
 10
198.0410500692
 20
673.4277628895
 10
198.1552905287
 20
674.3558235657
  0
ARC
  5
FA
330
1F
100
AcDbEntity
  8
0
  6
SLD-Solid
 62
   142
420
    32960
370
     0
100
AcDbCircle
 10
104.3568707393
 20
655.7021798477
 30
0.0
 40
4.899419487032779
100
AcDbArc
 50
182.1278166548
 51
264.9661675233
  0
ARC
  5
FB
330
1F
100
AcDbEntity
  8
0
  6
SLD-Solid
 62
   142
420
    32960
370
     0
100
AcDbCircle
 10
83.2916276345
 20
655.7990175516
 30
0.0
 40
5.000669288029895
100
AcDbArc
 50
275.534175858
 51
331.784876003
  0
LWPOLYLINE
  5
FC
330
1F
100
AcDbEntity
  8
0
  6
SLD-Solid
 62
   142
420
    32960
370
     0
100
AcDbPolyline
 90
        3
 70
   128
 43
0.0
 10
97.6133650601
 20
672.270337834
 10
98.0410500692
 20
673.4277628895
 10
98.1552905289
 20
674.3558235783
  0
ARC
  5
FD
330
1F
100
AcDbEntity
  8
0
  6
SLD-Solid
 62
   142
420
    32960
370
     0
100
AcDbCircle
 10
23.7027194009
 20
655.6981912748
 30
0.0
 40
4.89522472141922
100
AcDbArc
 50
180.8707688506
 51
264.9915779818
  0
ARC
  5
FE
330
1F
100
AcDbEntity
  8
0
  6
SLD-Solid
 62
   142
420
    32960
370
     0
100
AcDbCircle
 10
873.9134005991
 20
655.6981912748
 30
0.0
 40
4.89522472141967
100
AcDbArc
 50
275.0084220182
 51
359.1292311494
  0
ARC
  5
FF
330
1F
100
AcDbEntity
  8
0
  6
SLD-Solid
 62
   142
420
    32960
370
     0
100
AcDbCircle
 10
783.2916276345
 20
655.7990175516
 30
0.0
 40
5.000669288032412
100
AcDbArc
 50
275.5341758576
 51
331.784876003
  0
LINE
  5
100
330
1F
100
AcDbEntity
  8
0
  6
SLD-Solid
 62
   142
420
    32960
370
     0
100
AcDbLine
 10
787.6981108228
 20
653.4347842214
 30
0.0
 11
797.6133650601
 21
672.270337834
 31
0.0
  0
LINE
  5
101
330
1F
100
AcDbEntity
  8
0
  6
SLD-Solid
 62
   142
420
    32960
370
     0
100
AcDbLine
 10
687.6981108228
 20
653.4347842214
 30
0.0
 11
697.6133650601
 21
672.270337834
 31
0.0
  0
LWPOLYLINE
  5
102
330
1F
100
AcDbEntity
  8
0
  6
SLD-Solid
 62
   142
420
    32960
370
     0
100
AcDbPolyline
 90
        3
 70
   128
 43
0.0
 10
697.6133650601
 20
672.270337834
 10
698.0410500692
 20
673.4277628895
 10
698.1552905287
 20
674.3558235672
  0
LINE
  5
103
330
1F
100
AcDbEntity
  8
0
  6
SLD-Solid
 62
   142
420
    32960
370
     0
100
AcDbLine
 10
797.6133650601
 20
672.270337834
 30
0.0
 11
797.6133650601
 21
672.063282598
 31
0.0
  0
LINE
  5
104
330
1F
100
AcDbEntity
  8
0
  6
SLD-Solid
 62
   142
420
    32960
370
     0
100
AcDbLine
 10
97.6133650601
 20
672.270337834
 30
0.0
 11
97.6133650601
 21
672.0632825979
 31
0.0
  0
LINE
  5
105
330
1F
100
AcDbEntity
  8
0
  6
SLD-Solid
 62
   142
420
    32960
370
     0
100
AcDbLine
 10
87.6981108228
 20
653.4347842214
 30
0.0
 11
87.6981108228
 21
653.2277289853
 31
0.0
  0
LINE
  5
106
330
1F
100
AcDbEntity
  8
0
  6
SLD-Solid
 62
   142
420
    32960
370
     0
100
AcDbLine
 10
197.6133650601
 20
672.270337834
 30
0.0
 11
197.6133650601
 21
672.0632825979
 31
0.0
  0
LINE
  5
107
330
1F
100
AcDbEntity
  8
0
  6
SLD-Solid
 62
   142
420
    32960
370
     0
100
AcDbLine
 10
187.6981108228
 20
653.4347842214
 30
0.0
 11
187.6981108228
 21
653.2277289853
 31
0.0
  0
SPLINE
  5
108
330
1F
100
AcDbEntity
  8
0
  6
SLD-Solid
 62
     7
370
    15
100
AcDbSpline
210
0.0
220
0.0
230
1.0
 70
     8
 71
     3
 72
     8
 73
     4
 74
     0
 42
0.00000001
 43
0.00000001
 40
0.0
 40
0.0
 40
0.0
 40
0.0
 40
1.0
 40
1.0
 40
1.0
 40
1.0
 10
704.4596805909727
 20
650.5871172680802
 30
0.0
 10
704.2816056979958
 20
650.5871172680802
 30
0.0
 10
704.1040375778063
 20
650.5962761010719
 30
0.0
 10
703.9269762294819
 20
650.6146018916108
 30
0.0
  0
ARC
  5
109
330
1F
100
AcDbEntity
  8
0
  6
SLD-Solid
 62
   142
420
    32960
370
     0
100
AcDbCircle
 10
704.4596403552
 20
655.9687828136
 30
0.0
 40
5.174614371841694
100
AcDbArc
 50
264.0916247812
 51
270.0004455097
  0
SPLINE
  5
10A
330
1F
100
AcDbEntity
  8
0
  6
SLD-Solid
 62
     7
370
    15
100
AcDbSpline
210
0.0
220
0.0
230
1.0
 70
     8
 71
     3
 72
     8
 73
     4
 74
     0
 42
0.00000001
 43
0.00000001
 40
0.0
 40
0.0
 40
0.0
 40
0.0
 40
1.0
 40
1.0
 40
1.0
 40
1.0
 10
404.4596805909726
 20
650.5871172680777
 30
0.0
 10
404.2816056979882
 20
650.5871172680777
 30
0.0
 10
404.1040375777911
 20
650.5962761010704
 30
0.0
 10
403.9269762294592
 20
650.614601891611
 30
0.0
  0
ARC
  5
10B
330
1F
100
AcDbEntity
  8
0
  6
SLD-Solid
 62
   142
420
    32960
370
     0
100
AcDbCircle
 10
404.4596403552
 20
655.9687828136
 30
0.0
 40
5.174614371856589
100
AcDbArc
 50
264.0916247809
 51
270.0004455097
  0
SPLINE
  5
10C
330
1F
100
AcDbEntity
  8
0
  6
SLD-Solid
 62
     7
370
    15
100
AcDbSpline
210
0.0
220
0.0
230
1.0
 70
     8
 71
     3
 72
     8
 73
     4
 74
     0
 42
0.00000001
 43
0.00000001
 40
0.0
 40
0.0
 40
0.0
 40
0.0
 40
1.0
 40
1.0
 40
1.0
 40
1.0
 10
304.4596805909727
 20
650.5871172680777
 30
0.0
 10
304.2816056979879
 20
650.5871172680777
 30
0.0
 10
304.1040375777903
 20
650.5962761010704
 30
0.0
 10
303.9269762294581
 20
650.614601891611
 30
0.0
  0
ARC
  5
10D
330
1F
100
AcDbEntity
  8
0
  6
SLD-Solid
 62
     7
370
    15
100
AcDbCircle
 10
304.4596403552
 20
655.9687828136
 30
0.0
 40
5.174614371877051
100
AcDbArc
 50
264.0916247809
 51
270.0004455097
  0
SPLINE
  5
10E
330
1F
100
AcDbEntity
  8
0
  6
SLD-Solid
 62
     7
370
    15
100
AcDbSpline
210
0.0
220
0.0
230
1.0
 70
     8
 71
     3
 72
     8
 73
     4
 74
     0
 42
0.00000001
 43
0.00000001
 40
0.0
 40
0.0
 40
0.0
 40
0.0
 40
1.0
 40
1.0
 40
1.0
 40
1.0
 10
604.4596805909725
 20
650.5871172680779
 30
0.0
 10
604.2816056979888
 20
650.5871172680779
 30
0.0
 10
604.1040375777922
 20
650.5962761010704
 30
0.0
 10
603.9269762294609
 20
650.6146018916108
 30
0.0
  0
ARC
  5
10F
330
1F
100
AcDbEntity
  8
0
  6
SLD-Solid
 62
   142
420
    32960
370
     0
100
AcDbCircle
 10
604.4596403552
 20
655.9687828136
 30
0.0
 40
5.174614371826926
100
AcDbArc
 50
264.0916247809
 51
270.0004455097
  0
SPLINE
  5
110
330
1F
100
AcDbEntity
  8
0
  6
SLD-Solid
 62
     7
370
    15
100
AcDbSpline
210
0.0
220
0.0
230
1.0
 70
     8
 71
     3
 72
     8
 73
     4
 74
     0
 42
0.00000001
 43
0.00000001
 40
0.0
 40
0.0
 40
0.0
 40
0.0
 40
1.0
 40
1.0
 40
1.0
 40
1.0
 10
504.4596805909726
 20
650.5871172680779
 30
0.0
 10
504.2816056979888
 20
650.5871172680779
 30
0.0
 10
504.1040375777922
 20
650.5962761010704
 30
0.0
 10
503.9269762294609
 20
650.6146018916108
 30
0.0
  0
ARC
  5
111
330
1F
100
AcDbEntity
  8
0
  6
SLD-Solid
 62
   142
420
    32960
370
     0
100
AcDbCircle
 10
504.4596403552
 20
655.9687828136
 30
0.0
 40
5.174614371822027
100
AcDbArc
 50
264.0916247809
 51
270.0004455097
  0
SPLINE
  5
112
330
1F
100
AcDbEntity
  8
0
  6
SLD-Solid
 62
     7
370
    15
100
AcDbSpline
210
0.0
220
0.0
230
1.0
 70
     8
 71
     3
 72
     8
 73
     4
 74
     0
 42
0.00000001
 43
0.00000001
 40
0.0
 40
0.0
 40
0.0
 40
0.0
 40
1.0
 40
1.0
 40
1.0
 40
1.0
 10
804.4596805909728
 20
650.587117268077
 30
0.0
 10
804.2816056979859
 20
650.587117268077
 30
0.0
 10
804.1040375777865
 20
650.5962761010699
 30
0.0
 10
803.9269762294522
 20
650.6146018916108
 30
0.0
  0
ARC
  5
113
330
1F
100
AcDbEntity
  8
0
  6
SLD-Solid
 62
   142
420
    32960
370
     0
100
AcDbCircle
 10
804.4596403552
 20
655.9687828136
 30
0.0
 40
5.174614371861034
100
AcDbArc
 50
264.0916247808
 51
270.0004455097
  0
SPLINE
  5
114
330
1F
100
AcDbEntity
  8
0
  6
SLD-Solid
 62
     7
370
    15
100
AcDbSpline
210
0.0
220
0.0
230
1.0
 70
     8
 71
     3
 72
     8
 73
     4
 74
     0
 42
0.00000001
 43
0.00000001
 40
0.0
 40
0.0
 40
0.0
 40
0.0
 40
1.0
 40
1.0
 40
1.0
 40
1.0
 10
283.773889533248
 20
650.6146018916108
 30
0.0
 10
283.5968281849168
 20
650.5962761010705
 30
0.0
 10
283.4192600647205
 20
650.5871172680779
 30
0.0
 10
283.2411851717368
 20
650.5871172680779
 30
0.0
  0
ARC
  5
115
330
1F
100
AcDbEntity
  8
0
  6
SLD-Solid
 62
   142
420
    32960
370
     0
100
AcDbCircle
 10
283.2412254075
 20
655.9687828136
 30
0.0
 40
5.17461437183169
100
AcDbArc
 50
269.9995544903
 51
275.9083752191
  0
SPLINE
  5
116
330
1F
100
AcDbEntity
  8
0
  6
SLD-Solid
 62
     7
370
    15
100
AcDbSpline
210
0.0
220
0.0
230
1.0
 70
     8
 71
     3
 72
     8
 73
     4
 74
     0
 42
0.00000001
 43
0.00000001
 40
0.0
 40
0.0
 40
0.0
 40
0.0
 40
1.0
 40
1.0
 40
1.0
 40
1.0
 10
583.7738895332479
 20
650.6146018916108
 30
0.0
 10
583.5968281849167
 20
650.5962761010705
 30
0.0
 10
583.4192600647204
 20
650.5871172680779
 30
0.0
 10
583.2411851717368
 20
650.5871172680779
 30
0.0
  0
ARC
  5
117
330
1F
100
AcDbEntity
  8
0
  6
SLD-Solid
 62
     7
370
    15
100
AcDbCircle
 10
583.2412254075
 20
655.9687828136
 30
0.0
 40
5.174614371830667
100
AcDbArc
 50
269.9995544903
 51
275.9083752191
  0
SPLINE
  5
118
330
1F
100
AcDbEntity
  8
0
  6
SLD-Solid
 62
     7
370
    15
100
AcDbSpline
210
0.0
220
0.0
230
1.0
 70
     8
 71
     3
 72
     8
 73
     4
 74
     0
 42
0.00000001
 43
0.00000001
 40
0.0
 40
0.0
 40
0.0
 40
0.0
 40
1.0
 40
1.0
 40
1.0
 40
1.0
 10
683.7738895332479
 20
650.6146018916108
 30
0.0
 10
683.5968281849167
 20
650.5962761010705
 30
0.0
 10
683.4192600647204
 20
650.5871172680779
 30
0.0
 10
683.2411851717368
 20
650.5871172680779
 30
0.0
  0
LINE
  5
119
330
1F
100
AcDbEntity
  8
0
  6
SLD-Solid
 62
   142
420
    32960
370
     0
100
AcDbLine
 10
687.6981108228
 20
653.4347842214
 30
0.0
 11
687.6981108228
 21
653.2277289853
 31
0.0
  0
ARC
  5
11A
330
1F
100
AcDbEntity
  8
0
  6
SLD-Solid
 62
   142
420
    32960
370
     0
100
AcDbCircle
 10
683.2412254075
 20
655.9687828136
 30
0.0
 40
5.174614371832385
100
AcDbArc
 50
269.9995544903
 51
275.9083752191
  0
LINE
  5
11B
330
1F
100
AcDbEntity
  8
0
  6
SLD-Solid
 62
     7
370
    15
100
AcDbLine
 10
683.2411851717
 20
650.5871172681
 30
0.0
 11
604.459680591
 21
650.5871172681
 31
0.0
  0
LINE
  5
11C
330
1F
100
AcDbEntity
  8
0
  6
SLD-Solid
 62
     7
370
    15
100
AcDbLine
 10
783.2411851717
 20
650.5871172681
 30
0.0
 11
704.459680591
 21
650.5871172681
 31
0.0
  0
LINE
  5
11D
330
1F
100
AcDbEntity
  8
0
  6
SLD-Solid
 62
     7
370
    15
100
AcDbLine
 10
873.80806
 20
650.5871172681
 30
0.0
 11
804.459680591
 21
650.5871172681
 31
0.0
  0
LINE
  5
11E
330
1F
100
AcDbEntity
  8
0
  6
SLD-Solid
 62
     7
370
    15
100
AcDbLine
 10
898.80806
 20
650.6146018916
 30
0.0
 11
898.80806
 21
631.4921332553
 31
0.0
  0
LINE
  5
11F
330
1F
100
AcDbEntity
  8
0
  6
SLD-Solid
 62
     7
370
    15
100
AcDbLine
 10
898.80806
 20
631.4921332553
 30
0.0
 11
-1.19194
 21
631.4921332553
 31
0.0
  0
LINE
  5
120
330
1F
100
AcDbEntity
  8
0
  6
SLD-Solid
 62
     7
370
    15
100
AcDbLine
 10
-1.19194
 20
650.6146018916
 30
0.0
 11
-1.19194
 21
631.4921332553
 31
0.0
  0
LINE
  5
121
330
1F
100
AcDbEntity
  8
0
  6
SLD-Solid
 62
     7
370
    15
100
AcDbLine
 10
83.2411851717
 20
650.5871172681
 30
0.0
 11
23.80806
 21
650.5871172681
 31
0.0
  0
LINE
  5
122
330
1F
100
AcDbEntity
  8
0
  6
SLD-Solid
 62
   142
420
    32960
370
     0
100
AcDbLine
 10
183.2411851717
 20
650.5871172681
 30
0.0
 11
104.459680591
 21
650.5871172681
 31
0.0
  0
LINE
  5
123
330
1F
100
AcDbEntity
  8
0
  6
SLD-Solid
 62
     7
370
    15
100
AcDbLine
 10
283.2411851717
 20
650.5871172681
 30
0.0
 11
204.459680591
 21
650.5871172681
 31
0.0
  0
LINE
  5
124
330
1F
100
AcDbEntity
  8
0
  6
SLD-Solid
 62
     7
370
    15
100
AcDbLine
 10
383.2411851717
 20
650.5871172681
 30
0.0
 11
304.459680591
 21
650.5871172681
 31
0.0
  0
LINE
  5
125
330
1F
100
AcDbEntity
  8
0
  6
SLD-Solid
 62
     7
370
    15
100
AcDbLine
 10
483.2411851717
 20
650.5871172681
 30
0.0
 11
404.459680591
 21
650.5871172681
 31
0.0
  0
LINE
  5
126
330
1F
100
AcDbEntity
  8
0
  6
SLD-Solid
 62
     7
370
    15
100
AcDbLine
 10
583.2411851717
 20
650.5871172681
 30
0.0
 11
504.459680591
 21
650.5871172681
 31
0.0
  0
SPLINE
  5
127
330
1F
100
AcDbEntity
  8
0
  6
SLD-Solid
 62
   142
420
    32960
370
     0
100
AcDbSpline
210
0.0
220
0.0
230
1.0
 70
     8
 71
     3
 72
     8
 73
     4
 74
     0
 42
0.00000001
 43
0.00000001
 40
0.0
 40
0.0
 40
0.0
 40
0.0
 40
1.0
 40
1.0
 40
1.0
 40
1.0
 10
483.7738895332496
 20
650.614601891611
 30
0.0
 10
483.5968281849179
 20
650.5962761010704
 30
0.0
 10
483.419260064721
 20
650.5871172680778
 30
0.0
 10
483.2411851717368
 20
650.5871172680778
 30
0.0
  0
SPLINE
  5
128
330
1F
100
AcDbEntity
  8
0
  6
SLD-Solid
 62
   142
420
    32960
370
     0
100
AcDbSpline
210
0.0
220
0.0
230
1.0
 70
     8
 71
     3
 72
     8
 73
     4
 74
     0
 42
0.00000001
 43
0.00000001
 40
0.0
 40
0.0
 40
0.0
 40
0.0
 40
1.0
 40
1.0
 40
1.0
 40
1.0
 10
383.7738895332508
 20
650.614601891611
 30
0.0
 10
383.5968281849187
 20
650.5962761010704
 30
0.0
 10
383.4192600647214
 20
650.5871172680777
 30
0.0
 10
383.2411851717368
 20
650.5871172680777
 30
0.0
  0
SPLINE
  5
129
330
1F
100
AcDbEntity
  8
0
  6
SLD-Solid
 62
   142
420
    32960
370
     0
100
AcDbSpline
210
0.0
220
0.0
230
1.0
 70
     8
 71
     3
 72
     8
 73
     4
 74
     0
 42
0.00000001
 43
0.00000001
 40
0.0
 40
0.0
 40
0.0
 40
0.0
 40
1.0
 40
1.0
 40
1.0
 40
1.0
 10
204.4596805909727
 20
650.5871172680779
 30
0.0
 10
204.2816056979888
 20
650.5871172680779
 30
0.0
 10
204.1040375777923
 20
650.5962761010704
 30
0.0
 10
203.9269762294609
 20
650.6146018916108
 30
0.0
  0
SPLINE
  5
12A
330
1F
100
AcDbEntity
  8
0
  6
SLD-Solid
 62
   142
420
    32960
370
     0
100
AcDbSpline
210
0.0
220
0.0
230
1.0
 70
     8
 71
     3
 72
     8
 73
     4
 74
     0
 42
0.00000001
 43
0.00000001
 40
0.0
 40
0.0
 40
0.0
 40
0.0
 40
1.0
 40
1.0
 40
1.0
 40
1.0
 10
183.7738895332598
 20
650.614601891611
 30
0.0
 10
183.5968281849247
 20
650.5962761010697
 30
0.0
 10
183.4192600647244
 20
650.5871172680768
 30
0.0
 10
183.2411851717368
 20
650.5871172680768
 30
0.0
  0
SPLINE
  5
12B
330
1F
100
AcDbEntity
  8
0
  6
SLD-Solid
 62
   142
420
    32960
370
     0
100
AcDbSpline
210
0.0
220
0.0
230
1.0
 70
     8
 71
     3
 72
     8
 73
     4
 74
     0
 42
0.00000001
 43
0.00000001
 40
0.0
 40
0.0
 40
0.0
 40
0.0
 40
1.0
 40
1.0
 40
1.0
 40
1.0
 10
104.4596805909726
 20
650.5871172680767
 30
0.0
 10
104.2816056979848
 20
650.5871172680767
 30
0.0
 10
104.1040375777843
 20
650.5962761010697
 30
0.0
 10
103.926976229449
 20
650.614601891611
 30
0.0
  0
SPLINE
  5
12C
330
1F
100
AcDbEntity
  8
0
  6
SLD-Solid
 62
   142
420
    32960
370
     0
100
AcDbSpline
210
0.0
220
0.0
230
1.0
 70
     8
 71
     3
 72
     8
 73
     4
 74
     0
 42
0.00000001
 43
0.00000001
 40
0.0
 40
0.0
 40
0.0
 40
0.0
 40
1.0
 40
1.0
 40
1.0
 40
1.0
 10
83.77388953325877
 20
650.6146018916108
 30
0.0
 10
83.59682818492404
 20
650.5962761010697
 30
0.0
 10
83.41926006472406
 20
650.5871172680768
 30
0.0
 10
83.24118517173679
 20
650.5871172680768
 30
0.0
  0
SPLINE
  5
12D
330
1F
100
AcDbEntity
  8
0
  6
SLD-Solid
 62
   142
420
    32960
370
     0
100
AcDbSpline
210
0.0
220
0.0
230
1.0
 70
     8
 71
     3
 72
     8
 73
     4
 74
     0
 42
0.00000001
 43
0.00000001
 40
0.0
 40
0.0
 40
0.0
 40
0.0
 40
1.0
 40
1.0
 40
1.0
 40
1.0
 10
23.80805999999885
 20
650.5871172680768
 30
0.0
 10
23.62998510701136
 20
650.5871172680768
 30
0.0
 10
23.45241698681139
 20
650.5962761010697
 30
0.0
 10
23.27535563847644
 20
650.6146018916108
 30
0.0
  0
SPLINE
  5
12E
330
1F
100
AcDbEntity
  8
0
  6
SLD-Solid
 62
   142
420
    32960
370
     0
100
AcDbSpline
210
0.0
220
0.0
230
1.0
 70
     8
 71
     3
 72
     8
 73
     4
 74
     0
 42
0.00000001
 43
0.00000001
 40
0.0
 40
0.0
 40
0.0
 40
0.0
 40
1.0
 40
1.0
 40
1.0
 40
1.0
 10
874.3407643615193
 20
650.614601891611
 30
0.0
 10
874.163703013185
 20
650.59627610107
 30
0.0
 10
873.9861348929855
 20
650.587117268077
 30
0.0
 10
873.8080599999987
 20
650.587117268077
 30
0.0
  0
SPLINE
  5
12F
330
1F
100
AcDbEntity
  8
0
  6
SLD-Solid
 62
   142
420
    32960
370
     0
100
AcDbSpline
210
0.0
220
0.0
230
1.0
 70
     8
 71
     3
 72
     8
 73
     4
 74
     0
 42
0.00000001
 43
0.00000001
 40
0.0
 40
0.0
 40
0.0
 40
0.0
 40
1.0
 40
1.0
 40
1.0
 40
1.0
 10
783.7738895332271
 20
650.6146018916108
 30
0.0
 10
783.5968281849028
 20
650.5962761010719
 30
0.0
 10
783.4192600647134
 20
650.5871172680802
 30
0.0
 10
783.2411851717369
 20
650.5871172680802
 30
0.0
  0
LINE
  5
130
330
1F
100
AcDbEntity
  8
0
  6
SLD-Solid
 62
   142
420
    32960
370
     0
100
AcDbLine
 10
783.2411851717
 20
650.7941684419
 30
0.0
 11
783.2411851717
 21
650.5871172681
 31
0.0
  0
LINE
  5
131
330
1F
100
AcDbEntity
  8
0
  6
SLD-Solid
 62
   142
420
    32960
370
     0
100
AcDbLine
 10
704.459680591
 20
650.7941684419
 30
0.0
 11
783.2411851717
 21
650.7941684419
 31
0.0
  0
LINE
  5
132
330
1F
100
AcDbEntity
  8
0
  6
SLD-Solid
 62
   142
420
    32960
370
     0
100
AcDbLine
 10
604.459680591
 20
650.7941684419
 30
0.0
 11
683.2411851717
 21
650.7941684419
 31
0.0
  0
LINE
  5
133
330
1F
100
AcDbEntity
  8
0
  6
SLD-Solid
 62
   142
420
    32960
370
     0
100
AcDbLine
 10
204.459680591
 20
650.7941684419
 30
0.0
 11
283.2411851717
 21
650.7941684419
 31
0.0
  0
LINE
  5
134
330
1F
100
AcDbEntity
  8
0
  6
SLD-Solid
 62
   142
420
    32960
370
     0
100
AcDbLine
 10
204.459680591
 20
650.7941684419
 30
0.0
 11
204.459680591
 21
650.5871172681
 31
0.0
  0
LINE
  5
135
330
1F
100
AcDbEntity
  8
0
  6
SLD-Solid
 62
     7
370
    15
100
AcDbLine
 10
504.459680591
 20
650.7941684419
 30
0.0
 11
583.2411851717
 21
650.7941684419
 31
0.0
  0
LINE
  5
136
330
1F
100
AcDbEntity
  8
0
  6
SLD-Solid
 62
   142
420
    32960
370
     0
100
AcDbLine
 10
483.2411851717
 20
650.7941684419
 30
0.0
 11
483.2411851717
 21
650.5871172681
 31
0.0
  0
LINE
  5
137
330
1F
100
AcDbEntity
  8
0
  6
SLD-Solid
 62
   142
420
    32960
370
     0
100
AcDbLine
 10
404.459680591
 20
650.7941684419
 30
0.0
 11
483.2411851717
 21
650.7941684419
 31
0.0
  0
LINE
  5
138
330
1F
100
AcDbEntity
  8
0
  6
SLD-Solid
 62
     7
370
    15
100
AcDbLine
 10
304.459680591
 20
650.7941684419
 30
0.0
 11
383.2411851717
 21
650.7941684419
 31
0.0
  0
LINE
  5
139
330
1F
100
AcDbEntity
  8
0
  6
SLD-Solid
 62
   142
420
    32960
370
     0
100
AcDbLine
 10
383.2411851717
 20
650.7941684419
 30
0.0
 11
383.2411851717
 21
650.5871172681
 31
0.0
  0
LINE
  5
13A
330
1F
100
AcDbEntity
  8
0
  6
SLD-Solid
 62
   142
420
    32960
370
     0
100
AcDbLine
 10
873.80806
 20
650.7941684419
 30
0.0
 11
873.80806
 21
650.5871172681
 31
0.0
  0
LINE
  5
13B
330
1F
100
AcDbEntity
  8
0
  6
SLD-Solid
 62
   142
420
    32960
370
     0
100
AcDbLine
 10
804.459680591
 20
650.7941684419
 30
0.0
 11
873.80806
 21
650.7941684419
 31
0.0
  0
LINE
  5
13C
330
1F
100
AcDbEntity
  8
0
  6
SLD-Solid
 62
   142
420
    32960
370
     0
100
AcDbLine
 10
83.2411851717
 20
650.7941684419
 30
0.0
 11
83.2411851717
 21
650.5871172681
 31
0.0
  0
LINE
  5
13D
330
1F
100
AcDbEntity
  8
0
  6
SLD-Solid
 62
   142
420
    32960
370
     0
100
AcDbLine
 10
23.80806
 20
650.7941684419
 30
0.0
 11
83.2411851717
 21
650.7941684419
 31
0.0
  0
LINE
  5
13E
330
1F
100
AcDbEntity
  8
0
  6
SLD-Solid
 62
   142
420
    32960
370
     0
100
AcDbLine
 10
23.80806
 20
650.7941684419
 30
0.0
 11
23.80806
 21
650.5871172681
 31
0.0
  0
LINE
  5
13F
330
1F
100
AcDbEntity
  8
0
  6
SLD-Solid
 62
   142
420
    32960
370
     0
100
AcDbLine
 10
183.2411851717
 20
650.7941684419
 30
0.0
 11
183.2411851717
 21
650.5871172681
 31
0.0
  0
LINE
  5
140
330
1F
100
AcDbEntity
  8
0
  6
SLD-Solid
 62
   142
420
    32960
370
     0
100
AcDbLine
 10
104.459680591
 20
650.7941684419
 30
0.0
 11
183.2411851717
 21
650.7941684419
 31
0.0
  0
LINE
  5
141
330
1F
100
AcDbEntity
  8
0
  6
SLD-Solid
 62
   142
420
    32960
370
     0
100
AcDbLine
 10
104.459680591
 20
650.7941684419
 30
0.0
 11
104.459680591
 21
650.5871172681
 31
0.0
  0
LINE
  5
142
330
1F
100
AcDbEntity
  8
0
  6
SLD-Solid
 62
     7
370
    15
100
AcDbLine
 10
383.7738895333
 20
650.8216571277
 30
0.0
 11
303.9269762295
 21
650.8216571277
 31
0.0
  0
ARC
  5
143
330
1F
100
AcDbEntity
  8
0
  6
SLD-Solid
 62
   142
420
    32960
370
     0
100
AcDbCircle
 10
383.2412254075
 20
655.9687828136
 30
0.0
 40
5.17461437186932
100
AcDbArc
 50
269.9995544903
 51
275.9083752191
  0
LINE
  5
144
330
1F
100
AcDbEntity
  8
0
  6
SLD-Solid
 62
     7
370
    15
100
AcDbLine
 10
583.7738895332
 20
650.8216571277
 30
0.0
 11
503.9269762295
 21
650.8216571277
 31
0.0
  0
LINE
  5
145
330
1F
100
AcDbEntity
  8
0
  6
SLD-Solid
 62
   142
420
    32960
370
     0
100
AcDbLine
 10
83.7738895333
 20
650.8216571277
 30
0.0
 11
23.2753556385
 21
650.8216571277
 31
0.0
  0
LINE
  5
146
330
1F
100
AcDbEntity
  8
0
  6
SLD-Solid
 62
   142
420
    32960
370
     0
100
AcDbLine
 10
183.7738895333
 20
650.8216571277
 30
0.0
 11
103.9269762294
 21
650.8216571277
 31
0.0
  0
LINE
  5
147
330
1F
100
AcDbEntity
  8
0
  6
SLD-Solid
 62
   142
420
    32960
370
     0
100
AcDbLine
 10
283.7738895332
 20
650.8216571277
 30
0.0
 11
203.9269762295
 21
650.8216571277
 31
0.0
  0
LINE
  5
148
330
1F
100
AcDbEntity
  8
0
  6
SLD-Solid
 62
   142
420
    32960
370
     0
100
AcDbLine
 10
483.7738895332
 20
650.8216571277
 30
0.0
 11
403.9269762295
 21
650.8216571277
 31
0.0
  0
LINE
  5
149
330
1F
100
AcDbEntity
  8
0
  6
SLD-Solid
 62
   142
420
    32960
370
     0
100
AcDbLine
 10
683.7738895332
 20
650.8216571277
 30
0.0
 11
603.9269762295
 21
650.8216571277
 31
0.0
  0
LINE
  5
14A
330
1F
100
AcDbEntity
  8
0
  6
SLD-Solid
 62
   142
420
    32960
370
     0
100
AcDbLine
 10
783.7738895332
 20
650.8216571277
 30
0.0
 11
703.9269762295
 21
650.8216571277
 31
0.0
  0
LINE
  5
14B
330
1F
100
AcDbEntity
  8
0
  6
SLD-Solid
 62
   142
420
    32960
370
     0
100
AcDbLine
 10
874.3407643615
 20
650.8216571277
 30
0.0
 11
803.9269762295
 21
650.8216571277
 31
0.0
  0
LINE
  5
14C
330
1F
100
AcDbEntity
  8
0
  6
SLD-Solid
 62
   142
420
    32960
370
     0
100
AcDbLine
 10
-1.19194
 20
631.4921332553
 30
0.0
 11
-1.19194
 21
630.2421332553
 31
0.0
  0
LINE
  5
14D
330
1F
100
AcDbEntity
  8
0
  6
SLD-Solid
 62
   142
420
    32960
370
     0
100
AcDbLine
 10
898.80806
 20
631.4921332553
 30
0.0
 11
898.80806
 21
630.2421332553
 31
0.0
  0
LINE
  5
14E
330
1F
100
AcDbEntity
  8
0
  6
SLD-Solid
 62
     7
370
    15
100
AcDbLine
 10
898.80806
 20
609.0421332553
 30
0.0
 11
898.80806
 21
606.9921332553
 31
0.0
  0
LINE
  5
14F
330
1F
100
AcDbEntity
  8
0
  6
SLD-Solid
 62
     7
370
    15
100
AcDbLine
 10
898.80806
 20
606.9921332553
 30
0.0
 11
-1.19194
 21
606.9921332553
 31
0.0
  0
LINE
  5
150
330
1F
100
AcDbEntity
  8
0
  6
SLD-Solid
 62
     7
370
    15
100
AcDbLine
 10
-1.19194
 20
609.0421332553
 30
0.0
 11
-1.19194
 21
606.9921332553
 31
0.0
  0
LINE
  5
151
330
1F
100
AcDbEntity
  8
0
  6
SLD-Solid
 62
   142
420
    32960
370
     0
100
AcDbLine
 10
-1.19194
 20
630.2421332553
 30
0.0
 11
-1.19194
 21
609.0421332553
 31
0.0
  0
LINE
  5
152
330
1F
100
AcDbEntity
  8
0
  6
SLD-Solid
 62
   142
420
    32960
370
     0
100
AcDbLine
 10
898.80806
 20
630.2421332553
 30
0.0
 11
898.80806
 21
609.0421332553
 31
0.0
  0
LINE
  5
153
330
1F
100
AcDbEntity
  8
0
  6
SLD-Solid
 62
   142
420
    32960
370
     0
100
AcDbLine
 10
-1.19194
 20
606.9921332553
 30
0.0
 11
-1.19194
 21
605.7421332553
 31
0.0
  0
LINE
  5
154
330
1F
100
AcDbEntity
  8
0
  6
SLD-Solid
 62
   142
420
    32960
370
     0
100
AcDbLine
 10
898.80806
 20
606.9921332553
 30
0.0
 11
898.80806
 21
605.7421332553
 31
0.0
  0
LINE
  5
155
330
1F
100
AcDbEntity
  8
0
  6
SLD-Solid
 62
   142
420
    32960
370
     0
100
AcDbLine
 10
-1.19194
 20
605.7421332553
 30
0.0
 11
-1.19194
 21
583.5421332553
 31
0.0
  0
LINE
  5
156
330
1F
100
AcDbEntity
  8
0
  6
SLD-Solid
 62
   142
420
    32960
370
     0
100
AcDbLine
 10
-1.19194
 20
583.5421332553
 30
0.0
 11
-1.19194
 21
581.4921332553
 31
0.0
  0
LINE
  5
157
330
1F
100
AcDbEntity
  8
0
  6
SLD-Solid
 62
   142
420
    32960
370
     0
100
AcDbLine
 10
898.80806
 20
581.4921332553
 30
0.0
 11
896.75806
 21
581.4921332553
 31
0.0
  0
LINE
  5
158
330
1F
100
AcDbEntity
  8
0
  6
SLD-Solid
 62
   142
420
    32960
370
     0
100
AcDbLine
 10
818.75806
 20
581.4921332553
 30
0.0
 11
813.75806
 21
581.4921332553
 31
0.0
  0
LINE
  5
159
330
1F
100
AcDbEntity
  8
0
  6
SLD-Solid
 62
   142
420
    32960
370
     0
100
AcDbLine
 10
573.85806
 20
581.4921332553
 30
0.0
 11
568.75806
 21
581.4921332553
 31
0.0
  0
LINE
  5
15A
330
1F
100
AcDbEntity
  8
0
  6
SLD-Solid
 62
   142
420
    32960
370
     0
100
AcDbLine
 10
328.85806
 20
581.4921332553
 30
0.0
 11
323.85806
 21
581.4921332553
 31
0.0
  0
LINE
  5
15B
330
1F
100
AcDbEntity
  8
0
  6
SLD-Solid
 62
   142
420
    32960
370
     0
100
AcDbLine
 10
83.95806
 20
581.4921332553
 30
0.0
 11
78.85806
 21
581.4921332553
 31
0.0
  0
LINE
  5
15C
330
1F
100
AcDbEntity
  8
0
  6
SLD-Solid
 62
   142
420
    32960
370
     0
100
AcDbLine
 10
0.85806
 20
581.4921332553
 30
0.0
 11
-1.19194
 21
581.4921332553
 31
0.0
  0
LINE
  5
15D
330
1F
100
AcDbEntity
  8
0
  6
SLD-Solid
 62
   142
420
    32960
370
     0
100
AcDbLine
 10
898.80806
 20
583.5421332553
 30
0.0
 11
898.80806
 21
581.4921332553
 31
0.0
  0
LINE
  5
15E
330
1F
100
AcDbEntity
  8
0
  6
SLD-Solid
 62
     7
370
    15
100
AcDbLine
 10
898.80806
 20
605.7421332553
 30
0.0
 11
898.80806
 21
583.5421332553
 31
0.0
  0
ARC
  5
15F
330
1F
100
AcDbEntity
  8
0
  6
SLD-Solid
 62
   142
420
    32960
370
     0
100
AcDbCircle
 10
813.80806
 20
592.9921332553
 30
0.0
 40
6.5
100
AcDbArc
 50
270.0
 51
319.6000136141
  0
ARC
  5
160
330
1F
100
AcDbEntity
  8
0
  6
SLD-Solid
 62
   142
420
    32960
370
     0
100
AcDbCircle
 10
813.80806
 20
592.9921332553
 30
0.0
 40
6.499999999999999
100
AcDbArc
 50
40.3999863859
 51
90.4407411121
  0
LINE
  5
161
330
1F
100
AcDbEntity
  8
0
  6
SLD-Solid
 62
   142
420
    32960
370
     0
100
AcDbLine
 10
83.80806
 20
586.4921332553
 30
0.0
 11
83.95806
 21
586.493864255
 31
0.0
  0
ARC
  5
162
330
1F
100
AcDbEntity
  8
0
  6
SLD-Solid
 62
   142
420
    32960
370
     0
100
AcDbCircle
 10
83.80806
 20
592.9921332553
 30
0.0
 40
6.500000000000019
100
AcDbArc
 50
88.6776723194
 51
139.6000136143
  0
ARC
  5
163
330
1F
100
AcDbEntity
  8
0
  6
SLD-Solid
 62
   142
420
    32960
370
     0
100
AcDbCircle
 10
83.80806
 20
592.9921332553
 30
0.0
 40
6.499999999999887
100
AcDbArc
 50
220.3999863857
 51
270.0
  0
ARC
  5
164
330
1F
100
AcDbEntity
  8
0
  6
SLD-Solid
 62
   142
420
    32960
370
     0
100
AcDbCircle
 10
859.80806
 20
590.9921332553
 30
0.0
 40
4.80000000000001
100
AcDbArc
 50
138.5544325067
 51
233.8768392947
  0
ARC
  5
165
330
1F
100
AcDbEntity
  8
0
  6
SLD-Solid
 62
   142
420
    32960
370
     0
100
AcDbCircle
 10
37.80806
 20
590.9921332553
 30
0.0
 40
4.799999999999935
100
AcDbArc
 50
171.5489406443
 51
248.5882249745
  0
LINE
  5
166
330
1F
100
AcDbEntity
  8
0
  6
SLD-Solid
 62
   142
420
    32960
370
     0
100
AcDbLine
 10
898.80806
 20
605.7421332553
 30
0.0
 11
-1.19194
 21
605.7421332553
 31
0.0
  0
ARC
  5
167
330
1F
100
AcDbEntity
  8
0
  6
SLD-Solid
 62
   142
420
    32960
370
     0
100
AcDbCircle
 10
402.3048836608
 20
-83.1237109842
 30
0.0
 40
1.498704915935708
100
AcDbArc
 50
182.8711035151
 51
298.8471995542
  0
LINE
  5
168
330
1F
100
AcDbEntity
  8
0
  6
SLD-Solid
 62
   142
420
    32960
370
     0
100
AcDbLine
 10
407.6961244806
 20
-82.0345864022
 30
0.0
 11
403.0279719164
 21
-84.4364408878
 31
0.0
  0
ARC
  5
169
330
1F
100
AcDbEntity
  8
0
  6
SLD-Solid
 62
   142
420
    32960
370
     0
100
AcDbCircle
 10
401.3243503115
 20
-80.5310747122
 30
0.0
 40
6.546759004562538
100
AcDbArc
 50
186.5219014348
 51
346.7230973532
  0
LINE
  5
16A
330
1F
100
AcDbEntity
  8
0
  6
SLD-Solid
 62
   142
420
    32960
370
     0
100
AcDbLine
 10
400.80806
 20
-83.1987799755
 30
0.0
 11
400.80806
 21
-81.2746752432
 31
0.0
  0
CIRCLE
  5
16B
330
1F
100
AcDbEntity
  8
0
  6
SLD-Solid
 62
   142
420
    32960
370
     0
100
AcDbCircle
 10
203.90806
 20
453.8921332552
 30
0.0
 40
98.09941204801841
  0
ARC
  5
16C
330
1F
100
AcDbEntity
  8
0
  6
SLD-Solid
 62
   142
420
    32960
370
     0
100
AcDbCircle
 10
156.7841871243
 20
-91.4328691697
 30
0.0
 40
0.9764498166444263
100
AcDbArc
 50
88.5990561917
 51
178.5269450074
  0
ARC
  5
16D
330
1F
100
AcDbEntity
  8
0
  6
SLD-Solid
 62
   142
420
    32960
370
     0
100
AcDbCircle
 10
157.8319328757
 20
-91.4328691697
 30
0.0
 40
0.9764498166443388
100
AcDbArc
 50
1.4730549926
 51
91.4009438083
  0
LWPOLYLINE
  5
16E
330
1F
100
AcDbEntity
  8
0
  6
SLD-Solid
 62
   142
420
    32960
370
     0
100
AcDbPolyline
 90
        9
 70
   128
 43
0.0
 10
156.80806
 20
-90.4567112264
 10
156.8461202337
 20
-90.5158390685
 10
156.9545066094
 20
-90.5659652325
 10
157.1167182838
 20
-90.5994584646
 10
157.30806
 20
-90.6112197236
 10
157.4994017162
 20
-90.5994584646
 10
157.6616133906
 20
-90.5659652325
 10
157.7699997663
 20
-90.5158390685
 10
157.80806
 20
-90.4567112264
  0
SPLINE
  5
16F
330
1F
100
AcDbEntity
  8
0
  6
SLD-Solid
 62
     7
370
    15
100
AcDbSpline
210
0.0
220
0.0
230
1.0
 70
     8
 71
     3
 72
     8
 73
     4
 74
     0
 42
0.00000001
 43
0.00000001
 40
0.0
 40
0.0
 40
0.0
 40
0.0
 40
1.0
 40
1.0
 40
1.0
 40
1.0
 10
201.0588312345803
 20
702.7455512678695
 30
0.0
 10
200.1215144984015
 20
703.0181956572206
 30
0.0
 10
199.1701250627282
 20
703.192133255254
 30
0.0
 10
198.1939372163758
 20
703.192133255254
 30
0.0
  0
LINE
  5
170
330
1F
100
AcDbEntity
  8
0
  6
SLD-Solid
 62
     7
370
    15
100
AcDbLine
 10
198.1939372164
 20
703.1921332553
 30
0.0
 11
202.7983396355
 21
703.1921332553
 31
0.0
  0
SPLINE
  5
171
330
1F
100
AcDbEntity
  8
0
  6
SLD-Solid
 62
   142
420
    32960
370
     0
100
AcDbSpline
210
0.0
220
0.0
230
1.0
 70
     8
 71
     3
 72
    10
 73
     6
 74
     0
 42
0.00000001
 43
0.00000001
 40
0.0
 40
0.0
 40
0.0
 40
0.0
 40
0.5
 40
0.5
 40
1.0
 40
1.0
 40
1.0
 40
1.0
 10
202.7983396354956
 20
703.192133255254
 30
0.0
 10
202.5042166780705
 20
703.192133255254
 30
0.0
 10
202.2060944711777
 20
703.1490429082197
 30
0.0
 10
201.6250583061889
 20
702.9925125481342
 30
0.0
 10
201.3401000451409
 20
702.8802966219837
 30
0.0
 10
201.0588312345803
 20
702.7455512678689
 30
0.0
  0
LINE
  5
172
330
1F
100
AcDbEntity
  8
0
  6
SLD-Solid
 62
     7
370
    15
100
AcDbLine
 10
195.3290431982
 20
698.4387152426
 30
0.0
 11
195.3290431982
 21
702.7455512679
 31
0.0
  0
LINE
  5
173
330
1F
100
AcDbEntity
  8
0
  6
SLD-Solid
 62
   142
420
    32960
370
     0
100
AcDbLine
 10
201.0588312346
 20
698.4387152426
 30
0.0
 11
201.0588312346
 21
702.7455512679
 31
0.0
  0
SPLINE
  5
174
330
1F
100
AcDbEntity
  8
0
  6
SLD-Solid
 62
   142
420
    32960
370
     0
100
AcDbSpline
210
0.0
220
0.0
230
1.0
 70
     8
 71
     3
 72
    12
 73
     8
 74
     0
 42
0.00000001
 43
0.00000001
 40
0.0
 40
0.0
 40
0.0
 40
0.0
 40
0.2500000000000148
 40
0.2500000000000148
 40
0.5000000000000296
 40
0.5000000000000296
 40
1.0
 40
1.0
 40
1.0
 40
1.0
 10
198.1939372163758
 20
703.192133255254
 30
0.0
 10
197.9508024346595
 20
703.1921332552541
 30
0.0
 10
197.7065777835985
 20
703.1815776947305
 30
0.0
 10
197.2234503566274
 20
703.1407289681702
 30
0.0
 10
196.9835025128304
 20
703.1104750581303
 30
0.0
 10
196.2679206676913
 20
702.9937889328819
 30
0.0
 10
195.7965317702496
 20
702.8815331951552
 30
0.0
 10
195.3290431981713
 20
702.7455512678692
 30
0.0
  0
SPLINE
  5
175
330
1F
100
AcDbEntity
  8
0
  6
SLD-Solid
 62
   142
420
    32960
370
     0
100
AcDbSpline
210
0.0
220
0.0
230
1.0
 70
     8
 71
     3
 72
    12
 73
     8
 74
     0
 42
0.00000001
 43
0.00000001
 40
0.0
 40
0.0
 40
0.0
 40
0.0
 40
0.2500000000000148
 40
0.2500000000000148
 40
0.5000000000000296
 40
0.5000000000000296
 40
1.0
 40
1.0
 40
1.0
 40
1.0
 10
198.1939372163758
 20
697.9921332552541
 30
0.0
 10
197.9508024346595
 20
697.992133255254
 30
0.0
 10
197.7065777835985
 20
698.0026888157773
 30
0.0
 10
197.2234503566274
 20
698.043537542338
 30
0.0
 10
196.9835025128304
 20
698.073791452378
 30
0.0
 10
196.2679206676913
 20
698.1904775776262
 30
0.0
 10
195.7965317702496
 20
698.3027333153531
 30
0.0
 10
195.3290431981713
 20
698.4387152426389
 30
0.0
  0
SPLINE
  5
176
330
1F
100
AcDbEntity
  8
0
  6
SLD-Solid
 62
   142
420
    32960
370
     0
100
AcDbSpline
210
0.0
220
0.0
230
1.0
 70
     8
 71
     3
 72
     8
 73
     4
 74
     0
 42
0.00000001
 43
0.00000001
 40
0.0
 40
0.0
 40
0.0
 40
0.0
 40
1.0
 40
1.0
 40
1.0
 40
1.0
 10
201.0588312345803
 20
698.4387152426385
 30
0.0
 10
200.1215144984015
 20
698.1660708532875
 30
0.0
 10
199.1701250627282
 20
697.9921332552541
 30
0.0
 10
198.1939372163758
 20
697.9921332552541
 30
0.0
  0
LINE
  5
177
330
1F
100
AcDbEntity
  8
0
  6
SLD-Solid
 62
   142
420
    32960
370
     0
100
AcDbLine
 10
193.80806
 20
703.1921332553
 30
0.0
 11
194.2036575809
 21
703.1921332553
 31
0.0
  0
LINE
  5
178
330
1F
100
AcDbEntity
  8
0
  6
SLD-Solid
 62
   142
420
    32960
370
     0
100
AcDbLine
 10
194.2036575809
 20
703.1921332553
 30
0.0
 11
198.1939372164
 21
703.1921332553
 31
0.0
  0
LINE
  5
179
330
1F
100
AcDbEntity
  8
0
  6
SLD-Solid
 62
   142
420
    32960
370
     0
100
AcDbLine
 10
202.7983396355
 20
703.1921332553
 30
0.0
 11
203.80806
 21
703.1921332553
 31
0.0
  0
SPLINE
  5
17A
330
1F
100
AcDbEntity
  8
0
  6
SLD-Solid
 62
   142
420
    32960
370
     0
100
AcDbSpline
210
0.0
220
0.0
230
1.0
 70
     8
 71
     3
 72
     8
 73
     4
 74
     0
 42
0.00000001
 43
0.00000001
 40
0.0
 40
0.0
 40
0.0
 40
0.0
 40
1.0
 40
1.0
 40
1.0
 40
1.0
 10
195.3290431981713
 20
702.7455512678695
 30
0.0
 10
194.960847108879
 20
703.0181956572206
 30
0.0
 10
194.5871229918456
 20
703.192133255254
 30
0.0
 10
194.2036575808822
 20
703.192133255254
 30
0.0
  0
SPLINE
  5
17B
330
1F
100
AcDbEntity
  8
0
  6
SLD-Solid
 62
   142
420
    32960
370
     0
100
AcDbSpline
210
0.0
220
0.0
230
1.0
 70
     8
 71
     3
 72
    12
 73
     8
 74
     0
 42
0.00000001
 43
0.00000001
 40
0.0
 40
0.0
 40
0.0
 40
0.0
 40
0.2500000000000088
 40
0.2500000000000088
 40
0.5000000000000175
 40
0.5000000000000175
 40
1.0
 40
1.0
 40
1.0
 40
1.0
 10
194.2036575808822
 20
703.192133255254
 30
0.0
 10
194.1081495499855
 20
703.1921332552541
 30
0.0
 10
194.0122133973931
 20
703.1815776947305
 30
0.0
 10
193.8224316273953
 20
703.1407289681702
 30
0.0
 10
193.7281754871705
 20
703.1104750581305
 30
0.0
 10
193.4470811390392
 20
702.9937889328819
 30
0.0
 10
193.2619104898077
 20
702.881533195155
 30
0.0
 10
193.0782719635931
 20
702.7455512678692
 30
0.0
  0
LINE
  5
17C
330
1F
100
AcDbEntity
  8
0
  6
SLD-Solid
 62
   142
420
    32960
370
     0
100
AcDbLine
 10
193.0782719636
 20
698.4387152426
 30
0.0
 11
193.0782719636
 21
702.7455512679
 31
0.0
  0
SPLINE
  5
17D
330
1F
100
AcDbEntity
  8
0
  6
SLD-Solid
 62
   142
420
    32960
370
     0
100
AcDbSpline
210
0.0
220
0.0
230
1.0
 70
     8
 71
     3
 72
    12
 73
     8
 74
     0
 42
0.00000001
 43
0.00000001
 40
0.0
 40
0.0
 40
0.0
 40
0.0
 40
0.2500000000000088
 40
0.2500000000000088
 40
0.5000000000000175
 40
0.5000000000000175
 40
1.0
 40
1.0
 40
1.0
 40
1.0
 10
194.2036575808822
 20
697.9921332552541
 30
0.0
 10
194.1081495499855
 20
697.992133255254
 30
0.0
 10
194.0122133973931
 20
698.0026888157773
 30
0.0
 10
193.8224316273953
 20
698.043537542338
 30
0.0
 10
193.7281754871705
 20
698.0737914523778
 30
0.0
 10
193.4470811390392
 20
698.1904775776263
 30
0.0
 10
193.2619104898077
 20
698.3027333153528
 30
0.0
 10
193.0782719635931
 20
698.4387152426389
 30
0.0
  0
SPLINE
  5
17E
330
1F
100
AcDbEntity
  8
0
  6
SLD-Solid
 62
   142
420
    32960
370
     0
100
AcDbSpline
210
0.0
220
0.0
230
1.0
 70
     8
 71
     3
 72
     8
 73
     4
 74
     0
 42
0.00000001
 43
0.00000001
 40
0.0
 40
0.0
 40
0.0
 40
0.0
 40
1.0
 40
1.0
 40
1.0
 40
1.0
 10
195.3290431981713
 20
698.4387152426385
 30
0.0
 10
194.960847108879
 20
698.1660708532875
 30
0.0
 10
194.5871229918456
 20
697.9921332552541
 30
0.0
 10
194.2036575808822
 20
697.9921332552541
 30
0.0
  0
LINE
  5
17F
330
1F
100
AcDbEntity
  8
0
  6
SLD-Solid
 62
     7
370
    15
100
AcDbLine
 10
202.2870768018
 20
702.3921332553
 30
0.0
 11
202.2870768018
 21
702.7455512679
 31
0.0
  0
SPLINE
  5
180
330
1F
100
AcDbEntity
  8
0
  6
SLD-Solid
 62
   142
420
    32960
370
     0
100
AcDbSpline
210
0.0
220
0.0
230
1.0
 70
     8
 71
     3
 72
     8
 73
     4
 74
     0
 42
0.00000001
 43
0.00000001
 40
0.0
 40
0.0
 40
0.0
 40
0.0
 40
1.0
 40
1.0
 40
1.0
 40
1.0
 10
202.2870768018327
 20
702.7455512678695
 30
0.0
 10
202.6552728911251
 20
703.0181956572206
 30
0.0
 10
203.0289970081584
 20
703.192133255254
 30
0.0
 10
203.4124624191218
 20
703.192133255254
 30
0.0
  0
SPLINE
  5
181
330
1F
100
AcDbEntity
  8
0
  6
SLD-Solid
 62
   142
420
    32960
370
     0
100
AcDbSpline
210
0.0
220
0.0
230
1.0
 70
     8
 71
     3
 72
    12
 73
     8
 74
     0
 42
0.00000001
 43
0.00000001
 40
0.0
 40
0.0
 40
0.0
 40
0.0
 40
0.2500000000000088
 40
0.2500000000000088
 40
0.5000000000000175
 40
0.5000000000000175
 40
1.0
 40
1.0
 40
1.0
 40
1.0
 10
203.4124624191218
 20
703.192133255254
 30
0.0
 10
203.5079704500185
 20
703.1921332552541
 30
0.0
 10
203.6039066026109
 20
703.1815776947305
 30
0.0
 10
203.7936883726088
 20
703.1407289681702
 30
0.0
 10
203.8879445128333
 20
703.1104750581305
 30
0.0
 10
204.1690388609648
 20
702.9937889328819
 30
0.0
 10
204.3542095101964
 20
702.881533195155
 30
0.0
 10
204.537848036411
 20
702.7455512678692
 30
0.0
  0
LINE
  5
182
330
1F
100
AcDbEntity
  8
0
  6
SLD-Solid
 62
   142
420
    32960
370
     0
100
AcDbLine
 10
204.5378480364
 20
702.3921332553
 30
0.0
 11
204.5378480364
 21
702.7455512679
 31
0.0
  0
LINE
  5
183
330
1F
100
AcDbEntity
  8
0
  6
SLD-Solid
 62
   142
420
    32960
370
     0
100
AcDbLine
 10
196.1073771401
 20
702.9369503954
 30
0.0
 11
194.8177803645
 21
703.1921332553
 31
0.0
  0
LINE
  5
184
330
1F
100
AcDbEntity
  8
0
  6
SLD-Solid
 62
   142
420
    32960
370
     0
100
AcDbLine
 10
201.7685683704
 20
702.832088403
 30
0.0
 11
202.2870768018
 21
702.7455512679
 31
0.0
  0
SPLINE
  5
185
330
1F
100
AcDbEntity
  8
0
  6
SLD-Solid
 62
   142
420
    32960
370
     0
100
AcDbSpline
210
0.0
220
0.0
230
1.0
 70
     8
 71
     3
 72
     9
 73
     5
 74
     0
 42
0.00000001
 43
0.00000001
 40
0.0
 40
0.0
 40
0.0
 40
0.0
 40
0.0757277226605026
 40
1.0
 40
1.0
 40
1.0
 40
1.0
 10
199.4221827836282
 20
697.9921332552541
 30
0.0
 10
199.4901002318393
 20
697.992550719061
 30
0.0
 10
200.3869639671391
 20
697.9980634136482
 30
0.0
 10
201.2658475537469
 20
698.2089415442965
 30
0.0
 10
202.0781752878572
 20
698.403850354352
 30
0.0
  0
LINE
  5
186
330
1F
100
AcDbEntity
  8
0
  6
SLD-Solid
 62
   142
420
    32960
370
     0
100
AcDbLine
 10
642.5081113799
 20
-82.3632126912
 30
0.0
 11
642.5081113799
 21
-81.2746752432
 31
0.0
  0
LWPOLYLINE
  5
187
330
1F
100
AcDbEntity
  8
0
  6
SLD-Solid
 62
   142
420
    32960
370
     0
100
AcDbPolyline
 90
       16
 70
   128
 43
0.0
 10
642.5081113799
 20
-82.3632126912
 10
643.4060465339
 20
-82.7176559177
 10
644.0918726415
 20
-83.3678697613
 10
644.4615291375
 20
-84.2151971146
 10
644.4589279505
 20
-85.1310727888
 10
644.0844637593
 20
-85.9765307415
 10
643.3949541081
 20
-86.6232894283
 10
642.4950184668
 20
-86.9732159939
 10
641.5212042929
 20
-86.9732159939
 10
640.6212686516
 20
-86.6232894283
 10
639.9317590004
 20
-85.9765307415
 10
639.5572948092
 20
-85.1310727888
 10
639.5546936222
 20
-84.2151971146
 10
639.9243501182
 20
-83.3678697613
 10
640.6101762258
 20
-82.7176559177
 10
641.5081113799
 20
-82.3632126912
  0
LINE
  5
188
330
1F
100
AcDbEntity
  8
0
  6
SLD-Solid
 62
   142
420
    32960
370
     0
100
AcDbLine
 10
641.5081113799
 20
-82.3632126912
 30
0.0
 11
641.5081113799
 21
-81.2746752432
 31
0.0
  0
LWPOLYLINE
  5
189
330
1F
100
AcDbEntity
  8
0
  6
SLD-Solid
 62
     7
370
    15
100
AcDbPolyline
 90
        9
 70
   128
 43
0.0
 10
155.80806
 20
-91.8832960009
 10
155.9222407012
 20
-92.060679527
 10
156.2473998282
 20
-92.2110580192
 10
156.7340348515
 20
-92.3115377153
 10
157.30806
 20
-92.3468214924
 10
157.8820851485
 20
-92.3115377153
 10
158.3687201718
 20
-92.2110580192
 10
158.6938792988
 20
-92.060679527
 10
158.80806
 20
-91.8832960009
  0
LINE
  5
18A
330
1F
100
AcDbEntity
  8
0
  6
SLD-Solid
 62
   142
420
    32960
370
     0
100
AcDbLine
 10
155.80806
 20
-81.2746752432
 30
0.0
 11
155.80806
 21
-91.8832960009
 31
0.0
  0
ARC
  5
18B
330
1F
100
AcDbEntity
  8
0
  6
SLD-Solid
 62
   142
420
    32960
370
     0
100
AcDbCircle
 10
155.4266854578
 20
-123.6858261437
 30
0.0
 40
42.77178596749618
100
AcDbArc
 50
97.4455800572
 51
101.8092612125
  0
LINE
  5
18C
330
1F
100
AcDbEntity
  8
0
  6
SLD-Solid
 62
   142
420
    32960
370
     0
100
AcDbLine
 10
158.80806
 20
-91.8832960009
 30
0.0
 11
158.80806
 21
-81.2746752432
 31
0.0
  0
LINE
  5
18D
330
1F
100
AcDbEntity
  8
0
  6
SLD-Solid
 62
     7
370
    15
100
AcDbLine
 10
166.9822240362
 20
-85.3825131703
 30
0.0
 11
166.9748745118
 21
-85.5877086371
 31
0.0
  0
ARC
  5
18E
330
1F
100
AcDbEntity
  8
0
  6
SLD-Solid
 62
   142
420
    32960
370
     0
100
AcDbCircle
 10
146.580778351
 20
-80.9462862129
 30
0.0
 40
0.8779320999908293
100
AcDbArc
 50
201.9655056417
 51
276.0465602684
  0
ARC
  5
18F
330
1F
100
AcDbEntity
  8
0
  6
SLD-Solid
 62
   142
420
    32960
370
     0
100
AcDbCircle
 10
146.7601161577
 20
-90.3882327458
 30
0.0
 40
1.056025610322178
100
AcDbArc
 50
182.228814608
 51
265.2820210055
  0
ARC
  5
190
330
1F
100
AcDbEntity
  8
0
  6
SLD-Solid
 62
   142
420
    32960
370
     0
100
AcDbCircle
 10
167.8560038423
 20
-90.3882327458
 30
0.0
 40
1.056025610321933
100
AcDbArc
 50
274.7179789945
 51
357.771185392
  0
ARC
  5
191
330
1F
100
AcDbEntity
  8
0
  6
SLD-Solid
 62
   142
420
    32960
370
     0
100
AcDbCircle
 10
168.0826705198
 20
-91.1435685121
 30
0.0
 40
0.3283616801831842
100
AcDbArc
 50
244.8004520699
 51
329.0463715383
  0
ARC
  5
192
330
1F
100
AcDbEntity
  8
0
  6
SLD-Solid
 62
   142
420
    32960
370
     0
100
AcDbCircle
 10
146.5334494949
 20
-91.1435707551
 30
0.0
 40
0.3283596444067896
100
AcDbArc
 50
210.9556557308
 51
295.1997122511
  0
ARC
  5
193
330
1F
100
AcDbEntity
  8
0
  6
SLD-Solid
 62
   142
420
    32960
370
     0
100
AcDbCircle
 10
168.4453825824
 20
-90.5742018333
 30
0.0
 40
0.4878630026507736
100
AcDbArc
 50
307.824056349
 51
17.2780679115
  0
ARC
  5
194
330
1F
100
AcDbEntity
  8
0
  6
SLD-Solid
 62
   142
420
    32960
370
     0
100
AcDbCircle
 10
146.1707228898
 20
-90.5742028875
 30
0.0
 40
0.4878494435768042
100
AcDbArc
 50
162.7213071022
 51
232.1655182875
  0
LWPOLYLINE
  5
195
330
1F
100
AcDbEntity
  8
0
  6
SLD-Solid
 62
   142
420
    32960
370
     0
100
AcDbPolyline
 90
        9
 70
   128
 43
0.0
 10
158.80806
 20
-91.4077677427
 10
158.6938792988
 20
-91.5851512688
 10
158.3687201718
 20
-91.7355297611
 10
157.8820851485
 20
-91.8360094572
 10
157.30806
 20
-91.8712932343
 10
156.7340348515
 20
-91.8360094572
 10
156.2473998282
 20
-91.7355297611
 10
155.9222407012
 20
-91.5851512688
 10
155.80806
 20
-91.4077677427
  0
LINE
  5
196
330
1F
100
AcDbEntity
  8
0
  6
SLD-Solid
 62
     7
370
    15
100
AcDbLine
 10
898.80806
 20
68.8921332553
 30
0.0
 11
898.80806
 21
63.8921332553
 31
0.0
  0
LINE
  5
197
330
1F
100
AcDbEntity
  8
0
  6
SLD-Solid
 62
   142
420
    32960
370
     0
100
AcDbLine
 10
898.80806
 20
63.8921332553
 30
0.0
 11
898.00806
 21
63.8921332553
 31
0.0
  0
LINE
  5
198
330
1F
100
AcDbEntity
  8
0
  6
SLD-Solid
 62
   142
420
    32960
370
     0
100
AcDbLine
 10
898.00806
 20
68.8921332553
 30
0.0
 11
898.00806
 21
63.8921332553
 31
0.0
  0
LINE
  5
199
330
1F
100
AcDbEntity
  8
0
  6
SLD-Solid
 62
   142
420
    32960
370
     0
100
AcDbLine
 10
898.80806
 20
573.8921332553
 30
0.0
 11
898.00806
 21
573.8921332553
 31
0.0
  0
LINE
  5
19A
330
1F
100
AcDbEntity
  8
0
  6
SLD-Solid
 62
     7
370
    15
100
AcDbLine
 10
898.80806
 20
573.8921332553
 30
0.0
 11
898.80806
 21
68.8921332553
 31
0.0
  0
LINE
  5
19B
330
1F
100
AcDbEntity
  8
0
  6
SLD-Solid
 62
   142
420
    32960
370
     0
100
AcDbLine
 10
898.00806
 20
573.8921332553
 30
0.0
 11
898.00806
 21
68.8921332553
 31
0.0
  0
LINE
  5
19C
330
1F
100
AcDbEntity
  8
0
  6
SLD-Solid
 62
   142
420
    32960
370
     0
100
AcDbLine
 10
898.80806
 20
578.8921332553
 30
0.0
 11
898.80806
 21
573.8921332553
 31
0.0
  0
LINE
  5
19D
330
1F
100
AcDbEntity
  8
0
  6
SLD-Solid
 62
   142
420
    32960
370
     0
100
AcDbLine
 10
898.80806
 20
578.8921332553
 30
0.0
 11
897.8257678252
 21
578.8921332553
 31
0.0
  0
LINE
  5
19E
330
1F
100
AcDbEntity
  8
0
  6
SLD-Solid
 62
   142
420
    32960
370
     0
100
AcDbLine
 10
897.8257678252
 20
63.8921332553
 30
0.0
 11
898.00806
 21
63.8921332553
 31
0.0
  0
LINE
  5
19F
330
1F
100
AcDbEntity
  8
0
  6
SLD-Solid
 62
   142
420
    32960
370
     0
100
AcDbLine
 10
795.80806
 20
-81.2746752432
 30
0.0
 11
795.80806
 21
-83.2562143375
 31
0.0
  0
ARC
  5
1A0
330
1F
100
AcDbEntity
  8
0
  6
SLD-Solid
 62
   142
420
    32960
370
     0
100
AcDbCircle
 10
794.8369216968
 20
-83.2255269528
 30
0.0
 40
0.9716230336749673
100
AcDbArc
 50
268.2978000298
 51
358.190090174
  0
LINE
  5
1A1
330
1F
100
AcDbEntity
  8
0
  6
SLD-Solid
 62
   142
420
    32960
370
     0
100
AcDbLine
 10
792.80806
 20
-84.196721229
 30
0.0
 11
794.80806
 21
-84.196721229
 31
0.0
  0
ARC
  5
1A2
330
1F
100
AcDbEntity
  8
0
  6
SLD-Solid
 62
   142
420
    32960
370
     0
100
AcDbCircle
 10
792.7791983032
 20
-83.2255269528
 30
0.0
 40
0.9716230336755612
100
AcDbArc
 50
181.809909826
 51
271.7021999702
  0
LINE
  5
1A3
330
1F
100
AcDbEntity
  8
0
  6
SLD-Solid
 62
   142
420
    32960
370
     0
100
AcDbLine
 10
791.80806
 20
-81.2746752432
 30
0.0
 11
791.80806
 21
-83.2562143375
 31
0.0
  0
LINE
  5
1A4
330
1F
100
AcDbEntity
  8
0
  6
SLD-Solid
 62
   142
420
    32960
370
     0
100
AcDbLine
 10
0.00806
 20
35.7921332553
 30
0.0
 11
0.00806
 21
37.0421332553
 31
0.0
  0
LINE
  5
1A5
330
1F
100
AcDbEntity
  8
0
  6
SLD-Solid
 62
   142
420
    32960
370
     0
100
AcDbLine
 10
0.00806
 20
35.7921332553
 30
0.0
 11
0.00806
 21
34.5921332553
 31
0.0
  0
LINE
  5
1A6
330
1F
100
AcDbEntity
  8
0
  6
SLD-Solid
 62
   142
420
    32960
370
     0
100
AcDbLine
 10
897.60806
 20
35.7921332553
 30
0.0
 11
897.60806
 21
37.0421332553
 31
0.0
  0
LINE
  5
1A7
330
1F
100
AcDbEntity
  8
0
  6
SLD-Solid
 62
   142
420
    32960
370
     0
100
AcDbLine
 10
897.60806
 20
34.5921332553
 30
0.0
 11
897.60806
 21
35.7921332553
 31
0.0
  0
LINE
  5
1A8
330
1F
100
AcDbEntity
  8
0
  6
SLD-Solid
 62
   142
420
    32960
370
     0
100
AcDbLine
 10
0.00806
 20
58.8421332553
 30
0.0
 11
0.00806
 21
61.2921332553
 31
0.0
  0
LINE
  5
1A9
330
1F
100
AcDbEntity
  8
0
  6
SLD-Solid
 62
     7
370
    15
100
AcDbLine
 10
0.00806
 20
37.0421332553
 30
0.0
 11
0.00806
 21
58.8421332553
 31
0.0
  0
LINE
  5
1AA
330
1F
100
AcDbEntity
  8
0
  6
SLD-Solid
 62
     7
370
    15
100
AcDbLine
 10
897.60806
 20
37.0421332553
 30
0.0
 11
897.60806
 21
58.8421332553
 31
0.0
  0
ARC
  5
1AB
330
1F
100
AcDbEntity
  8
0
  6
SLD-Solid
 62
   142
420
    32960
370
     0
100
AcDbCircle
 10
813.80806
 20
49.7921332553
 30
0.0
 40
6.5
100
AcDbArc
 50
270.0
 51
319.6000136141
  0
ARC
  5
1AC
330
1F
100
AcDbEntity
  8
0
  6
SLD-Solid
 62
   142
420
    32960
370
     0
100
AcDbCircle
 10
813.80806
 20
49.7921332553
 30
0.0
 40
6.50000000000001
100
AcDbArc
 50
40.3999863859
 51
90.4407411121
  0
LINE
  5
1AD
330
1F
100
AcDbEntity
  8
0
  6
SLD-Solid
 62
   142
420
    32960
370
     0
100
AcDbLine
 10
83.80806
 20
43.2921332553
 30
0.0
 11
83.95806
 21
43.293864255
 31
0.0
  0
ARC
  5
1AE
330
1F
100
AcDbEntity
  8
0
  6
SLD-Solid
 62
   142
420
    32960
370
     0
100
AcDbCircle
 10
83.80806
 20
49.7921332553
 30
0.0
 40
6.499999999999905
100
AcDbArc
 50
88.6776723194
 51
139.6000136143
  0
ARC
  5
1AF
330
1F
100
AcDbEntity
  8
0
  6
SLD-Solid
 62
   142
420
    32960
370
     0
100
AcDbCircle
 10
83.80806
 20
49.7921332553
 30
0.0
 40
6.499999999999901
100
AcDbArc
 50
220.3999863857
 51
270.0
  0
ARC
  5
1B0
330
1F
100
AcDbEntity
  8
0
  6
SLD-Solid
 62
   142
420
    32960
370
     0
100
AcDbCircle
 10
859.80806
 20
51.7921332553
 30
0.0
 40
4.800000000000059
100
AcDbArc
 50
125.0737861251
 51
220.2574562698
  0
ARC
  5
1B1
330
1F
100
AcDbEntity
  8
0
  6
SLD-Solid
 62
   142
420
    32960
370
     0
100
AcDbCircle
 10
37.80806
 20
51.7921332553
 30
0.0
 40
4.799999999999955
100
AcDbArc
 50
104.8186613518
 51
186.4206505316
  0
LINE
  5
1B2
330
1F
100
AcDbEntity
  8
0
  6
SLD-Solid
 62
   142
420
    32960
370
     0
100
AcDbLine
 10
897.60806
 20
37.0421332553
 30
0.0
 11
0.00806
 21
37.0421332553
 31
0.0
  0
LINE
  5
1B3
330
1F
100
AcDbEntity
  8
0
  6
SLD-Solid
 62
   142
420
    32960
370
     0
100
AcDbLine
 10
897.60806
 20
58.8421332553
 30
0.0
 11
896.75806
 21
58.8421332553
 31
0.0
  0
LINE
  5
1B4
330
1F
100
AcDbEntity
  8
0
  6
SLD-Solid
 62
   142
420
    32960
370
     0
100
AcDbLine
 10
818.75806
 20
58.8421332553
 30
0.0
 11
813.75806
 21
58.8421332553
 31
0.0
  0
LINE
  5
1B5
330
1F
100
AcDbEntity
  8
0
  6
SLD-Solid
 62
   142
420
    32960
370
     0
100
AcDbLine
 10
573.85806
 20
58.8421332553
 30
0.0
 11
568.75806
 21
58.8421332553
 31
0.0
  0
LINE
  5
1B6
330
1F
100
AcDbEntity
  8
0
  6
SLD-Solid
 62
   142
420
    32960
370
     0
100
AcDbLine
 10
328.85806
 20
58.8421332553
 30
0.0
 11
323.85806
 21
58.8421332553
 31
0.0
  0
LINE
  5
1B7
330
1F
100
AcDbEntity
  8
0
  6
SLD-Solid
 62
   142
420
    32960
370
     0
100
AcDbLine
 10
83.95806
 20
58.8421332553
 30
0.0
 11
78.85806
 21
58.8421332553
 31
0.0
  0
LINE
  5
1B8
330
1F
100
AcDbEntity
  8
0
  6
SLD-Solid
 62
   142
420
    32960
370
     0
100
AcDbLine
 10
0.85806
 20
58.8421332553
 30
0.0
 11
0.00806
 21
58.8421332553
 31
0.0
  0
LINE
  5
1B9
330
1F
100
AcDbEntity
  8
0
  6
SLD-Solid
 62
   142
420
    32960
370
     0
100
AcDbLine
 10
897.60806
 20
58.8421332553
 30
0.0
 11
897.60806
 21
61.2921332553
 31
0.0
  0
LINE
  5
1BA
330
1F
100
AcDbEntity
  8
0
  6
SLD-Solid
 62
     7
370
    15
100
AcDbLine
 10
896.75806
 20
40.4421332553
 30
0.0
 11
896.75806
 21
602.4421332553
 31
0.0
  0
LINE
  5
1BB
330
1F
100
AcDbEntity
  8
0
  6
SLD-Solid
 62
     7
370
    15
100
AcDbLine
 10
896.75806
 20
602.4421332553
 30
0.0
 11
818.75806
 21
602.4421332553
 31
0.0
  0
CIRCLE
  5
1BC
330
1F
100
AcDbEntity
  8
0
  6
SLD-Solid
 62
     7
370
    15
100
AcDbCircle
 10
854.75806
 20
590.4421332553
 30
0.0
 40
7.499999999999886
  0
CIRCLE
  5
1BD
330
1F
100
AcDbEntity
  8
0
  6
SLD-Solid
 62
     7
370
    15
100
AcDbCircle
 10
854.75806
 20
52.4421332553
 30
0.0
 40
7.499999999999886
  0
LINE
  5
1BE
330
1F
100
AcDbEntity
  8
0
  6
SLD-Solid
 62
     7
370
    15
100
AcDbLine
 10
818.75806
 20
602.4421332553
 30
0.0
 11
818.75806
 21
40.4421332553
 31
0.0
  0
LINE
  5
1BF
330
1F
100
AcDbEntity
  8
0
  6
SLD-Solid
 62
     7
370
    15
100
AcDbLine
 10
818.75806
 20
40.4421332553
 30
0.0
 11
896.75806
 21
40.4421332553
 31
0.0
  0
CIRCLE
  5
1C0
330
1F
100
AcDbEntity
  8
0
  6
SLD-Solid
 62
     7
370
    15
100
AcDbCircle
 10
854.75806
 20
590.4421332553
 30
0.0
 40
4.0
  0
CIRCLE
  5
1C1
330
1F
100
AcDbEntity
  8
0
  6
SLD-Solid
 62
     7
370
    15
100
AcDbCircle
 10
854.75806
 20
52.4421332553
 30
0.0
 40
4.0
  0
LINE
  5
1C2
330
1F
100
AcDbEntity
  8
0
  6
SLD-Solid
 62
   142
420
    32960
370
     0
100
AcDbLine
 10
215.8080600007
 20
-86.0777350119
 30
0.0
 11
215.8080600007
 21
-81.2746752432
 31
0.0
  0
ARC
  5
1C3
330
1F
100
AcDbEntity
  8
0
  6
SLD-Solid
 62
   142
420
    32960
370
     0
100
AcDbCircle
 10
214.8369216975
 20
-86.0470476272
 30
0.0
 40
0.971623033675507
100
AcDbArc
 50
268.2978000298
 51
358.190090174
  0
LINE
  5
1C4
330
1F
100
AcDbEntity
  8
0
  6
SLD-Solid
 62
   142
420
    32960
370
     0
100
AcDbLine
 10
214.8080600007
 20
-87.0182419034
 30
0.0
 11
194.8080600007
 21
-87.0182419034
 31
0.0
  0
ARC
  5
1C5
330
1F
100
AcDbEntity
  8
0
  6
SLD-Solid
 62
   142
420
    32960
370
     0
100
AcDbCircle
 10
194.7791983039
 20
-86.0470476272
 30
0.0
 40
0.9716230336754161
100
AcDbArc
 50
181.809909826
 51
271.7021999702
  0
LINE
  5
1C6
330
1F
100
AcDbEntity
  8
0
  6
SLD-Solid
 62
   142
420
    32960
370
     0
100
AcDbLine
 10
193.8080600007
 20
-81.2746752432
 30
0.0
 11
193.8080600007
 21
-86.0777350119
 31
0.0
  0
LWPOLYLINE
  5
1C7
330
1F
100
AcDbEntity
  8
0
  6
SLD-Solid
 62
   142
420
    32960
370
     0
100
AcDbPolyline
 90
       17
 70
   128
 43
0.0
 10
197.8080600007
 20
-86.0777350119
 10
198.7647685816
 20
-85.8987554513
 10
199.5758269537
 20
-85.389064785
 10
200.117758832
 20
-84.6262587967
 10
200.3080600007
 20
-83.7264677832
 10
200.117758832
 20
-82.8266767698
 10
199.5758269537
 20
-82.0638707815
 10
198.7647685816
 20
-81.5541801152
 10
197.8080600007
 20
-81.3752005546
 10
196.8513514198
 20
-81.5541801152
 10
196.0402930477
 20
-82.0638707815
 10
195.4983611694
 20
-82.8266767698
 10
195.3080600007
 20
-83.7264677832
 10
195.4983611694
 20
-84.6262587967
 10
196.0402930477
 20
-85.389064785
 10
196.8513514198
 20
-85.8987554513
 10
197.8080600007
 20
-86.0777350119
  0
LINE
  5
1C8
330
1F
100
AcDbEntity
  8
0
  6
SLD-Solid
 62
     7
370
    15
100
AcDbLine
 10
898.80806
 20
-92.2850804956
 30
0.0
 11
898.80806
 21
-79.9746752432
 31
0.0
  0
LINE
  5
1C9
330
1F
100
AcDbEntity
  8
0
  6
SLD-Solid
 62
     7
370
    15
100
AcDbLine
 10
-1.19194
 20
-92.2850804956
 30
0.0
 11
-1.19194
 21
-79.9746752432
 31
0.0
  0
LINE
  5
1CA
330
1F
100
AcDbEntity
  8
0
  6
SLD-Solid
 62
     7
370
    15
100
AcDbLine
 10
362.5580600026
 20
-86.0777350119
 30
0.0
 11
362.5580600026
 21
-81.2746752432
 31
0.0
  0
LINE
  5
1CB
330
1F
100
AcDbEntity
  8
0
  6
SLD-Solid
 62
   142
420
    32960
370
     0
100
AcDbLine
 10
216.8080600007
 20
-86.0777350119
 30
0.0
 11
216.8080600007
 21
-81.2746752432
 31
0.0
  0
ARC
  5
1CC
330
1F
100
AcDbEntity
  8
0
  6
SLD-Solid
 62
   142
420
    32960
370
     0
100
AcDbCircle
 10
214.8657833942
 20
-86.0163602425
 30
0.0
 40
1.943246067350862
100
AcDbArc
 50
268.2978000298
 51
358.190090174
  0
LINE
  5
1CD
330
1F
100
AcDbEntity
  8
0
  6
SLD-Solid
 62
   142
420
    32960
370
     0
100
AcDbLine
 10
214.8080600007
 20
-87.9587487948
 30
0.0
 11
194.8080600007
 21
-87.9587487948
 31
0.0
  0
ARC
  5
1CE
330
1F
100
AcDbEntity
  8
0
  6
SLD-Solid
 62
   142
420
    32960
370
     0
100
AcDbCircle
 10
194.7503366071
 20
-86.0163602425
 30
0.0
 40
1.943246067350802
100
AcDbArc
 50
181.809909826
 51
271.7021999702
  0
LINE
  5
1CF
330
1F
100
AcDbEntity
  8
0
  6
SLD-Solid
 62
   142
420
    32960
370
     0
100
AcDbLine
 10
192.8080600007
 20
-81.2746752432
 30
0.0
 11
192.8080600007
 21
-86.0777350119
 31
0.0
  0
ARC
  5
1D0
330
1F
100
AcDbEntity
  8
0
  6
SLD-Solid
 62
   142
420
    32960
370
     0
100
AcDbCircle
 10
360.6157833962
 20
-86.0163602425
 30
0.0
 40
1.943246067351008
100
AcDbArc
 50
268.2978000298
 51
358.190090174
  0
LINE
  5
1D1
330
1F
100
AcDbEntity
  8
0
  6
SLD-Solid
 62
   142
420
    32960
370
     0
100
AcDbLine
 10
360.5580600026
 20
-87.9587487948
 30
0.0
 11
340.5580600026
 21
-87.9587487948
 31
0.0
  0
ARC
  5
1D2
330
1F
100
AcDbEntity
  8
0
  6
SLD-Solid
 62
   142
420
    32960
370
     0
100
AcDbCircle
 10
340.5003366091
 20
-86.0163602425
 30
0.0
 40
1.943246067350774
100
AcDbArc
 50
181.809909826
 51
271.7021999702
  0
LINE
  5
1D3
330
1F
100
AcDbEntity
  8
0
  6
SLD-Solid
 62
   142
420
    32960
370
     0
100
AcDbLine
 10
338.5580600026
 20
-81.2746752432
 30
0.0
 11
338.5580600026
 21
-86.0777350119
 31
0.0
  0
LINE
  5
1D4
330
1F
100
AcDbEntity
  8
0
  6
SLD-Solid
 62
   142
420
    32960
370
     0
100
AcDbLine
 10
640.5081113799
 20
-81.6928307428
 30
0.0
 11
640.5081113799
 21
-81.2746752432
 31
0.0
  0
LINE
  5
1D5
330
1F
100
AcDbEntity
  8
0
  6
SLD-Solid
 62
   142
420
    32960
370
     0
100
AcDbLine
 10
643.5081113799
 20
-81.6928307428
 30
0.0
 11
643.5081113799
 21
-81.2746752432
 31
0.0
  0
LWPOLYLINE
  5
1D6
330
1F
100
AcDbEntity
  8
0
  6
SLD-Solid
 62
   142
420
    32960
370
     0
100
AcDbPolyline
 90
       17
 70
   128
 43
0.0
 10
643.5081113799
 20
-81.6928307428
 10
644.4702019792
 20
-82.3273780266
 10
645.1547656926
 20
-83.2256446767
 10
645.4846384888
 20
-84.2863780639
 10
645.4226371017
 20
-85.3900123062
 10
644.9757503286
 20
-86.4121457369
 10
644.1943512526
 20
-87.2375634616
 10
643.1665191882
 20
-87.7732243831
 10
642.0081113799
 20
-87.958748795
 10
640.8497035715
 20
-87.7732243831
 10
639.8218715071
 20
-87.2375634616
 10
639.0404724311
 20
-86.4121457369
 10
638.593585658
 20
-85.3900123062
 10
638.5315842709
 20
-84.2863780639
 10
638.8614570671
 20
-83.2256446767
 10
639.5460207805
 20
-82.3273780266
 10
640.5081113799
 20
-81.6928307428
  0
ARC
  5
1D7
330
1F
100
AcDbEntity
  8
0
  6
SLD-Solid
 62
   142
420
    32960
370
     0
100
AcDbCircle
 10
401.5396051145
 20
-80.6799616806
 30
0.0
 40
7.28246901431397
100
AcDbArc
 50
268.1779813902
 51
355.3157967588
  0
ARC
  5
1D8
330
1F
100
AcDbEntity
  8
0
  6
SLD-Solid
 62
   142
420
    32960
370
     0
100
AcDbCircle
 10
401.0765148855
 20
-80.6799616806
 30
0.0
 40
7.282469014314055
100
AcDbArc
 50
184.6842032412
 51
271.8220186098
  0
LINE
  5
1D9
330
1F
100
AcDbEntity
  8
0
  6
SLD-Solid
 62
   142
420
    32960
370
     0
100
AcDbLine
 10
508.30806
 20
-86.0777350119
 30
0.0
 11
508.30806
 21
-81.2746752432
 31
0.0
  0
ARC
  5
1DA
330
1F
100
AcDbEntity
  8
0
  6
SLD-Solid
 62
   142
420
    32960
370
     0
100
AcDbCircle
 10
506.3657833936
 20
-86.0163602425
 30
0.0
 40
1.943246067350779
100
AcDbArc
 50
268.2978000298
 51
358.190090174
  0
LINE
  5
1DB
330
1F
100
AcDbEntity
  8
0
  6
SLD-Solid
 62
   142
420
    32960
370
     0
100
AcDbLine
 10
506.30806
 20
-87.9587487948
 30
0.0
 11
486.30806
 21
-87.9587487948
 31
0.0
  0
ARC
  5
1DC
330
1F
100
AcDbEntity
  8
0
  6
SLD-Solid
 62
   142
420
    32960
370
     0
100
AcDbCircle
 10
486.2503366065
 20
-86.0163602425
 30
0.0
 40
1.943246067350771
100
AcDbArc
 50
181.809909826
 51
271.7021999702
  0
LINE
  5
1DD
330
1F
100
AcDbEntity
  8
0
  6
SLD-Solid
 62
   142
420
    32960
370
     0
100
AcDbLine
 10
484.30806
 20
-81.2746752432
 30
0.0
 11
484.30806
 21
-86.0777350119
 31
0.0
  0
LINE
  5
1DE
330
1F
100
AcDbEntity
  8
0
  6
SLD-Solid
 62
   142
420
    32960
370
     0
100
AcDbLine
 10
799.80806
 20
-86.0777350119
 30
0.0
 11
799.80806
 21
-81.2746752432
 31
0.0
  0
ARC
  5
1DF
330
1F
100
AcDbEntity
  8
0
  6
SLD-Solid
 62
   142
420
    32960
370
     0
100
AcDbCircle
 10
797.8657833936
 20
-86.0163602425
 30
0.0
 40
1.943246067350557
100
AcDbArc
 50
268.2978000298
 51
358.190090174
  0
LINE
  5
1E0
330
1F
100
AcDbEntity
  8
0
  6
SLD-Solid
 62
   142
420
    32960
370
     0
100
AcDbLine
 10
797.80806
 20
-87.9587487948
 30
0.0
 11
777.80806
 21
-87.9587487948
 31
0.0
  0
ARC
  5
1E1
330
1F
100
AcDbEntity
  8
0
  6
SLD-Solid
 62
   142
420
    32960
370
     0
100
AcDbCircle
 10
777.7503366065
 20
-86.0163602425
 30
0.0
 40
1.943246067350891
100
AcDbArc
 50
181.809909826
 51
271.7021999702
  0
LINE
  5
1E2
330
1F
100
AcDbEntity
  8
0
  6
SLD-Solid
 62
   142
420
    32960
370
     0
100
AcDbLine
 10
775.80806
 20
-81.2746752432
 30
0.0
 11
775.80806
 21
-86.0777350119
 31
0.0
  0
ARC
  5
1E3
330
1F
100
AcDbEntity
  8
0
  6
SLD-Solid
 62
   142
420
    32960
370
     0
100
AcDbCircle
 10
819.3500485216
 20
-80.8280793853
 30
0.0
 40
6.88367177009329
100
AcDbArc
 50
183.7198232552
 51
236.7089678534
  0
ARC
  5
1E4
330
1F
100
AcDbEntity
  8
0
  6
SLD-Solid
 62
   142
420
    32960
370
     0
100
AcDbCircle
 10
801.0499689247
 20
-80.8941141171
 30
0.0
 40
15.59591360520914
100
AcDbArc
 50
338.6102845448
 51
358.6017676596
  0
LINE
  5
1E5
330
1F
100
AcDbEntity
  8
0
  6
SLD-Solid
 62
   142
420
    32960
370
     0
100
AcDbLine
 10
819.8956547256
 20
-81.3752005546
 30
0.0
 11
819.8956547256
 21
-81.2746752432
 31
0.0
  0
LINE
  5
1E6
330
1F
100
AcDbEntity
  8
0
  6
SLD-Solid
 62
   142
420
    32960
370
     0
100
AcDbLine
 10
829.1456547256
 20
-81.2746752432
 30
0.0
 11
829.1456547256
 21
-81.8454540003
 31
0.0
  0
LINE
  5
1E7
330
1F
100
AcDbEntity
  8
0
  6
SLD-Solid
 62
   142
420
    32960
370
     0
100
AcDbLine
 10
819.8956547256
 20
-81.3752005546
 30
0.0
 11
829.1456547256
 21
-81.8454540003
 31
0.0
  0
LINE
  5
1E8
330
1F
100
AcDbEntity
  8
0
  6
SLD-Solid
 62
   142
420
    32960
370
     0
100
AcDbLine
 10
819.8956547256
 20
-86.0777350119
 30
0.0
 11
829.1456547256
 21
-86.5479884576
 31
0.0
  0
LINE
  5
1E9
330
1F
100
AcDbEntity
  8
0
  6
SLD-Solid
 62
   142
420
    32960
370
     0
100
AcDbLine
 10
819.8956547256
 20
-86.0777350119
 30
0.0
 11
819.8956547256
 21
-85.1372281204
 31
0.0
  0
LINE
  5
1EA
330
1F
100
AcDbEntity
  8
0
  6
SLD-Solid
 62
   142
420
    32960
370
     0
100
AcDbLine
 10
819.8956547256
 20
-85.1372281204
 30
0.0
 11
829.1456547256
 21
-84.6669746747
 31
0.0
  0
LINE
  5
1EB
330
1F
100
AcDbEntity
  8
0
  6
SLD-Solid
 62
   142
420
    32960
370
     0
100
AcDbLine
 10
829.1456547256
 20
-84.6669746747
 30
0.0
 11
829.1456547256
 21
-86.5479884576
 31
0.0
  0
ARC
  5
1EC
330
1F
100
AcDbEntity
  8
0
  6
SLD-Solid
 62
   142
420
    32960
370
     0
100
AcDbCircle
 10
360.5869216994
 20
-86.0436498811
 30
0.0
 40
0.9716230336755627
100
AcDbArc
 50
268.2978000298
 51
358.190090174
  0
ARC
  5
1ED
330
1F
100
AcDbEntity
  8
0
  6
SLD-Solid
 62
   142
420
    32960
370
     0
100
AcDbCircle
 10
340.5291983058
 20
-86.0436498811
 30
0.0
 40
0.9716230336753868
100
AcDbArc
 50
181.809909826
 51
271.7021999702
  0
ARC
  5
1EE
330
1F
100
AcDbEntity
  8
0
  6
SLD-Solid
 62
   142
420
    32960
370
     0
100
AcDbCircle
 10
340.5003366091
 20
-86.0129624964
 30
0.0
 40
1.943246067350781
100
AcDbArc
 50
181.809909826
 51
271.7021999702
  0
LINE
  5
1EF
330
1F
100
AcDbEntity
  8
0
  6
SLD-Solid
 62
   142
420
    32960
370
     0
100
AcDbLine
 10
360.5580600026
 20
-87.9553510487
 30
0.0
 11
340.5580600026
 21
-87.9553510487
 31
0.0
  0
ARC
  5
1F0
330
1F
100
AcDbEntity
  8
0
  6
SLD-Solid
 62
   142
420
    32960
370
     0
100
AcDbCircle
 10
360.6157833962
 20
-86.0129624964
 30
0.0
 40
1.943246067351008
100
AcDbArc
 50
268.2978000298
 51
358.190090174
  0
LINE
  5
1F1
330
1F
100
AcDbEntity
  8
0
  6
SLD-Solid
 62
     7
370
    15
100
AcDbLine
 10
898.80806
 20
-99.4155146837
 30
0.0
 11
898.80806
 21
-92.2850804956
 31
0.0
  0
LINE
  5
1F2
330
1F
100
AcDbEntity
  8
0
  6
SLD-Solid
 62
     7
370
    15
100
AcDbLine
 10
-1.19194
 20
-99.4155146837
 30
0.0
 11
-1.19194
 21
-92.2850804956
 31
0.0
  0
LINE
  5
1F3
330
1F
100
AcDbEntity
  8
0
  6
SLD-Solid
 62
     7
370
    15
100
AcDbLine
 10
83.95806
 20
602.3421332553
 30
0.0
 11
83.95806
 21
40.4421332553
 31
0.0
  0
LINE
  5
1F4
330
1F
100
AcDbEntity
  8
0
  6
SLD-Solid
 62
     7
370
    15
100
AcDbLine
 10
83.95806
 20
40.4421332553
 30
0.0
 11
323.85806
 21
40.4421332553
 31
0.0
  0
LINE
  5
1F5
330
1F
100
AcDbEntity
  8
0
  6
SLD-Solid
 62
     7
370
    15
100
AcDbLine
 10
323.85806
 20
40.4421332553
 30
0.0
 11
323.85806
 21
602.3421332553
 31
0.0
  0
LINE
  5
1F6
330
1F
100
AcDbEntity
  8
0
  6
SLD-Solid
 62
     7
370
    15
100
AcDbLine
 10
323.85806
 20
602.3421332553
 30
0.0
 11
83.95806
 21
602.3421332553
 31
0.0
  0
LINE
  5
1F7
330
1F
100
AcDbEntity
  8
0
  6
SLD-Solid
 62
     7
370
    15
100
AcDbLine
 10
896.35806
 20
33.3421332553
 30
0.0
 11
898.80806
 21
33.3421332553
 31
0.0
  0
LINE
  5
1F8
330
1F
100
AcDbEntity
  8
0
  6
SLD-Solid
 62
     7
370
    15
100
AcDbLine
 10
898.80806
 20
-57.9746752432
 30
0.0
 11
898.80806
 21
33.3421332553
 31
0.0
  0
LINE
  5
1F9
330
1F
100
AcDbEntity
  8
0
  6
SLD-Solid
 62
   142
420
    32960
370
     0
100
AcDbLine
 10
898.80806
 20
-57.9746752432
 30
0.0
 11
896.35806
 21
-57.9746752432
 31
0.0
  0
LINE
  5
1FA
330
1F
100
AcDbEntity
  8
0
  6
SLD-Solid
 62
   142
420
    32960
370
     0
100
AcDbLine
 10
1.25806
 20
33.3421332553
 30
0.0
 11
1.25806
 21
35.7921332553
 31
0.0
  0
LINE
  5
1FB
330
1F
100
AcDbEntity
  8
0
  6
SLD-Solid
 62
     7
370
    15
100
AcDbLine
 10
896.35806
 20
35.7921332553
 30
0.0
 11
1.25806
 21
35.7921332553
 31
0.0
  0
LINE
  5
1FC
330
1F
100
AcDbEntity
  8
0
  6
SLD-Solid
 62
   142
420
    32960
370
     0
100
AcDbLine
 10
896.35806
 20
35.7921332553
 30
0.0
 11
896.35806
 21
33.3421332553
 31
0.0
  0
LINE
  5
1FD
330
1F
100
AcDbEntity
  8
0
  6
SLD-Solid
 62
     7
370
    15
100
AcDbLine
 10
-1.19194
 20
33.3421332553
 30
0.0
 11
1.25806
 21
33.3421332553
 31
0.0
  0
LINE
  5
1FE
330
1F
100
AcDbEntity
  8
0
  6
SLD-Solid
 62
   142
420
    32960
370
     0
100
AcDbLine
 10
1.25806
 20
-57.9746752432
 30
0.0
 11
-1.19194
 21
-57.9746752432
 31
0.0
  0
LINE
  5
1FF
330
1F
100
AcDbEntity
  8
0
  6
SLD-Solid
 62
     7
370
    15
100
AcDbLine
 10
-1.19194
 20
33.3421332553
 30
0.0
 11
-1.19194
 21
-57.9746752432
 31
0.0
  0
LINE
  5
200
330
1F
100
AcDbEntity
  8
0
  6
SLD-Solid
 62
     7
370
    15
100
AcDbLine
 10
897.60806
 20
-81.2746752432
 30
0.0
 11
897.60806
 21
-58.4746752432
 31
0.0
  0
LINE
  5
201
330
1F
100
AcDbEntity
  8
0
  6
SLD-Solid
 62
     7
370
    15
100
AcDbLine
 10
0.00806
 20
-81.2746752432
 30
0.0
 11
0.00806
 21
-58.4746752432
 31
0.0
  0
LINE
  5
202
330
1F
100
AcDbEntity
  8
0
  6
SLD-Solid
 62
   142
420
    32960
370
     0
100
AcDbLine
 10
896.35806
 20
-58.4746752432
 30
0.0
 11
897.60806
 21
-58.4746752432
 31
0.0
  0
LINE
  5
203
330
1F
100
AcDbEntity
  8
0
  6
SLD-Solid
 62
   142
420
    32960
370
     0
100
AcDbLine
 10
896.35806
 20
-57.9746752432
 30
0.0
 11
896.35806
 21
-58.4746752432
 31
0.0
  0
LINE
  5
204
330
1F
100
AcDbEntity
  8
0
  6
SLD-Solid
 62
   142
420
    32960
370
     0
100
AcDbLine
 10
1.25806
 20
-58.4746752432
 30
0.0
 11
1.25806
 21
-57.9746752432
 31
0.0
  0
LINE
  5
205
330
1F
100
AcDbEntity
  8
0
  6
SLD-Solid
 62
   142
420
    32960
370
     0
100
AcDbLine
 10
0.00806
 20
-58.4746752432
 30
0.0
 11
1.25806
 21
-58.4746752432
 31
0.0
  0
LINE
  5
206
330
1F
100
AcDbEntity
  8
0
  6
SLD-Solid
 62
     7
370
    15
100
AcDbLine
 10
897.60806
 20
34.5821332553
 30
0.0
 11
897.60806
 21
34.5921332553
 31
0.0
  0
LINE
  5
207
330
1F
100
AcDbEntity
  8
0
  6
SLD-Solid
 62
   142
420
    32960
370
     0
100
AcDbLine
 10
897.60806
 20
-58.4746752432
 30
0.0
 11
897.60806
 21
-57.9746752432
 31
0.0
  0
LINE
  5
208
330
1F
100
AcDbEntity
  8
0
  6
SLD-Solid
 62
   142
420
    32960
370
     0
100
AcDbLine
 10
897.60806
 20
33.3421332553
 30
0.0
 11
897.60806
 21
34.5821332553
 31
0.0
  0
LINE
  5
209
330
1F
100
AcDbEntity
  8
0
  6
SLD-Solid
 62
     7
370
    15
100
AcDbLine
 10
-1.19194
 20
37.0421332553
 30
0.0
 11
-1.19194
 21
58.8421332553
 31
0.0
  0
LINE
  5
20A
330
1F
100
AcDbEntity
  8
0
  6
SLD-Solid
 62
     7
370
    15
100
AcDbLine
 10
-1.19194
 20
34.5821332553
 30
0.0
 11
-1.19194
 21
37.0421332553
 31
0.0
  0
LINE
  5
20B
330
1F
100
AcDbEntity
  8
0
  6
SLD-Solid
 62
     7
370
    15
100
AcDbLine
 10
-1.19194
 20
-79.9746752432
 30
0.0
 11
-1.19194
 21
-58.4746752432
 31
0.0
  0
LINE
  5
20C
330
1F
100
AcDbEntity
  8
0
  6
SLD-Solid
 62
   142
420
    32960
370
     0
100
AcDbLine
 10
-1.19194
 20
-58.4746752432
 30
0.0
 11
-1.19194
 21
-57.9746752432
 31
0.0
  0
LINE
  5
20D
330
1F
100
AcDbEntity
  8
0
  6
SLD-Solid
 62
   142
420
    32960
370
     0
100
AcDbLine
 10
-1.19194
 20
33.3421332553
 30
0.0
 11
-1.19194
 21
34.5821332553
 31
0.0
  0
LINE
  5
20E
330
1F
100
AcDbEntity
  8
0
  6
SLD-Solid
 62
   142
420
    32960
370
     0
100
AcDbLine
 10
-1.19194
 20
58.8421332553
 30
0.0
 11
-1.19194
 21
60.0821332553
 31
0.0
  0
LINE
  5
20F
330
1F
100
AcDbEntity
  8
0
  6
SLD-Solid
 62
     7
370
    15
100
AcDbLine
 10
898.80806
 20
-79.9746752432
 30
0.0
 11
898.80806
 21
-58.4746752432
 31
0.0
  0
LINE
  5
210
330
1F
100
AcDbEntity
  8
0
  6
SLD-Solid
 62
     7
370
    15
100
AcDbLine
 10
898.80806
 20
34.5821332553
 30
0.0
 11
898.80806
 21
37.0421332553
 31
0.0
  0
LINE
  5
211
330
1F
100
AcDbEntity
  8
0
  6
SLD-Solid
 62
     7
370
    15
100
AcDbLine
 10
898.80806
 20
37.0421332553
 30
0.0
 11
898.80806
 21
58.8421332553
 31
0.0
  0
LINE
  5
212
330
1F
100
AcDbEntity
  8
0
  6
SLD-Solid
 62
   142
420
    32960
370
     0
100
AcDbLine
 10
898.80806
 20
58.8421332553
 30
0.0
 11
898.80806
 21
60.0821332553
 31
0.0
  0
LINE
  5
213
330
1F
100
AcDbEntity
  8
0
  6
SLD-Solid
 62
   142
420
    32960
370
     0
100
AcDbLine
 10
898.80806
 20
33.3421332553
 30
0.0
 11
898.80806
 21
34.5821332553
 31
0.0
  0
LINE
  5
214
330
1F
100
AcDbEntity
  8
0
  6
SLD-Solid
 62
   142
420
    32960
370
     0
100
AcDbLine
 10
898.80806
 20
-58.4746752432
 30
0.0
 11
898.80806
 21
-57.9746752432
 31
0.0
  0
LINE
  5
215
330
1F
100
AcDbEntity
  8
0
  6
SLD-Solid
 62
   142
420
    32960
370
     0
100
AcDbLine
 10
-1.19194
 20
-58.4746752432
 30
0.0
 11
0.00806
 21
-58.4746752432
 31
0.0
  0
LINE
  5
216
330
1F
100
AcDbEntity
  8
0
  6
SLD-Solid
 62
     7
370
    15
100
AcDbLine
 10
0.00806
 20
34.5821332553
 30
0.0
 11
0.00806
 21
34.5921332553
 31
0.0
  0
LINE
  5
217
330
1F
100
AcDbEntity
  8
0
  6
SLD-Solid
 62
   142
420
    32960
370
     0
100
AcDbLine
 10
0.00806
 20
33.3421332553
 30
0.0
 11
0.00806
 21
34.5821332553
 31
0.0
  0
LINE
  5
218
330
1F
100
AcDbEntity
  8
0
  6
SLD-Solid
 62
   142
420
    32960
370
     0
100
AcDbLine
 10
0.00806
 20
-58.4746752432
 30
0.0
 11
0.00806
 21
-57.9746752432
 31
0.0
  0
LINE
  5
219
330
1F
100
AcDbEntity
  8
0
  6
SLD-Solid
 62
   142
420
    32960
370
     0
100
AcDbLine
 10
898.80806
 20
-58.4746752432
 30
0.0
 11
897.60806
 21
-58.4746752432
 31
0.0
  0
LINE
  5
21A
330
1F
100
AcDbEntity
  8
0
  6
SLD-Solid
 62
   142
420
    32960
370
     0
100
AcDbLine
 10
1.25806
 20
35.7921332553
 30
0.0
 11
0.00806
 21
35.7921332553
 31
0.0
  0
LINE
  5
21B
330
1F
100
AcDbEntity
  8
0
  6
SLD-Solid
 62
   142
420
    32960
370
     0
100
AcDbLine
 10
897.60806
 20
35.7921332553
 30
0.0
 11
896.35806
 21
35.7921332553
 31
0.0
  0
LINE
  5
21C
330
1F
100
AcDbEntity
  8
0
  6
SLD-Solid
 62
   142
420
    32960
370
     0
100
AcDbLine
 10
898.80806
 20
34.5821332553
 30
0.0
 11
897.60806
 21
34.5821332553
 31
0.0
  0
LINE
  5
21D
330
1F
100
AcDbEntity
  8
0
  6
SLD-Solid
 62
   142
420
    32960
370
     0
100
AcDbLine
 10
-1.19194
 20
34.5821332553
 30
0.0
 11
0.00806
 21
34.5821332553
 31
0.0
  0
LINE
  5
21E
330
1F
100
AcDbEntity
  8
0
  6
SLD-Solid
 62
   142
420
    32960
370
     0
100
AcDbLine
 10
898.80806
 20
58.8421332553
 30
0.0
 11
897.60806
 21
58.8421332553
 31
0.0
  0
LINE
  5
21F
330
1F
100
AcDbEntity
  8
0
  6
SLD-Solid
 62
   142
420
    32960
370
     0
100
AcDbLine
 10
-1.19194
 20
58.8421332553
 30
0.0
 11
0.00806
 21
58.8421332553
 31
0.0
  0
LINE
  5
220
330
1F
100
AcDbEntity
  8
0
  6
SLD-Solid
 62
   142
420
    32960
370
     0
100
AcDbLine
 10
0.1398453614
 20
60.0821332553
 30
0.0
 11
-1.19194
 21
60.0821332553
 31
0.0
  0
LINE
  5
221
330
1F
100
AcDbEntity
  8
0
  6
SLD-Solid
 62
   142
420
    32960
370
     0
100
AcDbLine
 10
898.80806
 20
60.0821332553
 30
0.0
 11
897.4762746386
 21
60.0821332553
 31
0.0
  0
LINE
  5
222
330
1F
100
AcDbEntity
  8
0
  6
SLD-Solid
 62
   142
420
    32960
370
     0
100
AcDbLine
 10
790.80806
 20
-81.2746752432
 30
0.0
 11
790.80806
 21
-83.2562143375
 31
0.0
  0
ARC
  5
223
330
1F
100
AcDbEntity
  8
0
  6
SLD-Solid
 62
   142
420
    32960
370
     0
100
AcDbCircle
 10
792.7503366065
 20
-83.1948395681
 30
0.0
 40
1.943246067351008
100
AcDbArc
 50
181.809909826
 51
271.7021999702
  0
LINE
  5
224
330
1F
100
AcDbEntity
  8
0
  6
SLD-Solid
 62
   142
420
    32960
370
     0
100
AcDbLine
 10
792.80806
 20
-85.1372281204
 30
0.0
 11
794.80806
 21
-85.1372281204
 31
0.0
  0
ARC
  5
225
330
1F
100
AcDbEntity
  8
0
  6
SLD-Solid
 62
   142
420
    32960
370
     0
100
AcDbCircle
 10
794.8657833936
 20
-83.1948395681
 30
0.0
 40
1.943246067350769
100
AcDbArc
 50
268.2978000298
 51
358.190090174
  0
LINE
  5
226
330
1F
100
AcDbEntity
  8
0
  6
SLD-Solid
 62
   142
420
    32960
370
     0
100
AcDbLine
 10
796.80806
 20
-81.2746752432
 30
0.0
 11
796.80806
 21
-83.2562143375
 31
0.0
  0
LINE
  5
227
330
1F
100
AcDbEntity
  8
0
  6
SLD-Solid
 62
   142
420
    32960
370
     0
100
AcDbLine
 10
798.80806
 20
-86.0777350119
 30
0.0
 11
798.80806
 21
-81.2746752432
 31
0.0
  0
ARC
  5
228
330
1F
100
AcDbEntity
  8
0
  6
SLD-Solid
 62
   142
420
    32960
370
     0
100
AcDbCircle
 10
797.8369216968
 20
-86.0470476272
 30
0.0
 40
0.9716230336751486
100
AcDbArc
 50
268.2978000298
 51
358.190090174
  0
LINE
  5
229
330
1F
100
AcDbEntity
  8
0
  6
SLD-Solid
 62
   142
420
    32960
370
     0
100
AcDbLine
 10
797.80806
 20
-87.0182419034
 30
0.0
 11
777.80806
 21
-87.0182419034
 31
0.0
  0
ARC
  5
22A
330
1F
100
AcDbEntity
  8
0
  6
SLD-Solid
 62
   142
420
    32960
370
     0
100
AcDbCircle
 10
777.7791983032
 20
-86.0470476272
 30
0.0
 40
0.9716230336754117
100
AcDbArc
 50
181.809909826
 51
271.7021999702
  0
LINE
  5
22B
330
1F
100
AcDbEntity
  8
0
  6
SLD-Solid
 62
   142
420
    32960
370
     0
100
AcDbLine
 10
776.80806
 20
-81.2746752432
 30
0.0
 11
776.80806
 21
-86.0777350119
 31
0.0
  0
LINE
  5
22C
330
1F
100
AcDbEntity
  8
0
  6
SLD-Solid
 62
   142
420
    32960
370
     0
100
AcDbLine
 10
819.8956547256
 20
-86.0743372658
 30
0.0
 11
829.1456547256
 21
-86.5445907115
 31
0.0
  0
CIRCLE
  5
22D
330
1F
100
AcDbEntity
  8
0
  6
SLD-Solid
 62
     7
370
    15
100
AcDbCircle
 10
203.90806
 20
188.8921332552
 30
0.0
 40
91.49999999999994
  0
CIRCLE
  5
22E
330
1F
100
AcDbEntity
  8
0
  6
SLD-Solid
 62
     7
370
    15
100
AcDbCircle
 10
203.90806
 20
188.8921332552
 30
0.0
 40
93.5
  0
CIRCLE
  5
22F
330
1F
100
AcDbEntity
  8
0
  6
SLD-Solid
 62
     7
370
    15
100
AcDbCircle
 10
203.90806
 20
188.8921332552
 30
0.0
 40
27.50000000000002
  0
CIRCLE
  5
230
330
1F
100
AcDbEntity
  8
0
  6
SLD-Solid
 62
     7
370
    15
100
AcDbCircle
 10
203.9106463921
 20
188.8883949201
 30
0.0
 40
14.00000000000003
  0
LINE
  5
231
330
1F
100
AcDbEntity
  8
0
  6
SLD-Solid
 62
     7
370
    15
100
AcDbLine
 10
301.55806
 20
-81.2746752432
 30
0.0
 11
301.55806
 21
-91.8832960009
 31
0.0
  0
ARC
  5
232
330
1F
100
AcDbEntity
  8
0
  6
SLD-Solid
 62
   142
420
    32960
370
     0
100
AcDbCircle
 10
313.1984253342
 20
-80.9768337498
 30
0.0
 40
0.9768703153323787
100
AcDbArc
 50
300.4073827834
 51
342.2482381028
  0
ARC
  5
233
330
1F
100
AcDbEntity
  8
0
  6
SLD-Solid
 62
   142
420
    32960
370
     0
100
AcDbCircle
 10
292.9762339848
 20
-80.929981545
 30
0.0
 40
1.047249590911238
100
AcDbArc
 50
199.2166993273
 51
238.1276797865
  0
LINE
  5
234
330
1F
100
AcDbEntity
  8
0
  6
SLD-Solid
 62
   142
420
    32960
370
     0
100
AcDbLine
 10
304.55806
 20
-91.8832960009
 30
0.0
 11
304.55806
 21
-81.2746752432
 31
0.0
  0
LWPOLYLINE
  5
235
330
1F
100
AcDbEntity
  8
0
  6
SLD-Solid
 62
   142
420
    32960
370
     0
100
AcDbPolyline
 90
        9
 70
   128
 43
0.0
 10
301.55806
 20
-91.8832960009
 10
301.6722407012
 20
-92.060679527
 10
301.9973998282
 20
-92.2110580192
 10
302.4840348515
 20
-92.3115377153
 10
303.05806
 20
-92.3468214924
 10
303.6320851485
 20
-92.3115377153
 10
304.1187201718
 20
-92.2110580192
 10
304.4438792988
 20
-92.060679527
 10
304.55806
 20
-91.8832960009
  0
ARC
  5
236
330
1F
100
AcDbEntity
  8
0
  6
SLD-Solid
 62
   142
420
    32960
370
     0
100
AcDbCircle
 10
303.5819328757
 20
-91.4328691697
 30
0.0
 40
0.9764498166442813
100
AcDbArc
 50
1.4730549926
 51
91.4009438083
  0
ARC
  5
237
330
1F
100
AcDbEntity
  8
0
  6
SLD-Solid
 62
   142
420
    32960
370
     0
100
AcDbCircle
 10
302.5341871243
 20
-91.4328691697
 30
0.0
 40
0.9764498166443396
100
AcDbArc
 50
88.5990561917
 51
178.5269450074
  0
LWPOLYLINE
  5
238
330
1F
100
AcDbEntity
  8
0
  6
SLD-Solid
 62
   142
420
    32960
370
     0
100
AcDbPolyline
 90
        9
 70
   128
 43
0.0
 10
302.55806
 20
-90.4567112264
 10
302.5961202337
 20
-90.5158390685
 10
302.7045066094
 20
-90.5659652325
 10
302.8667182838
 20
-90.5994584646
 10
303.05806
 20
-90.6112197236
 10
303.2494017162
 20
-90.5994584646
 10
303.4116133906
 20
-90.5659652325
 10
303.5199997663
 20
-90.5158390685
 10
303.55806
 20
-90.4567112264
  0
LINE
  5
239
330
1F
100
AcDbEntity
  8
0
  6
SLD-Solid
 62
     7
370
    15
100
AcDbLine
 10
312.7322240362
 20
-85.3825131703
 30
0.0
 11
312.7248745118
 21
-85.5877086371
 31
0.0
  0
ARC
  5
23A
330
1F
100
AcDbEntity
  8
0
  6
SLD-Solid
 62
   142
420
    32960
370
     0
100
AcDbCircle
 10
313.7815609571
 20
-80.939992584
 30
0.0
 40
0.8838035354356577
100
AcDbArc
 50
264.2401525825
 51
337.7477815074
  0
ARC
  5
23B
330
1F
100
AcDbEntity
  8
0
  6
SLD-Solid
 62
   142
420
    32960
370
     0
100
AcDbCircle
 10
313.6060038423
 20
-90.3882327458
 30
0.0
 40
1.05602561032222
100
AcDbArc
 50
274.7179789945
 51
357.771185392
  0
ARC
  5
23C
330
1F
100
AcDbEntity
  8
0
  6
SLD-Solid
 62
   142
420
    32960
370
     0
100
AcDbCircle
 10
292.330778351
 20
-80.9462862129
 30
0.0
 40
0.8779320999912558
100
AcDbArc
 50
201.9655056417
 51
276.0465602684
  0
ARC
  5
23D
330
1F
100
AcDbEntity
  8
0
  6
SLD-Solid
 62
   142
420
    32960
370
     0
100
AcDbCircle
 10
292.5101161577
 20
-90.3882327458
 30
0.0
 40
1.05602561032234
100
AcDbArc
 50
182.228814608
 51
265.2820210055
  0
ARC
  5
23E
330
1F
100
AcDbEntity
  8
0
  6
SLD-Solid
 62
   142
420
    32960
370
     0
100
AcDbCircle
 10
313.8326705175
 20
-91.1435688594
 30
0.0
 40
0.3283613649493875
100
AcDbArc
 50
244.8004266256
 51
329.0460576317
  0
ARC
  5
23F
330
1F
100
AcDbEntity
  8
0
  6
SLD-Solid
 62
   142
420
    32960
370
     0
100
AcDbCircle
 10
292.2834494817
 20
-91.143568729
 30
0.0
 40
0.3283614833239625
100
AcDbArc
 50
210.9538244915
 51
295.1995638197
  0
ARC
  5
240
330
1F
100
AcDbEntity
  8
0
  6
SLD-Solid
 62
   142
420
    32960
370
     0
100
AcDbCircle
 10
314.1953777927
 20
-90.5742014858
 30
0.0
 40
0.4878674730374981
100
AcDbArc
 50
307.82061989
 51
17.2778618711
  0
ARC
  5
241
330
1F
100
AcDbEntity
  8
0
  6
SLD-Solid
 62
   142
420
    32960
370
     0
100
AcDbCircle
 10
291.9207376322
 20
-90.5742018177
 30
0.0
 40
0.4878632029429163
100
AcDbArc
 50
162.7219413202
 51
232.176097627
  0
SPLINE
  5
242
330
1F
100
AcDbEntity
  8
0
  6
SLD-Solid
 62
   142
420
    32960
370
     0
100
AcDbSpline
210
0.0
220
0.0
230
1.0
 70
     8
 71
     3
 72
    10
 73
     6
 74
     0
 42
0.00000001
 43
0.00000001
 40
0.0
 40
0.0
 40
0.0
 40
0.0
 40
0.5
 40
0.5
 40
1.0
 40
1.0
 40
1.0
 40
1.0
 10
252.3139868738555
 20
-104.9978737735716
 30
0.0
 10
274.7228955391778
 20
-107.6292466799306
 30
0.0
 10
297.1703946896466
 20
-109.9322569751831
 30
0.0
 10
342.1136394738252
 20
-113.8790674344112
 30
0.0
 10
364.6117105468986
 20
-115.5232219293206
 30
0.0
 10
387.1362511615177
 20
-116.8378671344868
 30
0.0
  0
SPLINE
  5
243
330
1F
100
AcDbEntity
  8
0
  6
SLD-Solid
 62
   142
420
    32960
370
     0
100
AcDbSpline
210
0.0
220
0.0
230
1.0
 70
     8
 71
     3
 72
    12
 73
     8
 74
     0
 42
0.00000001
 43
0.00000001
 40
0.0
 40
0.0
 40
0.0
 40
0.0
 40
0.2344263692490896
 40
0.5143984043073073
 40
0.6567294602470536
 40
0.945094905981831
 40
1.0
 40
1.0
 40
1.0
 40
1.0
 10
245.893296914623
 20
-99.41551468373933
 30
0.0
 10
246.1216785562686
 20
-100.0852476376206
 30
0.0
 10
246.6228131018907
 20
-101.5548330084651
 30
0.0
 10
248.0082707714032
 20
-103.0453473727873
 30
0.0
 10
249.7469104521451
 20
-104.2766428260348
 30
0.0
 10
251.1292141790143
 20
-104.8326811724755
 30
0.0
 10
252.1506166153988
 20
-104.9750950936998
 30
0.0
 10
252.3139868738556
 20
-104.9978737735713
 30
0.0
  0
LWPOLYLINE
  5
244
330
1F
100
AcDbEntity
  8
0
  6
SLD-Solid
 62
   142
420
    32960
370
     0
100
AcDbPolyline
 90
        6
 70
   128
 43
0.0
 10
387.1362511615
 20
-116.8378671345
 10
387.1529456947
 20
-116.5498933433
 10
387.16486609
 20
-116.3438291212
 10
387.1719910287
 20
-116.2200429932
 10
387.1743077689
 20
-116.1787563382
 10
387.1743077145
 20
-116.178756353
  0
LINE
  5
245
330
1F
100
AcDbEntity
  8
0
  6
SLD-Solid
 62
   142
420
    32960
370
     0
100
AcDbLine
 10
202.6964375609
 20
690.8387152426
 30
0.0
 11
202.6964375609
 21
695.1455512679
 31
0.0
  0
SPLINE
  5
246
330
1F
100
AcDbEntity
  8
0
  6
SLD-Solid
 62
   142
420
    32960
370
     0
100
AcDbSpline
210
0.0
220
0.0
230
1.0
 70
     8
 71
     3
 72
     8
 73
     4
 74
     0
 42
0.00000001
 43
0.00000001
 40
0.0
 40
0.0
 40
0.0
 40
0.0
 40
1.0
 40
1.0
 40
1.0
 40
1.0
 10
202.6964375609311
 20
695.1455512678695
 30
0.0
 10
201.7737786417275
 20
695.4181956572207
 30
0.0
 10
200.8372670927727
 20
695.592133255254
 30
0.0
 10
199.8763449322156
 20
695.592133255254
 30
0.0
  0
SPLINE
  5
247
330
1F
100
AcDbEntity
  8
0
  6
SLD-Solid
 62
   142
420
    32960
370
     0
100
AcDbSpline
210
0.0
220
0.0
230
1.0
 70
     8
 71
     3
 72
    12
 73
     8
 74
     0
 42
0.00000001
 43
0.00000001
 40
0.0
 40
0.0
 40
0.0
 40
0.0
 40
0.2499999999999992
 40
0.2499999999999992
 40
0.4999999999999984
 40
0.4999999999999984
 40
1.0
 40
1.0
 40
1.0
 40
1.0
 10
199.8763449322156
 20
695.592133255254
 30
0.0
 10
199.6370123072228
 20
695.5921332552541
 30
0.0
 10
199.3966068563298
 20
695.5815776947305
 30
0.0
 10
198.9210346058821
 20
695.5407289681702
 30
0.0
 10
198.6848390812771
 20
695.5104750581303
 30
0.0
 10
197.9804475492005
 20
695.393788932882
 30
0.0
 10
197.5164302604331
 20
695.2815331951551
 30
0.0
 10
197.0562523035001
 20
695.1455512678692
 30
0.0
  0
LINE
  5
248
330
1F
100
AcDbEntity
  8
0
  6
SLD-Solid
 62
   142
420
    32960
370
     0
100
AcDbLine
 10
197.0562523035
 20
690.8387152426
 30
0.0
 11
197.0562523035
 21
695.1455512679
 31
0.0
  0
SPLINE
  5
249
330
1F
100
AcDbEntity
  8
0
  6
SLD-Solid
 62
   142
420
    32960
370
     0
100
AcDbSpline
210
0.0
220
0.0
230
1.0
 70
     8
 71
     3
 72
    12
 73
     8
 74
     0
 42
0.00000001
 43
0.00000001
 40
0.0
 40
0.0
 40
0.0
 40
0.0
 40
0.2499999999999992
 40
0.2499999999999992
 40
0.4999999999999984
 40
0.4999999999999984
 40
1.0
 40
1.0
 40
1.0
 40
1.0
 10
199.8763449322156
 20
690.3921332552541
 30
0.0
 10
199.6370123072228
 20
690.3921332552541
 30
0.0
 10
199.3966068563298
 20
690.4026888157775
 30
0.0
 10
198.9210346058821
 20
690.4435375423378
 30
0.0
 10
198.6848390812771
 20
690.4737914523778
 30
0.0
 10
197.9804475492005
 20
690.5904775776264
 30
0.0
 10
197.5164302604331
 20
690.702733315353
 30
0.0
 10
197.0562523035001
 20
690.838715242639
 30
0.0
  0
SPLINE
  5
24A
330
1F
100
AcDbEntity
  8
0
  6
SLD-Solid
 62
   142
420
    32960
370
     0
100
AcDbSpline
210
0.0
220
0.0
230
1.0
 70
     8
 71
     3
 72
     8
 73
     4
 74
     0
 42
0.00000001
 43
0.00000001
 40
0.0
 40
0.0
 40
0.0
 40
0.0
 40
1.0
 40
1.0
 40
1.0
 40
1.0
 10
202.6964375609311
 20
690.8387152426385
 30
0.0
 10
201.7737786417275
 20
690.5660708532874
 30
0.0
 10
200.8372670927727
 20
690.3921332552541
 30
0.0
 10
199.8763449322156
 20
690.3921332552541
 30
0.0
  0
LINE
  5
24B
330
1F
100
AcDbEntity
  8
0
  6
SLD-Solid
 62
   142
420
    32960
370
     0
100
AcDbLine
 10
75.85806
 20
35.7921332553
 30
0.0
 11
75.85806
 21
37.0421332553
 31
0.0
  0
LINE
  5
24C
330
1F
100
AcDbEntity
  8
0
  6
SLD-Solid
 62
   142
420
    32960
370
     0
100
AcDbLine
 10
821.75806
 20
37.0421332553
 30
0.0
 11
821.75806
 21
35.7921332553
 31
0.0
  0
CIRCLE
  5
24D
330
1F
100
AcDbEntity
  8
0
  6
SLD-Solid
 62
   142
420
    32960
370
     0
100
AcDbCircle
 10
203.90806
 20
188.8921332552
 30
0.0
 40
98.09941204801852
  0
ARC
  5
24E
330
1F
100
AcDbEntity
  8
0
  6
SLD-Solid
 62
     7
370
    15
100
AcDbCircle
 10
393.85806
 20
648.7921332553
 30
0.0
 40
10.30000000000006
100
AcDbArc
 50
11.3639867807
 51
54.6877265128
  0
LINE
  5
24F
330
1F
100
AcDbEntity
  8
0
  6
SLD-Solid
 62
   142
420
    32960
370
     0
100
AcDbLine
 10
193.1678747426
 20
690.8387152426
 30
0.0
 11
193.1678747426
 21
691.4421332553
 31
0.0
  0
SPLINE
  5
250
330
1F
100
AcDbEntity
  8
0
  6
SLD-Solid
 62
   142
420
    32960
370
     0
100
AcDbSpline
210
0.0
220
0.0
230
1.0
 70
     8
 71
     3
 72
    10
 73
     6
 74
     0
 42
0.00000001
 43
0.00000001
 40
0.0
 40
0.0
 40
0.0
 40
0.0
 40
0.5
 40
0.5
 40
1.0
 40
1.0
 40
1.0
 40
1.0
 10
194.0437785908221
 20
690.3921332552541
 30
0.0
 10
193.8956773053485
 20
690.3921332552541
 30
0.0
 10
193.7455622566778
 20
690.4352236022886
 30
0.0
 10
193.4529900491399
 20
690.5917539623738
 30
0.0
 10
193.3095035116149
 20
690.7039698885243
 30
0.0
 10
193.1678747425711
 20
690.8387152426393
 30
0.0
  0
SPLINE
  5
251
330
1F
100
AcDbEntity
  8
0
  6
SLD-Solid
 62
   142
420
    32960
370
     0
100
AcDbSpline
210
0.0
220
0.0
230
1.0
 70
     8
 71
     3
 72
    10
 73
     6
 74
     0
 42
0.00000001
 43
0.00000001
 40
0.0
 40
0.0
 40
0.0
 40
0.0
 40
0.5
 40
0.5
 40
1.0
 40
1.0
 40
1.0
 40
1.0
 10
194.919682439073
 20
690.8387152426392
 30
0.0
 10
194.777223774405
 20
690.7031803273318
 30
0.0
 10
194.6313181549593
 20
690.5895024284989
 30
0.0
 10
194.3388463359286
 20
690.4340636941062
 30
0.0
 10
194.1917919363471
 20
690.3921332552541
 30
0.0
 10
194.0437785908221
 20
690.3921332552541
 30
0.0
  0
LINE
  5
252
330
1F
100
AcDbEntity
  8
0
  6
SLD-Solid
 62
   142
420
    32960
370
     0
100
AcDbLine
 10
194.9196824391
 20
690.8387152426
 30
0.0
 11
194.9196824391
 21
695.1455512679
 31
0.0
  0
LINE
  5
253
330
1F
100
AcDbEntity
  8
0
  6
SLD-Solid
 62
   142
420
    32960
370
     0
100
AcDbLine
 10
194.9196824391
 20
695.1455512679
 30
0.0
 11
194.7756642964
 21
695.2687571643
 31
0.0
  0
LINE
  5
254
330
1F
100
AcDbEntity
  8
0
  6
SLD-Solid
 62
   142
420
    32960
370
     0
100
AcDbLine
 10
194.2457910017
 20
695.5127469281
 30
0.0
 11
194.0437785908
 21
695.5921332553
 31
0.0
  0
LINE
  5
255
330
1F
100
AcDbEntity
  8
0
  6
SLD-Solid
 62
   142
420
    32960
370
     0
100
AcDbLine
 10
361.5580600026
 20
-86.0777350119
 30
0.0
 11
361.5580600026
 21
-81.2746752432
 31
0.0
  0
ARC
  5
256
330
1F
100
AcDbEntity
  8
0
  6
SLD-Solid
 62
   142
420
    32960
370
     0
100
AcDbCircle
 10
360.5869216994
 20
-86.0470476272
 30
0.0
 40
0.9716230336756221
100
AcDbArc
 50
268.2978000298
 51
358.190090174
  0
LINE
  5
257
330
1F
100
AcDbEntity
  8
0
  6
SLD-Solid
 62
   142
420
    32960
370
     0
100
AcDbLine
 10
360.5580600026
 20
-87.0182419034
 30
0.0
 11
340.5580600026
 21
-87.0182419034
 31
0.0
  0
ARC
  5
258
330
1F
100
AcDbEntity
  8
0
  6
SLD-Solid
 62
   142
420
    32960
370
     0
100
AcDbCircle
 10
340.5291983058
 20
-86.0470476272
 30
0.0
 40
0.9716230336752709
100
AcDbArc
 50
181.809909826
 51
271.7021999702
  0
LINE
  5
259
330
1F
100
AcDbEntity
  8
0
  6
SLD-Solid
 62
   142
420
    32960
370
     0
100
AcDbLine
 10
339.5580600026
 20
-81.2746752432
 30
0.0
 11
339.5580600026
 21
-86.0777350119
 31
0.0
  0
ARC
  5
25A
330
1F
100
AcDbEntity
  8
0
  6
SLD-Solid
 62
   142
420
    32960
370
     0
100
AcDbCircle
 10
506.3369216968
 20
-86.0436498811
 30
0.0
 40
0.9716230336755663
100
AcDbArc
 50
268.2978000298
 51
358.190090174
  0
ARC
  5
25B
330
1F
100
AcDbEntity
  8
0
  6
SLD-Solid
 62
   142
420
    32960
370
     0
100
AcDbCircle
 10
486.2791983032
 20
-86.0436498811
 30
0.0
 40
0.9716230336752687
100
AcDbArc
 50
181.809909826
 51
271.7021999702
  0
ARC
  5
25C
330
1F
100
AcDbEntity
  8
0
  6
SLD-Solid
 62
   142
420
    32960
370
     0
100
AcDbCircle
 10
486.2503366065
 20
-86.0129624964
 30
0.0
 40
1.943246067350771
100
AcDbArc
 50
181.809909826
 51
271.7021999702
  0
LINE
  5
25D
330
1F
100
AcDbEntity
  8
0
  6
SLD-Solid
 62
   142
420
    32960
370
     0
100
AcDbLine
 10
506.30806
 20
-87.9553510487
 30
0.0
 11
486.30806
 21
-87.9553510487
 31
0.0
  0
ARC
  5
25E
330
1F
100
AcDbEntity
  8
0
  6
SLD-Solid
 62
   142
420
    32960
370
     0
100
AcDbCircle
 10
506.3657833936
 20
-86.0129624964
 30
0.0
 40
1.943246067350807
100
AcDbArc
 50
268.2978000298
 51
358.190090174
  0
LINE
  5
25F
330
1F
100
AcDbEntity
  8
0
  6
SLD-Solid
 62
     7
370
    15
100
AcDbLine
 10
813.75806
 20
40.4421332553
 30
0.0
 11
813.75806
 21
602.3421332553
 31
0.0
  0
LINE
  5
260
330
1F
100
AcDbEntity
  8
0
  6
SLD-Solid
 62
     7
370
    15
100
AcDbLine
 10
573.85806
 20
40.4421332553
 30
0.0
 11
813.75806
 21
40.4421332553
 31
0.0
  0
LINE
  5
261
330
1F
100
AcDbEntity
  8
0
  6
SLD-Solid
 62
     7
370
    15
100
AcDbLine
 10
573.85806
 20
602.3421332553
 30
0.0
 11
573.85806
 21
40.4421332553
 31
0.0
  0
LINE
  5
262
330
1F
100
AcDbEntity
  8
0
  6
SLD-Solid
 62
     7
370
    15
100
AcDbLine
 10
813.75806
 20
602.3421332553
 30
0.0
 11
573.85806
 21
602.3421332553
 31
0.0
  0
LINE
  5
263
330
1F
100
AcDbEntity
  8
0
  6
SLD-Solid
 62
   142
420
    32960
370
     0
100
AcDbLine
 10
190.8131380531
 20
697.9921332553
 30
0.0
 11
194.9832351577
 21
697.9921332553
 31
0.0
  0
LINE
  5
264
330
1F
100
AcDbEntity
  8
0
  6
SLD-Solid
 62
   142
420
    32960
370
     0
100
AcDbLine
 10
194.9832351577
 20
697.9921332553
 30
0.0
 11
195.2133965332
 21
697.9921332553
 31
0.0
  0
LINE
  5
265
330
1F
100
AcDbEntity
  8
0
  6
SLD-Solid
 62
   142
420
    32960
370
     0
100
AcDbLine
 10
195.2133965332
 20
697.9921332553
 30
0.0
 11
202.0781752879
 21
697.9921332553
 31
0.0
  0
LINE
  5
266
330
1F
100
AcDbEntity
  8
0
  6
SLD-Solid
 62
   142
420
    32960
370
     0
100
AcDbLine
 10
190.35806
 20
697.9921332553
 30
0.0
 11
190.8131380531
 21
697.9921332553
 31
0.0
  0
SPLINE
  5
267
330
1F
100
AcDbEntity
  8
0
  6
SLD-Solid
 62
   142
420
    32960
370
     0
100
AcDbSpline
210
0.0
220
0.0
230
1.0
 70
     8
 71
     3
 72
     9
 73
     5
 74
     0
 42
0.00000001
 43
0.00000001
 40
0.0
 40
0.0
 40
0.0
 40
0.0
 40
0.9170405201231989
 40
0.9999999999999999
 40
0.9999999999999999
 40
0.9999999999999999
 40
0.9999999999999999
 10
203.6630785981852
 20
696.5421332552539
 30
0.0
 10
203.6604704063714
 20
696.7041668559874
 30
0.0
 10
203.6576262661656
 20
696.8808587220257
 30
0.0
 10
203.5999052433603
 20
697.0297789136164
 30
0.0
 10
203.5951167373303
 20
697.042133255254
 30
0.0
  0
SPLINE
  5
268
330
1F
100
AcDbEntity
  8
0
  6
SLD-Solid
 62
   142
420
    32960
370
     0
100
AcDbSpline
210
0.0
220
0.0
230
1.0
 70
     8
 71
     3
 72
    11
 73
     7
 74
     0
 42
0.00000001
 43
0.00000001
 40
0.0
 40
0.0
 40
0.0
 40
0.0
 40
0.0796332959753969
 40
0.4594981978905429
 40
0.8207504115405514
 40
1.0
 40
1.0
 40
1.0
 40
1.0
 10
207.4757059958689
 20
697.6936426252805
 30
0.0
 10
207.499769160429
 20
697.6766798948595
 30
0.0
 10
207.6386178745939
 20
697.5788019411182
 30
0.0
 10
207.8078631699753
 20
697.2604608640764
 30
0.0
 10
207.9255363902678
 20
696.8691621931663
 30
0.0
 10
207.9348599789323
 20
696.6235777697116
 30
0.0
 10
207.9379520119737
 20
696.542133255254
 30
0.0
  0
LINE
  5
269
330
1F
100
AcDbEntity
  8
0
  6
SLD-Solid
 62
   142
420
    32960
370
     0
100
AcDbLine
 10
207.937952012
 20
691.4421332553
 30
0.0
 11
203.6630785982
 21
691.4421332553
 31
0.0
  0
LINE
  5
26A
330
1F
100
AcDbEntity
  8
0
  6
SLD-Solid
 62
   142
420
    32960
370
     0
100
AcDbLine
 10
203.6630785982
 20
691.4421332553
 30
0.0
 11
203.6630785982
 21
696.5421332553
 31
0.0
  0
LINE
  5
26B
330
1F
100
AcDbEntity
  8
0
  6
SLD-Solid
 62
   142
420
    32960
370
     0
100
AcDbLine
 10
207.937952012
 20
696.5421332553
 30
0.0
 11
207.937952012
 21
691.4421332553
 31
0.0
  0
LINE
  5
26C
330
1F
100
AcDbEntity
  8
0
  6
SLD-Solid
 62
     7
370
    15
100
AcDbLine
 10
596.05806
 20
-91.8832960009
 30
0.0
 11
596.05806
 21
-81.2746752432
 31
0.0
  0
ARC
  5
26D
330
1F
100
AcDbEntity
  8
0
  6
SLD-Solid
 62
   142
420
    32960
370
     0
100
AcDbCircle
 10
604.6984253342
 20
-80.9768337498
 30
0.0
 40
0.9768703153324847
100
AcDbArc
 50
300.4073827834
 51
342.2482381029
  0
ARC
  5
26E
330
1F
100
AcDbEntity
  8
0
  6
SLD-Solid
 62
   142
420
    32960
370
     0
100
AcDbCircle
 10
584.4762339848
 20
-80.929981545
 30
0.0
 40
1.047249590915607
100
AcDbArc
 50
199.2166993273
 51
238.1276797864
  0
LINE
  5
26F
330
1F
100
AcDbEntity
  8
0
  6
SLD-Solid
 62
   142
420
    32960
370
     0
100
AcDbLine
 10
593.05806
 20
-81.2746752432
 30
0.0
 11
593.05806
 21
-91.8832960009
 31
0.0
  0
LWPOLYLINE
  5
270
330
1F
100
AcDbEntity
  8
0
  6
SLD-Solid
 62
   142
420
    32960
370
     0
100
AcDbPolyline
 90
        9
 70
   128
 43
0.0
 10
593.05806
 20
-91.8832960009
 10
593.1722407012
 20
-92.060679527
 10
593.4973998282
 20
-92.2110580192
 10
593.9840348515
 20
-92.3115377153
 10
594.55806
 20
-92.3468214924
 10
595.1320851485
 20
-92.3115377153
 10
595.6187201718
 20
-92.2110580192
 10
595.9438792988
 20
-92.060679527
 10
596.05806
 20
-91.8832960009
  0
ARC
  5
271
330
1F
100
AcDbEntity
  8
0
  6
SLD-Solid
 62
   142
420
    32960
370
     0
100
AcDbCircle
 10
595.0819328757
 20
-91.4328691697
 30
0.0
 40
0.9764498166445119
100
AcDbArc
 50
1.4730549926
 51
91.4009438083
  0
ARC
  5
272
330
1F
100
AcDbEntity
  8
0
  6
SLD-Solid
 62
   142
420
    32960
370
     0
100
AcDbCircle
 10
594.0341871243
 20
-91.4328691697
 30
0.0
 40
0.9764498166445461
100
AcDbArc
 50
88.5990561917
 51
178.5269450074
  0
LWPOLYLINE
  5
273
330
1F
100
AcDbEntity
  8
0
  6
SLD-Solid
 62
   142
420
    32960
370
     0
100
AcDbPolyline
 90
        9
 70
   128
 43
0.0
 10
594.05806
 20
-90.4567112264
 10
594.0961202337
 20
-90.5158390685
 10
594.2045066094
 20
-90.5659652325
 10
594.3667182838
 20
-90.5994584646
 10
594.55806
 20
-90.6112197236
 10
594.7494017162
 20
-90.5994584646
 10
594.9116133906
 20
-90.5659652325
 10
595.0199997663
 20
-90.5158390685
 10
595.05806
 20
-90.4567112264
  0
LINE
  5
274
330
1F
100
AcDbEntity
  8
0
  6
SLD-Solid
 62
     7
370
    15
100
AcDbLine
 10
604.2322240362
 20
-85.3825131703
 30
0.0
 11
604.2248745118
 21
-85.5877086371
 31
0.0
  0
ARC
  5
275
330
1F
100
AcDbEntity
  8
0
  6
SLD-Solid
 62
   142
420
    32960
370
     0
100
AcDbCircle
 10
583.830778351
 20
-80.9462862129
 30
0.0
 40
0.8779320999908855
100
AcDbArc
 50
201.9655056415
 51
276.0465602684
  0
ARC
  5
276
330
1F
100
AcDbEntity
  8
0
  6
SLD-Solid
 62
   142
420
    32960
370
     0
100
AcDbCircle
 10
584.0101161577
 20
-90.3882327458
 30
0.0
 40
1.056025610322104
100
AcDbArc
 50
182.228814608
 51
265.2820210055
  0
ARC
  5
277
330
1F
100
AcDbEntity
  8
0
  6
SLD-Solid
 62
   142
420
    32960
370
     0
100
AcDbCircle
 10
605.2815609571
 20
-80.939992584
 30
0.0
 40
0.8838035354356125
100
AcDbArc
 50
264.2401525825
 51
337.7477815076
  0
ARC
  5
278
330
1F
100
AcDbEntity
  8
0
  6
SLD-Solid
 62
   142
420
    32960
370
     0
100
AcDbCircle
 10
605.1060038423
 20
-90.3882327458
 30
0.0
 40
1.056025610322456
100
AcDbArc
 50
274.7179789945
 51
357.771185392
  0
ARC
  5
279
330
1F
100
AcDbEntity
  8
0
  6
SLD-Solid
 62
   142
420
    32960
370
     0
100
AcDbCircle
 10
605.3326705128
 20
-91.143569573
 30
0.0
 40
0.3283607172698626
100
AcDbArc
 50
244.8003743474
 51
329.0454126679
  0
ARC
  5
27A
330
1F
100
AcDbEntity
  8
0
  6
SLD-Solid
 62
   142
420
    32960
370
     0
100
AcDbCircle
 10
583.7834494871
 20
-91.1435695634
 30
0.0
 40
0.3283607259699909
100
AcDbArc
 50
210.9545786682
 51
295.1996249504
  0
ARC
  5
27B
330
1F
100
AcDbEntity
  8
0
  6
SLD-Solid
 62
   142
420
    32960
370
     0
100
AcDbCircle
 10
583.4207321166
 20
-90.5742022179
 30
0.0
 40
0.4878580550914827
100
AcDbArc
 50
162.7217040461
 51
232.1721399473
  0
ARC
  5
27C
330
1F
100
AcDbEntity
  8
0
  6
SLD-Solid
 62
   142
420
    32960
370
     0
100
AcDbCircle
 10
605.6953736296
 20
-90.5742011838
 30
0.0
 40
0.4878713585876044
100
AcDbArc
 50
307.8176333087
 51
17.2776827923
  0
ARC
  5
27D
330
1F
100
AcDbEntity
  8
0
  6
SLD-Solid
 62
   142
420
    32960
370
     0
100
AcDbCircle
 10
401.5395283841
 20
-80.6763815408
 30
0.0
 40
7.28264887663569
100
AcDbArc
 50
268.1786303817
 51
355.2876512204
  0
ARC
  5
27E
330
1F
100
AcDbEntity
  8
0
  6
SLD-Solid
 62
   142
420
    32960
370
     0
100
AcDbCircle
 10
401.0765916159
 20
-80.6763815408
 30
0.0
 40
7.282648876635827
100
AcDbArc
 50
184.7123487796
 51
271.8213696183
  0
ARC
  5
27F
330
1F
100
AcDbEntity
  8
0
  6
SLD-Solid
 62
   142
420
    32960
370
     0
100
AcDbCircle
 10
401.3242724028
 20
-80.5275462591
 30
0.0
 40
6.546864849654993
100
AcDbArc
 50
186.5528773716
 51
346.7221406152
  0
LINE
  5
280
330
1F
100
AcDbEntity
  8
0
  6
SLD-Solid
 62
   142
420
    32960
370
     0
100
AcDbLine
 10
407.6961244806
 20
-82.0311886561
 30
0.0
 11
403.0279719164
 21
-84.4330431417
 31
0.0
  0
ARC
  5
281
330
1F
100
AcDbEntity
  8
0
  6
SLD-Solid
 62
   142
420
    32960
370
     0
100
AcDbCircle
 10
402.3048836608
 20
-83.1203132381
 30
0.0
 40
1.498704915935701
100
AcDbArc
 50
182.8711035151
 51
298.8471995542
  0
ARC
  5
282
330
1F
100
AcDbEntity
  8
0
  6
SLD-Solid
 62
   142
420
    32960
370
     0
100
AcDbCircle
 10
402.3070012203
 20
-83.1703592323
 30
0.0
 40
0.4995683053119211
100
AcDbArc
 50
182.8711035151
 51
298.8471995542
  0
ARC
  5
283
330
1F
100
AcDbEntity
  8
0
  6
SLD-Solid
 62
   142
420
    32960
370
     0
100
AcDbCircle
 10
214.8369216975
 20
-86.0436498811
 30
0.0
 40
0.9716230336754765
100
AcDbArc
 50
268.2978000298
 51
358.190090174
  0
ARC
  5
284
330
1F
100
AcDbEntity
  8
0
  6
SLD-Solid
 62
   142
420
    32960
370
     0
100
AcDbCircle
 10
194.7791983039
 20
-86.0436498811
 30
0.0
 40
0.9716230336753287
100
AcDbArc
 50
181.809909826
 51
271.7021999702
  0
ARC
  5
285
330
1F
100
AcDbEntity
  8
0
  6
SLD-Solid
 62
   142
420
    32960
370
     0
100
AcDbCircle
 10
194.7503366071
 20
-86.0129624964
 30
0.0
 40
1.943246067350695
100
AcDbArc
 50
181.809909826
 51
271.7021999702
  0
LINE
  5
286
330
1F
100
AcDbEntity
  8
0
  6
SLD-Solid
 62
   142
420
    32960
370
     0
100
AcDbLine
 10
214.8080600007
 20
-87.9553510487
 30
0.0
 11
194.8080600007
 21
-87.9553510487
 31
0.0
  0
ARC
  5
287
330
1F
100
AcDbEntity
  8
0
  6
SLD-Solid
 62
   142
420
    32960
370
     0
100
AcDbCircle
 10
214.8657833942
 20
-86.0129624964
 30
0.0
 40
1.943246067350863
100
AcDbArc
 50
268.2978000298
 51
358.190090174
  0
ARC
  5
288
330
1F
100
AcDbEntity
  8
0
  6
SLD-Solid
 62
   142
420
    32960
370
     0
100
AcDbCircle
 10
740.8319328757
 20
-91.4328691697
 30
0.0
 40
0.9764498166444324
100
AcDbArc
 50
1.4730549926
 51
91.4009438083
  0
ARC
  5
289
330
1F
100
AcDbEntity
  8
0
  6
SLD-Solid
 62
   142
420
    32960
370
     0
100
AcDbCircle
 10
739.7841871243
 20
-91.4328691697
 30
0.0
 40
0.9764498166443358
100
AcDbArc
 50
88.5990561917
 51
178.5269450074
  0
LWPOLYLINE
  5
28A
330
1F
100
AcDbEntity
  8
0
  6
SLD-Solid
 62
   142
420
    32960
370
     0
100
AcDbPolyline
 90
        9
 70
   128
 43
0.0
 10
739.80806
 20
-90.4567112264
 10
739.8461202337
 20
-90.5158390685
 10
739.9545066094
 20
-90.5659652325
 10
740.1167182838
 20
-90.5994584646
 10
740.30806
 20
-90.6112197236
 10
740.4994017162
 20
-90.5994584646
 10
740.6616133906
 20
-90.5659652325
 10
740.7699997663
 20
-90.5158390685
 10
740.80806
 20
-90.4567112264
  0
LINE
  5
28B
330
1F
100
AcDbEntity
  8
0
  6
SLD-Solid
 62
     7
370
    15
100
AcDbLine
 10
195.2644644568
 20
697.0421332553
 30
0.0
 11
195.2644644568
 21
697.7421332553
 31
0.0
  0
SPLINE
  5
28C
330
1F
100
AcDbEntity
  8
0
  6
SLD-Solid
 62
   142
420
    32960
370
     0
100
AcDbSpline
210
0.0
220
0.0
230
1.0
 70
     8
 71
     3
 72
    10
 73
     6
 74
     0
 42
0.00000001
 43
0.00000001
 40
0.0
 40
0.0
 40
0.0
 40
0.0
 40
0.5
 40
0.5
 40
1.0
 40
1.0
 40
1.0
 40
1.0
 10
195.1569892037415
 20
697.0421332552542
 30
0.0
 10
195.0592268444361
 20
697.0421332552542
 30
0.0
 10
194.9623580379983
 20
696.991690223226
 30
0.0
 10
194.81992912663
 20
696.8101940762728
 30
0.0
 10
194.7756642963725
 20
696.6783157488234
 30
0.0
 10
194.7756642963726
 20
696.5421332552542
 30
0.0
  0
LINE
  5
28D
330
1F
100
AcDbEntity
  8
0
  6
SLD-Solid
 62
   142
420
    32960
370
     0
100
AcDbLine
 10
195.1569892037
 20
697.0421332553
 30
0.0
 11
195.2644644568
 21
697.0421332553
 31
0.0
  0
LINE
  5
28E
330
1F
100
AcDbEntity
  8
0
  6
SLD-Solid
 62
   142
420
    32960
370
     0
100
AcDbLine
 10
195.2644644568
 20
697.7421332553
 30
0.0
 11
195.1569892037
 21
697.7421332553
 31
0.0
  0
SPLINE
  5
28F
330
1F
100
AcDbEntity
  8
0
  6
SLD-Solid
 62
   142
420
    32960
370
     0
100
AcDbSpline
210
0.0
220
0.0
230
1.0
 70
     8
 71
     3
 72
    16
 73
    12
 74
     0
 42
0.00000001
 43
0.00000001
 40
0.0
 40
0.0
 40
0.0
 40
0.0
 40
0.2499999999999803
 40
0.2499999999999803
 40
0.4999999999999607
 40
0.4999999999999607
 40
0.749999999999941
 40
0.749999999999941
 40
0.8749999999999705
 40
0.8749999999999705
 40
1.0
 40
1.0
 40
1.0
 40
1.0
 10
195.1569892037414
 20
697.742133255254
 30
0.0
 10
195.0399045200687
 20
697.742133255254
 30
0.0
 10
194.9235362547085
 20
697.7126696142715
 30
0.0
 10
194.7070786335322
 20
697.598182357023
 30
0.0
 10
194.6056937972901
 20
697.5119450050618
 30
0.0
 10
194.4356826634165
 20
697.2937785650446
 30
0.0
 10
194.3657242208134
 20
697.1600580462369
 30
0.0
 10
194.2946148679733
 20
696.9390873713118
 30
0.0
 10
194.2762349667028
 20
696.8610218366167
 30
0.0
 10
194.2519924559671
 20
696.7037342507847
 30
0.0
 10
194.2457910017218
 20
696.623675101313
 30
0.0
 10
194.245791001722
 20
696.5421332552542
 30
0.0
  0
LINE
  5
290
330
1F
100
AcDbEntity
  8
0
  6
SLD-Solid
 62
   142
420
    32960
370
     0
100
AcDbLine
 10
194.2457910017
 20
696.5421332553
 30
0.0
 11
194.2457910017
 21
691.4421332553
 31
0.0
  0
LINE
  5
291
330
1F
100
AcDbEntity
  8
0
  6
SLD-Solid
 62
   142
420
    32960
370
     0
100
AcDbLine
 10
194.2457910017
 20
691.4421332553
 30
0.0
 11
194.7756642964
 21
691.4421332553
 31
0.0
  0
LINE
  5
292
330
1F
100
AcDbEntity
  8
0
  6
SLD-Solid
 62
   142
420
    32960
370
     0
100
AcDbLine
 10
194.7756642964
 20
691.4421332553
 30
0.0
 11
194.7756642964
 21
696.5421332553
 31
0.0
  0
LINE
  5
293
330
1F
100
AcDbEntity
  8
0
  6
SLD-Solid
 62
   142
420
    32960
370
     0
100
AcDbLine
 10
207.50806
 20
697.7421332553
 30
0.0
 11
207.4757059959
 21
697.7421332553
 31
0.0
  0
LINE
  5
294
330
1F
100
AcDbEntity
  8
0
  6
SLD-Solid
 62
   142
420
    32960
370
     0
100
AcDbLine
 10
202.0781752879
 20
697.7421332553
 30
0.0
 11
195.2644644568
 21
697.7421332553
 31
0.0
  0
LINE
  5
295
330
1F
100
AcDbEntity
  8
0
  6
SLD-Solid
 62
   142
420
    32960
370
     0
100
AcDbLine
 10
195.2644644568
 20
697.0421332553
 30
0.0
 11
202.0781752879
 21
697.0421332553
 31
0.0
  0
LINE
  5
296
330
1F
100
AcDbEntity
  8
0
  6
SLD-Solid
 62
   142
420
    32960
370
     0
100
AcDbLine
 10
207.4757059959
 20
697.0421332553
 30
0.0
 11
207.50806
 21
697.0421332553
 31
0.0
  0
LINE
  5
297
330
1F
100
AcDbEntity
  8
0
  6
SLD-Solid
 62
   142
420
    32960
370
     0
100
AcDbLine
 10
791.8606188833
 20
725.4921332553
 30
0.0
 11
791.60806
 21
725.0546884376
 31
0.0
  0
LINE
  5
298
330
1F
100
AcDbEntity
  8
0
  6
SLD-Solid
 62
   142
420
    32960
370
     0
100
AcDbLine
 10
791.60806
 20
725.9295780729
 30
0.0
 11
791.8606188833
 21
725.4921332553
 31
0.0
  0
ARC
  5
299
330
1F
100
AcDbEntity
  8
0
  6
SLD-Solid
 62
   142
420
    32960
370
     0
100
AcDbCircle
 10
497.3369216968
 20
-83.2221292067
 30
0.0
 40
0.9716230336755035
100
AcDbArc
 50
268.2978000298
 51
358.190090174
  0
ARC
  5
29A
330
1F
100
AcDbEntity
  8
0
  6
SLD-Solid
 62
   142
420
    32960
370
     0
100
AcDbCircle
 10
495.2791983032
 20
-83.2221292067
 30
0.0
 40
0.9716230336755008
100
AcDbArc
 50
181.809909826
 51
271.7021999702
  0
ARC
  5
29B
330
1F
100
AcDbEntity
  8
0
  6
SLD-Solid
 62
   142
420
    32960
370
     0
100
AcDbCircle
 10
495.2503366065
 20
-83.191441822
 30
0.0
 40
1.94324606735082
100
AcDbArc
 50
181.809909826
 51
271.7021999702
  0
LINE
  5
29C
330
1F
100
AcDbEntity
  8
0
  6
SLD-Solid
 62
   142
420
    32960
370
     0
100
AcDbLine
 10
495.30806
 20
-85.1338303743
 30
0.0
 11
497.30806
 21
-85.1338303743
 31
0.0
  0
ARC
  5
29D
330
1F
100
AcDbEntity
  8
0
  6
SLD-Solid
 62
   142
420
    32960
370
     0
100
AcDbCircle
 10
497.3657833936
 20
-83.191441822
 30
0.0
 40
1.943246067350765
100
AcDbArc
 50
268.2978000298
 51
358.190090174
  0
LWPOLYLINE
  5
29E
330
1F
100
AcDbEntity
  8
0
  6
SLD-Solid
 62
   142
420
    32960
370
     0
100
AcDbPolyline
 90
       17
 70
   128
 43
0.0
 10
197.8080600007
 20
-85.1338303743
 10
198.3820851492
 20
-85.0264426379
 10
198.8687201725
 20
-84.7206282382
 10
199.1938792995
 20
-84.2629446452
 10
199.3080600007
 20
-83.7230700371
 10
199.1938792995
 20
-83.183195429
 10
198.8687201725
 20
-82.7255118361
 10
198.3820851492
 20
-82.4196974363
 10
197.8080600007
 20
-82.3123096999
 10
197.2340348521
 20
-82.4196974363
 10
196.7473998289
 20
-82.7255118361
 10
196.4222407019
 20
-83.183195429
 10
196.3080600007
 20
-83.7230700371
 10
196.4222407019
 20
-84.2629446452
 10
196.7473998289
 20
-84.7206282382
 10
197.2340348521
 20
-85.0264426379
 10
197.8080600007
 20
-85.1338303743
  0
LWPOLYLINE
  5
29F
330
1F
100
AcDbEntity
  8
0
  6
SLD-Solid
 62
   142
420
    32960
370
     0
100
AcDbPolyline
 90
       17
 70
   128
 43
0.0
 10
197.8080600007
 20
-86.0743372658
 10
198.7647685816
 20
-85.8953577051
 10
199.5758269537
 20
-85.3856670389
 10
200.117758832
 20
-84.6228610506
 10
200.3080600007
 20
-83.7230700371
 10
200.117758832
 20
-82.8232790236
 10
199.5758269537
 20
-82.0604730353
 10
198.7647685816
 20
-81.5507823691
 10
197.8080600007
 20
-81.3718028084
 10
196.8513514198
 20
-81.5507823691
 10
196.0402930477
 20
-82.0604730353
 10
195.4983611694
 20
-82.8232790236
 10
195.3080600007
 20
-83.7230700371
 10
195.4983611694
 20
-84.6228610506
 10
196.0402930477
 20
-85.3856670389
 10
196.8513514198
 20
-85.8953577051
 10
197.8080600007
 20
-86.0743372658
  0
LINE
  5
2A0
330
1F
100
AcDbEntity
  8
0
  6
SLD-Solid
 62
     7
370
    15
100
AcDbLine
 10
898.80806
 20
581.4921332553
 30
0.0
 11
898.80806
 21
578.8921332553
 31
0.0
  0
LINE
  5
2A1
330
1F
100
AcDbEntity
  8
0
  6
SLD-Solid
 62
     7
370
    15
100
AcDbLine
 10
898.80806
 20
63.8921332553
 30
0.0
 11
898.80806
 21
60.0821332553
 31
0.0
  0
LINE
  5
2A2
330
1F
100
AcDbEntity
  8
0
  6
SLD-Solid
 62
   142
420
    32960
370
     0
100
AcDbLine
 10
882.80806
 20
37.0421332553
 30
0.0
 11
882.80806
 21
35.7921332553
 31
0.0
  0
LINE
  5
2A3
330
1F
100
AcDbEntity
  8
0
  6
SLD-Solid
 62
     7
370
    15
100
AcDbLine
 10
-1.19194
 20
60.0821332553
 30
0.0
 11
-1.19194
 21
63.8921332553
 31
0.0
  0
LINE
  5
2A4
330
1F
100
AcDbEntity
  8
0
  6
SLD-Solid
 62
     7
370
    15
100
AcDbLine
 10
-1.19194
 20
578.8921332553
 30
0.0
 11
-1.19194
 21
581.4921332553
 31
0.0
  0
LINE
  5
2A5
330
1F
100
AcDbEntity
  8
0
  6
SLD-Solid
 62
   142
420
    32960
370
     0
100
AcDbLine
 10
14.80806
 20
35.7921332553
 30
0.0
 11
14.80806
 21
37.0421332553
 31
0.0
  0
LWPOLYLINE
  5
2A6
330
1F
100
AcDbEntity
  8
0
  6
SLD-Solid
 62
     7
370
    15
100
AcDbPolyline
 90
        9
 70
   128
 43
0.0
 10
738.80806
 20
-91.8832960009
 10
738.9222407012
 20
-92.060679527
 10
739.2473998282
 20
-92.2110580192
 10
739.7340348515
 20
-92.3115377153
 10
740.30806
 20
-92.3468214924
 10
740.8820851485
 20
-92.3115377153
 10
741.3687201718
 20
-92.2110580192
 10
741.6938792988
 20
-92.060679527
 10
741.80806
 20
-91.8832960009
  0
LINE
  5
2A7
330
1F
100
AcDbEntity
  8
0
  6
SLD-Solid
 62
   142
420
    32960
370
     0
100
AcDbLine
 10
738.80806
 20
-81.2746752432
 30
0.0
 11
738.80806
 21
-91.8832960009
 31
0.0
  0
ARC
  5
2A8
330
1F
100
AcDbEntity
  8
0
  6
SLD-Solid
 62
   142
420
    32960
370
     0
100
AcDbCircle
 10
742.1894345422
 20
-123.6858261439
 30
0.0
 40
42.77178596762804
100
AcDbArc
 50
78.1907387875
 51
82.5544199428
  0
LINE
  5
2A9
330
1F
100
AcDbEntity
  8
0
  6
SLD-Solid
 62
   142
420
    32960
370
     0
100
AcDbLine
 10
741.80806
 20
-91.8832960009
 30
0.0
 11
741.80806
 21
-81.2746752432
 31
0.0
  0
LINE
  5
2AA
330
1F
100
AcDbEntity
  8
0
  6
SLD-Solid
 62
     7
370
    15
100
AcDbLine
 10
749.9822240362
 20
-85.3825131703
 30
0.0
 11
749.9748745118
 21
-85.5877086371
 31
0.0
  0
ARC
  5
2AB
330
1F
100
AcDbEntity
  8
0
  6
SLD-Solid
 62
   142
420
    32960
370
     0
100
AcDbCircle
 10
751.0315609571
 20
-80.939992584
 30
0.0
 40
0.8838035354358019
100
AcDbArc
 50
264.2401525825
 51
337.7477815074
  0
ARC
  5
2AC
330
1F
100
AcDbEntity
  8
0
  6
SLD-Solid
 62
   142
420
    32960
370
     0
100
AcDbCircle
 10
750.8560038423
 20
-90.3882327458
 30
0.0
 40
1.056025610322195
100
AcDbArc
 50
274.7179789945
 51
357.771185392
  0
ARC
  5
2AD
330
1F
100
AcDbEntity
  8
0
  6
SLD-Solid
 62
   142
420
    32960
370
     0
100
AcDbCircle
 10
729.7601161577
 20
-90.3882327458
 30
0.0
 40
1.056025610322393
100
AcDbArc
 50
182.228814608
 51
265.2820210055
  0
ARC
  5
2AE
330
1F
100
AcDbEntity
  8
0
  6
SLD-Solid
 62
   142
420
    32960
370
     0
100
AcDbCircle
 10
751.0826705124
 20
-91.1435696319
 30
0.0
 40
0.3283606638600988
100
AcDbArc
 50
244.8003700363
 51
329.0453594813
  0
ARC
  5
2AF
330
1F
100
AcDbEntity
  8
0
  6
SLD-Solid
 62
   142
420
    32960
370
     0
100
AcDbCircle
 10
729.5334494857
 20
-91.143569348
 30
0.0
 40
0.3283609214846261
100
AcDbArc
 50
210.9543839723
 51
295.1996091692
  0
ARC
  5
2B0
330
1F
100
AcDbEntity
  8
0
  6
SLD-Solid
 62
   142
420
    32960
370
     0
100
AcDbCircle
 10
751.4453799417
 20
-90.5742016417
 30
0.0
 40
0.4878654673275719
100
AcDbArc
 50
307.822161666
 51
17.2779543134
  0
ARC
  5
2B1
330
1F
100
AcDbEntity
  8
0
  6
SLD-Solid
 62
   142
420
    32960
370
     0
100
AcDbCircle
 10
729.1707436774
 20
-90.5742013791
 30
0.0
 40
0.48786884507267
100
AcDbArc
 50
162.7222013645
 51
232.18043474
  0
LWPOLYLINE
  5
2B2
330
1F
100
AcDbEntity
  8
0
  6
SLD-Solid
 62
   142
420
    32960
370
     0
100
AcDbPolyline
 90
        9
 70
   128
 43
0.0
 10
741.80806
 20
-91.4077677427
 10
741.6938792988
 20
-91.5851512688
 10
741.3687201718
 20
-91.7355297611
 10
740.8820851485
 20
-91.8360094572
 10
740.30806
 20
-91.8712932343
 10
739.7340348515
 20
-91.8360094572
 10
739.2473998282
 20
-91.7355297611
 10
738.9222407012
 20
-91.5851512688
 10
738.80806
 20
-91.4077677427
  0
LINE
  5
2B3
330
1F
100
AcDbEntity
  8
0
  6
SLD-Solid
 62
   142
420
    32960
370
     0
100
AcDbLine
 10
193.9530414018
 20
696.5421332553
 30
0.0
 11
189.678167988
 21
696.5421332553
 31
0.0
  0
LINE
  5
2B4
330
1F
100
AcDbEntity
  8
0
  6
SLD-Solid
 62
   142
420
    32960
370
     0
100
AcDbLine
 10
189.678167988
 20
696.5421332553
 30
0.0
 11
189.678167988
 21
691.4421332553
 31
0.0
  0
LINE
  5
2B5
330
1F
100
AcDbEntity
  8
0
  6
SLD-Solid
 62
   142
420
    32960
370
     0
100
AcDbLine
 10
189.678167988
 20
691.4421332553
 30
0.0
 11
193.9530414018
 21
691.4421332553
 31
0.0
  0
LINE
  5
2B6
330
1F
100
AcDbEntity
  8
0
  6
SLD-Solid
 62
   142
420
    32960
370
     0
100
AcDbLine
 10
193.9530414018
 20
691.4421332553
 30
0.0
 11
193.9530414018
 21
696.5421332553
 31
0.0
  0
LINE
  5
2B7
330
1F
100
AcDbEntity
  8
0
  6
SLD-Solid
 62
   142
420
    32960
370
     0
100
AcDbLine
 10
494.30806
 20
-81.2746752432
 30
0.0
 11
494.30806
 21
-83.2562143375
 31
0.0
  0
ARC
  5
2B8
330
1F
100
AcDbEntity
  8
0
  6
SLD-Solid
 62
   142
420
    32960
370
     0
100
AcDbCircle
 10
495.2791983032
 20
-83.2255269528
 30
0.0
 40
0.9716230336755023
100
AcDbArc
 50
181.809909826
 51
271.7021999702
  0
LINE
  5
2B9
330
1F
100
AcDbEntity
  8
0
  6
SLD-Solid
 62
   142
420
    32960
370
     0
100
AcDbLine
 10
495.30806
 20
-84.196721229
 30
0.0
 11
497.30806
 21
-84.196721229
 31
0.0
  0
ARC
  5
2BA
330
1F
100
AcDbEntity
  8
0
  6
SLD-Solid
 62
   142
420
    32960
370
     0
100
AcDbCircle
 10
497.3369216968
 20
-83.2255269528
 30
0.0
 40
0.9716230336755078
100
AcDbArc
 50
268.2978000298
 51
358.190090174
  0
LINE
  5
2BB
330
1F
100
AcDbEntity
  8
0
  6
SLD-Solid
 62
   142
420
    32960
370
     0
100
AcDbLine
 10
498.30806
 20
-81.2746752432
 30
0.0
 11
498.30806
 21
-83.2562143375
 31
0.0
  0
LINE
  5
2BC
330
1F
100
AcDbEntity
  8
0
  6
SLD-Solid
 62
   142
420
    32960
370
     0
100
AcDbLine
 10
819.8956547256
 20
-81.3718028084
 30
0.0
 11
829.1456547256
 21
-81.8420562542
 31
0.0
  0
LINE
  5
2BD
330
1F
100
AcDbEntity
  8
0
  6
SLD-Solid
 62
   142
420
    32960
370
     0
100
AcDbLine
 10
202.7413960675
 20
697.0421332553
 30
0.0
 11
207.437204639
 21
697.0421332553
 31
0.0
  0
LINE
  5
2BE
330
1F
100
AcDbEntity
  8
0
  6
SLD-Solid
 62
   142
420
    32960
370
     0
100
AcDbLine
 10
202.7413960675
 20
702.1421332553
 30
0.0
 11
202.7413960675
 21
697.0421332553
 31
0.0
  0
LWPOLYLINE
  5
2BF
330
1F
100
AcDbEntity
  8
0
  6
SLD-Solid
 62
   142
420
    32960
370
     0
100
AcDbPolyline
 90
        9
 70
   128
 43
0.0
 10
202.7413960675
 20
702.1421332553
 10
202.7395436667
 20
702.1909058358
 10
202.7340576513
 20
702.2378041133
 10
202.7251488456
 20
702.2810258135
 10
202.7131596101
 20
702.3189099506
 10
202.6985506843
 20
702.3500006583
 10
202.6818834812
 20
702.3731031384
 10
202.6637985119
 20
702.3873295754
 10
202.6449907717
 20
702.3921332553
  0
LINE
  5
2C0
330
1F
100
AcDbEntity
  8
0
  6
SLD-Solid
 62
   142
420
    32960
370
     0
100
AcDbLine
 10
202.6449907717
 20
702.3921332553
 30
0.0
 11
207.2257059959
 21
702.3921332553
 31
0.0
  0
ARC
  5
2C1
330
1F
100
AcDbEntity
  8
0
  6
SLD-Solid
 62
   142
420
    32960
370
     0
100
AcDbCircle
 10
207.2047031141
 20
702.1599015792
 30
0.0
 40
0.233179485369298
100
AcDbArc
 50
355.629813804
 51
84.8322658056
  0
LINE
  5
2C2
330
1F
100
AcDbEntity
  8
0
  6
SLD-Solid
 62
   142
420
    32960
370
     0
100
AcDbLine
 10
207.437204639
 20
697.0421332553
 30
0.0
 11
207.4757059959
 21
697.0421332553
 31
0.0
  0
LINE
  5
2C3
330
1F
100
AcDbEntity
  8
0
  6
SLD-Solid
 62
   142
420
    32960
370
     0
100
AcDbLine
 10
207.437204639
 20
702.1421332553
 30
0.0
 11
207.4757059959
 21
702.1421332553
 31
0.0
  0
SPLINE
  5
2C4
330
1F
100
AcDbEntity
  8
0
  6
SLD-Solid
 62
   142
420
    32960
370
     0
100
AcDbSpline
210
0.0
220
0.0
230
1.0
 70
     8
 71
     3
 72
    10
 73
     6
 74
     0
 42
0.00000001
 43
0.00000001
 40
0.0
 40
0.0
 40
0.0
 40
0.0
 40
0.5
 40
0.5
 40
1.0
 40
1.0
 40
1.0
 40
1.0
 10
202.3516555432388
 20
697.0421332552542
 30
0.0
 10
202.3516555432388
 20
696.9688222787054
 30
0.0
 10
202.3587600828164
 20
696.9007415859421
 30
0.0
 10
202.3786200295175
 20
696.8132814413801
 30
0.0
 10
202.3908995249724
 20
696.792133255254
 30
0.0
 10
202.402723466834
 20
696.792133255254
 30
0.0
  0
LINE
  5
2C5
330
1F
100
AcDbEntity
  8
0
  6
SLD-Solid
 62
   142
420
    32960
370
     0
100
AcDbLine
 10
191.0432994285
 20
696.7921332553
 30
0.0
 11
190.35806
 21
696.7921332553
 31
0.0
  0
LINE
  5
2C6
330
1F
100
AcDbEntity
  8
0
  6
SLD-Solid
 62
   142
420
    32960
370
     0
100
AcDbLine
 10
201.6197208883
 20
696.7921332553
 30
0.0
 11
202.4027234668
 21
696.7921332553
 31
0.0
  0
SPLINE
  5
2C7
330
1F
100
AcDbEntity
  8
0
  6
SLD-Solid
 62
   142
420
    32960
370
     0
100
AcDbSpline
210
0.0
220
0.0
230
1.0
 70
     8
 71
     3
 72
    10
 73
     6
 74
     0
 42
0.00000001
 43
0.00000001
 40
0.0
 40
0.0
 40
0.0
 40
0.0
 40
0.5
 40
0.5
 40
1.0
 40
1.0
 40
1.0
 40
1.0
 10
190.7468592600858
 20
697.0421332552542
 30
0.0
 10
190.7468592600859
 20
696.9688222787054
 30
0.0
 10
190.7867385962311
 20
696.900741585942
 30
0.0
 10
190.9008270549509
 20
696.8132814413801
 30
0.0
 10
190.9725444575747
 20
696.792133255254
 30
0.0
 10
191.043299428543
 20
696.792133255254
 30
0.0
  0
LINE
  5
2C8
330
1F
100
AcDbEntity
  8
0
  6
SLD-Solid
 62
   142
420
    32960
370
     0
100
AcDbLine
 10
190.7468592601
 20
697.0421332553
 30
0.0
 11
190.7468592601
 21
697.7421332553
 31
0.0
  0
LINE
  5
2C9
330
1F
100
AcDbEntity
  8
0
  6
SLD-Solid
 62
   142
420
    32960
370
     0
100
AcDbLine
 10
190.7468592601
 20
697.7421332553
 30
0.0
 11
190.10806
 21
697.7421332553
 31
0.0
  0
LINE
  5
2CA
330
1F
100
AcDbEntity
  8
0
  6
SLD-Solid
 62
   142
420
    32960
370
     0
100
AcDbLine
 10
190.7468592601
 20
697.7421332553
 30
0.0
 11
195.0987414955
 21
697.7421332553
 31
0.0
  0
LINE
  5
2CB
330
1F
100
AcDbEntity
  8
0
  6
SLD-Solid
 62
   142
420
    32960
370
     0
100
AcDbLine
 10
772.30806
 20
678.2921332552
 30
0.0
 11
795.8965070669
 21
678.2921332552
 31
0.0
  0
LINE
  5
2CC
330
1F
100
AcDbEntity
  8
0
  6
SLD-Solid
 62
   142
420
    32960
370
     0
100
AcDbLine
 10
407.0894705246
 20
-81.2746752432
 30
0.0
 11
402.5480306388
 21
-83.611333613
 31
0.0
  0
LINE
  5
2CD
330
1F
100
AcDbEntity
  8
0
  6
SLD-Solid
 62
   142
420
    32960
370
     0
100
AcDbLine
 10
401.80806
 20
-83.1987799755
 30
0.0
 11
401.80806
 21
-81.2746752432
 31
0.0
  0
ARC
  5
2CE
330
1F
100
AcDbEntity
  8
0
  6
SLD-Solid
 62
   142
420
    32960
370
     0
100
AcDbCircle
 10
402.3070012203
 20
-83.1737569784
 30
0.0
 40
0.4995683053119361
100
AcDbArc
 50
182.8711035151
 51
298.8471995542
  0
ARC
  5
2CF
330
1F
100
AcDbEntity
  8
0
  6
SLD-Solid
 62
   142
420
    32960
370
     0
100
AcDbCircle
 10
819.3501560898
 20
-80.8245809798
 30
0.0
 40
6.883814953982079
100
AcDbArc
 50
183.7489258678
 51
236.7086793331
  0
ARC
  5
2D0
330
1F
100
AcDbEntity
  8
0
  6
SLD-Solid
 62
   142
420
    32960
370
     0
100
AcDbCircle
 10
801.0499121262
 20
-80.8906997542
 30
0.0
 40
15.59597255174955
100
AcDbArc
 50
338.6103038052
 51
358.5892256436
  0
LINE
  5
2D1
330
1F
100
AcDbEntity
  8
0
  6
SLD-Solid
 62
     7
370
    15
100
AcDbLine
 10
199.8845794121
 20
686.4921332553
 30
0.0
 11
199.8845794121
 21
689.6955512679
 31
0.0
  0
SPLINE
  5
2D2
330
1F
100
AcDbEntity
  8
0
  6
SLD-Solid
 62
   142
420
    32960
370
     0
100
AcDbSpline
210
0.0
220
0.0
230
1.0
 70
     8
 71
     3
 72
    12
 73
     8
 74
     0
 42
0.00000001
 43
0.00000001
 40
0.0
 40
0.0
 40
0.0
 40
0.0
 40
0.2500000000000023
 40
0.2500000000000023
 40
0.5000000000000046
 40
0.5000000000000046
 40
1.0
 40
1.0
 40
1.0
 40
1.0
 10
202.0716065912132
 20
690.142133255254
 30
0.0
 10
201.8860002921909
 20
690.142133255254
 30
0.0
 10
201.6995619994322
 20
690.1315776947307
 30
0.0
 10
201.3307480722632
 20
690.0907289681702
 30
0.0
 10
201.1475746450344
 20
690.0604750581302
 30
0.0
 10
200.6013076856706
 20
689.9437889328818
 30
0.0
 10
200.2414548170821
 20
689.8315331951552
 30
0.0
 10
199.8845794120653
 20
689.6955512678692
 30
0.0
  0
SPLINE
  5
2D3
330
1F
100
AcDbEntity
  8
0
  6
SLD-Solid
 62
   142
420
    32960
370
     0
100
AcDbSpline
210
0.0
220
0.0
230
1.0
 70
     8
 71
     3
 72
     8
 73
     4
 74
     0
 42
0.00000001
 43
0.00000001
 40
0.0
 40
0.0
 40
0.0
 40
0.0
 40
1.0
 40
1.0
 40
1.0
 40
1.0
 10
204.2586337703611
 20
689.6955512678695
 30
0.0
 10
203.5430969426574
 20
689.9681956572207
 30
0.0
 10
202.8168171778388
 20
690.142133255254
 30
0.0
 10
202.0716065912132
 20
690.142133255254
 30
0.0
  0
LINE
  5
2D4
330
1F
100
AcDbEntity
  8
0
  6
SLD-Solid
 62
     7
370
    15
100
AcDbLine
 10
204.2586337704
 20
686.4921332553
 30
0.0
 11
204.2586337704
 21
689.6955512679
 31
0.0
  0
LINE
  5
2D5
330
1F
100
AcDbEntity
  8
0
  6
SLD-Solid
 62
     7
370
    15
100
AcDbLine
 10
194.4340056417
 20
686.4921332553
 30
0.0
 11
194.4340056417
 21
689.6955512679
 31
0.0
  0
SPLINE
  5
2D6
330
1F
100
AcDbEntity
  8
0
  6
SLD-Solid
 62
   142
420
    32960
370
     0
100
AcDbSpline
210
0.0
220
0.0
230
1.0
 70
     8
 71
     3
 72
     8
 73
     4
 74
     0
 42
0.00000001
 43
0.00000001
 40
0.0
 40
0.0
 40
0.0
 40
0.0
 40
1.0
 40
1.0
 40
1.0
 40
1.0
 10
199.8845794120655
 20
689.6955512678695
 30
0.0
 10
198.9929383977258
 20
689.9681956572207
 30
0.0
 10
198.0879104507011
 20
690.142133255254
 30
0.0
 10
197.1592925268858
 20
690.142133255254
 30
0.0
  0
SPLINE
  5
2D7
330
1F
100
AcDbEntity
  8
0
  6
SLD-Solid
 62
   142
420
    32960
370
     0
100
AcDbSpline
210
0.0
220
0.0
230
1.0
 70
     8
 71
     3
 72
    12
 73
     8
 74
     0
 42
0.00000001
 43
0.00000001
 40
0.0
 40
0.0
 40
0.0
 40
0.0
 40
0.249999999999989
 40
0.249999999999989
 40
0.499999999999978
 40
0.499999999999978
 40
1.0
 40
1.0
 40
1.0
 40
1.0
 10
197.1592925268858
 20
690.142133255254
 30
0.0
 10
196.9280057750088
 20
690.142133255254
 30
0.0
 10
196.6956822634427
 20
690.1315776947306
 30
0.0
 10
196.2360977789108
 20
690.0907289681702
 30
0.0
 10
196.0078426645256
 20
690.06047505813
 30
0.0
 10
195.3271313343897
 20
689.9437889328818
 30
0.0
 10
194.8787133573708
 20
689.8315331951551
 30
0.0
 10
194.4340056417063
 20
689.6955512678692
 30
0.0
  0
LINE
  5
2D8
330
1F
100
AcDbEntity
  8
0
  6
SLD-Solid
 62
     7
370
    15
100
AcDbLine
 10
193.3574862296
 20
686.4921332553
 30
0.0
 11
193.3574862296
 21
689.6955512679
 31
0.0
  0
SPLINE
  5
2D9
330
1F
100
AcDbEntity
  8
0
  6
SLD-Solid
 62
   142
420
    32960
370
     0
100
AcDbSpline
210
0.0
220
0.0
230
1.0
 70
     8
 71
     3
 72
    10
 73
     6
 74
     0
 42
0.00000001
 43
0.00000001
 40
0.0
 40
0.0
 40
0.0
 40
0.0
 40
0.5
 40
0.5
 40
1.0
 40
1.0
 40
1.0
 40
1.0
 10
193.357486229643
 20
689.6955512678688
 30
0.0
 10
193.4450298100475
 20
689.8310861831762
 30
0.0
 10
193.5346916102415
 20
689.9447640820091
 30
0.0
 10
193.7144211497891
 20
690.1002028164021
 30
0.0
 10
193.8047888973991
 20
690.142133255254
 30
0.0
 10
193.8957459356747
 20
690.142133255254
 30
0.0
  0
SPLINE
  5
2DA
330
1F
100
AcDbEntity
  8
0
  6
SLD-Solid
 62
   142
420
    32960
370
     0
100
AcDbSpline
210
0.0
220
0.0
230
1.0
 70
     8
 71
     3
 72
    10
 73
     6
 74
     0
 42
0.00000001
 43
0.00000001
 40
0.0
 40
0.0
 40
0.0
 40
0.0
 40
0.5
 40
0.5
 40
1.0
 40
1.0
 40
1.0
 40
1.0
 10
193.8957459356747
 20
690.142133255254
 30
0.0
 10
193.9867570147345
 20
690.142133255254
 30
0.0
 10
194.0790055898831
 20
690.0990429082196
 30
0.0
 10
194.2587968200929
 20
689.9425125481342
 30
0.0
 10
194.3469720480723
 20
689.8302966219837
 30
0.0
 10
194.4340056417064
 20
689.6955512678688
 30
0.0
  0
SPLINE
  5
2DB
330
1F
100
AcDbEntity
  8
0
  6
SLD-Solid
 62
   142
420
    32960
370
     0
100
AcDbSpline
210
0.0
220
0.0
230
1.0
 70
     8
 71
     3
 72
    10
 73
     6
 74
     0
 42
0.00000001
 43
0.00000001
 40
0.0
 40
0.0
 40
0.0
 40
0.0
 40
0.5
 40
0.5
 40
1.0
 40
1.0
 40
1.0
 40
1.0
 10
203.7203740643293
 20
690.142133255254
 30
0.0
 10
203.8113851433891
 20
690.142133255254
 30
0.0
 10
203.9036337185376
 20
690.0990429082196
 30
0.0
 10
204.0834249487476
 20
689.9425125481342
 30
0.0
 10
204.1716001767269
 20
689.8302966219837
 30
0.0
 10
204.258633770361
 20
689.6955512678688
 30
0.0
  0
SPLINE
  5
2DC
330
1F
100
AcDbEntity
  8
0
  6
SLD-Solid
 62
     7
370
    15
100
AcDbSpline
210
0.0
220
0.0
230
1.0
 70
     8
 71
     3
 72
     9
 73
     5
 74
     0
 42
0.00000001
 43
0.00000001
 40
0.0
 40
0.0
 40
0.0
 40
0.0
 40
0.2139726712782239
 40
1.0
 40
1.0
 40
1.0
 40
1.0
 10
200.4568274731182
 20
690.142133255254
 30
0.0
 10
200.5214949710006
 20
690.1424324466614
 30
0.0
 10
200.8237181357449
 20
690.1438307159149
 30
0.0
 10
201.119887981886
 20
690.0725474754538
 30
0.0
 10
201.3526855748963
 20
690.0165169003715
 30
0.0
  0
LINE
  5
2DD
330
1F
100
AcDbEntity
  8
0
  6
SLD-Solid
 62
   142
420
    32960
370
     0
100
AcDbLine
 10
203.7203740643
 20
690.1421332553
 30
0.0
 11
202.1357671561
 21
690.1421332553
 31
0.0
  0
LINE
  5
2DE
330
1F
100
AcDbEntity
  8
0
  6
SLD-Solid
 62
   142
420
    32960
370
     0
100
AcDbLine
 10
194.2586660638
 20
689.8795684969
 30
0.0
 11
195.5445134088
 21
690.1421332553
 31
0.0
  0
LINE
  5
2DF
330
1F
100
AcDbEntity
  8
0
  6
SLD-Solid
 62
   142
420
    32960
370
     0
100
AcDbLine
 10
198.80806
 20
689.8719562479
 30
0.0
 11
200.4568274731
 21
690.1421332553
 31
0.0
  0
LINE
  5
2E0
330
1F
100
AcDbEntity
  8
0
  6
SLD-Solid
 62
   142
420
    32960
370
     0
100
AcDbLine
 10
202.7413960675
 20
697.0421332553
 30
0.0
 11
202.0781752879
 21
697.0421332553
 31
0.0
  0
LINE
  5
2E1
330
1F
100
AcDbEntity
  8
0
  6
SLD-Solid
 62
   142
420
    32960
370
     0
100
AcDbLine
 10
202.0781752879
 20
697.0421332553
 30
0.0
 11
202.0781752879
 21
702.1421332553
 31
0.0
  0
LINE
  5
2E2
330
1F
100
AcDbEntity
  8
0
  6
SLD-Solid
 62
   142
420
    32960
370
     0
100
AcDbLine
 10
202.4541276373
 20
702.1421332553
 30
0.0
 11
202.7413960675
 21
702.1421332553
 31
0.0
  0
LWPOLYLINE
  5
2E3
330
1F
100
AcDbEntity
  8
0
  6
SLD-Solid
 62
   142
420
    32960
370
     0
100
AcDbPolyline
 90
       17
 70
   128
 43
0.0
 10
643.5081113799
 20
-81.6894329966
 10
644.4702019792
 20
-82.3239802805
 10
645.1547656926
 20
-83.2222469306
 10
645.4846384888
 20
-84.2829803177
 10
645.4226371017
 20
-85.3866145601
 10
644.9757503286
 20
-86.4087479908
 10
644.1943512526
 20
-87.2341657155
 10
643.1665191882
 20
-87.769826637
 10
642.0081113799
 20
-87.9553510489
 10
640.8497035715
 20
-87.769826637
 10
639.8218715071
 20
-87.2341657155
 10
639.0404724311
 20
-86.4087479908
 10
638.593585658
 20
-85.3866145601
 10
638.5315842709
 20
-84.2829803177
 10
638.8614570671
 20
-83.2222469306
 10
639.5460207805
 20
-82.3239802805
 10
640.5081113799
 20
-81.6894329966
  0
LWPOLYLINE
  5
2E4
330
1F
100
AcDbEntity
  8
0
  6
SLD-Solid
 62
   142
420
    32960
370
     0
100
AcDbPolyline
 90
       16
 70
   128
 43
0.0
 10
642.5081113799
 20
-82.3598149451
 10
643.4060465339
 20
-82.7142581716
 10
644.0918726415
 20
-83.3644720152
 10
644.4615291375
 20
-84.2117993685
 10
644.4589279505
 20
-85.1276750427
 10
644.0844637593
 20
-85.9731329954
 10
643.3949541081
 20
-86.6198916822
 10
642.4950184668
 20
-86.9698182478
 10
641.5212042929
 20
-86.9698182478
 10
640.6212686516
 20
-86.6198916822
 10
639.9317590004
 20
-85.9731329954
 10
639.5572948092
 20
-85.1276750427
 10
639.5546936222
 20
-84.2117993685
 10
639.9243501182
 20
-83.3644720152
 10
640.6101762258
 20
-82.7142581716
 10
641.5081113799
 20
-82.3598149451
  0
ARC
  5
2E5
330
1F
100
AcDbEntity
  8
0
  6
SLD-Solid
 62
   142
420
    32960
370
     0
100
AcDbCircle
 10
794.8369216968
 20
-83.2221292067
 30
0.0
 40
0.9716230336751878
100
AcDbArc
 50
268.2978000298
 51
358.190090174
  0
ARC
  5
2E6
330
1F
100
AcDbEntity
  8
0
  6
SLD-Solid
 62
   142
420
    32960
370
     0
100
AcDbCircle
 10
792.7791983032
 20
-83.2221292067
 30
0.0
 40
0.9716230336753799
100
AcDbArc
 50
181.809909826
 51
271.7021999702
  0
ARC
  5
2E7
330
1F
100
AcDbEntity
  8
0
  6
SLD-Solid
 62
   142
420
    32960
370
     0
100
AcDbCircle
 10
792.7503366065
 20
-83.191441822
 30
0.0
 40
1.943246067350731
100
AcDbArc
 50
181.809909826
 51
271.7021999702
  0
LINE
  5
2E8
330
1F
100
AcDbEntity
  8
0
  6
SLD-Solid
 62
   142
420
    32960
370
     0
100
AcDbLine
 10
792.80806
 20
-85.1338303743
 30
0.0
 11
794.80806
 21
-85.1338303743
 31
0.0
  0
ARC
  5
2E9
330
1F
100
AcDbEntity
  8
0
  6
SLD-Solid
 62
   142
420
    32960
370
     0
100
AcDbCircle
 10
794.8657833936
 20
-83.191441822
 30
0.0
 40
1.943246067350775
100
AcDbArc
 50
268.2978000298
 51
358.190090174
  0
SPLINE
  5
2EA
330
1F
100
AcDbEntity
  8
0
  6
SLD-Solid
 62
   142
420
    32960
370
     0
100
AcDbSpline
210
0.0
220
0.0
230
1.0
 70
     8
 71
     3
 72
    10
 73
     6
 74
     0
 42
0.00000001
 43
0.00000001
 40
0.0
 40
0.0
 40
0.0
 40
0.0
 40
0.5
 40
0.5
 40
1.0
 40
1.0
 40
1.0
 40
1.0
 10
510.5802249878133
 20
-116.837867134484
 30
0.0
 10
533.1047647801059
 20
-115.5232219486811
 30
0.0
 10
555.6100730882456
 20
-113.8785030101848
 30
0.0
 10
600.5533049932484
 20
-109.9315513403696
 30
0.0
 10
622.9935788513985
 20
-107.629246709154
 30
0.0
 10
645.402487750332
 20
-104.9978737735681
 30
0.0
  0
SPLINE
  5
2EB
330
1F
100
AcDbEntity
  8
0
  6
SLD-Solid
 62
   142
420
    32960
370
     0
100
AcDbSpline
210
0.0
220
0.0
230
1.0
 70
     8
 71
     3
 72
    11
 73
     7
 74
     0
 42
0.00000001
 43
0.00000001
 40
0.0
 40
0.0
 40
0.0
 40
0.0
 40
0.2808699700377812
 40
0.5603282350515674
 40
0.8485035459783098
 40
1.0
 40
1.0
 40
1.0
 40
1.0
 10
645.402487750332
 20
-104.9978737735681
 30
0.0
 10
646.2317470024274
 20
-104.8083756725381
 30
0.0
 10
647.8860974944513
 20
-104.4303319233919
 30
0.0
 10
649.9623469106776
 20
-102.8574657587641
 30
0.0
 10
651.323157171466
 20
-101.1197922427819
 30
0.0
 10
651.7125554118521
 20
-99.85226347803933
 30
0.0
 10
651.8467292599901
 20
-99.41551468373933
 30
0.0
  0
LINE
  5
2EC
330
1F
100
AcDbEntity
  8
0
  6
SLD-Solid
 62
   142
420
    32960
370
     0
100
AcDbLine
 10
510.5418122548
 20
-116.1787563382
 30
0.0
 11
510.5802249878
 21
-116.8378671345
 31
0.0
  0
SPLINE
  5
2ED
330
1F
100
AcDbEntity
  8
0
  6
SLD-Solid
 62
   142
420
    32960
370
     0
100
AcDbSpline
210
0.0
220
0.0
230
1.0
 70
     8
 71
     3
 72
    10
 73
     6
 74
     0
 42
0.00000001
 43
0.00000001
 40
0.0
 40
0.0
 40
0.0
 40
0.0
 40
0.5
 40
0.5
 40
1.0
 40
1.0
 40
1.0
 40
1.0
 10
206.940590182152
 20
697.042133255254
 30
0.0
 10
206.9405901821519
 20
696.905786757827
 30
0.0
 10
206.901037648088
 20
696.7742329928168
 30
0.0
 10
206.7723060742552
 20
696.5918922799921
 30
0.0
 10
206.6859477444468
 20
696.542133255254
 30
0.0
 10
206.5980505031191
 20
696.542133255254
 30
0.0
  0
ARC
  5
2EE
330
1F
100
AcDbEntity
  8
0
  6
SLD-Solid
 62
   142
420
    32960
370
     0
100
AcDbCircle
 10
206.3730382073
 20
696.5682045192
 30
0.0
 40
0.2265176462356135
100
AcDbArc
 50
353.3908406059
 51
81.329191247
  0
SPLINE
  5
2EF
330
1F
100
AcDbEntity
  8
0
  6
SLD-Solid
 62
   142
420
    32960
370
     0
100
AcDbSpline
210
0.0
220
0.0
230
1.0
 70
     8
 71
     3
 72
    10
 73
     6
 74
     0
 42
0.00000001
 43
0.00000001
 40
0.0
 40
0.0
 40
0.0
 40
0.0
 40
0.5
 40
0.5
 40
1.0
 40
1.0
 40
1.0
 40
1.0
 10
206.4071873687783
 20
696.792133255254
 30
0.0
 10
206.4372035224266
 20
696.792133255254
 30
0.0
 10
206.4676369270812
 20
696.8127068747854
 30
0.0
 10
206.5174256748823
 20
696.9001085378645
 30
0.0
 10
206.5350873978704
 20
696.9683193379013
 30
0.0
 10
206.5350873978705
 20
697.042133255254
 30
0.0
  0
ARC
  5
2F0
330
1F
100
AcDbEntity
  8
0
  6
SLD-Solid
 62
   142
420
    32960
370
     0
100
AcDbCircle
 10
797.8369216968
 20
-86.0436498811
 30
0.0
 40
0.9716230336752413
100
AcDbArc
 50
268.2978000298
 51
358.190090174
  0
ARC
  5
2F1
330
1F
100
AcDbEntity
  8
0
  6
SLD-Solid
 62
   142
420
    32960
370
     0
100
AcDbCircle
 10
777.7791983032
 20
-86.0436498811
 30
0.0
 40
0.9716230336752304
100
AcDbArc
 50
181.809909826
 51
271.7021999702
  0
ARC
  5
2F2
330
1F
100
AcDbEntity
  8
0
  6
SLD-Solid
 62
   142
420
    32960
370
     0
100
AcDbCircle
 10
777.7503366065
 20
-86.0129624964
 30
0.0
 40
1.94324606735092
100
AcDbArc
 50
181.809909826
 51
271.7021999702
  0
LINE
  5
2F3
330
1F
100
AcDbEntity
  8
0
  6
SLD-Solid
 62
   142
420
    32960
370
     0
100
AcDbLine
 10
797.80806
 20
-87.9553510487
 30
0.0
 11
777.80806
 21
-87.9553510487
 31
0.0
  0
ARC
  5
2F4
330
1F
100
AcDbEntity
  8
0
  6
SLD-Solid
 62
   142
420
    32960
370
     0
100
AcDbCircle
 10
797.8657833936
 20
-86.0129624964
 30
0.0
 40
1.943246067350614
100
AcDbArc
 50
268.2978000298
 51
358.190090174
  0
ARC
  5
2F5
330
1F
100
AcDbEntity
  8
0
  6
SLD-Solid
 62
     7
370
    15
100
AcDbCircle
 10
409.80806
 20
725.4921332552
 30
0.0
 40
4.000000000000114
100
AcDbArc
 50
36.8698976455
 51
143.1301023538
  0
ARC
  5
2F6
330
1F
100
AcDbEntity
  8
0
  6
SLD-Solid
 62
     7
370
    15
100
AcDbCircle
 10
409.80806
 20
725.4921332552
 30
0.0
 40
4.000000000000045
100
AcDbArc
 50
216.8698976462
 51
323.1301023545
  0
LINE
  5
2F7
330
1F
100
AcDbEntity
  8
0
  6
SLD-Solid
 62
   142
420
    32960
370
     0
100
AcDbLine
 10
201.80806
 20
702.6376332553
 30
0.0
 11
201.0588312346
 21
702.6376332553
 31
0.0
  0
LINE
  5
2F8
330
1F
100
AcDbEntity
  8
0
  6
SLD-Solid
 62
   142
420
    32960
370
     0
100
AcDbLine
 10
201.5390652546
 20
696.5421332553
 30
0.0
 11
201.5390652546
 21
695.8421332553
 31
0.0
  0
LINE
  5
2F9
330
1F
100
AcDbEntity
  8
0
  6
SLD-Solid
 62
   142
420
    32960
370
     0
100
AcDbLine
 10
193.9530414018
 20
695.8421332553
 30
0.0
 11
194.2457910017
 21
695.8421332553
 31
0.0
  0
LINE
  5
2FA
330
1F
100
AcDbEntity
  8
0
  6
SLD-Solid
 62
   142
420
    32960
370
     0
100
AcDbLine
 10
194.7756642964
 20
695.8421332553
 30
0.0
 11
201.5390652546
 21
695.8421332553
 31
0.0
  0
SPLINE
  5
2FB
330
1F
100
AcDbEntity
  8
0
  6
SLD-Solid
 62
   142
420
    32960
370
     0
100
AcDbSpline
210
0.0
220
0.0
230
1.0
 70
     8
 71
     3
 72
    10
 73
     6
 74
     0
 42
0.00000001
 43
0.00000001
 40
0.0
 40
0.0
 40
0.0
 40
0.0
 40
0.5
 40
0.5
 40
1.0
 40
1.0
 40
1.0
 40
1.0
 10
201.5390652546218
 20
696.542133255254
 30
0.0
 10
201.5390652546218
 20
696.6154442318027
 30
0.0
 10
201.5501497725833
 20
696.6835249245662
 30
0.0
 10
201.5813965608686
 20
696.770985069128
 30
0.0
 10
201.60083429651
 20
696.792133255254
 30
0.0
 10
201.6197208882535
 20
696.792133255254
 30
0.0
  0
LINE
  5
2FC
330
1F
100
AcDbEntity
  8
0
  6
SLD-Solid
 62
   142
420
    32960
370
     0
100
AcDbLine
 10
190.35806
 20
696.7921332553
 30
0.0
 11
194.1994082487
 21
696.7921332553
 31
0.0
  0
LINE
  5
2FD
330
1F
100
AcDbEntity
  8
0
  6
SLD-Solid
 62
   142
420
    32960
370
     0
100
AcDbLine
 10
194.8146570089
 20
696.7921332553
 30
0.0
 11
201.6197208883
 21
696.7921332553
 31
0.0
  0
LINE
  5
2FE
330
1F
100
AcDbEntity
  8
0
  6
SLD-Solid
 62
   142
420
    32960
370
     0
100
AcDbLine
 10
190.6755298179
 20
697.7421332553
 30
0.0
 11
190.6755298179
 21
702.1421332553
 31
0.0
  0
LINE
  5
2FF
330
1F
100
AcDbEntity
  8
0
  6
SLD-Solid
 62
   142
420
    32960
370
     0
100
AcDbLine
 10
190.6755298179
 20
702.1421332553
 30
0.0
 11
190.1995508698
 21
702.1421332553
 31
0.0
  0
LINE
  5
300
330
1F
100
AcDbEntity
  8
0
  6
SLD-Solid
 62
   142
420
    32960
370
     0
100
AcDbLine
 10
190.1995508698
 20
702.1421332553
 30
0.0
 11
190.1995508698
 21
697.7421332553
 31
0.0
  0
SPLINE
  5
301
330
1F
100
AcDbEntity
  8
0
  6
SLD-Solid
 62
   142
420
    32960
370
     0
100
AcDbSpline
210
0.0
220
0.0
230
1.0
 70
     8
 71
     3
 72
     9
 73
     5
 74
     0
 42
0.00000001
 43
0.00000001
 40
0.0
 40
0.0
 40
0.0
 40
0.0
 40
0.0339547642433858
 40
1.0
 40
1.0
 40
1.0
 40
1.0
 10
190.2108209180098
 20
696.8446671676876
 30
0.0
 10
190.2108806522759
 20
696.843564740573
 30
0.0
 10
190.2126398830462
 20
696.8110972168192
 30
0.0
 10
190.2225255512733
 20
696.7814502681738
 30
0.0
 10
190.2320755539664
 20
696.7528099746801
 30
0.0
  0
LINE
  5
302
330
1F
100
AcDbEntity
  8
0
  6
SLD-Solid
 62
     7
370
    15
100
AcDbLine
 10
328.85806
 20
40.4421332553
 30
0.0
 11
568.75806
 21
40.4421332553
 31
0.0
  0
LINE
  5
303
330
1F
100
AcDbEntity
  8
0
  6
SLD-Solid
 62
     7
370
    15
100
AcDbLine
 10
328.85806
 20
602.3421332553
 30
0.0
 11
328.85806
 21
40.4421332553
 31
0.0
  0
LINE
  5
304
330
1F
100
AcDbEntity
  8
0
  6
SLD-Solid
 62
     7
370
    15
100
AcDbLine
 10
568.75806
 20
602.3421332553
 30
0.0
 11
328.85806
 21
602.3421332553
 31
0.0
  0
LINE
  5
305
330
1F
100
AcDbEntity
  8
0
  6
SLD-Solid
 62
     7
370
    15
100
AcDbLine
 10
568.75806
 20
40.4421332553
 30
0.0
 11
568.75806
 21
602.3421332553
 31
0.0
  0
ARC
  5
306
330
1F
100
AcDbEntity
  8
0
  6
SLD-Solid
 62
   142
420
    32960
370
     0
100
AcDbCircle
 10
40.30806
 20
60.3921332553
 30
0.0
 40
4.899999999999965
100
AcDbArc
 50
234.6748887971
 51
258.4070630405
  0
LINE
  5
307
330
1F
100
AcDbEntity
  8
0
  6
SLD-Solid
 62
   142
420
    32960
370
     0
100
AcDbLine
 10
856.7845410278
 20
55.5201800652
 30
0.0
 11
857.30806
 21
55.4921332553
 31
0.0
  0
ARC
  5
308
330
1F
100
AcDbEntity
  8
0
  6
SLD-Solid
 62
   142
420
    32960
370
     0
100
AcDbCircle
 10
865.80806
 20
660.9921332553
 30
0.0
 40
10.49999999999992
100
AcDbArc
 50
284.3922538629
 51
255.6077461371
  0
LINE
  5
309
330
1F
100
AcDbEntity
  8
0
  6
SLD-Solid
 62
   142
420
    32960
370
     0
100
AcDbLine
 10
633.80806
 20
676.9921332553
 30
0.0
 11
610.2573707278
 21
676.9921332553
 31
0.0
  0
LINE
  5
30A
330
1F
100
AcDbEntity
  8
0
  6
SLD-Solid
 62
   142
420
    32960
370
     0
100
AcDbLine
 10
597.2740035095
 20
676.9921332553
 30
0.0
 11
548.80806
 21
676.9921332553
 31
0.0
  0
LINE
  5
30B
330
1F
100
AcDbEntity
  8
0
  6
SLD-Solid
 62
   142
420
    32960
370
     0
100
AcDbLine
 10
633.80806
 20
650.8216571277
 30
0.0
 11
633.80806
 21
676.9921332553
 31
0.0
  0
LINE
  5
30C
330
1F
100
AcDbEntity
  8
0
  6
SLD-Solid
 62
   142
420
    32960
370
     0
100
AcDbLine
 10
548.80806
 20
676.9921332553
 30
0.0
 11
548.80806
 21
650.8216571277
 31
0.0
  0
ARC
  5
30D
330
1F
100
AcDbEntity
  8
0
  6
SLD-Solid
 62
   142
420
    32960
370
     0
100
AcDbCircle
 10
785.80806
 20
660.9921332553
 30
0.0
 40
10.50000000000016
100
AcDbArc
 50
32.5970190441
 51
255.6077461371
  0
LINE
  5
30E
330
1F
100
AcDbEntity
  8
0
  6
SLD-Solid
 62
   142
420
    32960
370
     0
100
AcDbLine
 10
263.80806
 20
676.9921332553
 30
0.0
 11
263.80806
 21
650.8216571277
 31
0.0
  0
LINE
  5
30F
330
1F
100
AcDbEntity
  8
0
  6
SLD-Solid
 62
   142
420
    32960
370
     0
100
AcDbLine
 10
348.80806
 20
676.9921332553
 30
0.0
 11
310.2573707278
 21
676.9921332553
 31
0.0
  0
LINE
  5
310
330
1F
100
AcDbEntity
  8
0
  6
SLD-Solid
 62
   142
420
    32960
370
     0
100
AcDbLine
 10
297.2740035095
 20
676.9921332553
 30
0.0
 11
263.80806
 21
676.9921332553
 31
0.0
  0
LINE
  5
311
330
1F
100
AcDbEntity
  8
0
  6
SLD-Solid
 62
   142
420
    32960
370
     0
100
AcDbLine
 10
348.80806
 20
650.8216571277
 30
0.0
 11
348.80806
 21
676.9921332553
 31
0.0
  0
LINE
  5
312
330
1F
100
AcDbEntity
  8
0
  6
SLD-Solid
 62
   142
420
    32960
370
     0
100
AcDbLine
 10
497.2740035095
 20
676.9921332553
 30
0.0
 11
410.2573707278
 21
676.9921332553
 31
0.0
  0
LINE
  5
313
330
1F
100
AcDbEntity
  8
0
  6
SLD-Solid
 62
   142
420
    32960
370
     0
100
AcDbLine
 10
871.80806
 20
35.7921332553
 30
0.0
 11
871.80806
 21
37.0421332553
 31
0.0
  0
LINE
  5
314
330
1F
100
AcDbEntity
  8
0
  6
SLD-Solid
 62
   142
420
    32960
370
     0
100
AcDbLine
 10
25.80806
 20
37.0421332553
 30
0.0
 11
25.80806
 21
35.7921332553
 31
0.0
  0
LINE
  5
315
330
1F
100
AcDbEntity
  8
0
  6
SLD-Solid
 62
     7
370
    15
100
AcDbLine
 10
447.30806
 20
-81.2746752432
 30
0.0
 11
447.30806
 21
-91.8832960009
 31
0.0
  0
LINE
  5
316
330
1F
100
AcDbEntity
  8
0
  6
SLD-Solid
 62
     7
370
    15
100
AcDbLine
 10
450.30806
 20
-91.8832960009
 30
0.0
 11
450.30806
 21
-81.2746752432
 31
0.0
  0
LWPOLYLINE
  5
317
330
1F
100
AcDbEntity
  8
0
  6
SLD-Solid
 62
   142
420
    32960
370
     0
100
AcDbPolyline
 90
        9
 70
   128
 43
0.0
 10
447.30806
 20
-91.8832960009
 10
447.4222407012
 20
-92.060679527
 10
447.7473998282
 20
-92.2110580192
 10
448.2340348515
 20
-92.3115377153
 10
448.80806
 20
-92.3468214924
 10
449.3820851485
 20
-92.3115377153
 10
449.8687201718
 20
-92.2110580192
 10
450.1938792988
 20
-92.060679527
 10
450.30806
 20
-91.8832960009
  0
LINE
  5
318
330
1F
100
AcDbEntity
  8
0
  6
SLD-Solid
 62
     7
370
    15
100
AcDbLine
 10
458.4822240362
 20
-85.3825131703
 30
0.0
 11
458.4748745118
 21
-85.5877086371
 31
0.0
  0
ARC
  5
319
330
1F
100
AcDbEntity
  8
0
  6
SLD-Solid
 62
   142
420
    32960
370
     0
100
AcDbCircle
 10
438.2601161577
 20
-90.3882327458
 30
0.0
 40
1.056025610322223
100
AcDbArc
 50
182.228814608
 51
265.2820210055
  0
ARC
  5
31A
330
1F
100
AcDbEntity
  8
0
  6
SLD-Solid
 62
   142
420
    32960
370
     0
100
AcDbCircle
 10
459.3560038423
 20
-90.3882327458
 30
0.0
 40
1.056025610322086
100
AcDbArc
 50
274.7179789945
 51
357.771185392
  0
ARC
  5
31B
330
1F
100
AcDbEntity
  8
0
  6
SLD-Solid
 62
   142
420
    32960
370
     0
100
AcDbCircle
 10
459.5826705096
 20
-91.1435700693
 30
0.0
 40
0.3283602668495405
100
AcDbArc
 50
244.8003379909
 51
329.044964127
  0
ARC
  5
31C
330
1F
100
AcDbEntity
  8
0
  6
SLD-Solid
 62
   142
420
    32960
370
     0
100
AcDbCircle
 10
438.0334494882
 20
-91.14356973
 30
0.0
 40
0.3283605748190975
100
AcDbArc
 50
210.9547291879
 51
295.1996371508
  0
ARC
  5
31D
330
1F
100
AcDbEntity
  8
0
  6
SLD-Solid
 62
   142
420
    32960
370
     0
100
AcDbCircle
 10
459.9400022015
 20
-90.5738285606
 30
0.0
 40
0.4928936010234249
100
AcDbArc
 50
304.169360317
 51
17.0508745498
  0
ARC
  5
31E
330
1F
100
AcDbEntity
  8
0
  6
SLD-Solid
 62
   142
420
    32960
370
     0
100
AcDbCircle
 10
437.6707345953
 20
-90.5742020381
 30
0.0
 40
0.4878603685672547
100
AcDbArc
 50
162.7218106798
 51
232.1739186137
  0
LWPOLYLINE
  5
31F
330
1F
100
AcDbEntity
  8
0
  6
SLD-Solid
 62
   142
420
    32960
370
     0
100
AcDbPolyline
 90
        9
 70
   128
 43
0.0
 10
450.30806
 20
-91.4077677427
 10
450.1938792988
 20
-91.5851512688
 10
449.8687201718
 20
-91.7355297611
 10
449.3820851485
 20
-91.8360094572
 10
448.80806
 20
-91.8712932343
 10
448.2340348515
 20
-91.8360094572
 10
447.7473998282
 20
-91.7355297611
 10
447.4222407012
 20
-91.5851512688
 10
447.30806
 20
-91.4077677427
  0
LINE
  5
320
330
1F
100
AcDbEntity
  8
0
  6
SLD-Solid
 62
   142
420
    32960
370
     0
100
AcDbLine
 10
193.0782719636
 20
702.3921332553
 30
0.0
 11
190.3904140041
 21
702.3921332553
 31
0.0
  0
ARC
  5
321
330
1F
100
AcDbEntity
  8
0
  6
SLD-Solid
 62
   142
420
    32960
370
     0
100
AcDbCircle
 10
190.4114168859
 20
702.1599015792
 30
0.0
 40
0.233179485369383
100
AcDbArc
 50
95.1677341945
 51
184.370186196
  0
LINE
  5
322
330
1F
100
AcDbEntity
  8
0
  6
SLD-Solid
 62
   142
420
    32960
370
     0
100
AcDbLine
 10
190.178915361
 20
697.7421332553
 30
0.0
 11
190.178915361
 21
702.1421332553
 31
0.0
  0
LINE
  5
323
330
1F
100
AcDbEntity
  8
0
  6
SLD-Solid
 62
   142
420
    32960
370
     0
100
AcDbLine
 10
194.8747239325
 20
697.9921332553
 30
0.0
 11
194.8747239325
 21
697.7421332553
 31
0.0
  0
LINE
  5
324
330
1F
100
AcDbEntity
  8
0
  6
SLD-Solid
 62
   142
420
    32960
370
     0
100
AcDbLine
 10
-1.19194
 20
68.8921332553
 30
0.0
 11
-1.19194
 21
573.8921332553
 31
0.0
  0
LINE
  5
325
330
1F
100
AcDbEntity
  8
0
  6
SLD-Solid
 62
   142
420
    32960
370
     0
100
AcDbLine
 10
-1.19194
 20
573.8921332553
 30
0.0
 11
-0.39194
 21
573.8921332553
 31
0.0
  0
LINE
  5
326
330
1F
100
AcDbEntity
  8
0
  6
SLD-Solid
 62
   142
420
    32960
370
     0
100
AcDbLine
 10
-0.39194
 20
68.8921332553
 30
0.0
 11
-0.39194
 21
573.8921332553
 31
0.0
  0
LINE
  5
327
330
1F
100
AcDbEntity
  8
0
  6
SLD-Solid
 62
   142
420
    32960
370
     0
100
AcDbLine
 10
-1.19194
 20
573.8921332553
 30
0.0
 11
-1.19194
 21
578.8921332553
 31
0.0
  0
LINE
  5
328
330
1F
100
AcDbEntity
  8
0
  6
SLD-Solid
 62
   142
420
    32960
370
     0
100
AcDbLine
 10
-1.19194
 20
63.8921332553
 30
0.0
 11
-1.19194
 21
68.8921332553
 31
0.0
  0
LINE
  5
329
330
1F
100
AcDbEntity
  8
0
  6
SLD-Solid
 62
   142
420
    32960
370
     0
100
AcDbLine
 10
-0.39194
 20
63.8921332553
 30
0.0
 11
-0.39194
 21
68.8921332553
 31
0.0
  0
LINE
  5
32A
330
1F
100
AcDbEntity
  8
0
  6
SLD-Solid
 62
   142
420
    32960
370
     0
100
AcDbLine
 10
-1.19194
 20
63.8921332553
 30
0.0
 11
-0.39194
 21
63.8921332553
 31
0.0
  0
LINE
  5
32B
330
1F
100
AcDbEntity
  8
0
  6
SLD-Solid
 62
   142
420
    32960
370
     0
100
AcDbLine
 10
-0.39194
 20
63.8921332553
 30
0.0
 11
-0.2096478252
 21
63.8921332553
 31
0.0
  0
LINE
  5
32C
330
1F
100
AcDbEntity
  8
0
  6
SLD-Solid
 62
   142
420
    32960
370
     0
100
AcDbLine
 10
-0.2096478252
 20
578.8921332553
 30
0.0
 11
-1.19194
 21
578.8921332553
 31
0.0
  0
LINE
  5
32D
330
1F
100
AcDbEntity
  8
0
  6
SLD-Solid
 62
     7
370
    15
100
AcDbLine
 10
806.80806
 20
693.8921332553
 30
0.0
 11
806.80806
 21
756.8350621874
 31
0.0
  0
LINE
  5
32E
330
1F
100
AcDbEntity
  8
0
  6
SLD-Solid
 62
   142
420
    32960
370
     0
100
AcDbLine
 10
806.80806
 20
693.8921332553
 30
0.0
 11
804.75806
 21
693.8921332553
 31
0.0
  0
SPLINE
  5
32F
330
1F
100
AcDbEntity
  8
0
  6
SLD-Solid
 62
   142
420
    32960
370
     0
100
AcDbSpline
210
0.0
220
0.0
230
1.0
 70
     8
 71
     3
 72
    14
 73
    10
 74
     0
 42
0.00000001
 43
0.00000001
 40
0.0
 40
0.0
 40
0.0
 40
0.0
 40
0.25
 40
0.25
 40
0.5
 40
0.5
 40
0.75
 40
0.75
 40
1.0
 40
1.0
 40
1.0
 40
1.0
 10
804.7580600000155
 20
756.8421332552568
 30
0.0
 10
805.0264043725097
 20
756.8415439996058
 30
0.0
 10
805.2946431629521
 20
756.840954743955
 30
0.0
 10
805.7904789097759
 20
756.8397762326529
 30
0.0
 10
806.017880775964
 20
756.8391869770019
 30
0.0
 10
806.3973770269317
 20
756.8380084657
 30
0.0
 10
806.5493220961417
 20
756.837419210049
 30
0.0
 10
806.7547039871855
 20
756.836240698747
 30
0.0
 10
806.8080600000155
 20
756.835651443096
 30
0.0
 10
806.8080600000155
 20
756.835062187445
 30
0.0
  0
SPLINE
  5
330
330
1F
100
AcDbEntity
  8
0
  6
SLD-Solid
 62
   142
420
    32960
370
     0
100
AcDbSpline
210
0.0
220
0.0
230
1.0
 70
    24
 71
     3
 72
     8
 73
     4
 74
     0
 42
0.00000001
 43
0.00000001
 40
0.0
 40
0.0
 40
0.0
 40
0.0
 40
1.0
 40
1.0
 40
1.0
 40
1.0
 10
399.8580600000157
 20
693.8921427321168
 30
0.0
 10
399.8580600000157
 20
693.8507163818143
 30
0.0
 10
399.8580600000157
 20
693.8093234992701
 30
0.0
 10
399.8580600000157
 20
693.7680401612599
 30
0.0
  0
SPLINE
  5
331
330
1F
100
AcDbEntity
  8
0
  6
SLD-Solid
 62
   142
420
    32960
370
     0
100
AcDbSpline
210
0.0
220
0.0
230
1.0
 70
    24
 71
     3
 72
     8
 73
     4
 74
     0
 42
0.00000001
 43
0.00000001
 40
0.0
 40
0.0
 40
0.0
 40
0.0
 40
1.0
 40
1.0
 40
1.0
 40
1.0
 10
804.7580600000155
 20
693.7680401612599
 30
0.0
 10
804.7580600000155
 20
693.8093234992708
 30
0.0
 10
804.7580600000155
 20
693.8507163818157
 30
0.0
 10
804.7580600000155
 20
693.8921427321189
 30
0.0
  0
LINE
  5
332
330
1F
100
AcDbEntity
  8
0
  6
SLD-Solid
 62
     7
370
    15
100
AcDbLine
 10
397.80806
 20
756.8350621874
 30
0.0
 11
397.80806
 21
693.8921332553
 31
0.0
  0
SPLINE
  5
333
330
1F
100
AcDbEntity
  8
0
  6
SLD-Solid
 62
   142
420
    32960
370
     0
100
AcDbSpline
210
0.0
220
0.0
230
1.0
 70
     8
 71
     3
 72
    14
 73
    10
 74
     0
 42
0.00000001
 43
0.00000001
 40
0.0
 40
0.0
 40
0.0
 40
0.0
 40
0.25
 40
0.25
 40
0.5
 40
0.5
 40
0.75
 40
0.75
 40
1.0
 40
1.0
 40
1.0
 40
1.0
 10
397.8080600000156
 20
756.8350621874451
 30
0.0
 10
397.8080600000156
 20
756.835651443096
 30
0.0
 10
397.8614160128454
 20
756.8362406987471
 30
0.0
 10
398.0667979038894
 20
756.8374192100491
 30
0.0
 10
398.2187429730993
 20
756.8380084657
 30
0.0
 10
398.598239224067
 20
756.8391869770021
 30
0.0
 10
398.8256410902552
 20
756.8397762326531
 30
0.0
 10
399.321476837079
 20
756.840954743955
 30
0.0
 10
399.5897156275215
 20
756.8415439996058
 30
0.0
 10
399.8580600000155
 20
756.842133255257
 30
0.0
  0
LINE
  5
334
330
1F
100
AcDbEntity
  8
0
  6
SLD-Solid
 62
   142
420
    32960
370
     0
100
AcDbLine
 10
399.85806
 20
693.8921332553
 30
0.0
 11
397.80806
 21
693.8921332553
 31
0.0
  0
ARC
  5
335
330
1F
100
AcDbEntity
  8
0
  6
SLD-Solid
 62
     7
370
    15
100
AcDbCircle
 10
409.80806
 20
722.6421332553
 30
0.0
 40
3.199999999999989
100
AcDbArc
 50
180.0
 51
0.0
  0
ARC
  5
336
330
1F
100
AcDbEntity
  8
0
  6
SLD-Solid
 62
   142
420
    32960
370
     0
100
AcDbCircle
 10
794.80806
 20
722.6421332553
 30
0.0
 40
3.200000000000045
100
AcDbArc
 50
180.0
 51
0.0
  0
LINE
  5
337
330
1F
100
AcDbEntity
  8
0
  6
SLD-Solid
 62
   142
420
    32960
370
     0
100
AcDbLine
 10
791.60806
 20
722.6421332553
 30
0.0
 11
791.60806
 21
728.9421332553
 31
0.0
  0
ARC
  5
338
330
1F
100
AcDbEntity
  8
0
  6
SLD-Solid
 62
   142
420
    32960
370
     0
100
AcDbCircle
 10
794.80806
 20
728.9421332553
 30
0.0
 40
3.200000000000045
100
AcDbArc
 50
0.0
 51
180.0
  0
LINE
  5
339
330
1F
100
AcDbEntity
  8
0
  6
SLD-Solid
 62
   142
420
    32960
370
     0
100
AcDbLine
 10
798.00806
 20
728.9421332553
 30
0.0
 11
798.00806
 21
722.6421332553
 31
0.0
  0
LINE
  5
33A
330
1F
100
AcDbEntity
  8
0
  6
SLD-Solid
 62
   142
420
    32960
370
     0
100
AcDbLine
 10
406.60806
 20
722.6421332553
 30
0.0
 11
406.60806
 21
728.9421332553
 31
0.0
  0
ARC
  5
33B
330
1F
100
AcDbEntity
  8
0
  6
SLD-Solid
 62
   142
420
    32960
370
     0
100
AcDbCircle
 10
409.80806
 20
728.9421332553
 30
0.0
 40
3.199999999999989
100
AcDbArc
 50
0.0
 51
180.0
  0
LINE
  5
33C
330
1F
100
AcDbEntity
  8
0
  6
SLD-Solid
 62
   142
420
    32960
370
     0
100
AcDbLine
 10
413.00806
 20
728.9421332553
 30
0.0
 11
413.00806
 21
722.6421332553
 31
0.0
  0
LINE
  5
33D
330
1F
100
AcDbEntity
  8
0
  6
SLD-Solid
 62
   142
420
    32960
370
     0
100
AcDbLine
 10
804.75806
 20
693.7680401613
 30
0.0
 11
804.75806
 21
688.8414351706
 31
0.0
  0
LINE
  5
33E
330
1F
100
AcDbEntity
  8
0
  6
SLD-Solid
 62
   142
420
    32960
370
     0
100
AcDbLine
 10
399.85806
 20
688.8414351706
 30
0.0
 11
399.85806
 21
693.7680401613
 31
0.0
  0
LINE
  5
33F
330
1F
100
AcDbEntity
  8
0
  6
SLD-Solid
 62
   142
420
    32960
370
     0
100
AcDbLine
 10
804.75806
 20
688.8414351706
 30
0.0
 11
399.85806
 21
688.8414351706
 31
0.0
  0
LINE
  5
340
330
1F
100
AcDbEntity
  8
0
  6
SLD-Solid
 62
     7
370
    15
100
AcDbLine
 10
399.85806
 20
758.8921332553
 30
0.0
 11
804.75806
 21
758.8921332553
 31
0.0
  0
LINE
  5
341
330
1F
100
AcDbEntity
  8
0
  6
SLD-Solid
 62
   142
420
    32960
370
     0
100
AcDbLine
 10
398.60806
 20
758.8921332553
 30
0.0
 11
399.85806
 21
758.8921332553
 31
0.0
  0
LINE
  5
342
330
1F
100
AcDbEntity
  8
0
  6
SLD-Solid
 62
   142
420
    32960
370
     0
100
AcDbLine
 10
398.60806
 20
756.8421332553
 30
0.0
 11
398.60806
 21
758.8921332553
 31
0.0
  0
LINE
  5
343
330
1F
100
AcDbEntity
  8
0
  6
SLD-Solid
 62
   142
420
    32960
370
     0
100
AcDbLine
 10
398.60806
 20
756.8421332553
 30
0.0
 11
399.85806
 21
756.8421332553
 31
0.0
  0
LINE
  5
344
330
1F
100
AcDbEntity
  8
0
  6
SLD-Solid
 62
   142
420
    32960
370
     0
100
AcDbLine
 10
806.00806
 20
756.8421332553
 30
0.0
 11
804.75806
 21
756.8421332553
 31
0.0
  0
LINE
  5
345
330
1F
100
AcDbEntity
  8
0
  6
SLD-Solid
 62
   142
420
    32960
370
     0
100
AcDbLine
 10
806.00806
 20
758.8921332553
 30
0.0
 11
806.00806
 21
756.8421332553
 31
0.0
  0
LINE
  5
346
330
1F
100
AcDbEntity
  8
0
  6
SLD-Solid
 62
   142
420
    32960
370
     0
100
AcDbLine
 10
806.00806
 20
758.8921332553
 30
0.0
 11
804.75806
 21
758.8921332553
 31
0.0
  0
SPLINE
  5
347
330
1F
100
AcDbEntity
  8
0
  6
SLD-Solid
 62
   142
420
    32960
370
     0
100
AcDbSpline
210
0.0
220
0.0
230
1.0
 70
     8
 71
     3
 72
    10
 73
     6
 74
     0
 42
0.00000001
 43
0.00000001
 40
0.0
 40
0.0
 40
0.0
 40
0.0
 40
0.4347688117987757
 40
0.8695376235975777
 40
1.0
 40
1.0
 40
1.0
 40
1.0
 10
806.8080600000155
 20
756.8421332552568
 30
0.0
 10
806.7748032897142
 20
757.1068199259992
 30
0.0
 10
806.7082898691114
 20
757.6361932674836
 30
0.0
 10
806.3729153867661
 20
758.2010192446961
 30
0.0
 10
806.0764807864373
 20
758.383037711303
 30
0.0
 10
806.0080600000155
 20
758.4250498334195
 30
0.0
  0
SPLINE
  5
348
330
1F
100
AcDbEntity
  8
0
  6
SLD-Solid
 62
   142
420
    32960
370
     0
100
AcDbSpline
210
0.0
220
0.0
230
1.0
 70
     8
 71
     3
 72
    10
 73
     6
 74
     0
 42
0.00000001
 43
0.00000001
 40
0.0
 40
0.0
 40
0.0
 40
0.0
 40
0.1304623764024629
 40
0.5652311882012276
 40
1.0
 40
1.0
 40
1.0
 40
1.0
 10
398.6080600000156
 20
758.4250498334195
 30
0.0
 10
398.5396392135939
 20
758.3830377113031
 30
0.0
 10
398.243204613265
 20
758.201019244696
 30
0.0
 10
397.9078301309197
 20
757.6361932674836
 30
0.0
 10
397.841316710317
 20
757.1068199259992
 30
0.0
 10
397.8080600000156
 20
756.8421332552568
 30
0.0
  0
LINE
  5
349
330
1F
100
AcDbEntity
  8
0
  6
SLD-Solid
 62
   142
420
    32960
370
     0
100
AcDbLine
 10
806.80806
 20
756.8350621874
 30
0.0
 11
806.80806
 21
756.8421332553
 31
0.0
  0
LINE
  5
34A
330
1F
100
AcDbEntity
  8
0
  6
SLD-Solid
 62
   142
420
    32960
370
     0
100
AcDbLine
 10
397.80806
 20
756.8421332553
 30
0.0
 11
397.80806
 21
756.8350621874
 31
0.0
  0
LINE
  5
34B
330
1F
100
AcDbEntity
  8
0
  6
SLD-Solid
 62
   142
420
    32960
370
     0
100
AcDbLine
 10
202.4541276373
 20
702.1421332553
 30
0.0
 11
201.9781486893
 21
702.1421332553
 31
0.0
  0
ARC
  5
34C
330
1F
100
AcDbEntity
  8
0
  6
SLD-Solid
 62
   142
420
    32960
370
     0
100
AcDbCircle
 10
202.2031609851
 20
702.1682045192
 30
0.0
 40
0.2265176462355111
100
AcDbArc
 50
98.6708087529
 51
186.6091593941
  0
LINE
  5
34D
330
1F
100
AcDbEntity
  8
0
  6
SLD-Solid
 62
   142
420
    32960
370
     0
100
AcDbLine
 10
202.1690118236
 20
702.3921332553
 30
0.0
 11
202.6449907717
 21
702.3921332553
 31
0.0
  0
ARC
  5
34E
330
1F
100
AcDbEntity
  8
0
  6
SLD-Solid
 62
   142
420
    32960
370
     0
100
AcDbCircle
 10
202.6791399331
 20
702.1682045192
 30
0.0
 40
0.2265176462355153
100
AcDbArc
 50
98.6708087529
 51
186.6091593941
  0
CIRCLE
  5
34F
330
1F
100
AcDbEntity
  8
0
  6
SLD-Solid
 62
     7
370
    15
100
AcDbCircle
 10
36.85806
 20
590.4421332553
 30
0.0
 40
7.49999999999995
  0
CIRCLE
  5
350
330
1F
100
AcDbEntity
  8
0
  6
SLD-Solid
 62
     7
370
    15
100
AcDbCircle
 10
36.85806
 20
52.4421332553
 30
0.0
 40
7.49999999999995
  0
LINE
  5
351
330
1F
100
AcDbEntity
  8
0
  6
SLD-Solid
 62
     7
370
    15
100
AcDbLine
 10
0.85806
 20
602.4421332553
 30
0.0
 11
0.85806
 21
40.4421332553
 31
0.0
  0
LINE
  5
352
330
1F
100
AcDbEntity
  8
0
  6
SLD-Solid
 62
     7
370
    15
100
AcDbLine
 10
78.85806
 20
602.4421332553
 30
0.0
 11
0.85806
 21
602.4421332553
 31
0.0
  0
LINE
  5
353
330
1F
100
AcDbEntity
  8
0
  6
SLD-Solid
 62
     7
370
    15
100
AcDbLine
 10
78.85806
 20
40.4421332553
 30
0.0
 11
78.85806
 21
602.4421332553
 31
0.0
  0
LINE
  5
354
330
1F
100
AcDbEntity
  8
0
  6
SLD-Solid
 62
     7
370
    15
100
AcDbLine
 10
0.85806
 20
40.4421332553
 30
0.0
 11
78.85806
 21
40.4421332553
 31
0.0
  0
CIRCLE
  5
355
330
1F
100
AcDbEntity
  8
0
  6
SLD-Solid
 62
     7
370
    15
100
AcDbCircle
 10
36.85806
 20
52.4421332553
 30
0.0
 40
4.0
  0
CIRCLE
  5
356
330
1F
100
AcDbEntity
  8
0
  6
SLD-Solid
 62
     7
370
    15
100
AcDbCircle
 10
36.85806
 20
590.4421332553
 30
0.0
 40
4.0
  0
ENDSEC
  0
SECTION
  2
OBJECTS
  0
DICTIONARY
  5
C
330
0
100
AcDbDictionary
281
     1
  3
ACAD_GROUP
350
D
  3
ACAD_LAYOUT
350
1A
  3
ACAD_MATERIAL
350
3B
  3
ACAD_MLEADERSTYLE
350
358
  3
ACAD_MLINESTYLE
350
17
  3
ACAD_PLOTSETTINGS
350
19
  3
ACAD_PLOTSTYLENAME
350
E
  3
ACAD_TABLESTYLE
350
357
  3
ACAD_VISUALSTYLE
350
2A
  0
DICTIONARY
  5
D
102
{ACAD_REACTORS
330
C
102
}
330
C
100
AcDbDictionary
281
     1
  0
DICTIONARY
  5
1A
102
{ACAD_REACTORS
330
C
102
}
330
C
100
AcDbDictionary
281
     1
  3
Layout1
350
1E
  3
Layout2
350
26
  3
Model
350
22
  0
DICTIONARY
  5
3B
102
{ACAD_REACTORS
330
C
102
}
330
C
100
AcDbDictionary
281
     1
  3
ByBlock
350
3D
  3
ByLayer
350
3C
  3
Global
350
3E
  0
DICTIONARY
  5
358
102
{ACAD_REACTORS
330
C
102
}
330
C
100
AcDbDictionary
281
     1
  0
DICTIONARY
  5
17
102
{ACAD_REACTORS
330
C
102
}
330
C
100
AcDbDictionary
281
     1
  3
Standard
350
18
  0
DICTIONARY
  5
19
102
{ACAD_REACTORS
330
C
102
}
330
C
100
AcDbDictionary
281
     1
  0
ACDBDICTIONARYWDFLT
  5
E
102
{ACAD_REACTORS
330
C
102
}
330
C
100
AcDbDictionary
281
     1
  3
Normal
350
F
100
AcDbDictionaryWithDefault
340
F
  0
DICTIONARY
  5
357
102
{ACAD_REACTORS
330
C
102
}
330
C
100
AcDbDictionary
281
     1
  0
DICTIONARY
  5
2A
102
{ACAD_REACTORS
330
C
102
}
330
C
100
AcDbDictionary
281
     1
  3
2dWireframe
350
2F
  3
3D Hidden
350
31
  3
3dWireframe
350
30
  3
Basic
350
32
  3
Brighten
350
36
  3
ColorChange
350
3A
  3
Conceptual
350
34
  3
Dim
350
35
  3
Facepattern
350
39
  3
Flat
350
2B
  3
FlatWithEdges
350
2C
  3
Gouraud
350
2D
  3
GouraudWithEdges
350
2E
  3
Linepattern
350
38
  3
Realistic
350
33
  3
Thicken
350
37
  0
LAYOUT
  5
1E
102
{ACAD_REACTORS
330
1A
102
}
330
1A
100
AcDbPlotSettings
  1

  2
none_device
  4

  6

 40
0.0
 41
0.0
 42
0.0
 43
0.0
 44
0.0
 45
0.0
 46
0.0
 47
0.0
 48
0.0
 49
0.0
140
0.0
141
0.0
142
1.0
143
1.0
 70
   688
 72
     0
 73
     0
 74
     5
  7

 75
    16
 76
     0
 77
     2
 78
   300
147
1.0
148
0.0
149
0.0
100
AcDbLayout
  1
Layout1
 70
     1
 71
     1
 10
0.0
 20
0.0
 11
420.0
 21
297.0
 12
0.0
 22
0.0
 32
0.0
 14
1.0000000000E+20
 24
1.0000000000E+20
 34
1.0000000000E+20
 15
-1.0000000000E+20
 25
-1.0000000000E+20
 35
-1.0000000000E+20
146
0.0
 13
0.0
 23
0.0
 33
0.0
 16
1.0
 26
0.0
 36
0.0
 17
0.0
 27
1.0
 37
0.0
 76
     0
330
1B
  0
LAYOUT
  5
26
102
{ACAD_REACTORS
330
1A
102
}
330
1A
100
AcDbPlotSettings
  1

  2
none_device
  4

  6

 40
0.0
 41
0.0
 42
0.0
 43
0.0
 44
0.0
 45
0.0
 46
0.0
 47
0.0
 48
0.0
 49
0.0
140
0.0
141
0.0
142
1.0
143
1.0
 70
   688
 72
     0
 73
     0
 74
     5
  7

 75
    16
 76
     0
 77
     2
 78
   300
147
1.0
148
0.0
149
0.0
100
AcDbLayout
  1
Layout2
 70
     1
 71
     2
 10
0.0
 20
0.0
 11
0.0
 21
0.0
 12
0.0
 22
0.0
 32
0.0
 14
0.0
 24
0.0
 34
0.0
 15
0.0
 25
0.0
 35
0.0
146
0.0
 13
0.0
 23
0.0
 33
0.0
 16
1.0
 26
0.0
 36
0.0
 17
0.0
 27
1.0
 37
0.0
 76
     0
330
23
  0
LAYOUT
  5
22
102
{ACAD_REACTORS
330
1A
102
}
330
1A
100
AcDbPlotSettings
  1

  2
none_device
  4

  6

 40
0.0
 41
0.0
 42
0.0
 43
0.0
 44
0.0
 45
0.0
 46
0.0
 47
0.0
 48
0.0
 49
0.0
140
0.0
141
0.0
142
1.0
143
1.0
 70
  1712
 72
     0
 73
     0
 74
     0
  7

 75
     0
 76
     0
 77
     2
 78
   300
147
1.0
148
0.0
149
0.0
100
AcDbLayout
  1
Model
 70
     1
 71
     0
 10
0.0
 20
0.0
 11
841.0
 21
594.0
 12
0.0
 22
0.0
 32
0.0
 14
0.0
 24
0.0
 34
0.0
 15
841.0
 25
594.0
 35
0.0
146
0.0
 13
0.0
 23
0.0
 33
0.0
 16
1.0
 26
0.0
 36
0.0
 17
0.0
 27
1.0
 37
0.0
 76
     0
330
1F
331
29
  0
MATERIAL
  5
3D
102
{ACAD_REACTORS
330
3B
102
}
330
3B
100
AcDbMaterial
  1
ByBlock
 72
     1
 94
      127
  0
MATERIAL
  5
3C
102
{ACAD_REACTORS
330
3B
102
}
330
3B
100
AcDbMaterial
  1
ByLayer
 72
     1
 94
      127
  0
MATERIAL
  5
3E
102
{ACAD_REACTORS
330
3B
102
}
330
3B
100
AcDbMaterial
  1
Global
 72
     1
 94
      127
  0
MLINESTYLE
  5
18
102
{ACAD_REACTORS
330
17
102
}
330
17
100
AcDbMlineStyle
  2
Standard
 70
     0
  3

 62
   256
 51
90.0
 52
90.0
 71
     2
 49
0.5
 62
   256
  6
BYLAYER
 49
-0.5
 62
   256
  6
BYLAYER
  0
ACDBPLACEHOLDER
  5
F
102
{ACAD_REACTORS
330
E
102
}
330
E
  0
VISUALSTYLE
  5
2F
102
{ACAD_REACTORS
330
2A
102
}
330
2A
100
AcDbVisualStyle
  2
2dWireframe
 70
     4
 71
     0
 72
     2
 73
     0
 90
        0
 40
-0.6
 41
-30.0
 62
     5
 63
     7
421
 16777215
 74
     1
 91
        4
 64
     7
 65
   257
 75
     1
175
     1
 42
1.0
 92
        0
 66
   257
 43
1.0
 76
     1
 77
     6
 78
     2
 67
     7
 79
     5
170
     0
171
     0
290
     0
174
     0
 93
        1
 44
0.0
173
     0
291
     0
 45
0.0
  0
VISUALSTYLE
  5
31
102
{ACAD_REACTORS
330
2A
102
}
330
2A
100
AcDbVisualStyle
  2
3D Hidden
 70
     6
 71
     1
 72
     2
 73
     2
 90
        0
 40
-0.6
 41
-30.0
 62
     5
 63
     7
421
 16777215
 74
     2
 91
        2
 64
     7
 65
   257
 75
     2
175
     1
 42
40.0
 92
        0
 66
   257
 43
1.0
 76
     1
 77
     6
 78
     2
 67
     7
 79
     3
170
     0
171
     0
290
     0
174
     0
 93
        1
 44
0.0
173
     0
291
     0
 45
0.0
  0
VISUALSTYLE
  5
30
102
{ACAD_REACTORS
330
2A
102
}
330
2A
100
AcDbVisualStyle
  2
3dWireframe
 70
     5
 71
     0
 72
     2
 73
     0
 90
        0
 40
-0.6
 41
-30.0
 62
     5
 63
     7
421
 16777215
 74
     1
 91
        4
 64
     7
 65
   257
 75
     1
175
     1
 42
1.0
 92
        0
 66
   257
 43
1.0
 76
     1
 77
     6
 78
     2
 67
     7
 79
     5
170
     0
171
     0
290
     0
174
     0
 93
        1
 44
0.0
173
     0
291
     0
 45
0.0
  0
VISUALSTYLE
  5
32
102
{ACAD_REACTORS
330
2A
102
}
330
2A
100
AcDbVisualStyle
  2
Basic
 70
     7
 71
     1
 72
     0
 73
     1
 90
        0
 40
-0.6
 41
-30.0
 62
     5
 63
     7
421
 16777215
 74
     0
 91
        4
 64
     7
 65
   257
 75
     1
175
     1
 42
1.0
 92
        8
 66
     7
 43
1.0
 76
     1
 77
     6
 78
     2
 67
     7
 79
     5
170
     0
171
     0
290
     0
174
     0
 93
        1
 44
0.0
173
     0
291
     1
 45
0.0
  0
VISUALSTYLE
  5
36
102
{ACAD_REACTORS
330
2A
102
}
330
2A
100
AcDbVisualStyle
  2
Brighten
 70
    12
 71
     2
 72
     2
 73
     0
 90
        0
 40
-0.6
 41
-30.0
 62
     5
 63
     7
421
 16777215
 74
     1
 91
        4
 64
     7
 65
   257
 75
     1
175
     1
 42
1.0
 92
        8
 66
     7
 43
1.0
 76
     1
 77
     6
 78
     2
 67
     7
 79
     5
170
     0
171
     0
290
     0
174
     0
 93
        1
 44
50.0
173
     0
291
     1
 45
0.0
  0
VISUALSTYLE
  5
3A
102
{ACAD_REACTORS
330
2A
102
}
330
2A
100
AcDbVisualStyle
  2
ColorChange
 70
    16
 71
     2
 72
     2
 73
     3
 90
        0
 40
-0.6
 41
-30.0
 62
     5
 63
     8
421
  8421504
 74
     1
 91
        4
 64
     7
 65
   257
 75
     1
175
     1
 42
1.0
 92
        8
 66
     8
424
  8421504
 43
1.0
 76
     1
 77
     6
 78
     2
 67
     7
 79
     5
170
     0
171
     0
290
     0
174
     0
 93
        1
 44
0.0
173
     0
291
     1
 45
0.0
  0
VISUALSTYLE
  5
34
102
{ACAD_REACTORS
330
2A
102
}
330
2A
100
AcDbVisualStyle
  2
Conceptual
 70
     9
 71
     3
 72
     2
 73
     0
 90
        0
 40
-0.6
 41
-30.0
 62
     5
 63
     7
421
 16777215
 74
     2
 91
        2
 64
     7
 65
   257
 75
     1
175
     1
 42
40.0
 92
        8
 66
     7
 43
1.0
 76
     1
 77
     6
 78
     2
 67
     7
 79
     3
170
     0
171
     0
290
     0
174
     0
 93
        1
 44
0.0
173
     0
291
     0
 45
0.0
  0
VISUALSTYLE
  5
35
102
{ACAD_REACTORS
330
2A
102
}
330
2A
100
AcDbVisualStyle
  2
Dim
 70
    11
 71
     2
 72
     2
 73
     0
 90
        0
 40
-0.6
 41
-30.0
 62
     5
 63
     7
421
 16777215
 74
     1
 91
        4
 64
     7
 65
   257
 75
     1
175
     1
 42
1.0
 92
        8
 66
     7
 43
1.0
 76
     1
 77
     6
 78
     2
 67
     7
 79
     5
170
     0
171
     0
290
     0
174
     0
 93
        1
 44
-50.0
173
     0
291
     1
 45
0.0
  0
VISUALSTYLE
  5
39
102
{ACAD_REACTORS
330
2A
102
}
330
2A
100
AcDbVisualStyle
  2
Facepattern
 70
    15
 71
     2
 72
     2
 73
     0
 90
        0
 40
-0.6
 41
-30.0
 62
     5
 63
     7
421
 16777215
 74
     1
 91
        4
 64
     7
 65
   257
 75
     1
175
     1
 42
1.0
 92
        8
 66
     7
 43
1.0
 76
     1
 77
     6
 78
     2
 67
     7
 79
     5
170
     0
171
     0
290
     0
174
     0
 93
        1
 44
0.0
173
     0
291
     1
 45
0.0
  0
VISUALSTYLE
  5
2B
102
{ACAD_REACTORS
330
2A
102
}
330
2A
100
AcDbVisualStyle
  2
Flat
 70
     0
 71
     2
 72
     1
 73
     1
 90
        2
 40
-0.6
 41
30.0
 62
     5
 63
     7
421
 16777215
 74
     0
 91
        4
 64
     7
 65
   257
 75
     1
175
     1
 42
1.0
 92
        8
 66
     7
 43
1.0
 76
     1
 77
     6
 78
     2
 67
     7
 79
     5
170
     0
171
     0
290
     0
174
     0
 93
       13
 44
0.0
173
     0
291
     1
 45
0.0
  0
VISUALSTYLE
  5
2C
102
{ACAD_REACTORS
330
2A
102
}
330
2A
100
AcDbVisualStyle
  2
FlatWithEdges
 70
     1
 71
     2
 72
     1
 73
     1
 90
        2
 40
-0.6
 41
30.0
 62
     5
 63
     7
421
 16777215
 74
     1
 91
        4
 64
     7
 65
   257
 75
     1
175
     1
 42
1.0
 92
        0
 66
   257
 43
1.0
 76
     1
 77
     6
 78
     2
 67
     7
 79
     5
170
     0
171
     0
290
     0
174
     0
 93
       13
 44
0.0
173
     0
291
     1
 45
0.0
  0
VISUALSTYLE
  5
2D
102
{ACAD_REACTORS
330
2A
102
}
330
2A
100
AcDbVisualStyle
  2
Gouraud
 70
     2
 71
     2
 72
     2
 73
     1
 90
        2
 40
-0.6
 41
30.0
 62
     5
 63
     7
421
 16777215
 74
     0
 91
        4
 64
     7
 65
   257
 75
     1
175
     1
 42
1.0
 92
        0
 66
     7
 43
1.0
 76
     1
 77
     6
 78
     2
 67
     7
 79
     5
170
     0
171
     0
290
     0
174
     0
 93
       13
 44
0.0
173
     0
291
     1
 45
0.0
  0
VISUALSTYLE
  5
2E
102
{ACAD_REACTORS
330
2A
102
}
330
2A
100
AcDbVisualStyle
  2
GouraudWithEdges
 70
     3
 71
     2
 72
     2
 73
     1
 90
        2
 40
-0.6
 41
30.0
 62
     5
 63
     7
421
 16777215
 74
     1
 91
        4
 64
     7
 65
   257
 75
     1
175
     1
 42
1.0
 92
        0
 66
   257
 43
1.0
 76
     1
 77
     6
 78
     2
 67
     7
 79
     5
170
     0
171
     0
290
     0
174
     0
 93
       13
 44
0.0
173
     0
291
     1
 45
0.0
  0
VISUALSTYLE
  5
38
102
{ACAD_REACTORS
330
2A
102
}
330
2A
100
AcDbVisualStyle
  2
Linepattern
 70
    14
 71
     2
 72
     2
 73
     0
 90
        0
 40
-0.6
 41
-30.0
 62
     5
 63
     7
421
 16777215
 74
     1
 91
        4
 64
     7
 65
   257
 75
     7
175
     7
 42
1.0
 92
        8
 66
     7
 43
1.0
 76
     1
 77
     6
 78
     2
 67
     7
 79
     5
170
     0
171
     0
290
     0
174
     0
 93
        1
 44
0.0
173
     0
291
     1
 45
0.0
  0
VISUALSTYLE
  5
33
102
{ACAD_REACTORS
330
2A
102
}
330
2A
100
AcDbVisualStyle
  2
Realistic
 70
     8
 71
     2
 72
     2
 73
     0
 90
        0
 40
-0.6
 41
-30.0
 62
     5
 63
     7
421
 16777215
 74
     1
 91
        0
 64
     7
 65
   257
 75
     1
175
     1
 42
1.0
 92
        8
 66
     8
424
  7895160
 43
1.0
 76
     1
 77
     6
 78
     2
 67
     7
 79
     5
170
     0
171
     0
290
     0
174
     0
 93
       13
 44
0.0
173
     0
291
     0
 45
0.0
  0
VISUALSTYLE
  5
37
102
{ACAD_REACTORS
330
2A
102
}
330
2A
100
AcDbVisualStyle
  2
Thicken
 70
    13
 71
     2
 72
     2
 73
     0
 90
        0
 40
-0.6
 41
-30.0
 62
     5
 63
     7
421
 16777215
 74
     1
 91
        4
 64
     7
 65
   257
 75
     1
175
     1
 42
1.0
 92
       12
 66
     7
 43
1.0
 76
     1
 77
     6
 78
     2
 67
     7
 79
     5
170
     0
171
     0
290
     0
174
     0
 93
        1
 44
0.0
173
     0
291
     1
 45
0.0
  0
ENDSEC
  0
EOF
