  0
SECTION
  2
HEADER
  9
$ACADVER
  1
AC1021
  9
$ACADMAINTVER
 70
    25
  9
$DWGCODEPAGE
  3
ANSI_1252
  9
$INSBASE
 10
0.0
 20
0.0
 30
0.0
  9
$EXTMIN
 10
0.0
 20
0.0
 30
0.0
  9
$EXTMAX
 10
841.0
 20
594.0
 30
0.0
  9
$LIMMIN
 10
0.0
 20
0.0
  9
$LIMMAX
 10
841.0
 20
594.0
  9
$ORTHOMODE
 70
     0
  9
$REGENMODE
 70
     1
  9
$FILLMODE
 70
     1
  9
$QTEXTMODE
 70
     0
  9
$MIRRTEXT
 70
     1
  9
$LTSCALE
 40
1.0
  9
$ATTMODE
 70
     1
  9
$TEXTSIZE
 40
3.5
  9
$TRACEWID
 40
1.0
  9
$TEXTSTYLE
  7
STANDARD
  9
$CLAYER
  8
0
  9
$CELTYPE
  6
ByLayer
  9
$CECOLOR
 62
   256
  9
$CELTSCALE
 40
1.0
  9
$DISPSILH
 70
     0
  9
$DIMSCALE
 40
1.0
  9
$DIMASZ
 40
3.302
  9
$DIMEXO
 40
1.0
  9
$DIMDLI
 40
3.75
  9
$DIMRND
 40
0.0
  9
$DIMDLE
 40
0.0
  9
$DIMEXE
 40
1.0
  9
$DIMTP
 40
0.0
  9
$DIMTM
 40
0.0
  9
$DIMTXT
 40
3.5
  9
$DIMCEN
 40
2.5
  9
$DIMTSZ
 40
0.0
  9
$DIMTOL
 70
     0
  9
$DIMLIM
 70
     0
  9
$DIMTIH
 70
     1
  9
$DIMTOH
 70
     1
  9
$DIMSE1
 70
     0
  9
$DIMSE2
 70
     0
  9
$DIMTAD
 70
     1
  9
$DIMZIN
 70
     0
  9
$DIMBLK
  1

  9
$DIMASO
 70
     1
  9
$DIMSHO
 70
     1
  9
$DIMPOST
  1

  9
$DIMAPOST
  1

  9
$DIMALT
 70
     0
  9
$DIMALTD
 70
     3
  9
$DIMALTF
 40
0.0393700787
  9
$DIMLFAC
 40
1.0
  9
$DIMTOFL
 70
     1
  9
$DIMTVP
 40
0.0
  9
$DIMTIX
 70
     0
  9
$DIMSOXD
 70
     0
  9
$DIMSAH
 70
     0
  9
$DIMBLK1
  1

  9
$DIMBLK2
  1

  9
$DIMSTYLE
  2
ISO-25
  9
$DIMCLRD
 70
     0
  9
$DIMCLRE
 70
     0
  9
$DIMCLRT
 70
     0
  9
$DIMTFAC
 40
1.0
  9
$DIMGAP
 40
1.524
  9
$DIMJUST
 70
     0
  9
$DIMSD1
 70
     0
  9
$DIMSD2
 70
     0
  9
$DIMTOLJ
 70
     0
  9
$DIMTZIN
 70
     0
  9
$DIMALTZ
 70
     0
  9
$DIMALTTZ
 70
     0
  9
$DIMUPT
 70
     0
  9
$DIMDEC
 70
     1
  9
$DIMTDEC
 70
     1
  9
$DIMALTU
 70
     2
  9
$DIMALTTD
 70
     3
  9
$DIMTXSTY
  7
STANDARD
  9
$DIMAUNIT
 70
     0
  9
$DIMADEC
 70
     1
  9
$DIMALTRND
 40
0.0
  9
$DIMAZIN
 70
     0
  9
$DIMDSEP
 70
    44
  9
$DIMATFIT
 70
     3
  9
$DIMFRAC
 70
     0
  9
$DIMLDRBLK
  1

  9
$DIMLUNIT
 70
     2
  9
$DIMLWD
 70
    -2
  9
$DIMLWE
 70
    -2
  9
$DIMTMOVE
 70
     0
  9
$DIMFXL
 40
1.0
  9
$DIMFXLON
 70
     0
  9
$DIMJOGANG
 40
0.7853981634
  9
$DIMTFILL
 70
     0
  9
$DIMTFILLCLR
 70
     0
  9
$DIMARCSYM
 70
     0
  9
$DIMLTYPE
  6

  9
$DIMLTEX1
  6

  9
$DIMLTEX2
  6

  9
$LUNITS
 70
     2
  9
$LUPREC
 70
     1
  9
$SKETCHINC
 40
1.0
  9
$FILLETRAD
 40
10.0
  9
$AUNITS
 70
     0
  9
$AUPREC
 70
     1
  9
$MENU
  1
.
  9
$ELEVATION
 40
0.0
  9
$PELEVATION
 40
0.0
  9
$THICKNESS
 40
0.0
  9
$LIMCHECK
 70
     0
  9
$CHAMFERA
 40
10.0
  9
$CHAMFERB
 40
10.0
  9
$CHAMFERC
 40
20.0
  9
$CHAMFERD
 40
0.0
  9
$SKPOLY
 70
     0
  9
$TDCREATE
 40
2455700.632550579
  9
$TDUCREATE
 40
2455700.590883912
  9
$TDUPDATE
 40
2455700.63255059
  9
$TDUUPDATE
 40
2455700.590883924
  9
$TDINDWG
 40
0.0000000116
  9
$TDUSRTIMER
 40
0.0000000116
  9
$USRTIMER
 70
     1
  9
$ANGBASE
 50
0.0
  9
$ANGDIR
 70
     0
  9
$PDMODE
 70
     0
  9
$PDSIZE
 40
-1.0
  9
$PLINEWID
 40
0.0
  9
$SPLFRAME
 70
     0
  9
$SPLINETYPE
 70
     6
  9
$SPLINESEGS
 70
     8
  9
$HANDSEED
  5
327
  9
$SURFTAB1
 70
     6
  9
$SURFTAB2
 70
     6
  9
$SURFTYPE
 70
     6
  9
$SURFU
 70
     6
  9
$SURFV
 70
     6
  9
$UCSBASE
  2

  9
$UCSNAME
  2

  9
$UCSORG
 10
0.0
 20
0.0
 30
0.0
  9
$UCSXDIR
 10
1.0
 20
0.0
 30
0.0
  9
$UCSYDIR
 10
0.0
 20
1.0
 30
0.0
  9
$UCSORTHOREF
  2

  9
$UCSORTHOVIEW
 70
     0
  9
$UCSORGTOP
 10
0.0
 20
0.0
 30
0.0
  9
$UCSORGBOTTOM
 10
0.0
 20
0.0
 30
0.0
  9
$UCSORGLEFT
 10
0.0
 20
0.0
 30
0.0
  9
$UCSORGRIGHT
 10
0.0
 20
0.0
 30
0.0
  9
$UCSORGFRONT
 10
0.0
 20
0.0
 30
0.0
  9
$UCSORGBACK
 10
0.0
 20
0.0
 30
0.0
  9
$PUCSBASE
  2

  9
$PUCSNAME
  2

  9
$PUCSORG
 10
0.0
 20
0.0
 30
0.0
  9
$PUCSXDIR
 10
1.0
 20
0.0
 30
0.0
  9
$PUCSYDIR
 10
0.0
 20
1.0
 30
0.0
  9
$PUCSORTHOREF
  2

  9
$PUCSORTHOVIEW
 70
     0
  9
$PUCSORGTOP
 10
0.0
 20
0.0
 30
0.0
  9
$PUCSORGBOTTOM
 10
0.0
 20
0.0
 30
0.0
  9
$PUCSORGLEFT
 10
0.0
 20
0.0
 30
0.0
  9
$PUCSORGRIGHT
 10
0.0
 20
0.0
 30
0.0
  9
$PUCSORGFRONT
 10
0.0
 20
0.0
 30
0.0
  9
$PUCSORGBACK
 10
0.0
 20
0.0
 30
0.0
  9
$USERI1
 70
     0
  9
$USERI2
 70
     0
  9
$USERI3
 70
     0
  9
$USERI4
 70
     0
  9
$USERI5
 70
     0
  9
$USERR1
 40
0.0
  9
$USERR2
 40
0.0
  9
$USERR3
 40
0.0
  9
$USERR4
 40
0.0
  9
$USERR5
 40
0.0
  9
$WORLDVIEW
 70
     1
  9
$SHADEDGE
 70
     3
  9
$SHADEDIF
 70
    70
  9
$TILEMODE
 70
     1
  9
$MAXACTVP
 70
    64
  9
$PINSBASE
 10
0.0
 20
0.0
 30
0.0
  9
$PLIMCHECK
 70
     0
  9
$PEXTMIN
 10
1.0000000000E+20
 20
1.0000000000E+20
 30
1.0000000000E+20
  9
$PEXTMAX
 10
-1.0000000000E+20
 20
-1.0000000000E+20
 30
-1.0000000000E+20
  9
$PLIMMIN
 10
0.0
 20
0.0
  9
$PLIMMAX
 10
420.0
 20
297.0
  9
$UNITMODE
 70
     0
  9
$VISRETAIN
 70
     1
  9
$PLINEGEN
 70
     0
  9
$PSLTSCALE
 70
     1
  9
$TREEDEPTH
 70
  3020
  9
$CMLSTYLE
  2
Standard
  9
$CMLJUST
 70
     0
  9
$CMLSCALE
 40
20.0
  9
$PROXYGRAPHICS
 70
     1
  9
$MEASUREMENT
 70
     1
  9
$CELWEIGHT
370
    -1
  9
$ENDCAPS
280
     0
  9
$JOINSTYLE
280
     0
  9
$LWDISPLAY
290
     1
  9
$INSUNITS
 70
     4
  9
$HYPERLINKBASE
  1

  9
$STYLESHEET
  1

  9
$XEDIT
290
     1
  9
$CEPSNTYPE
380
     0
  9
$PSTYLEMODE
290
     1
  9
$FINGERPRINTGUID
  2
{FFEED452-5058-4400-95C0-4402303945E5}
  9
$VERSIONGUID
  2
{FAEB1C32-E019-11D5-929B-00C0DF256EC4}
  9
$EXTNAMES
290
     1
  9
$PSVPSCALE
 40
0.0
  9
$OLESTARTUP
290
     0
  9
$SORTENTS
280
   127
  9
$INDEXCTL
280
     0
  9
$HIDETEXT
280
     1
  9
$XCLIPFRAME
290
     0
  9
$HALOGAP
280
     0
  9
$OBSCOLOR
 70
   257
  9
$OBSLTYPE
280
     0
  9
$INTERSECTIONDISPLAY
280
     0
  9
$INTERSECTIONCOLOR
 70
   257
  9
$DIMASSOC
280
     2
  9
$PROJECTNAME
  1

  9
$CAMERADISPLAY
290
     0
  9
$LENSLENGTH
 40
50.0
  9
$CAMERAHEIGHT
 40
0.0
  9
$STEPSPERSEC
 40
2.0
  9
$STEPSIZE
 40
6.0
  9
$3DDWFPREC
 40
2.0
  9
$PSOLWIDTH
 40
5.0
  9
$PSOLHEIGHT
 40
80.0
  9
$LOFTANG1
 40
1.5707963268
  9
$LOFTANG2
 40
1.5707963268
  9
$LOFTMAG1
 40
0.0
  9
$LOFTMAG2
 40
0.0
  9
$LOFTPARAM
 70
     7
  9
$LOFTNORMALS
280
     1
  9
$LATITUDE
 40
37.795
  9
$LONGITUDE
 40
-122.394
  9
$NORTHDIRECTION
 40
0.0
  9
$TIMEZONE
 70
 -8000
  9
$LIGHTGLYPHDISPLAY
280
     1
  9
$TILEMODELIGHTSYNCH
280
     1
  9
$SOLIDHIST
280
     1
  9
$SHOWHIST
280
     1
  9
$DWFFRAME
280
     2
  9
$DGNFRAME
280
     2
  9
$REALWORLDSCALE
290
     1
  9
$INTERFERECOLOR
 62
   256
  9
$CSHADOW
280
     0
  9
$SHADOWPLANELOCATION
 40
0.0
  0
ENDSEC
  0
SECTION
  2
CLASSES
  0
CLASS
  1
ACDBDICTIONARYWDFLT
  2
AcDbDictionaryWithDefault
  3
ObjectDBX Classes
 90
        0
 91
        4
280
     0
281
     0
  0
CLASS
  1
VISUALSTYLE
  2
AcDbVisualStyle
  3
ObjectDBX Classes
 90
     4095
 91
        4
280
     0
281
     0
  0
CLASS
  1
MATERIAL
  2
AcDbMaterial
  3
ObjectDBX Classes
 90
     1153
 91
        4
280
     0
281
     0
  0
ENDSEC
  0
SECTION
  2
TABLES
  0
TABLE
  2
VPORT
  5
8
330
0
100
AcDbSymbolTable
 70
     1
  0
VPORT
  5
29
330
8
100
AcDbSymbolTableRecord
100
AcDbViewportTableRecord
  2
*Active
 70
     0
 10
0.0
 20
0.0
 11
1.0
 21
1.0
 12
420.5
 22
297.0
 13
0.0
 23
0.0
 14
10.0
 24
10.0
 15
10.0
 25
10.0
 16
0.0
 26
0.0
 36
1.0
 17
0.0
 27
0.0
 37
0.0
 40
594.0
 41
1.4158249158
 42
50.0
 43
0.0
 44
0.0
 50
0.0
 51
0.0
 71
     0
 72
  2000
 73
     1
 74
     3
 75
     0
 76
     0
 77
     0
 78
     0
281
     0
 65
     1
110
0.0
120
0.0
130
0.0
111
1.0
121
0.0
131
0.0
112
0.0
122
1.0
132
0.0
 79
     0
146
0.0
 60
     3
 61
     5
292
     1
282
     1
141
0.0
142
0.0
 63
   250
  0
ENDTAB
  0
TABLE
  2
LTYPE
  5
5
330
0
100
AcDbSymbolTable
 70
     8
  0
LTYPE
  5
14
330
5
100
AcDbSymbolTableRecord
100
AcDbLinetypeTableRecord
  2
ByBlock
 70
     0
  3

 72
    65
 73
     0
 40
0.0
  0
LTYPE
  5
15
330
5
100
AcDbSymbolTableRecord
100
AcDbLinetypeTableRecord
  2
ByLayer
 70
     0
  3

 72
    65
 73
     0
 40
0.0
  0
LTYPE
  5
16
330
5
100
AcDbSymbolTableRecord
100
AcDbLinetypeTableRecord
  2
Continuous
 70
     0
  3
Solid line
 72
    65
 73
     0
 40
0.0
  0
LTYPE
  5
3F
330
5
100
AcDbSymbolTableRecord
100
AcDbLinetypeTableRecord
  2
SLD-Solid
 70
     0
  3
SolidWorks Line Style
 72
    65
 73
     0
 40
0.0
  0
LTYPE
  5
40
330
5
100
AcDbSymbolTableRecord
100
AcDbLinetypeTableRecord
  2
SLD-Dashed
 70
     0
  3
SolidWorks Line Style
 72
    65
 73
     2
 40
1.905
 49
1.27
 74
     0
 49
-0.635
 74
     0
  0
LTYPE
  5
41
330
5
100
AcDbSymbolTableRecord
100
AcDbLinetypeTableRecord
  2
SLD-Phantom
 70
     0
  3
SolidWorks Line Style
 72
    65
 73
     6
 40
12.7
 49
6.35
 74
     0
 49
-1.27
 74
     0
 49
1.27
 74
     0
 49
-1.27
 74
     0
 49
1.27
 74
     0
 49
-1.27
 74
     0
  0
LTYPE
  5
42
330
5
100
AcDbSymbolTableRecord
100
AcDbLinetypeTableRecord
  2
SLD-Chain
 70
     0
  3
SolidWorks Line Style
 72
    65
 73
     4
 40
10.16
 49
6.35
 74
     0
 49
-1.27
 74
     0
 49
1.27
 74
     0
 49
-1.27
 74
     0
  0
LTYPE
  5
43
330
5
100
AcDbSymbolTableRecord
100
AcDbLinetypeTableRecord
  2
SLD-Center
 70
     0
  3
SolidWorks Line Style
 72
    65
 73
     4
 40
19.05
 49
15.24
 74
     0
 49
-1.27
 74
     0
 49
1.27
 74
     0
 49
-1.27
 74
     0
  0
LTYPE
  5
44
330
5
100
AcDbSymbolTableRecord
100
AcDbLinetypeTableRecord
  2
SLD-Stitch
 70
     0
  3
SolidWorks Line Style
 72
    65
 73
     2
 40
0.635
 49
0.0
 74
     0
 49
-0.635
 74
     0
  0
LTYPE
  5
45
330
5
100
AcDbSymbolTableRecord
100
AcDbLinetypeTableRecord
  2
SLD-Thin-Thick-Chain
 70
     0
  3
SolidWorks Line Style
 72
    65
 73
     4
 40
10.16
 49
6.35
 74
     0
 49
-1.27
 74
     0
 49
1.27
 74
     0
 49
-1.27
 74
     0
  0
ENDTAB
  0
TABLE
  2
LAYER
  5
2
330
0
100
AcDbSymbolTable
 70
     1
  0
LAYER
  5
10
330
2
100
AcDbSymbolTableRecord
100
AcDbLayerTableRecord
  2
0
 70
     0
 62
     7
  6
Continuous
370
    -3
390
F
347
3E
  0
ENDTAB
  0
TABLE
  2
STYLE
  5
3
330
0
100
AcDbSymbolTable
 70
     1
  0
STYLE
  5
11
330
3
100
AcDbSymbolTableRecord
100
AcDbTextStyleTableRecord
  2
STANDARD
 70
     0
 40
0.0
 41
1.0
 50
0.0
 71
     0
 42
2.5
  3
GOTHIC.TTF
  4

1001
ACAD
1000
CENTURY GOTHIC
1071
       34
  0
ENDTAB
  0
TABLE
  2
VIEW
  5
6
330
0
100
AcDbSymbolTable
 70
     0
  0
ENDTAB
  0
TABLE
  2
UCS
  5
7
330
0
100
AcDbSymbolTable
 70
     0
  0
ENDTAB
  0
TABLE
  2
APPID
  5
9
330
0
100
AcDbSymbolTable
 70
     1
  0
APPID
  5
12
330
9
100
AcDbSymbolTableRecord
100
AcDbRegAppTableRecord
  2
ACAD
 70
     0
  0
ENDTAB
  0
TABLE
  2
DIMSTYLE
  5
A
330
0
100
AcDbSymbolTable
 70
     1
100
AcDbDimStyleTable
  0
DIMSTYLE
105
27
330
A
100
AcDbSymbolTableRecord
100
AcDbDimStyleTableRecord
  2
ISO-25
 70
     0
 41
2.5
 42
0.625
 43
3.75
 44
1.25
 73
     0
 74
     0
 77
     1
 78
     8
140
2.5
141
2.5
143
0.0393700787
147
0.625
171
     3
172
     1
271
     2
272
     2
274
     3
278
    44
283
     0
284
     8
340
11
  0
ENDTAB
  0
TABLE
  2
BLOCK_RECORD
  5
1
330
0
100
AcDbSymbolTable
 70
     1
  0
BLOCK_RECORD
  5
1F
330
1
100
AcDbSymbolTableRecord
100
AcDbBlockTableRecord
  2
*Model_Space
340
22
 70
     0
280
     1
281
     0
  0
BLOCK_RECORD
  5
1B
330
1
100
AcDbSymbolTableRecord
100
AcDbBlockTableRecord
  2
*Paper_Space
340
1E
 70
     0
280
     1
281
     0
  0
BLOCK_RECORD
  5
23
330
1
100
AcDbSymbolTableRecord
100
AcDbBlockTableRecord
  2
*Paper_Space0
340
26
 70
     0
280
     1
281
     0
  0
ENDTAB
  0
ENDSEC
  0
SECTION
  2
BLOCKS
  0
BLOCK
  5
20
330
1F
100
AcDbEntity
  8
0
100
AcDbBlockBegin
  2
*Model_Space
 70
     0
 10
0.0
 20
0.0
 30
0.0
  3
*Model_Space
  1

  0
ENDBLK
  5
21
330
1F
100
AcDbEntity
  8
0
100
AcDbBlockEnd
  0
BLOCK
  5
1C
330
1B
100
AcDbEntity
 67
     1
  8
0
100
AcDbBlockBegin
  2
*Paper_Space
 70
     0
 10
0.0
 20
0.0
 30
0.0
  3
*Paper_Space
  1

  0
ENDBLK
  5
1D
330
1B
100
AcDbEntity
 67
     1
  8
0
100
AcDbBlockEnd
  0
BLOCK
  5
24
330
23
100
AcDbEntity
  8
0
100
AcDbBlockBegin
  2
*Paper_Space0
 70
     0
 10
0.0
 20
0.0
 30
0.0
  3
*Paper_Space0
  1

  0
ENDBLK
  5
25
330
23
100
AcDbEntity
  8
0
100
AcDbBlockEnd
  0
ENDSEC
  0
SECTION
  2
ENTITIES
  0
LINE
  5
46
330
1F
100
AcDbEntity
  8
0
  6
SLD-Solid
 62
     7
370
    15
100
AcDbLine
 10
181.4015651163
 20
692.5483026953
 30
0.0
 11
181.7277017717
 21
692.3199393507
 31
0.0
  0
LINE
  5
47
330
1F
100
AcDbEntity
  8
0
  6
SLD-Solid
 62
     7
370
    15
100
AcDbLine
 10
179.4015651163
 20
692.5483026953
 30
0.0
 11
178.9398737125
 21
692.281745039
 31
0.0
  0
LINE
  5
48
330
1F
100
AcDbEntity
  8
0
  6
SLD-Solid
 62
     7
370
    15
100
AcDbLine
 10
132.1623238201
 20
-92.2853575171
 30
0.0
 11
132.155590757
 21
-91.9185058032
 31
0.0
  0
SPLINE
  5
49
330
1F
100
AcDbEntity
  8
0
  6
SLD-Solid
 62
     7
370
    15
100
AcDbSpline
210
0.0
220
0.0
230
1.0
 70
     8
 71
     3
 72
    12
 73
     8
 74
     0
 42
0.00000001
 43
0.00000001
 40
0.0
 40
0.0
 40
0.0
 40
0.0
 40
0.1457385529867313
 40
0.4224065763362626
 40
0.7025645190517134
 40
0.9915723830908125
 40
1.0
 40
1.0
 40
1.0
 40
1.0
 10
130.4979720097834
 20
-92.15160959340157
 30
0.0
 10
130.6669205702282
 20
-92.36491924769818
 30
0.0
 10
131.1565987063965
 20
-92.9831729556178
 30
0.0
 10
131.7440763246636
 20
-93.99786642019914
 30
0.0
 10
132.1329006460012
 20
-95.19045563813134
 30
0.0
 10
132.289213982856
 20
-95.98384230794937
 30
0.0
 10
132.2322189190667
 20
-96.39594331230555
 30
0.0
 10
132.2306040056012
 20
-96.40761989299301
 30
0.0
  0
SPLINE
  5
4A
330
1F
100
AcDbEntity
  8
0
  6
SLD-Solid
 62
     7
370
    15
100
AcDbSpline
210
0.0
220
0.0
230
1.0
 70
     8
 71
     3
 72
    11
 73
     7
 74
     0
 42
0.00000001
 43
0.00000001
 40
0.0
 40
0.0
 40
0.0
 40
0.0
 40
0.2706728893345959
 40
0.5972761992793643
 40
0.9114942371264022
 40
1.0
 40
1.0
 40
1.0
 40
1.0
 10
151.5970181454019
 20
-96.05674027315675
 30
0.0
 10
151.6263546322934
 20
-95.71479134307836
 30
0.0
 10
151.6910895432547
 20
-94.96023495655986
 30
0.0
 10
152.1702477284174
 20
-93.77903979077784
 30
0.0
 10
152.7718402734751
 20
-92.81014124692405
 30
0.0
 10
153.209069315633
 20
-92.27025849137294
 30
0.0
 10
153.3051582228628
 20
-92.15160959340157
 30
0.0
  0
SPLINE
  5
4B
330
1F
100
AcDbEntity
  8
0
  6
SLD-Solid
 62
     7
370
    15
100
AcDbSpline
210
0.0
220
0.0
230
1.0
 70
     8
 71
     3
 72
    11
 73
     7
 74
     0
 42
0.00000001
 43
0.00000001
 40
0.0
 40
0.0
 40
0.0
 40
0.0
 40
0.0925535171470124
 40
0.4249799083404825
 40
0.7579032427928385
 40
0.9999999999999999
 40
0.9999999999999999
 40
0.9999999999999999
 40
0.9999999999999999
 10
145.8948840011122
 20
-103.0086284240885
 30
0.0
 10
146.1220770993824
 20
-102.996651073666
 30
0.0
 10
147.16528437075
 20
-102.9416544247903
 30
0.0
 10
148.955603474464
 20
-102.7449668511515
 30
0.0
 10
151.0212590593932
 20
-102.4549636102153
 30
0.0
 10
152.2328208398455
 20
-102.213536892346
 30
0.0
 10
152.7429163694768
 20
-102.1118906605931
 30
0.0
  0
SPLINE
  5
4C
330
1F
100
AcDbEntity
  8
0
  6
SLD-Solid
 62
     7
370
    15
100
AcDbSpline
210
0.0
220
0.0
230
1.0
 70
     8
 71
     3
 72
    10
 73
     6
 74
     0
 42
0.00000001
 43
0.00000001
 40
0.0
 40
0.0
 40
0.0
 40
0.0
 40
0.2502355006436203
 40
0.7279697107284046
 40
1.0
 40
1.0
 40
1.0
 40
1.0
 10
131.0602138631695
 20
-102.1118906605931
 30
0.0
 10
131.4274963271986
 20
-102.1856800145096
 30
0.0
 10
132.4959718568782
 20
-102.4003434594936
 30
0.0
 10
134.0547972211522
 20
-102.6508528975286
 30
0.0
 10
135.2968097305763
 20
-102.7766772718849
 30
0.0
 10
135.7474379245062
 20
-102.8223289945031
 30
0.0
  0
SPLINE
  5
4D
330
1F
100
AcDbEntity
  8
0
  6
SLD-Solid
 62
     7
370
    15
100
AcDbSpline
210
0.0
220
0.0
230
1.0
 70
     8
 71
     3
 72
     9
 73
     5
 74
     0
 42
0.00000001
 43
0.00000001
 40
0.0
 40
0.0
 40
0.0
 40
0.0
 40
0.7251810361219726
 40
1.0
 40
1.0
 40
1.0
 40
1.0
 10
153.5240294389301
 20
-101.296662498902
 30
0.0
 10
153.9039869528608
 20
-99.04635216729146
 30
0.0
 10
154.4279354498633
 20
-95.94325070776554
 30
0.0
 10
155.0985916345693
 20
-92.78613976214196
 30
0.0
 10
155.2829006723686
 20
-91.9185058032177
 30
0.0
  0
LINE
  5
4E
330
1F
100
AcDbEntity
  8
0
  6
SLD-Solid
 62
     7
370
    15
100
AcDbLine
 10
130.1593176547
 20
-100.7429319037
 30
0.0
 11
130.248698552
 21
-101.2835888452
 31
0.0
  0
SPLINE
  5
4F
330
1F
100
AcDbEntity
  8
0
  6
SLD-Solid
 62
     7
370
    15
100
AcDbSpline
210
0.0
220
0.0
230
1.0
 70
     8
 71
     3
 72
     9
 73
     5
 74
     0
 42
0.00000001
 43
0.00000001
 40
0.0
 40
0.0
 40
0.0
 40
0.0
 40
0.6448772260966631
 40
1.0
 40
1.0
 40
1.0
 40
1.0
 10
128.5196064326652
 20
-91.91850580321776
 30
0.0
 10
128.9159737777903
 20
-93.8338297316078
 30
0.0
 10
129.5306137884544
 20
-96.80388953660845
 30
0.0
 10
129.9945598443823
 20
-99.71066849637405
 30
0.0
 10
130.1593176547048
 20
-100.7429319036899
 30
0.0
  0
LINE
  5
50
330
1F
100
AcDbEntity
  8
0
  6
SLD-Solid
 62
     7
370
    15
100
AcDbLine
 10
-14.3984348837
 20
-91.9185058032
 30
0.0
 11
883.2015651163
 21
-91.9185058032
 31
0.0
  0
LINE
  5
51
330
1F
100
AcDbEntity
  8
0
  6
SLD-Solid
 62
     7
370
    15
100
AcDbLine
 10
-15.5984348837
 20
-90.6185058032
 30
0.0
 11
-14.3984348837
 21
-90.6185058032
 31
0.0
  0
LINE
  5
52
330
1F
100
AcDbEntity
  8
0
  6
SLD-Solid
 62
     7
370
    15
100
AcDbLine
 10
883.2015651163
 20
-90.6185058032
 30
0.0
 11
884.4015651163
 21
-90.6185058032
 31
0.0
  0
LINE
  5
53
330
1F
100
AcDbEntity
  8
0
  6
SLD-Solid
 62
     7
370
    15
100
AcDbLine
 10
-15.5984348837
 20
-110.0593452437
 30
0.0
 11
884.4015651163
 21
-110.0593452437
 31
0.0
  0
LINE
  5
54
330
1F
100
AcDbEntity
  8
0
  6
SLD-Solid
 62
     7
370
    15
100
AcDbLine
 10
209.561871344
 20
-110.0593452437
 30
0.0
 11
213.7966241367
 21
-129.483182455
 31
0.0
  0
SPLINE
  5
55
330
1F
100
AcDbEntity
  8
0
  6
SLD-Solid
 62
     7
370
    15
100
AcDbSpline
210
0.0
220
0.0
230
1.0
 70
     8
 71
     3
 72
    14
 73
    10
 74
     0
 42
0.00000001
 43
0.00000001
 40
0.0
 40
0.0
 40
0.0
 40
0.0
 40
0.0819099345891166
 40
0.2358998983332563
 40
0.389890521496862
 40
0.5438811446682441
 40
0.6978717678395985
 40
0.8518623910109159
 40
1.0
 40
1.0
 40
1.0
 40
1.0
 10
219.7648373326337
 20
-134.9376639050331
 30
0.0
 10
224.4077479798005
 20
-135.5109294789268
 30
0.0
 10
237.7792902125119
 20
-137.1619293396623
 30
0.0
 10
259.9086085545896
 20
-139.64946280159
 30
0.0
 10
286.1605744558043
 20
-142.2983166717168
 30
0.0
 10
312.4428506745755
 20
-144.6300203152652
 30
0.0
 10
338.7512842135487
 20
-146.6421002054795
 30
0.0
 10
364.7473841118061
 20
-148.3392450537943
 30
0.0
 10
381.9812669917072
 20
-149.2078862858516
 30
0.0
 10
390.4312757352498
 20
-149.6337929754257
 30
0.0
  0
LINE
  5
56
330
1F
100
AcDbEntity
  8
0
  6
SLD-Solid
 62
     7
370
    15
100
AcDbLine
 10
397.6044291905
 20
-144.1106822676
 30
0.0
 11
404.9138784917
 21
-110.0593452437
 31
0.0
  0
SPLINE
  5
57
330
1F
100
AcDbEntity
  8
0
  6
SLD-Solid
 62
     7
370
    15
100
AcDbSpline
210
0.0
220
0.0
230
1.0
 70
     8
 71
     3
 72
    15
 73
    11
 74
     0
 42
0.00000001
 43
0.00000001
 40
0.0
 40
0.0
 40
0.0
 40
0.0
 40
0.0335901279329185
 40
0.1846274129412898
 40
0.3359340611057225
 40
0.4872417244125063
 40
0.6385493897437178
 40
0.7898570532296699
 40
0.9411647151438404
 40
1.0
 40
1.0
 40
1.0
 40
1.0
 10
390.4312757352498
 20
-149.6337929754263
 30
0.0
 10
390.5412578942846
 20
-149.6373309100943
 30
0.0
 10
391.1457724568027
 20
-149.6567770916089
 30
0.0
 10
392.2496485299256
 20
-149.534109194577
 30
0.0
 10
393.6710242990603
 20
-149.0663200558064
 30
0.0
 10
394.9622753789228
 20
-148.3060482143402
 30
0.0
 10
396.0646845879565
 20
-147.2908591000679
 30
0.0
 10
396.9242923309923
 20
-146.0653730339849
 30
0.0
 10
397.3976522059949
 20
-144.9675405669218
 30
0.0
 10
397.5591995720862
 20
-144.2981082233084
 30
0.0
 10
397.6044291905331
 20
-144.1106822676256
 30
0.0
  0
SPLINE
  5
58
330
1F
100
AcDbEntity
  8
0
  6
SLD-Solid
 62
     7
370
    15
100
AcDbSpline
210
0.0
220
0.0
230
1.0
 70
     8
 71
     3
 72
    14
 73
    10
 74
     0
 42
0.00000001
 43
0.00000001
 40
0.0
 40
0.0
 40
0.0
 40
0.0
 40
0.0383625118853687
 40
0.210858718151756
 40
0.3836625602079179
 40
0.5564675652322489
 40
0.7292725766644387
 40
0.9020775898517159
 40
1.0
 40
1.0
 40
1.0
 40
1.0
 10
213.7966241366542
 20
-129.4831824549759
 30
0.0
 10
213.8216600307768
 20
-129.5903351447186
 30
0.0
 10
213.9592692821797
 20
-130.1792975899616
 30
0.0
 10
214.3633421430445
 20
-131.2139276563816
 30
0.0
 10
215.1829347610111
 20
-132.4655816962895
 30
0.0
 10
216.2513573956751
 20
-133.5173292989007
 30
0.0
 10
217.5172782098656
 20
-134.3152954757542
 30
0.0
 10
218.7200306400861
 20
-134.7680942181955
 30
0.0
 10
219.4873111270569
 20
-134.8926220498228
 30
0.0
 10
219.7648373326338
 20
-134.9376639050336
 30
0.0
  0
SPLINE
  5
59
330
1F
100
AcDbEntity
  8
0
  6
SLD-Solid
 62
     7
370
    15
100
AcDbSpline
210
0.0
220
0.0
230
1.0
 70
     8
 71
     3
 72
    14
 73
    10
 74
     0
 42
0.00000001
 43
0.00000001
 40
0.0
 40
0.0
 40
0.0
 40
0.0
 40
0.0349574135448684
 40
0.2179793581892537
 40
0.4013321343490374
 40
0.5846861565023319
 40
0.7680401803816409
 40
0.9513942014001663
 40
1.0
 40
1.0
 40
1.0
 40
1.0
 10
237.9834080247824
 20
-114.9921451621076
 30
0.0
 10
237.8897034147952
 20
-114.9799197499775
 30
0.0
 10
237.3054018697683
 20
-114.903687351196
 30
0.0
 10
236.2492216472934
 20
-114.6144257986173
 30
0.0
 10
234.919494423037
 20
-113.9294209136275
 30
0.0
 10
233.7602069856703
 20
-112.9771266919729
 30
0.0
 10
232.8416233279342
 20
-111.7990190543508
 30
0.0
 10
232.3138084842498
 20
-110.7913940883225
 30
0.0
 10
232.1482431423108
 20
-110.1861669795319
 30
0.0
 10
232.1135499110493
 20
-110.0593452437441
 30
0.0
  0
LINE
  5
5A
330
1F
100
AcDbEntity
  8
0
  6
SLD-Solid
 62
     7
370
    15
100
AcDbLine
 10
382.4328581578
 20
-110.0593452437
 30
0.0
 11
380.0191709546
 21
-121.303595397
 31
0.0
  0
SPLINE
  5
5B
330
1F
100
AcDbEntity
  8
0
  6
SLD-Solid
 62
     7
370
    15
100
AcDbSpline
210
0.0
220
0.0
230
1.0
 70
     8
 71
     3
 72
    11
 73
     7
 74
     0
 42
0.00000001
 43
0.00000001
 40
0.0
 40
0.0
 40
0.0
 40
0.0
 40
0.270672889334505
 40
0.5972761992793248
 40
0.9114942371262901
 40
1.0
 40
1.0
 40
1.0
 40
1.0
 10
588.8470181454003
 20
-96.05674027315236
 30
0.0
 10
588.8763546322917
 20
-95.7147913430741
 30
0.0
 10
588.9410895432529
 20
-94.96023495655554
 30
0.0
 10
589.4202477284156
 20
-93.77903979077357
 30
0.0
 10
590.0218402734731
 20
-92.81014124691971
 30
0.0
 10
590.4590693156313
 20
-92.27025849136844
 30
0.0
 10
590.5551582228612
 20
-92.15160959339686
 30
0.0
  0
SPLINE
  5
5C
330
1F
100
AcDbEntity
  8
0
  6
SLD-Solid
 62
     7
370
    15
100
AcDbSpline
210
0.0
220
0.0
230
1.0
 70
     8
 71
     3
 72
    12
 73
     8
 74
     0
 42
0.00000001
 43
0.00000001
 40
0.0
 40
0.0
 40
0.0
 40
0.0
 40
0.1457385529867544
 40
0.4224065763362697
 40
0.7025645190517147
 40
0.9915723830908247
 40
1.0
 40
1.0
 40
1.0
 40
1.0
 10
567.7479720097818
 20
-92.1516095933968
 30
0.0
 10
567.9169205702267
 20
-92.3649192476933
 30
0.0
 10
568.406598706395
 20
-92.98317295561282
 30
0.0
 10
568.9940763246616
 20
-93.9978664201942
 30
0.0
 10
569.3829006459998
 20
-95.1904556381259
 30
0.0
 10
569.5392139828544
 20
-95.98384230794377
 30
0.0
 10
569.4822189190653
 20
-96.39594331230006
 30
0.0
 10
569.4806040055996
 20
-96.40761989298757
 30
0.0
  0
SPLINE
  5
5D
330
1F
100
AcDbEntity
  8
0
  6
SLD-Solid
 62
     7
370
    15
100
AcDbSpline
210
0.0
220
0.0
230
1.0
 70
     8
 71
     3
 72
    11
 73
     7
 74
     0
 42
0.00000001
 43
0.00000001
 40
0.0
 40
0.0
 40
0.0
 40
0.0
 40
0.0925535171471758
 40
0.4249799083407231
 40
0.7579032427930275
 40
1.0
 40
1.0
 40
1.0
 40
1.0
 10
583.1448840011104
 20
-103.0086284240837
 30
0.0
 10
583.3720770993809
 20
-102.9966510736611
 30
0.0
 10
584.4152843707493
 20
-102.9416544247855
 30
0.0
 10
586.2056034744636
 20
-102.7449668511466
 30
0.0
 10
588.2712590593925
 20
-102.4549636102102
 30
0.0
 10
589.4828208398444
 20
-102.213536892341
 30
0.0
 10
589.9929163694752
 20
-102.1118906605883
 30
0.0
  0
SPLINE
  5
5E
330
1F
100
AcDbEntity
  8
0
  6
SLD-Solid
 62
     7
370
    15
100
AcDbSpline
210
0.0
220
0.0
230
1.0
 70
     8
 71
     3
 72
    10
 73
     6
 74
     0
 42
0.00000001
 43
0.00000001
 40
0.0
 40
0.0
 40
0.0
 40
0.0
 40
0.250235500643623
 40
0.7279697107284244
 40
1.0
 40
1.0
 40
1.0
 40
1.0
 10
568.3102138631679
 20
-102.1118906605882
 30
0.0
 10
568.6774963271969
 20
-102.1856800145047
 30
0.0
 10
569.7459718568766
 20
-102.4003434594888
 30
0.0
 10
571.3047972211505
 20
-102.6508528975239
 30
0.0
 10
572.5468097305748
 20
-102.77667727188
 30
0.0
 10
572.9974379245044
 20
-102.8223289944982
 30
0.0
  0
LINE
  5
5F
330
1F
100
AcDbEntity
  8
0
  6
SLD-Solid
 62
     7
370
    15
100
AcDbLine
 10
567.4093176547
 20
-100.7429319037
 30
0.0
 11
567.498698552
 21
-101.2835888452
 31
0.0
  0
SPLINE
  5
60
330
1F
100
AcDbEntity
  8
0
  6
SLD-Solid
 62
     7
370
    15
100
AcDbSpline
210
0.0
220
0.0
230
1.0
 70
     8
 71
     3
 72
     9
 73
     5
 74
     0
 42
0.00000001
 43
0.00000001
 40
0.0
 40
0.0
 40
0.0
 40
0.0
 40
0.644877226098154
 40
0.9999999999999999
 40
0.9999999999999999
 40
0.9999999999999999
 40
0.9999999999999999
 10
565.7696064326647
 20
-91.91850580321781
 30
0.0
 10
566.1659737777904
 20
-93.83382973161092
 30
0.0
 10
566.7806137884542
 20
-96.80388953660973
 30
0.0
 10
567.2445598443815
 20
-99.71066849637344
 30
0.0
 10
567.4093176547033
 20
-100.7429319036843
 30
0.0
  0
SPLINE
  5
61
330
1F
100
AcDbEntity
  8
0
  6
SLD-Solid
 62
     7
370
    15
100
AcDbSpline
210
0.0
220
0.0
230
1.0
 70
     8
 71
     3
 72
     9
 73
     5
 74
     0
 42
0.00000001
 43
0.00000001
 40
0.0
 40
0.0
 40
0.0
 40
0.0
 40
0.7251810361224268
 40
1.0
 40
1.0
 40
1.0
 40
1.0
 10
590.7740294389286
 20
-101.2966624988971
 30
0.0
 10
591.1539869528593
 20
-99.04635216728636
 30
0.0
 10
591.6779354498616
 20
-95.94325070776199
 30
0.0
 10
592.348591634567
 20
-92.78613976214007
 30
0.0
 10
592.5329006723658
 20
-91.91850580321776
 30
0.0
  0
SPLINE
  5
62
330
1F
100
AcDbEntity
  8
0
  6
SLD-Solid
 62
     7
370
    15
100
AcDbSpline
210
0.0
220
0.0
230
1.0
 70
     8
 71
     3
 72
    11
 73
     7
 74
     0
 42
0.00000001
 43
0.00000001
 40
0.0
 40
0.0
 40
0.0
 40
0.0
 40
0.2706728893346069
 40
0.5972761992794177
 40
0.9114942371264437
 40
1.0
 40
1.0
 40
1.0
 40
1.0
 10
734.5970181454019
 20
-96.05674027315708
 30
0.0
 10
734.6263546322933
 20
-95.7147913430787
 30
0.0
 10
734.6910895432546
 20
-94.9602349565602
 30
0.0
 10
735.1702477284176
 20
-93.77903979077806
 30
0.0
 10
735.7718402734749
 20
-92.81014124692433
 30
0.0
 10
736.209069315633
 20
-92.27025849137333
 30
0.0
 10
736.3051582228628
 20
-92.15160959340196
 30
0.0
  0
SPLINE
  5
63
330
1F
100
AcDbEntity
  8
0
  6
SLD-Solid
 62
     7
370
    15
100
AcDbSpline
210
0.0
220
0.0
230
1.0
 70
     8
 71
     3
 72
    12
 73
     8
 74
     0
 42
0.00000001
 43
0.00000001
 40
0.0
 40
0.0
 40
0.0
 40
0.0
 40
0.1457385529867322
 40
0.4224065763362274
 40
0.7025645190516158
 40
0.9915723830906961
 40
1.0
 40
1.0
 40
1.0
 40
1.0
 10
713.4979720097834
 20
-92.1516095934019
 30
0.0
 10
713.6669205702282
 20
-92.36491924769847
 30
0.0
 10
714.1565987063966
 20
-92.98317295561814
 30
0.0
 10
714.7440763246632
 20
-93.99786642019914
 30
0.0
 10
715.1329006460014
 20
-95.19045563813106
 30
0.0
 10
715.2892139828562
 20
-95.98384230794932
 30
0.0
 10
715.2322189190668
 20
-96.39594331230577
 30
0.0
 10
715.2306040056011
 20
-96.40761989299335
 30
0.0
  0
ARC
  5
64
330
1F
100
AcDbEntity
  8
0
  6
SLD-Solid
 62
     7
370
    15
100
AcDbCircle
 10
735.5363683767
 20
-101.1334541901
 30
0.0
 40
1.000000000000072
100
AcDbArc
 50
281.9201320981
 51
350.5845175717
  0
SPLINE
  5
65
330
1F
100
AcDbEntity
  8
0
  6
SLD-Solid
 62
     7
370
    15
100
AcDbSpline
210
0.0
220
0.0
230
1.0
 70
     8
 71
     3
 72
    11
 73
     7
 74
     0
 42
0.00000001
 43
0.00000001
 40
0.0
 40
0.0
 40
0.0
 40
0.0
 40
0.0925535171469186
 40
0.4249799083405191
 40
0.7579032427927592
 40
1.0
 40
1.0
 40
1.0
 40
1.0
 10
728.8948840011119
 20
-103.0086284240889
 30
0.0
 10
729.1220770993818
 20
-102.9966510736663
 30
0.0
 10
730.1652843707498
 20
-102.9416544247905
 30
0.0
 10
731.9556034744634
 20
-102.7449668511523
 30
0.0
 10
734.021259059393
 20
-102.4549636102157
 30
0.0
 10
735.2328208398453
 20
-102.2135368923462
 30
0.0
 10
735.7429163694769
 20
-102.1118906605934
 30
0.0
  0
SPLINE
  5
66
330
1F
100
AcDbEntity
  8
0
  6
SLD-Solid
 62
     7
370
    15
100
AcDbSpline
210
0.0
220
0.0
230
1.0
 70
     8
 71
     3
 72
    10
 73
     6
 74
     0
 42
0.00000001
 43
0.00000001
 40
0.0
 40
0.0
 40
0.0
 40
0.0
 40
0.2502355006436259
 40
0.7279697107284072
 40
1.0
 40
1.0
 40
1.0
 40
1.0
 10
714.0602138631696
 20
-102.1118906605934
 30
0.0
 10
714.4274963271986
 20
-102.1856800145099
 30
0.0
 10
715.4959718568782
 20
-102.4003434594938
 30
0.0
 10
717.0547972211521
 20
-102.6508528975291
 30
0.0
 10
718.2968097305763
 20
-102.7766772718853
 30
0.0
 10
718.747437924506
 20
-102.8223289945034
 30
0.0
  0
SPLINE
  5
67
330
1F
100
AcDbEntity
  8
0
  6
SLD-Solid
 62
     7
370
    15
100
AcDbSpline
210
0.0
220
0.0
230
1.0
 70
     8
 71
     3
 72
     9
 73
     5
 74
     0
 42
0.00000001
 43
0.00000001
 40
0.0
 40
0.0
 40
0.0
 40
0.0
 40
0.725181036121664
 40
1.0
 40
1.0
 40
1.0
 40
1.0
 10
736.5240294389301
 20
-101.2966624989024
 30
0.0
 10
736.9039869528608
 20
-99.04635216729274
 30
0.0
 10
737.4279354498633
 20
-95.94325070776665
 30
0.0
 10
738.0985916345692
 20
-92.78613976214295
 30
0.0
 10
738.2829006723686
 20
-91.9185058032177
 30
0.0
  0
LINE
  5
68
330
1F
100
AcDbEntity
  8
0
  6
SLD-Solid
 62
     7
370
    15
100
AcDbLine
 10
713.1593176547
 20
-100.7429319037
 30
0.0
 11
713.248698552
 21
-101.2835888452
 31
0.0
  0
SPLINE
  5
69
330
1F
100
AcDbEntity
  8
0
  6
SLD-Solid
 62
     7
370
    15
100
AcDbSpline
210
0.0
220
0.0
230
1.0
 70
     8
 71
     3
 72
     9
 73
     5
 74
     0
 42
0.00000001
 43
0.00000001
 40
0.0
 40
0.0
 40
0.0
 40
0.0
 40
0.6448772260972943
 40
1.0
 40
1.0
 40
1.0
 40
1.0
 10
711.5196064326652
 20
-91.9185058032177
 30
0.0
 10
711.9159737777907
 20
-93.83382973160964
 30
0.0
 10
712.5306137884548
 20
-96.80388953661011
 30
0.0
 10
712.9945598443826
 20
-99.71066849637566
 30
0.0
 10
713.1593176547048
 20
-100.7429319036896
 30
0.0
  0
LINE
  5
6A
330
1F
100
AcDbEntity
  8
0
  6
SLD-Solid
 62
     7
370
    15
100
AcDbLine
 10
784.4015651163
 20
675.8483026952
 30
0.0
 11
784.4015651163
 21
678.1976046106
 31
0.0
  0
ARC
  5
6B
330
1F
100
AcDbEntity
  8
0
  6
SLD-Solid
 62
     7
370
    15
100
AcDbCircle
 10
175.9515651163
 20
687.0983026953
 30
0.0
 40
0.25
100
AcDbArc
 50
90.0
 51
180.0
  0
LINE
  5
6C
330
1F
100
AcDbEntity
  8
0
  6
SLD-Solid
 62
     7
370
    15
100
AcDbLine
 10
175.7015651163
 20
687.0983026953
 30
0.0
 11
175.7015651163
 21
686.8576805184
 31
0.0
  0
LINE
  5
6D
330
1F
100
AcDbEntity
  8
0
  6
SLD-Solid
 62
     7
370
    15
100
AcDbLine
 10
757.9015651163
 20
678.1976046106
 30
0.0
 11
757.9015651163
 21
675.8483026952
 31
0.0
  0
LINE
  5
6E
330
1F
100
AcDbEntity
  8
0
  6
SLD-Solid
 62
     7
370
    15
100
AcDbLine
 10
757.9015651163
 20
668.4380945213
 30
0.0
 11
757.9015651163
 21
667.6483026953
 31
0.0
  0
LINE
  5
6F
330
1F
100
AcDbEntity
  8
0
  6
SLD-Solid
 62
     7
370
    15
100
AcDbLine
 10
782.9015651163
 20
675.8483026952
 30
0.0
 11
782.9015651163
 21
678.1976046106
 31
0.0
  0
LINE
  5
70
330
1F
100
AcDbEntity
  8
0
  6
SLD-Solid
 62
     7
370
    15
100
AcDbLine
 10
655.1065062366
 20
-129.4831824648
 30
0.0
 11
659.3412590358
 21
-110.0593452437
 31
0.0
  0
ARC
  5
71
330
1F
100
AcDbEntity
  8
0
  6
SLD-Solid
 62
     7
370
    15
100
AcDbCircle
 10
374.869249814
 20
2051.8297453044
 30
0.0
 40
2203.900000016601
100
AcDbArc
 50
272.6943964884
 51
277.1488297193
  0
LINE
  5
72
330
1F
100
AcDbEntity
  8
0
  6
SLD-Solid
 62
     7
370
    15
100
AcDbLine
 10
463.9892517784
 20
-110.0593452437
 30
0.0
 11
471.2987010892
 21
-144.1106822773
 31
0.0
  0
ARC
  5
73
330
1F
100
AcDbEntity
  8
0
  6
SLD-Solid
 62
     7
370
    15
100
AcDbCircle
 10
478.142793182
 20
-142.6415316187
 30
0.0
 40
7.000000016603496
100
AcDbArc
 50
192.1152418025
 51
270.0
  0
ARC
  5
74
330
1F
100
AcDbEntity
  8
0
  6
SLD-Solid
 62
     7
370
    15
100
AcDbCircle
 10
478.142793182
 20
-142.6415316187
 30
0.0
 40
7.000000016603424
100
AcDbArc
 50
270.0
 51
272.6943964884
  0
ARC
  5
75
330
1F
100
AcDbEntity
  8
0
  6
SLD-Solid
 62
     7
370
    15
100
AcDbCircle
 10
648.267163117
 20
-127.9920802129
 30
0.0
 40
7.000000016602919
100
AcDbArc
 50
277.1488297193
 51
347.7009253301
  0
ARC
  5
76
330
1F
100
AcDbEntity
  8
0
  6
SLD-Solid
 62
     7
370
    15
100
AcDbCircle
 10
495.7280510386
 20
-119.8344447928
 30
0.0
 40
6.999999710807622
100
AcDbArc
 50
192.1152418025
 51
273.335403964
  0
ARC
  5
77
330
1F
100
AcDbEntity
  8
0
  6
SLD-Solid
 62
     7
370
    15
100
AcDbCircle
 10
630.1033986932
 20
-108.0399072783
 30
0.0
 40
6.999999710807625
100
AcDbArc
 50
276.6969388637
 51
343.2323550902
  0
LINE
  5
78
330
1F
100
AcDbEntity
  8
0
  6
SLD-Solid
 62
     7
370
    15
100
AcDbLine
 10
488.8839592448
 20
-121.3035953873
 30
0.0
 11
486.4702720412
 21
-110.0593452437
 31
0.0
  0
ARC
  5
79
330
1F
100
AcDbEntity
  8
0
  6
SLD-Solid
 62
   142
420
    32960
370
     0
100
AcDbCircle
 10
187.76251694
 20
691.4983026953
 30
0.0
 40
0.2500000000001137
100
AcDbArc
 50
90.0
 51
180.0
  0
SPLINE
  5
7A
330
1F
100
AcDbEntity
  8
0
  6
SLD-Solid
 62
     7
370
    15
100
AcDbSpline
210
0.0
220
0.0
230
1.0
 70
     8
 71
     3
 72
    11
 73
     7
 74
     0
 42
0.00000001
 43
0.00000001
 40
0.0
 40
0.0
 40
0.0
 40
0.0
 40
0.2706728893345464
 40
0.5972761992793767
 40
0.9114942371263365
 40
1.0
 40
1.0
 40
1.0
 40
1.0
 10
443.0970181454019
 20
-96.05674027315719
 30
0.0
 10
443.1263546322933
 20
-95.71479134307882
 30
0.0
 10
443.1910895432546
 20
-94.96023495656014
 30
0.0
 10
443.6702477284173
 20
-93.77903979077828
 30
0.0
 10
444.2718402734749
 20
-92.81014124692433
 30
0.0
 10
444.7090693156329
 20
-92.27025849137327
 30
0.0
 10
444.8051582228628
 20
-92.15160959340174
 30
0.0
  0
SPLINE
  5
7B
330
1F
100
AcDbEntity
  8
0
  6
SLD-Solid
 62
     7
370
    15
100
AcDbSpline
210
0.0
220
0.0
230
1.0
 70
     8
 71
     3
 72
    12
 73
     8
 74
     0
 42
0.00000001
 43
0.00000001
 40
0.0
 40
0.0
 40
0.0
 40
0.0
 40
0.1457385529867413
 40
0.4224065763362119
 40
0.7025645190516456
 40
0.9915723830907167
 40
1.0
 40
1.0
 40
1.0
 40
1.0
 10
421.9979720097835
 20
-92.15160959340169
 30
0.0
 10
422.1669205702282
 20
-92.36491924769824
 30
0.0
 10
422.6565987063966
 20
-92.98317295561765
 30
0.0
 10
423.2440763246631
 20
-93.99786642019909
 30
0.0
 10
423.6329006460016
 20
-95.19045563813044
 30
0.0
 10
423.7892139828558
 20
-95.98384230794926
 30
0.0
 10
423.7322189190668
 20
-96.39594331230528
 30
0.0
 10
423.7306040056012
 20
-96.4076198929929
 30
0.0
  0
SPLINE
  5
7C
330
1F
100
AcDbEntity
  8
0
  6
SLD-Solid
 62
     7
370
    15
100
AcDbSpline
210
0.0
220
0.0
230
1.0
 70
     8
 71
     3
 72
    11
 73
     7
 74
     0
 42
0.00000001
 43
0.00000001
 40
0.0
 40
0.0
 40
0.0
 40
0.0
 40
0.0925535171469296
 40
0.424979908340426
 40
0.757903242792701
 40
1.0
 40
1.0
 40
1.0
 40
1.0
 10
437.3948840011126
 20
-103.0086284240886
 30
0.0
 10
437.6220770993825
 20
-102.9966510736661
 30
0.0
 10
438.6652843707501
 20
-102.9416544247904
 30
0.0
 10
440.4556034744634
 20
-102.7449668511519
 30
0.0
 10
442.5212590593928
 20
-102.4549636102154
 30
0.0
 10
443.7328208398453
 20
-102.213536892346
 30
0.0
 10
444.2429163694769
 20
-102.1118906605932
 30
0.0
  0
SPLINE
  5
7D
330
1F
100
AcDbEntity
  8
0
  6
SLD-Solid
 62
     7
370
    15
100
AcDbSpline
210
0.0
220
0.0
230
1.0
 70
     8
 71
     3
 72
    10
 73
     6
 74
     0
 42
0.00000001
 43
0.00000001
 40
0.0
 40
0.0
 40
0.0
 40
0.0
 40
0.2502355006436263
 40
0.7279697107284083
 40
1.0
 40
1.0
 40
1.0
 40
1.0
 10
422.5602138631695
 20
-102.1118906605932
 30
0.0
 10
422.9274963271986
 20
-102.1856800145097
 30
0.0
 10
423.9959718568782
 20
-102.4003434594937
 30
0.0
 10
425.5547972211519
 20
-102.6508528975288
 30
0.0
 10
426.7968097305763
 20
-102.7766772718851
 30
0.0
 10
427.2474379245061
 20
-102.8223289945032
 30
0.0
  0
LINE
  5
7E
330
1F
100
AcDbEntity
  8
0
  6
SLD-Solid
 62
     7
370
    15
100
AcDbLine
 10
421.6593176547
 20
-100.7429319037
 30
0.0
 11
421.748698552
 21
-101.2835888452
 31
0.0
  0
SPLINE
  5
7F
330
1F
100
AcDbEntity
  8
0
  6
SLD-Solid
 62
     7
370
    15
100
AcDbSpline
210
0.0
220
0.0
230
1.0
 70
     8
 71
     3
 72
     9
 73
     5
 74
     0
 42
0.00000001
 43
0.00000001
 40
0.0
 40
0.0
 40
0.0
 40
0.0
 40
0.6448772260986532
 40
1.0
 40
1.0
 40
1.0
 40
1.0
 10
420.0196064326652
 20
-91.91850580321781
 30
0.0
 10
420.4159737777915
 20
-93.83382973161342
 30
0.0
 10
421.0306137884556
 20
-96.80388953661367
 30
0.0
 10
421.4945598443831
 20
-99.71066849637894
 30
0.0
 10
421.6593176547046
 20
-100.7429319036888
 30
0.0
  0
SPLINE
  5
80
330
1F
100
AcDbEntity
  8
0
  6
SLD-Solid
 62
     7
370
    15
100
AcDbSpline
210
0.0
220
0.0
230
1.0
 70
     8
 71
     3
 72
     9
 73
     5
 74
     0
 42
0.00000001
 43
0.00000001
 40
0.0
 40
0.0
 40
0.0
 40
0.0
 40
0.7251810361218155
 40
1.0
 40
1.0
 40
1.0
 40
1.0
 10
445.02402943893
 20
-101.2966624989022
 30
0.0
 10
445.4039869528607
 20
-99.04635216729207
 30
0.0
 10
445.9279354498633
 20
-95.94325070776615
 30
0.0
 10
446.5985916345692
 20
-92.78613976214251
 30
0.0
 10
446.7829006723686
 20
-91.91850580321776
 30
0.0
  0
ARC
  5
81
330
1F
100
AcDbEntity
  8
0
  6
SLD-Solid
 62
     7
370
    15
100
AcDbCircle
 10
192.8515651163
 20
685.1983026953
 30
0.0
 40
0.2500000000001137
100
AcDbArc
 50
270.0
 51
0.0
  0
LINE
  5
82
330
1F
100
AcDbEntity
  8
0
  6
SLD-Solid
 62
     7
370
    15
100
AcDbLine
 10
193.1015651163
 20
685.1983026953
 30
0.0
 11
193.1015651163
 21
685.8983026953
 31
0.0
  0
LINE
  5
83
330
1F
100
AcDbEntity
  8
0
  6
SLD-Solid
 62
   142
420
    32960
370
     0
100
AcDbLine
 10
11.4015651163
 20
26.3983026953
 30
0.0
 11
11.4015651163
 21
25.1483026953
 31
0.0
  0
LINE
  5
84
330
1F
100
AcDbEntity
  8
0
  6
SLD-Solid
 62
   142
420
    32960
370
     0
100
AcDbLine
 10
857.4015651163
 20
25.1483026953
 30
0.0
 11
857.4015651163
 21
26.3983026953
 31
0.0
  0
LINE
  5
85
330
1F
100
AcDbEntity
  8
0
  6
SLD-Solid
 62
   142
420
    32960
370
     0
100
AcDbLine
 10
482.8675086258
 20
666.3483026953
 30
0.0
 11
395.8508758441
 21
666.3483026953
 31
0.0
  0
LINE
  5
86
330
1F
100
AcDbEntity
  8
0
  6
SLD-Solid
 62
   142
420
    32960
370
     0
100
AcDbLine
 10
334.4015651163
 20
640.1778265677
 30
0.0
 11
334.4015651163
 21
666.3483026953
 31
0.0
  0
LINE
  5
87
330
1F
100
AcDbEntity
  8
0
  6
SLD-Solid
 62
   142
420
    32960
370
     0
100
AcDbLine
 10
334.4015651163
 20
666.3483026953
 30
0.0
 11
295.8508758441
 21
666.3483026953
 31
0.0
  0
LINE
  5
88
330
1F
100
AcDbEntity
  8
0
  6
SLD-Solid
 62
   142
420
    32960
370
     0
100
AcDbLine
 10
282.8675086258
 20
666.3483026953
 30
0.0
 11
249.4015651163
 21
666.3483026953
 31
0.0
  0
LINE
  5
89
330
1F
100
AcDbEntity
  8
0
  6
SLD-Solid
 62
   142
420
    32960
370
     0
100
AcDbLine
 10
249.4015651163
 20
666.3483026953
 30
0.0
 11
249.4015651163
 21
640.1778265677
 31
0.0
  0
ARC
  5
8A
330
1F
100
AcDbEntity
  8
0
  6
SLD-Solid
 62
   142
420
    32960
370
     0
100
AcDbCircle
 10
771.4015651163
 20
650.3483026953
 30
0.0
 40
10.50000000000012
100
AcDbArc
 50
31.9896441161
 51
255.607746137
  0
LINE
  5
8B
330
1F
100
AcDbEntity
  8
0
  6
SLD-Solid
 62
   142
420
    32960
370
     0
100
AcDbLine
 10
534.4015651163
 20
666.3483026953
 30
0.0
 11
534.4015651163
 21
640.1778265677
 31
0.0
  0
LINE
  5
8C
330
1F
100
AcDbEntity
  8
0
  6
SLD-Solid
 62
   142
420
    32960
370
     0
100
AcDbLine
 10
619.4015651163
 20
640.1778265677
 30
0.0
 11
619.4015651163
 21
666.3483026953
 31
0.0
  0
LINE
  5
8D
330
1F
100
AcDbEntity
  8
0
  6
SLD-Solid
 62
   142
420
    32960
370
     0
100
AcDbLine
 10
619.4015651163
 20
666.3483026953
 30
0.0
 11
595.8508758441
 21
666.3483026953
 31
0.0
  0
LINE
  5
8E
330
1F
100
AcDbEntity
  8
0
  6
SLD-Solid
 62
   142
420
    32960
370
     0
100
AcDbLine
 10
582.8675086258
 20
666.3483026953
 30
0.0
 11
534.4015651163
 21
666.3483026953
 31
0.0
  0
ARC
  5
8F
330
1F
100
AcDbEntity
  8
0
  6
SLD-Solid
 62
   142
420
    32960
370
     0
100
AcDbCircle
 10
851.4015651163
 20
650.3483026953
 30
0.0
 40
10.49999999999999
100
AcDbArc
 50
284.392253863
 51
255.607746137
  0
LINE
  5
90
330
1F
100
AcDbEntity
  8
0
  6
SLD-Solid
 62
   142
420
    32960
370
     0
100
AcDbLine
 10
842.3780461437
 20
44.8763495053
 30
0.0
 11
842.9015651163
 21
44.8483026953
 31
0.0
  0
ARC
  5
91
330
1F
100
AcDbEntity
  8
0
  6
SLD-Solid
 62
   142
420
    32960
370
     0
100
AcDbCircle
 10
25.9015651163
 20
49.7483026953
 30
0.0
 40
4.89999999999995
100
AcDbArc
 50
234.6748885533
 51
258.4070632827
  0
ARC
  5
92
330
1F
100
AcDbEntity
  8
0
  6
SLD-Solid
 62
   142
420
    32960
370
     0
100
AcDbCircle
 10
463.9015651163
 20
24.2483026953
 30
0.0
 40
2.20000000000001
100
AcDbArc
 50
24.147739917
 51
77.7612442321
  0
ARC
  5
93
330
1F
100
AcDbEntity
  8
0
  6
SLD-Solid
 62
   142
420
    32960
370
     0
100
AcDbCircle
 10
463.9015651163
 20
24.2483026953
 30
0.0
 40
2.199999999999995
100
AcDbArc
 50
102.2387557679
 51
155.852260083
  0
SPLINE
  5
94
330
1F
100
AcDbEntity
  8
0
  6
SLD-Solid
 62
   142
420
    32960
370
     0
100
AcDbSpline
210
0.0
220
0.0
230
1.0
 70
     8
 71
     3
 72
    14
 73
    10
 74
     0
 42
0.00000001
 43
0.00000001
 40
0.0
 40
0.0
 40
0.0
 40
0.0
 40
0.25
 40
0.25
 40
0.5
 40
0.5
 40
0.75
 40
0.75
 40
1.0
 40
1.0
 40
1.0
 40
1.0
 10
790.3515651163347
 20
746.1983026952687
 30
0.0
 10
790.6199094888289
 20
746.1977134396176
 30
0.0
 10
790.8881482792713
 20
746.1971241839667
 30
0.0
 10
791.383984026095
 20
746.1959456726646
 30
0.0
 10
791.6113858922834
 20
746.1953564170137
 30
0.0
 10
791.9908821432508
 20
746.1941779057116
 30
0.0
 10
792.1428272124609
 20
746.1935886500607
 30
0.0
 10
792.3482091035048
 20
746.1924101387586
 30
0.0
 10
792.4015651163347
 20
746.1918208831078
 30
0.0
 10
792.4015651163347
 20
746.1912316274568
 30
0.0
  0
LINE
  5
95
330
1F
100
AcDbEntity
  8
0
  6
SLD-Solid
 62
     7
370
    15
100
AcDbLine
 10
792.4015651163
 20
683.2483026953
 30
0.0
 11
792.4015651163
 21
746.1912316275
 31
0.0
  0
LINE
  5
96
330
1F
100
AcDbEntity
  8
0
  6
SLD-Solid
 62
   142
420
    32960
370
     0
100
AcDbLine
 10
792.4015651163
 20
683.2483026953
 30
0.0
 11
790.3515651163
 21
683.2483026953
 31
0.0
  0
SPLINE
  5
97
330
1F
100
AcDbEntity
  8
0
  6
SLD-Solid
 62
   142
420
    32960
370
     0
100
AcDbSpline
210
0.0
220
0.0
230
1.0
 70
    24
 71
     3
 72
     8
 73
     4
 74
     0
 42
0.00000001
 43
0.00000001
 40
0.0
 40
0.0
 40
0.0
 40
0.0
 40
1.0
 40
1.0
 40
1.0
 40
1.0
 10
790.3515651163347
 20
683.1242096012718
 30
0.0
 10
790.3515651163347
 20
683.1654929392827
 30
0.0
 10
790.3515651163347
 20
683.2068858218274
 30
0.0
 10
790.3515651163347
 20
683.2483121721307
 30
0.0
  0
SPLINE
  5
98
330
1F
100
AcDbEntity
  8
0
  6
SLD-Solid
 62
   142
420
    32960
370
     0
100
AcDbSpline
210
0.0
220
0.0
230
1.0
 70
    24
 71
     3
 72
     8
 73
     4
 74
     0
 42
0.00000001
 43
0.00000001
 40
0.0
 40
0.0
 40
0.0
 40
0.0
 40
1.0
 40
1.0
 40
1.0
 40
1.0
 10
385.4515651163348
 20
683.2483121721285
 30
0.0
 10
385.4515651163348
 20
683.2068858218261
 30
0.0
 10
385.4515651163348
 20
683.1654929392819
 30
0.0
 10
385.4515651163348
 20
683.1242096012718
 30
0.0
  0
LINE
  5
99
330
1F
100
AcDbEntity
  8
0
  6
SLD-Solid
 62
     7
370
    15
100
AcDbLine
 10
383.4015651163
 20
746.1912316275
 30
0.0
 11
383.4015651163
 21
683.2483026953
 31
0.0
  0
SPLINE
  5
9A
330
1F
100
AcDbEntity
  8
0
  6
SLD-Solid
 62
     7
370
    15
100
AcDbSpline
210
0.0
220
0.0
230
1.0
 70
     8
 71
     3
 72
    14
 73
    10
 74
     0
 42
0.00000001
 43
0.00000001
 40
0.0
 40
0.0
 40
0.0
 40
0.0
 40
0.25
 40
0.25
 40
0.5
 40
0.5
 40
0.75
 40
0.75
 40
1.0
 40
1.0
 40
1.0
 40
1.0
 10
383.4015651163347
 20
746.1912316274568
 30
0.0
 10
383.4015651163348
 20
746.1918208831078
 30
0.0
 10
383.4549211291647
 20
746.1924101387588
 30
0.0
 10
383.6603030202085
 20
746.1935886500607
 30
0.0
 10
383.8122480894185
 20
746.1941779057117
 30
0.0
 10
384.1917443403861
 20
746.1953564170136
 30
0.0
 10
384.4191462065743
 20
746.1959456726648
 30
0.0
 10
384.9149819533982
 20
746.1971241839668
 30
0.0
 10
385.1832207438406
 20
746.1977134396177
 30
0.0
 10
385.4515651163347
 20
746.1983026952688
 30
0.0
  0
LINE
  5
9B
330
1F
100
AcDbEntity
  8
0
  6
SLD-Solid
 62
   142
420
    32960
370
     0
100
AcDbLine
 10
385.4515651163
 20
683.2483026953
 30
0.0
 11
383.4015651163
 21
683.2483026953
 31
0.0
  0
ARC
  5
9C
330
1F
100
AcDbEntity
  8
0
  6
SLD-Solid
 62
     7
370
    15
100
AcDbCircle
 10
395.4015651163
 20
711.9983026953
 30
0.0
 40
3.199999999999989
100
AcDbArc
 50
180.0
 51
0.0
  0
ARC
  5
9D
330
1F
100
AcDbEntity
  8
0
  6
SLD-Solid
 62
   142
420
    32960
370
     0
100
AcDbCircle
 10
780.4015651163
 20
711.9983026953
 30
0.0
 40
3.200000000000045
100
AcDbArc
 50
180.0
 51
0.0
  0
LINE
  5
9E
330
1F
100
AcDbEntity
  8
0
  6
SLD-Solid
 62
   142
420
    32960
370
     0
100
AcDbLine
 10
777.2015651163
 20
711.9983026953
 30
0.0
 11
777.2015651163
 21
718.2983026953
 31
0.0
  0
ARC
  5
9F
330
1F
100
AcDbEntity
  8
0
  6
SLD-Solid
 62
   142
420
    32960
370
     0
100
AcDbCircle
 10
780.4015651163
 20
718.2983026953
 30
0.0
 40
3.200000000000045
100
AcDbArc
 50
0.0
 51
180.0
  0
LINE
  5
A0
330
1F
100
AcDbEntity
  8
0
  6
SLD-Solid
 62
   142
420
    32960
370
     0
100
AcDbLine
 10
783.6015651163
 20
718.2983026953
 30
0.0
 11
783.6015651163
 21
711.9983026953
 31
0.0
  0
LINE
  5
A1
330
1F
100
AcDbEntity
  8
0
  6
SLD-Solid
 62
   142
420
    32960
370
     0
100
AcDbLine
 10
392.2015651163
 20
711.9983026953
 30
0.0
 11
392.2015651163
 21
718.2983026953
 31
0.0
  0
ARC
  5
A2
330
1F
100
AcDbEntity
  8
0
  6
SLD-Solid
 62
   142
420
    32960
370
     0
100
AcDbCircle
 10
395.4015651163
 20
718.2983026953
 30
0.0
 40
3.199999999999989
100
AcDbArc
 50
0.0
 51
180.0
  0
LINE
  5
A3
330
1F
100
AcDbEntity
  8
0
  6
SLD-Solid
 62
   142
420
    32960
370
     0
100
AcDbLine
 10
398.6015651163
 20
718.2983026953
 30
0.0
 11
398.6015651163
 21
711.9983026953
 31
0.0
  0
LINE
  5
A4
330
1F
100
AcDbEntity
  8
0
  6
SLD-Solid
 62
   142
420
    32960
370
     0
100
AcDbLine
 10
790.3515651163
 20
683.1242096013
 30
0.0
 11
790.3515651163
 21
678.1976046106
 31
0.0
  0
LINE
  5
A5
330
1F
100
AcDbEntity
  8
0
  6
SLD-Solid
 62
   142
420
    32960
370
     0
100
AcDbLine
 10
385.4515651163
 20
678.1976046106
 30
0.0
 11
385.4515651163
 21
683.1242096013
 31
0.0
  0
LINE
  5
A6
330
1F
100
AcDbEntity
  8
0
  6
SLD-Solid
 62
   142
420
    32960
370
     0
100
AcDbLine
 10
790.3515651163
 20
678.1976046106
 30
0.0
 11
385.4515651163
 21
678.1976046106
 31
0.0
  0
LINE
  5
A7
330
1F
100
AcDbEntity
  8
0
  6
SLD-Solid
 62
     7
370
    15
100
AcDbLine
 10
385.4515651163
 20
748.2483026953
 30
0.0
 11
790.3515651163
 21
748.2483026953
 31
0.0
  0
LINE
  5
A8
330
1F
100
AcDbEntity
  8
0
  6
SLD-Solid
 62
     7
370
    15
100
AcDbLine
 10
791.6015651163
 20
748.2483026953
 30
0.0
 11
791.6015651163
 21
746.1983026953
 31
0.0
  0
LINE
  5
A9
330
1F
100
AcDbEntity
  8
0
  6
SLD-Solid
 62
   142
420
    32960
370
     0
100
AcDbLine
 10
384.2015651163
 20
748.2483026953
 30
0.0
 11
385.4515651163
 21
748.2483026953
 31
0.0
  0
LINE
  5
AA
330
1F
100
AcDbEntity
  8
0
  6
SLD-Solid
 62
   142
420
    32960
370
     0
100
AcDbLine
 10
384.2015651163
 20
746.1983026953
 30
0.0
 11
384.2015651163
 21
748.2483026953
 31
0.0
  0
LINE
  5
AB
330
1F
100
AcDbEntity
  8
0
  6
SLD-Solid
 62
   142
420
    32960
370
     0
100
AcDbLine
 10
384.2015651163
 20
746.1983026953
 30
0.0
 11
385.4515651163
 21
746.1983026953
 31
0.0
  0
LINE
  5
AC
330
1F
100
AcDbEntity
  8
0
  6
SLD-Solid
 62
   142
420
    32960
370
     0
100
AcDbLine
 10
791.6015651163
 20
746.1983026953
 30
0.0
 11
790.3515651163
 21
746.1983026953
 31
0.0
  0
LINE
  5
AD
330
1F
100
AcDbEntity
  8
0
  6
SLD-Solid
 62
   142
420
    32960
370
     0
100
AcDbLine
 10
791.6015651163
 20
748.2483026953
 30
0.0
 11
790.3515651163
 21
748.2483026953
 31
0.0
  0
SPLINE
  5
AE
330
1F
100
AcDbEntity
  8
0
  6
SLD-Solid
 62
   142
420
    32960
370
     0
100
AcDbSpline
210
0.0
220
0.0
230
1.0
 70
     8
 71
     3
 72
    10
 73
     6
 74
     0
 42
0.00000001
 43
0.00000001
 40
0.0
 40
0.0
 40
0.0
 40
0.0
 40
0.4347688117987759
 40
0.8695376235975778
 40
1.0
 40
1.0
 40
1.0
 40
1.0
 10
792.4015651163346
 20
746.1983026952687
 30
0.0
 10
792.3683084060332
 20
746.4629893660109
 30
0.0
 10
792.3017949854305
 20
746.9923627074951
 30
0.0
 10
791.9664205030854
 20
747.5571886847081
 30
0.0
 10
791.6699859027564
 20
747.7392071513149
 30
0.0
 10
791.6015651163348
 20
747.7812192734312
 30
0.0
  0
SPLINE
  5
AF
330
1F
100
AcDbEntity
  8
0
  6
SLD-Solid
 62
   142
420
    32960
370
     0
100
AcDbSpline
210
0.0
220
0.0
230
1.0
 70
     8
 71
     3
 72
    10
 73
     6
 74
     0
 42
0.00000001
 43
0.00000001
 40
0.0
 40
0.0
 40
0.0
 40
0.0
 40
0.130462376402463
 40
0.5652311882012278
 40
1.0
 40
1.0
 40
1.0
 40
1.0
 10
384.2015651163348
 20
747.7812192734312
 30
0.0
 10
384.1331443299131
 20
747.7392071513149
 30
0.0
 10
383.8367097295841
 20
747.5571886847079
 30
0.0
 10
383.501335247239
 20
746.9923627074952
 30
0.0
 10
383.4348218266362
 20
746.4629893660109
 30
0.0
 10
383.4015651163348
 20
746.1983026952687
 30
0.0
  0
LINE
  5
B0
330
1F
100
AcDbEntity
  8
0
  6
SLD-Solid
 62
   142
420
    32960
370
     0
100
AcDbLine
 10
792.4015651163
 20
746.1912316275
 30
0.0
 11
792.4015651163
 21
746.1983026953
 31
0.0
  0
LINE
  5
B1
330
1F
100
AcDbEntity
  8
0
  6
SLD-Solid
 62
   142
420
    32960
370
     0
100
AcDbLine
 10
383.4015651163
 20
746.1983026953
 30
0.0
 11
383.4015651163
 21
746.1912316275
 31
0.0
  0
LINE
  5
B2
330
1F
100
AcDbEntity
  8
0
  6
SLD-Solid
 62
   142
420
    32960
370
     0
100
AcDbLine
 10
791.6015651163
 20
746.1983026953
 30
0.0
 11
792.4015651163
 21
746.1983026953
 31
0.0
  0
ARC
  5
B3
330
1F
100
AcDbEntity
  8
0
  6
SLD-Solid
 62
   142
420
    32960
370
     0
100
AcDbCircle
 10
780.4015651163
 20
714.8483026953
 30
0.0
 40
4.000000000000068
100
AcDbArc
 50
36.8698976456
 51
143.1301023539
  0
ARC
  5
B4
330
1F
100
AcDbEntity
  8
0
  6
SLD-Solid
 62
   142
420
    32960
370
     0
100
AcDbCircle
 10
780.4015651163
 20
714.8483026953
 30
0.0
 40
4.000000000000136
100
AcDbArc
 50
216.8698976461
 51
323.1301023544
  0
LINE
  5
B5
330
1F
100
AcDbEntity
  8
0
  6
SLD-Solid
 62
   142
420
    32960
370
     0
100
AcDbLine
 10
478.9015651163
 20
-91.9185058032
 30
0.0
 11
478.9015651163
 21
-93.9000448975
 31
0.0
  0
ARC
  5
B6
330
1F
100
AcDbEntity
  8
0
  6
SLD-Solid
 62
   142
420
    32960
370
     0
100
AcDbCircle
 10
480.8438417228
 20
-93.8386701281
 30
0.0
 40
1.943246067350948
100
AcDbArc
 50
181.809909826
 51
271.7021999702
  0
LINE
  5
B7
330
1F
100
AcDbEntity
  8
0
  6
SLD-Solid
 62
   142
420
    32960
370
     0
100
AcDbLine
 10
480.9015651163
 20
-95.7810586804
 30
0.0
 11
482.9015651163
 21
-95.7810586804
 31
0.0
  0
ARC
  5
B8
330
1F
100
AcDbEntity
  8
0
  6
SLD-Solid
 62
   142
420
    32960
370
     0
100
AcDbCircle
 10
482.9592885099
 20
-93.8386701281
 30
0.0
 40
1.94324606735083
100
AcDbArc
 50
268.2978000298
 51
358.190090174
  0
LINE
  5
B9
330
1F
100
AcDbEntity
  8
0
  6
SLD-Solid
 62
   142
420
    32960
370
     0
100
AcDbLine
 10
484.9015651163
 20
-91.9185058032
 30
0.0
 11
484.9015651163
 21
-93.9000448975
 31
0.0
  0
LINE
  5
BA
330
1F
100
AcDbEntity
  8
0
  6
SLD-Solid
 62
   142
420
    32960
370
     0
100
AcDbLine
 10
492.9015651163
 20
-96.7215655719
 30
0.0
 11
492.9015651163
 21
-91.9185058032
 31
0.0
  0
ARC
  5
BB
330
1F
100
AcDbEntity
  8
0
  6
SLD-Solid
 62
   142
420
    32960
370
     0
100
AcDbCircle
 10
491.9304268131
 20
-96.6908781872
 30
0.0
 40
0.9716230336754652
100
AcDbArc
 50
268.2978000298
 51
358.190090174
  0
LINE
  5
BC
330
1F
100
AcDbEntity
  8
0
  6
SLD-Solid
 62
   142
420
    32960
370
     0
100
AcDbLine
 10
491.9015651163
 20
-97.6620724634
 30
0.0
 11
471.9015651163
 21
-97.6620724634
 31
0.0
  0
ARC
  5
BD
330
1F
100
AcDbEntity
  8
0
  6
SLD-Solid
 62
   142
420
    32960
370
     0
100
AcDbCircle
 10
471.8727034195
 20
-96.6908781872
 30
0.0
 40
0.9716230336754436
100
AcDbArc
 50
181.809909826
 51
271.7021999702
  0
LINE
  5
BE
330
1F
100
AcDbEntity
  8
0
  6
SLD-Solid
 62
   142
420
    32960
370
     0
100
AcDbLine
 10
470.9015651163
 20
-91.9185058032
 30
0.0
 11
470.9015651163
 21
-96.7215655719
 31
0.0
  0
LINE
  5
BF
330
1F
100
AcDbEntity
  8
0
  6
SLD-Solid
 62
   142
420
    32960
370
     0
100
AcDbLine
 10
181.4015651163
 20
-91.9185058032
 30
0.0
 11
181.4015651163
 21
-93.9000448975
 31
0.0
  0
ARC
  5
C0
330
1F
100
AcDbEntity
  8
0
  6
SLD-Solid
 62
   142
420
    32960
370
     0
100
AcDbCircle
 10
183.3438417228
 20
-93.8386701281
 30
0.0
 40
1.943246067350832
100
AcDbArc
 50
181.809909826
 51
271.7021999702
  0
LINE
  5
C1
330
1F
100
AcDbEntity
  8
0
  6
SLD-Solid
 62
   142
420
    32960
370
     0
100
AcDbLine
 10
183.4015651163
 20
-95.7810586804
 30
0.0
 11
185.4015651163
 21
-95.7810586804
 31
0.0
  0
ARC
  5
C2
330
1F
100
AcDbEntity
  8
0
  6
SLD-Solid
 62
   142
420
    32960
370
     0
100
AcDbCircle
 10
185.4592885099
 20
-93.8386701281
 30
0.0
 40
1.943246067350832
100
AcDbArc
 50
268.2978000298
 51
358.190090174
  0
LINE
  5
C3
330
1F
100
AcDbEntity
  8
0
  6
SLD-Solid
 62
   142
420
    32960
370
     0
100
AcDbLine
 10
187.4015651163
 20
-91.9185058032
 30
0.0
 11
187.4015651163
 21
-93.9000448975
 31
0.0
  0
LINE
  5
C4
330
1F
100
AcDbEntity
  8
0
  6
SLD-Solid
 62
   142
420
    32960
370
     0
100
AcDbLine
 10
201.4015651163
 20
-96.7215655719
 30
0.0
 11
201.4015651163
 21
-91.9185058032
 31
0.0
  0
ARC
  5
C5
330
1F
100
AcDbEntity
  8
0
  6
SLD-Solid
 62
   142
420
    32960
370
     0
100
AcDbCircle
 10
200.4304268131
 20
-96.6908781872
 30
0.0
 40
0.9716230336753783
100
AcDbArc
 50
268.2978000298
 51
358.190090174
  0
LINE
  5
C6
330
1F
100
AcDbEntity
  8
0
  6
SLD-Solid
 62
   142
420
    32960
370
     0
100
AcDbLine
 10
200.4015651163
 20
-97.6620724634
 30
0.0
 11
180.4015651163
 21
-97.6620724634
 31
0.0
  0
ARC
  5
C7
330
1F
100
AcDbEntity
  8
0
  6
SLD-Solid
 62
   142
420
    32960
370
     0
100
AcDbCircle
 10
180.3727034195
 20
-96.6908781872
 30
0.0
 40
0.9716230336754785
100
AcDbArc
 50
181.809909826
 51
271.7021999702
  0
LINE
  5
C8
330
1F
100
AcDbEntity
  8
0
  6
SLD-Solid
 62
   142
420
    32960
370
     0
100
AcDbLine
 10
179.4015651163
 20
-91.9185058032
 30
0.0
 11
179.4015651163
 21
-96.7215655719
 31
0.0
  0
ARC
  5
C9
330
1F
100
AcDbEntity
  8
0
  6
SLD-Solid
 62
   142
420
    32960
370
     0
100
AcDbCircle
 10
491.9592885099
 20
-96.6262133413
 30
0.0
 40
1.943246067350829
100
AcDbArc
 50
268.2978000298
 51
358.190090174
  0
LINE
  5
CA
330
1F
100
AcDbEntity
  8
0
  6
SLD-Solid
 62
   142
420
    32960
370
     0
100
AcDbLine
 10
491.9015651163
 20
-98.5686018936
 30
0.0
 11
471.9015651163
 21
-98.5686018936
 31
0.0
  0
ARC
  5
CB
330
1F
100
AcDbEntity
  8
0
  6
SLD-Solid
 62
   142
420
    32960
370
     0
100
AcDbCircle
 10
471.8438417228
 20
-96.6262133413
 30
0.0
 40
1.943246067350904
100
AcDbArc
 50
181.809909826
 51
271.7021999702
  0
LINE
  5
CC
330
1F
100
AcDbEntity
  8
0
  6
SLD-Solid
 62
     7
370
    15
100
AcDbLine
 10
884.4015651163
 20
675.8483026952
 30
0.0
 11
-15.5984348837
 21
675.8483026952
 31
0.0
  0
LINE
  5
CD
330
1F
100
AcDbEntity
  8
0
  6
SLD-Solid
 62
   142
420
    32960
370
     0
100
AcDbLine
 10
-15.5984348837
 20
675.8483026952
 30
0.0
 11
-15.5984348837
 21
673.2677236528
 31
0.0
  0
LINE
  5
CE
330
1F
100
AcDbEntity
  8
0
  6
SLD-Solid
 62
   142
420
    32960
370
     0
100
AcDbLine
 10
884.4015651163
 20
675.8483026952
 30
0.0
 11
884.4015651163
 21
673.2677236528
 31
0.0
  0
LINE
  5
CF
330
1F
100
AcDbEntity
  8
0
  6
SLD-Solid
 62
     7
370
    15
100
AcDbLine
 10
-15.5984348837
 20
673.2677236528
 30
0.0
 11
-15.5984348837
 21
639.9707713316
 31
0.0
  0
LINE
  5
D0
330
1F
100
AcDbEntity
  8
0
  6
SLD-Solid
 62
     7
370
    15
100
AcDbLine
 10
473.2916159391
 20
642.5838984253
 30
0.0
 11
483.2068701764
 21
661.4194520379
 31
0.0
  0
ARC
  5
D1
330
1F
100
AcDbEntity
  8
0
  6
SLD-Solid
 62
     7
370
    15
100
AcDbCircle
 10
478.8837909859
 20
663.5986657228
 30
0.0
 40
4.841279373383009
100
AcDbArc
 50
333.2478610927
 51
91.5842536627
  0
LINE
  5
D2
330
1F
100
AcDbEntity
  8
0
  6
SLD-Solid
 62
     7
370
    15
100
AcDbLine
 10
478.7499445253
 20
668.4380945213
 30
0.0
 11
399.9684399446
 21
668.4380945213
 31
0.0
  0
LINE
  5
D3
330
1F
100
AcDbEntity
  8
0
  6
SLD-Solid
 62
     7
370
    15
100
AcDbLine
 10
373.2916159391
 20
642.5838984253
 30
0.0
 11
383.2068701764
 21
661.4194520379
 31
0.0
  0
LINE
  5
D4
330
1F
100
AcDbEntity
  8
0
  6
SLD-Solid
 62
     7
370
    15
100
AcDbLine
 10
378.7499445253
 20
668.4380945213
 30
0.0
 11
299.9684399446
 21
668.4380945213
 31
0.0
  0
LINE
  5
D5
330
1F
100
AcDbEntity
  8
0
  6
SLD-Solid
 62
     7
370
    15
100
AcDbLine
 10
295.5115142936
 20
665.7974787419
 30
0.0
 11
285.5962600563
 21
646.9619251292
 31
0.0
  0
ARC
  5
D6
330
1F
100
AcDbEntity
  8
0
  6
SLD-Solid
 62
     7
370
    15
100
AcDbCircle
 10
268.8851327508
 20
644.9481317555
 30
0.0
 40
5.0006692880318
100
AcDbArc
 50
275.5341758578
 51
331.784876003
  0
LINE
  5
D7
330
1F
100
AcDbEntity
  8
0
  6
SLD-Solid
 62
     7
370
    15
100
AcDbLine
 10
273.2916159391
 20
642.5838984253
 30
0.0
 11
283.2068701764
 21
661.4194520379
 31
0.0
  0
LINE
  5
D8
330
1F
100
AcDbEntity
  8
0
  6
SLD-Solid
 62
     7
370
    15
100
AcDbLine
 10
278.7499445253
 20
668.4380945213
 30
0.0
 11
199.9684399446
 21
668.4380945213
 31
0.0
  0
LINE
  5
D9
330
1F
100
AcDbEntity
  8
0
  6
SLD-Solid
 62
     7
370
    15
100
AcDbLine
 10
195.5115142936
 20
665.7974787419
 30
0.0
 11
185.5962600563
 21
646.9619251292
 31
0.0
  0
LINE
  5
DA
330
1F
100
AcDbEntity
  8
0
  6
SLD-Solid
 62
     7
370
    15
100
AcDbLine
 10
173.2916159391
 20
642.5838984253
 30
0.0
 11
183.2068701764
 21
661.4194520379
 31
0.0
  0
LINE
  5
DB
330
1F
100
AcDbEntity
  8
0
  6
SLD-Solid
 62
     7
370
    15
100
AcDbLine
 10
178.7499445253
 20
668.4380945213
 30
0.0
 11
99.9684399446
 21
668.4380945213
 31
0.0
  0
LINE
  5
DC
330
1F
100
AcDbEntity
  8
0
  6
SLD-Solid
 62
     7
370
    15
100
AcDbLine
 10
95.5115142936
 20
665.7974787419
 30
0.0
 11
85.5962600563
 21
646.9619251292
 31
0.0
  0
LINE
  5
DD
330
1F
100
AcDbEntity
  8
0
  6
SLD-Solid
 62
     7
370
    15
100
AcDbLine
 10
73.2916159391
 20
642.5838984253
 30
0.0
 11
83.2068701764
 21
661.4194520379
 31
0.0
  0
LINE
  5
DE
330
1F
100
AcDbEntity
  8
0
  6
SLD-Solid
 62
     7
370
    15
100
AcDbLine
 10
78.7499445253
 20
668.4380945213
 30
0.0
 11
9.4015651163
 21
668.4380945213
 31
0.0
  0
ARC
  5
DF
330
1F
100
AcDbEntity
  8
0
  6
SLD-Solid
 62
     7
370
    15
100
AcDbCircle
 10
9.2962245172
 20
644.8473054787
 30
0.0
 40
4.89522472141965
100
AcDbArc
 50
180.8707688506
 51
264.9915779818
  0
LINE
  5
E0
330
1F
100
AcDbEntity
  8
0
  6
SLD-Solid
 62
     7
370
    15
100
AcDbLine
 10
884.4015651163
 20
673.2677236528
 30
0.0
 11
884.4015651163
 21
639.9707713316
 31
0.0
  0
LINE
  5
E1
330
1F
100
AcDbEntity
  8
0
  6
SLD-Solid
 62
     7
370
    15
100
AcDbLine
 10
864.4015651163
 20
644.7729117773
 30
0.0
 11
864.4015651163
 21
663.6084653899
 31
0.0
  0
LINE
  5
E2
330
1F
100
AcDbEntity
  8
0
  6
SLD-Solid
 62
   142
420
    32960
370
     0
100
AcDbLine
 10
859.4015651163
 20
668.4380945213
 30
0.0
 11
799.9684399446
 21
668.4380945213
 31
0.0
  0
ARC
  5
E3
330
1F
100
AcDbEntity
  8
0
  6
SLD-Solid
 62
     7
370
    15
100
AcDbCircle
 10
799.9324926938
 20
663.417180515
 30
0.0
 40
5.021042686941299
100
AcDbArc
 50
89.5897976815
 51
151.7015410578
  0
LINE
  5
E4
330
1F
100
AcDbEntity
  8
0
  6
SLD-Solid
 62
     7
370
    15
100
AcDbLine
 10
795.5115142936
 20
665.7974787419
 30
0.0
 11
785.5962600563
 21
646.9619251292
 31
0.0
  0
LINE
  5
E5
330
1F
100
AcDbEntity
  8
0
  6
SLD-Solid
 62
     7
370
    15
100
AcDbLine
 10
778.7499445253
 20
668.4380945213
 30
0.0
 11
699.9684399446
 21
668.4380945213
 31
0.0
  0
LINE
  5
E6
330
1F
100
AcDbEntity
  8
0
  6
SLD-Solid
 62
     7
370
    15
100
AcDbLine
 10
695.5115142936
 20
665.7974787419
 30
0.0
 11
685.5962600563
 21
646.9619251292
 31
0.0
  0
ARC
  5
E7
330
1F
100
AcDbEntity
  8
0
  6
SLD-Solid
 62
     7
370
    15
100
AcDbCircle
 10
689.8954373817
 20
644.7781727287
 30
0.0
 40
4.822001682068777
100
AcDbArc
 50
153.0718636158
 51
265.5402115372
  0
ARC
  5
E8
330
1F
100
AcDbEntity
  8
0
  6
SLD-Solid
 62
     7
370
    15
100
AcDbCircle
 10
678.8837909859
 20
663.5986657228
 30
0.0
 40
4.841279373382942
100
AcDbArc
 50
333.2478610927
 51
91.5842536627
  0
LINE
  5
E9
330
1F
100
AcDbEntity
  8
0
  6
SLD-Solid
 62
     7
370
    15
100
AcDbLine
 10
678.7499445253
 20
668.4380945213
 30
0.0
 11
599.9684399446
 21
668.4380945213
 31
0.0
  0
LINE
  5
EA
330
1F
100
AcDbEntity
  8
0
  6
SLD-Solid
 62
     7
370
    15
100
AcDbLine
 10
595.5115142936
 20
665.7974787419
 30
0.0
 11
585.5962600563
 21
646.9619251292
 31
0.0
  0
ARC
  5
EB
330
1F
100
AcDbEntity
  8
0
  6
SLD-Solid
 62
     7
370
    15
100
AcDbCircle
 10
589.8954373817
 20
644.7781727287
 30
0.0
 40
4.822001682067922
100
AcDbArc
 50
153.0718636158
 51
265.540211537
  0
ARC
  5
EC
330
1F
100
AcDbEntity
  8
0
  6
SLD-Solid
 62
   142
420
    32960
370
     0
100
AcDbCircle
 10
568.8851327508
 20
644.9481317555
 30
0.0
 40
5.000669288032012
100
AcDbArc
 50
275.5341758578
 51
331.784876003
  0
LINE
  5
ED
330
1F
100
AcDbEntity
  8
0
  6
SLD-Solid
 62
     7
370
    15
100
AcDbLine
 10
573.2916159391
 20
642.5838984253
 30
0.0
 11
583.2068701764
 21
661.4194520379
 31
0.0
  0
ARC
  5
EE
330
1F
100
AcDbEntity
  8
0
  6
SLD-Solid
 62
     7
370
    15
100
AcDbCircle
 10
578.8837909859
 20
663.5986657228
 30
0.0
 40
4.841279373382857
100
AcDbArc
 50
333.2478610927
 51
91.5842536627
  0
LINE
  5
EF
330
1F
100
AcDbEntity
  8
0
  6
SLD-Solid
 62
     7
370
    15
100
AcDbLine
 10
578.7499445253
 20
668.4380945213
 30
0.0
 11
499.9684399446
 21
668.4380945213
 31
0.0
  0
LINE
  5
F0
330
1F
100
AcDbEntity
  8
0
  6
SLD-Solid
 62
     7
370
    15
100
AcDbLine
 10
495.5115142936
 20
665.7974787419
 30
0.0
 11
485.5962600563
 21
646.9619251292
 31
0.0
  0
ARC
  5
F1
330
1F
100
AcDbEntity
  8
0
  6
SLD-Solid
 62
     7
370
    15
100
AcDbCircle
 10
489.8954373817
 20
644.7781727287
 30
0.0
 40
4.822001682067931
100
AcDbArc
 50
153.0718636158
 51
265.540211537
  0
ARC
  5
F2
330
1F
100
AcDbEntity
  8
0
  6
SLD-Solid
 62
   142
420
    32960
370
     0
100
AcDbCircle
 10
499.9324926938
 20
663.417180515
 30
0.0
 40
5.021042686941589
100
AcDbArc
 50
89.5897976815
 51
151.7015410578
  0
ARC
  5
F3
330
1F
100
AcDbEntity
  8
0
  6
SLD-Solid
 62
   142
420
    32960
370
     0
100
AcDbCircle
 10
599.9324926938
 20
663.417180515
 30
0.0
 40
5.021042686941476
100
AcDbArc
 50
89.5897976815
 51
151.7015410578
  0
LINE
  5
F4
330
1F
100
AcDbEntity
  8
0
  6
SLD-Solid
 62
   142
420
    32960
370
     0
100
AcDbLine
 10
673.2916159391
 20
642.5838984253
 30
0.0
 11
683.2068701764
 21
661.4194520379
 31
0.0
  0
ARC
  5
F5
330
1F
100
AcDbEntity
  8
0
  6
SLD-Solid
 62
   142
420
    32960
370
     0
100
AcDbCircle
 10
668.8851327508
 20
644.9481317555
 30
0.0
 40
5.000669288032365
100
AcDbArc
 50
275.5341758579
 51
331.784876003
  0
ARC
  5
F6
330
1F
100
AcDbEntity
  8
0
  6
SLD-Solid
 62
   142
420
    32960
370
     0
100
AcDbCircle
 10
699.9324926938
 20
663.417180515
 30
0.0
 40
5.021042686941969
100
AcDbArc
 50
89.5897976815
 51
151.7015410578
  0
ARC
  5
F7
330
1F
100
AcDbEntity
  8
0
  6
SLD-Solid
 62
   142
420
    32960
370
     0
100
AcDbCircle
 10
778.8837909859
 20
663.5986657228
 30
0.0
 40
4.841279373383164
100
AcDbArc
 50
333.2478610927
 51
91.5842536627
  0
LINE
  5
F8
330
1F
100
AcDbEntity
  8
0
  6
SLD-Solid
 62
   142
420
    32960
370
     0
100
AcDbLine
 10
773.2916159391
 20
642.5838984253
 30
0.0
 11
783.2068701764
 21
661.4194520379
 31
0.0
  0
ARC
  5
F9
330
1F
100
AcDbEntity
  8
0
  6
SLD-Solid
 62
   142
420
    32960
370
     0
100
AcDbCircle
 10
768.8851327508
 20
644.9481317555
 30
0.0
 40
5.000669288031816
100
AcDbArc
 50
275.5341758576
 51
331.784876003
  0
ARC
  5
FA
330
1F
100
AcDbEntity
  8
0
  6
SLD-Solid
 62
   142
420
    32960
370
     0
100
AcDbCircle
 10
789.8954373817
 20
644.7781727287
 30
0.0
 40
4.822001682067562
100
AcDbArc
 50
153.0718636158
 51
265.5402115369
  0
ARC
  5
FB
330
1F
100
AcDbEntity
  8
0
  6
SLD-Solid
 62
   142
420
    32960
370
     0
100
AcDbCircle
 10
859.485299239
 20
663.5217774472
 30
0.0
 40
4.917030097156924
100
AcDbArc
 50
1.0101851092
 51
90.9757604995
  0
ARC
  5
FC
330
1F
100
AcDbEntity
  8
0
  6
SLD-Solid
 62
   142
420
    32960
370
     0
100
AcDbCircle
 10
859.5069057155
 20
644.8473054787
 30
0.0
 40
4.895224721419608
100
AcDbArc
 50
275.0084220182
 51
359.1292311494
  0
LINE
  5
FD
330
1F
100
AcDbEntity
  8
0
  6
SLD-Solid
 62
   142
420
    32960
370
     0
100
AcDbLine
 10
4.4015651163
 20
663.6084653899
 30
0.0
 11
4.4015651163
 21
644.7729117773
 31
0.0
  0
ARC
  5
FE
330
1F
100
AcDbEntity
  8
0
  6
SLD-Solid
 62
   142
420
    32960
370
     0
100
AcDbCircle
 10
9.3178309937
 20
663.5217774472
 30
0.0
 40
4.917030097156769
100
AcDbArc
 50
89.0242395005
 51
178.9898148908
  0
ARC
  5
FF
330
1F
100
AcDbEntity
  8
0
  6
SLD-Solid
 62
   142
420
    32960
370
     0
100
AcDbCircle
 10
78.8837909859
 20
663.5986657228
 30
0.0
 40
4.841279373383085
100
AcDbArc
 50
333.2478610927
 51
91.5842536627
  0
ARC
  5
100
330
1F
100
AcDbEntity
  8
0
  6
SLD-Solid
 62
   142
420
    32960
370
     0
100
AcDbCircle
 10
68.8851327508
 20
644.9481317555
 30
0.0
 40
5.000669288030942
100
AcDbArc
 50
275.534175858
 51
331.784876003
  0
ARC
  5
101
330
1F
100
AcDbEntity
  8
0
  6
SLD-Solid
 62
   142
420
    32960
370
     0
100
AcDbCircle
 10
89.8954373817
 20
644.7781727287
 30
0.0
 40
4.822001682067338
100
AcDbArc
 50
153.0718636158
 51
265.5402115369
  0
ARC
  5
102
330
1F
100
AcDbEntity
  8
0
  6
SLD-Solid
 62
   142
420
    32960
370
     0
100
AcDbCircle
 10
99.9324926938
 20
663.417180515
 30
0.0
 40
5.021042686941607
100
AcDbArc
 50
89.5897976815
 51
151.7015410578
  0
ARC
  5
103
330
1F
100
AcDbEntity
  8
0
  6
SLD-Solid
 62
   142
420
    32960
370
     0
100
AcDbCircle
 10
178.8837909859
 20
663.5986657228
 30
0.0
 40
4.841279373382958
100
AcDbArc
 50
333.2478610927
 51
91.5842536627
  0
ARC
  5
104
330
1F
100
AcDbEntity
  8
0
  6
SLD-Solid
 62
   142
420
    32960
370
     0
100
AcDbCircle
 10
168.8851327508
 20
644.9481317555
 30
0.0
 40
5.000669288031156
100
AcDbArc
 50
275.534175858
 51
331.784876003
  0
ARC
  5
105
330
1F
100
AcDbEntity
  8
0
  6
SLD-Solid
 62
   142
420
    32960
370
     0
100
AcDbCircle
 10
189.8954373817
 20
644.7781727287
 30
0.0
 40
4.822001682067931
100
AcDbArc
 50
153.0718636158
 51
265.540211537
  0
ARC
  5
106
330
1F
100
AcDbEntity
  8
0
  6
SLD-Solid
 62
   142
420
    32960
370
     0
100
AcDbCircle
 10
199.9324926938
 20
663.417180515
 30
0.0
 40
5.021042686941507
100
AcDbArc
 50
89.5897976815
 51
151.7015410578
  0
ARC
  5
107
330
1F
100
AcDbEntity
  8
0
  6
SLD-Solid
 62
   142
420
    32960
370
     0
100
AcDbCircle
 10
278.8837909859
 20
663.5986657228
 30
0.0
 40
4.841279373382942
100
AcDbArc
 50
333.2478610927
 51
91.5842536627
  0
ARC
  5
108
330
1F
100
AcDbEntity
  8
0
  6
SLD-Solid
 62
   142
420
    32960
370
     0
100
AcDbCircle
 10
289.8954373817
 20
644.7781727287
 30
0.0
 40
4.822001682067926
100
AcDbArc
 50
153.0718636158
 51
265.540211537
  0
ARC
  5
109
330
1F
100
AcDbEntity
  8
0
  6
SLD-Solid
 62
   142
420
    32960
370
     0
100
AcDbCircle
 10
299.9324926938
 20
663.417180515
 30
0.0
 40
5.021042686942042
100
AcDbArc
 50
89.5897976815
 51
151.7015410578
  0
ARC
  5
10A
330
1F
100
AcDbEntity
  8
0
  6
SLD-Solid
 62
   142
420
    32960
370
     0
100
AcDbCircle
 10
378.8837909859
 20
663.5986657228
 30
0.0
 40
4.84127937338301
100
AcDbArc
 50
333.2478610927
 51
91.5842536627
  0
ARC
  5
10B
330
1F
100
AcDbEntity
  8
0
  6
SLD-Solid
 62
   142
420
    32960
370
     0
100
AcDbCircle
 10
368.8851327508
 20
644.9481317555
 30
0.0
 40
5.000669288030835
100
AcDbArc
 50
275.5341758579
 51
331.784876003
  0
ARC
  5
10C
330
1F
100
AcDbEntity
  8
0
  6
SLD-Solid
 62
   142
420
    32960
370
     0
100
AcDbCircle
 10
389.8954373817
 20
644.7781727287
 30
0.0
 40
4.822001682067955
100
AcDbArc
 50
153.0718636158
 51
265.540211537
  0
LINE
  5
10D
330
1F
100
AcDbEntity
  8
0
  6
SLD-Solid
 62
   142
420
    32960
370
     0
100
AcDbLine
 10
395.5115142936
 20
665.7974787419
 30
0.0
 11
385.5962600563
 21
646.9619251292
 31
0.0
  0
ARC
  5
10E
330
1F
100
AcDbEntity
  8
0
  6
SLD-Solid
 62
   142
420
    32960
370
     0
100
AcDbCircle
 10
399.9324926938
 20
663.417180515
 30
0.0
 40
5.021042686941715
100
AcDbArc
 50
89.5897976815
 51
151.7015410578
  0
ARC
  5
10F
330
1F
100
AcDbEntity
  8
0
  6
SLD-Solid
 62
   142
420
    32960
370
     0
100
AcDbCircle
 10
468.8851327508
 20
644.9481317555
 30
0.0
 40
5.0006692880317
100
AcDbArc
 50
275.5341758579
 51
331.784876003
  0
LWPOLYLINE
  5
110
330
1F
100
AcDbEntity
  8
0
  6
SLD-Solid
 62
     7
370
    15
100
AcDbPolyline
 90
        3
 70
   128
 43
0.0
 10
583.2068701764
 20
661.626507274
 10
583.6345551855
 20
662.7839323295
 10
583.748795645
 20
663.7119930078
  0
LINE
  5
111
330
1F
100
AcDbEntity
  8
0
  6
SLD-Solid
 62
     7
370
    15
100
AcDbLine
 10
573.2916159391
 20
642.7909536614
 30
0.0
 11
583.2068701764
 21
661.626507274
 31
0.0
  0
ARC
  5
112
330
1F
100
AcDbEntity
  8
0
  6
SLD-Solid
 62
     7
370
    15
100
AcDbCircle
 10
568.8851327508
 20
645.1551869916
 30
0.0
 40
5.000669288031764
100
AcDbArc
 50
275.5341758578
 51
331.784876003
  0
ARC
  5
113
330
1F
100
AcDbEntity
  8
0
  6
SLD-Solid
 62
     7
370
    15
100
AcDbCircle
 10
589.9503758554
 20
645.0583492871
 30
0.0
 40
4.899419486470148
100
AcDbArc
 50
182.1278164218
 51
264.9661675259
  0
LWPOLYLINE
  5
114
330
1F
100
AcDbEntity
  8
0
  6
SLD-Solid
 62
     7
370
    15
100
AcDbPolyline
 90
        3
 70
   128
 43
0.0
 10
683.2068701764
 20
661.626507274
 10
683.6345551855
 20
662.7839323295
 10
683.748795645
 20
663.7119930073
  0
ARC
  5
115
330
1F
100
AcDbEntity
  8
0
  6
SLD-Solid
 62
     7
370
    15
100
AcDbCircle
 10
689.9503758554
 20
645.0583492872
 30
0.0
 40
4.899419486493751
100
AcDbArc
 50
182.1278164312
 51
264.966167526
  0
ARC
  5
116
330
1F
100
AcDbEntity
  8
0
  6
SLD-Solid
 62
     7
370
    15
100
AcDbCircle
 10
9.2962245172
 20
645.0543607148
 30
0.0
 40
4.895224721419162
100
AcDbArc
 50
180.8707688506
 51
264.9915779818
  0
LINE
  5
117
330
1F
100
AcDbEntity
  8
0
  6
SLD-Solid
 62
     7
370
    15
100
AcDbLine
 10
73.2916159391
 20
642.7909536614
 30
0.0
 11
83.2068701764
 21
661.626507274
 31
0.0
  0
LINE
  5
118
330
1F
100
AcDbEntity
  8
0
  6
SLD-Solid
 62
     7
370
    15
100
AcDbLine
 10
173.2916159391
 20
642.7909536614
 30
0.0
 11
183.2068701764
 21
661.626507274
 31
0.0
  0
LINE
  5
119
330
1F
100
AcDbEntity
  8
0
  6
SLD-Solid
 62
     7
370
    15
100
AcDbLine
 10
273.2916159391
 20
642.7909536614
 30
0.0
 11
283.2068701764
 21
661.626507274
 31
0.0
  0
ARC
  5
11A
330
1F
100
AcDbEntity
  8
0
  6
SLD-Solid
 62
     7
370
    15
100
AcDbCircle
 10
268.8851327508
 20
645.1551869916
 30
0.0
 40
5.00066928803108
100
AcDbArc
 50
275.5341758578
 51
331.784876003
  0
LINE
  5
11B
330
1F
100
AcDbEntity
  8
0
  6
SLD-Solid
 62
     7
370
    15
100
AcDbLine
 10
373.2916159391
 20
642.7909536614
 30
0.0
 11
383.2068701764
 21
661.626507274
 31
0.0
  0
LWPOLYLINE
  5
11C
330
1F
100
AcDbEntity
  8
0
  6
SLD-Solid
 62
     7
370
    15
100
AcDbPolyline
 90
        3
 70
   128
 43
0.0
 10
483.2068701764
 20
661.626507274
 10
483.6345551855
 20
662.7839323295
 10
483.748795645
 20
663.7119930072
  0
LINE
  5
11D
330
1F
100
AcDbEntity
  8
0
  6
SLD-Solid
 62
     7
370
    15
100
AcDbLine
 10
473.2916159391
 20
642.7909536614
 30
0.0
 11
483.2068701764
 21
661.626507274
 31
0.0
  0
ARC
  5
11E
330
1F
100
AcDbEntity
  8
0
  6
SLD-Solid
 62
     7
370
    15
100
AcDbCircle
 10
489.9503758554
 20
645.0583492872
 30
0.0
 40
4.899419486494434
100
AcDbArc
 50
182.1278164319
 51
264.9661675258
  0
ARC
  5
11F
330
1F
100
AcDbEntity
  8
0
  6
SLD-Solid
 62
   142
420
    32960
370
     0
100
AcDbCircle
 10
468.8851327508
 20
645.1551869916
 30
0.0
 40
5.000669288030976
100
AcDbArc
 50
275.5341758579
 51
331.784876003
  0
ARC
  5
120
330
1F
100
AcDbEntity
  8
0
  6
SLD-Solid
 62
   142
420
    32960
370
     0
100
AcDbCircle
 10
389.9503758554
 20
645.0583492871
 30
0.0
 40
4.89941948647925
100
AcDbArc
 50
182.1278164257
 51
264.9661675258
  0
ARC
  5
121
330
1F
100
AcDbEntity
  8
0
  6
SLD-Solid
 62
   142
420
    32960
370
     0
100
AcDbCircle
 10
368.8851327508
 20
645.1551869916
 30
0.0
 40
5.000669288030976
100
AcDbArc
 50
275.5341758579
 51
331.784876003
  0
LWPOLYLINE
  5
122
330
1F
100
AcDbEntity
  8
0
  6
SLD-Solid
 62
   142
420
    32960
370
     0
100
AcDbPolyline
 90
        3
 70
   128
 43
0.0
 10
383.2068701764
 20
661.626507274
 10
383.6345551855
 20
662.7839323295
 10
383.748795645
 20
663.7119930076
  0
ARC
  5
123
330
1F
100
AcDbEntity
  8
0
  6
SLD-Solid
 62
   142
420
    32960
370
     0
100
AcDbCircle
 10
289.9503758553
 20
645.058349287
 30
0.0
 40
4.899419486327459
100
AcDbArc
 50
182.1278163631
 51
264.9661675265
  0
LWPOLYLINE
  5
124
330
1F
100
AcDbEntity
  8
0
  6
SLD-Solid
 62
   142
420
    32960
370
     0
100
AcDbPolyline
 90
        3
 70
   128
 43
0.0
 10
283.2068701764
 20
661.626507274
 10
283.6345551855
 20
662.7839323295
 10
283.7487956454
 20
663.711993023
  0
ARC
  5
125
330
1F
100
AcDbEntity
  8
0
  6
SLD-Solid
 62
   142
420
    32960
370
     0
100
AcDbCircle
 10
189.9503758556
 20
645.0583492876
 30
0.0
 40
4.899419486947926
100
AcDbArc
 50
182.1278166194
 51
264.9661675238
  0
ARC
  5
126
330
1F
100
AcDbEntity
  8
0
  6
SLD-Solid
 62
   142
420
    32960
370
     0
100
AcDbCircle
 10
168.8851327508
 20
645.1551869916
 30
0.0
 40
5.000669288031279
100
AcDbArc
 50
275.534175858
 51
331.784876003
  0
LWPOLYLINE
  5
127
330
1F
100
AcDbEntity
  8
0
  6
SLD-Solid
 62
   142
420
    32960
370
     0
100
AcDbPolyline
 90
        3
 70
   128
 43
0.0
 10
183.2068701764
 20
661.626507274
 10
183.6345551855
 20
662.7839323295
 10
183.7487956454
 20
663.7119930239
  0
ARC
  5
128
330
1F
100
AcDbEntity
  8
0
  6
SLD-Solid
 62
   142
420
    32960
370
     0
100
AcDbCircle
 10
89.9503758551
 20
645.0583492865
 30
0.0
 40
4.899419485764343
100
AcDbArc
 50
182.1278161303
 51
264.9661675287
  0
ARC
  5
129
330
1F
100
AcDbEntity
  8
0
  6
SLD-Solid
 62
   142
420
    32960
370
     0
100
AcDbCircle
 10
68.8851327508
 20
645.1551869916
 30
0.0
 40
5.000669288030465
100
AcDbArc
 50
275.534175858
 51
331.784876003
  0
LWPOLYLINE
  5
12A
330
1F
100
AcDbEntity
  8
0
  6
SLD-Solid
 62
   142
420
    32960
370
     0
100
AcDbPolyline
 90
        3
 70
   128
 43
0.0
 10
83.2068701764
 20
661.626507274
 10
83.6345551855
 20
662.7839323295
 10
83.7487956453
 20
663.7119930185
  0
ARC
  5
12B
330
1F
100
AcDbEntity
  8
0
  6
SLD-Solid
 62
   142
420
    32960
370
     0
100
AcDbCircle
 10
859.5069057155
 20
645.0543607148
 30
0.0
 40
4.895224721419106
100
AcDbArc
 50
275.0084220182
 51
359.1292311494
  0
ARC
  5
12C
330
1F
100
AcDbEntity
  8
0
  6
SLD-Solid
 62
   142
420
    32960
370
     0
100
AcDbCircle
 10
789.9503758554
 20
645.0583492871
 30
0.0
 40
4.899419486479212
100
AcDbArc
 50
182.1278164258
 51
264.9661675257
  0
ARC
  5
12D
330
1F
100
AcDbEntity
  8
0
  6
SLD-Solid
 62
   142
420
    32960
370
     0
100
AcDbCircle
 10
768.8851327508
 20
645.1551869916
 30
0.0
 40
5.000669288031794
100
AcDbArc
 50
275.5341758576
 51
331.784876003
  0
LINE
  5
12E
330
1F
100
AcDbEntity
  8
0
  6
SLD-Solid
 62
   142
420
    32960
370
     0
100
AcDbLine
 10
773.2916159391
 20
642.7909536614
 30
0.0
 11
783.2068701764
 21
661.626507274
 31
0.0
  0
LWPOLYLINE
  5
12F
330
1F
100
AcDbEntity
  8
0
  6
SLD-Solid
 62
   142
420
    32960
370
     0
100
AcDbPolyline
 90
        3
 70
   128
 43
0.0
 10
783.2068701764
 20
661.626507274
 10
783.6345551855
 20
662.7839323295
 10
783.7487956449
 20
663.7119930035
  0
ARC
  5
130
330
1F
100
AcDbEntity
  8
0
  6
SLD-Solid
 62
   142
420
    32960
370
     0
100
AcDbCircle
 10
668.8851327508
 20
645.1551869916
 30
0.0
 40
5.000669288031235
100
AcDbArc
 50
275.5341758578
 51
331.784876003
  0
LINE
  5
131
330
1F
100
AcDbEntity
  8
0
  6
SLD-Solid
 62
   142
420
    32960
370
     0
100
AcDbLine
 10
673.2916159391
 20
642.7909536614
 30
0.0
 11
683.2068701764
 21
661.626507274
 31
0.0
  0
LINE
  5
132
330
1F
100
AcDbEntity
  8
0
  6
SLD-Solid
 62
   142
420
    32960
370
     0
100
AcDbLine
 10
683.2068701764
 20
661.626507274
 30
0.0
 11
683.2068701764
 21
661.4194520379
 31
0.0
  0
LINE
  5
133
330
1F
100
AcDbEntity
  8
0
  6
SLD-Solid
 62
   142
420
    32960
370
     0
100
AcDbLine
 10
473.2916159391
 20
642.7909536614
 30
0.0
 11
473.2916159391
 21
642.5838984253
 31
0.0
  0
LINE
  5
134
330
1F
100
AcDbEntity
  8
0
  6
SLD-Solid
 62
   142
420
    32960
370
     0
100
AcDbLine
 10
283.2068701764
 20
661.626507274
 30
0.0
 11
283.2068701764
 21
661.4194520379
 31
0.0
  0
LINE
  5
135
330
1F
100
AcDbEntity
  8
0
  6
SLD-Solid
 62
   142
420
    32960
370
     0
100
AcDbLine
 10
383.2068701764
 20
661.626507274
 30
0.0
 11
383.2068701764
 21
661.4194520379
 31
0.0
  0
LINE
  5
136
330
1F
100
AcDbEntity
  8
0
  6
SLD-Solid
 62
   142
420
    32960
370
     0
100
AcDbLine
 10
373.2916159391
 20
642.7909536614
 30
0.0
 11
373.2916159391
 21
642.5838984253
 31
0.0
  0
LINE
  5
137
330
1F
100
AcDbEntity
  8
0
  6
SLD-Solid
 62
   142
420
    32960
370
     0
100
AcDbLine
 10
83.2068701764
 20
661.626507274
 30
0.0
 11
83.2068701764
 21
661.4194520379
 31
0.0
  0
LINE
  5
138
330
1F
100
AcDbEntity
  8
0
  6
SLD-Solid
 62
   142
420
    32960
370
     0
100
AcDbLine
 10
73.2916159391
 20
642.7909536614
 30
0.0
 11
73.2916159391
 21
642.5838984253
 31
0.0
  0
LINE
  5
139
330
1F
100
AcDbEntity
  8
0
  6
SLD-Solid
 62
   142
420
    32960
370
     0
100
AcDbLine
 10
183.2068701764
 20
661.626507274
 30
0.0
 11
183.2068701764
 21
661.4194520379
 31
0.0
  0
LINE
  5
13A
330
1F
100
AcDbEntity
  8
0
  6
SLD-Solid
 62
   142
420
    32960
370
     0
100
AcDbLine
 10
173.2916159391
 20
642.7909536614
 30
0.0
 11
173.2916159391
 21
642.5838984253
 31
0.0
  0
SPLINE
  5
13B
330
1F
100
AcDbEntity
  8
0
  6
SLD-Solid
 62
     7
370
    15
100
AcDbSpline
210
0.0
220
0.0
230
1.0
 70
     8
 71
     3
 72
     8
 73
     4
 74
     0
 42
0.00000001
 43
0.00000001
 40
0.0
 40
0.0
 40
0.0
 40
0.0
 40
1.0
 40
1.0
 40
1.0
 40
1.0
 10
690.053185707296
 20
639.9432867080727
 30
0.0
 10
689.8751108143191
 20
639.9432867080727
 30
0.0
 10
689.6975426941297
 20
639.9524455410645
 30
0.0
 10
689.5204813458051
 20
639.9707713316034
 30
0.0
  0
ARC
  5
13C
330
1F
100
AcDbEntity
  8
0
  6
SLD-Solid
 62
   142
420
    32960
370
     0
100
AcDbCircle
 10
690.0531454715
 20
645.3249522536
 30
0.0
 40
5.174614371844543
100
AcDbArc
 50
264.0916247812
 51
270.0004455097
  0
SPLINE
  5
13D
330
1F
100
AcDbEntity
  8
0
  6
SLD-Solid
 62
     7
370
    15
100
AcDbSpline
210
0.0
220
0.0
230
1.0
 70
     8
 71
     3
 72
     8
 73
     4
 74
     0
 42
0.00000001
 43
0.00000001
 40
0.0
 40
0.0
 40
0.0
 40
0.0
 40
1.0
 40
1.0
 40
1.0
 40
1.0
 10
490.0531857072959
 20
639.9432867080706
 30
0.0
 10
489.875110814312
 20
639.9432867080706
 30
0.0
 10
489.6975426941156
 20
639.952445541063
 30
0.0
 10
489.5204813457842
 20
639.9707713316034
 30
0.0
  0
ARC
  5
13E
330
1F
100
AcDbEntity
  8
0
  6
SLD-Solid
 62
   142
420
    32960
370
     0
100
AcDbCircle
 10
490.0531454715
 20
645.3249522536
 30
0.0
 40
5.174614371841243
100
AcDbArc
 50
264.0916247809
 51
270.0004455097
  0
SPLINE
  5
13F
330
1F
100
AcDbEntity
  8
0
  6
SLD-Solid
 62
     7
370
    15
100
AcDbSpline
210
0.0
220
0.0
230
1.0
 70
     8
 71
     3
 72
     8
 73
     4
 74
     0
 42
0.00000001
 43
0.00000001
 40
0.0
 40
0.0
 40
0.0
 40
0.0
 40
1.0
 40
1.0
 40
1.0
 40
1.0
 10
590.0531857072959
 20
639.9432867080706
 30
0.0
 10
589.875110814312
 20
639.9432867080706
 30
0.0
 10
589.6975426941156
 20
639.952445541063
 30
0.0
 10
589.5204813457842
 20
639.9707713316034
 30
0.0
  0
ARC
  5
140
330
1F
100
AcDbEntity
  8
0
  6
SLD-Solid
 62
   142
420
    32960
370
     0
100
AcDbCircle
 10
590.0531454715
 20
645.3249522536
 30
0.0
 40
5.174614371839534
100
AcDbArc
 50
264.0916247809
 51
270.0004455097
  0
SPLINE
  5
141
330
1F
100
AcDbEntity
  8
0
  6
SLD-Solid
 62
     7
370
    15
100
AcDbSpline
210
0.0
220
0.0
230
1.0
 70
     8
 71
     3
 72
     8
 73
     4
 74
     0
 42
0.00000001
 43
0.00000001
 40
0.0
 40
0.0
 40
0.0
 40
0.0
 40
1.0
 40
1.0
 40
1.0
 40
1.0
 10
9.40156511632212
 20
639.9432867080694
 30
0.0
 10
9.223490223334629
 20
639.9432867080694
 30
0.0
 10
9.045922103134652
 20
639.9524455410624
 30
0.0
 10
8.868860754799702
 20
639.9707713316034
 30
0.0
  0
ARC
  5
142
330
1F
100
AcDbEntity
  8
0
  6
SLD-Solid
 62
   142
420
    32960
370
     0
100
AcDbCircle
 10
9.4015248805
 20
645.3249522535
 30
0.0
 40
5.17461437174995
100
AcDbArc
 50
264.0916247808
 51
270.0004455097
  0
SPLINE
  5
143
330
1F
100
AcDbEntity
  8
0
  6
SLD-Solid
 62
     7
370
    15
100
AcDbSpline
210
0.0
220
0.0
230
1.0
 70
     8
 71
     3
 72
     8
 73
     4
 74
     0
 42
0.00000001
 43
0.00000001
 40
0.0
 40
0.0
 40
0.0
 40
0.0
 40
1.0
 40
1.0
 40
1.0
 40
1.0
 10
569.3673946495712
 20
639.9707713316034
 30
0.0
 10
569.19033330124
 20
639.9524455410631
 30
0.0
 10
569.0127651810437
 20
639.9432867080706
 30
0.0
 10
568.8346902880601
 20
639.9432867080706
 30
0.0
  0
ARC
  5
144
330
1F
100
AcDbEntity
  8
0
  6
SLD-Solid
 62
   142
420
    32960
370
     0
100
AcDbCircle
 10
568.8347305238
 20
645.3249522536
 30
0.0
 40
5.174614371846821
100
AcDbArc
 50
269.9995544903
 51
275.9083752191
  0
SPLINE
  5
145
330
1F
100
AcDbEntity
  8
0
  6
SLD-Solid
 62
     7
370
    15
100
AcDbSpline
210
0.0
220
0.0
230
1.0
 70
     8
 71
     3
 72
     8
 73
     4
 74
     0
 42
0.00000001
 43
0.00000001
 40
0.0
 40
0.0
 40
0.0
 40
0.0
 40
1.0
 40
1.0
 40
1.0
 40
1.0
 10
269.3673946495713
 20
639.9707713316034
 30
0.0
 10
269.1903333012402
 20
639.9524455410631
 30
0.0
 10
269.0127651810438
 20
639.9432867080706
 30
0.0
 10
268.8346902880602
 20
639.9432867080706
 30
0.0
  0
ARC
  5
146
330
1F
100
AcDbEntity
  8
0
  6
SLD-Solid
 62
   142
420
    32960
370
     0
100
AcDbCircle
 10
268.8347305238
 20
645.3249522536
 30
0.0
 40
5.17461437184647
100
AcDbArc
 50
269.9995544903
 51
275.9083752191
  0
LINE
  5
147
330
1F
100
AcDbEntity
  8
0
  6
SLD-Solid
 62
     7
370
    15
100
AcDbLine
 10
668.8346902881
 20
639.9432867081
 30
0.0
 11
590.0531857073
 21
639.9432867081
 31
0.0
  0
LINE
  5
148
330
1F
100
AcDbEntity
  8
0
  6
SLD-Solid
 62
     7
370
    15
100
AcDbLine
 10
768.8346902881
 20
639.9432867081
 30
0.0
 11
690.0531857073
 21
639.9432867081
 31
0.0
  0
LINE
  5
149
330
1F
100
AcDbEntity
  8
0
  6
SLD-Solid
 62
     7
370
    15
100
AcDbLine
 10
859.4015651163
 20
639.9432867081
 30
0.0
 11
790.0531857073
 21
639.9432867081
 31
0.0
  0
LINE
  5
14A
330
1F
100
AcDbEntity
  8
0
  6
SLD-Solid
 62
     7
370
    15
100
AcDbLine
 10
884.4015651163
 20
639.9707713316
 30
0.0
 11
884.4015651163
 21
620.8483026952
 31
0.0
  0
LINE
  5
14B
330
1F
100
AcDbEntity
  8
0
  6
SLD-Solid
 62
     7
370
    15
100
AcDbLine
 10
884.4015651163
 20
620.8483026952
 30
0.0
 11
-15.5984348837
 21
620.8483026952
 31
0.0
  0
LINE
  5
14C
330
1F
100
AcDbEntity
  8
0
  6
SLD-Solid
 62
     7
370
    15
100
AcDbLine
 10
-15.5984348837
 20
639.9707713316
 30
0.0
 11
-15.5984348837
 21
620.8483026952
 31
0.0
  0
LINE
  5
14D
330
1F
100
AcDbEntity
  8
0
  6
SLD-Solid
 62
     7
370
    15
100
AcDbLine
 10
68.8346902881
 20
639.9432867081
 30
0.0
 11
9.4015651163
 21
639.9432867081
 31
0.0
  0
LINE
  5
14E
330
1F
100
AcDbEntity
  8
0
  6
SLD-Solid
 62
     7
370
    15
100
AcDbLine
 10
168.8346902881
 20
639.9432867081
 30
0.0
 11
90.0531857073
 21
639.9432867081
 31
0.0
  0
LINE
  5
14F
330
1F
100
AcDbEntity
  8
0
  6
SLD-Solid
 62
     7
370
    15
100
AcDbLine
 10
268.8346902881
 20
639.9432867081
 30
0.0
 11
190.0531857073
 21
639.9432867081
 31
0.0
  0
LINE
  5
150
330
1F
100
AcDbEntity
  8
0
  6
SLD-Solid
 62
     7
370
    15
100
AcDbLine
 10
368.8346902881
 20
639.9432867081
 30
0.0
 11
290.0531857073
 21
639.9432867081
 31
0.0
  0
LINE
  5
151
330
1F
100
AcDbEntity
  8
0
  6
SLD-Solid
 62
   142
420
    32960
370
     0
100
AcDbLine
 10
468.8346902881
 20
639.9432867081
 30
0.0
 11
390.0531857073
 21
639.9432867081
 31
0.0
  0
LINE
  5
152
330
1F
100
AcDbEntity
  8
0
  6
SLD-Solid
 62
     7
370
    15
100
AcDbLine
 10
568.8346902881
 20
639.9432867081
 30
0.0
 11
490.0531857073
 21
639.9432867081
 31
0.0
  0
SPLINE
  5
153
330
1F
100
AcDbEntity
  8
0
  6
SLD-Solid
 62
   142
420
    32960
370
     0
100
AcDbSpline
210
0.0
220
0.0
230
1.0
 70
     8
 71
     3
 72
     8
 73
     4
 74
     0
 42
0.00000001
 43
0.00000001
 40
0.0
 40
0.0
 40
0.0
 40
0.0
 40
1.0
 40
1.0
 40
1.0
 40
1.0
 10
469.3673946495729
 20
639.9707713316035
 30
0.0
 10
469.1903333012413
 20
639.952445541063
 30
0.0
 10
469.0127651810444
 20
639.9432867080704
 30
0.0
 10
468.8346902880601
 20
639.9432867080704
 30
0.0
  0
SPLINE
  5
154
330
1F
100
AcDbEntity
  8
0
  6
SLD-Solid
 62
   142
420
    32960
370
     0
100
AcDbSpline
210
0.0
220
0.0
230
1.0
 70
     8
 71
     3
 72
     8
 73
     4
 74
     0
 42
0.00000001
 43
0.00000001
 40
0.0
 40
0.0
 40
0.0
 40
0.0
 40
1.0
 40
1.0
 40
1.0
 40
1.0
 10
390.0531857072959
 20
639.9432867080703
 30
0.0
 10
389.8751108143115
 20
639.9432867080703
 30
0.0
 10
389.6975426941144
 20
639.952445541063
 30
0.0
 10
389.5204813457826
 20
639.9707713316035
 30
0.0
  0
SPLINE
  5
155
330
1F
100
AcDbEntity
  8
0
  6
SLD-Solid
 62
   142
420
    32960
370
     0
100
AcDbSpline
210
0.0
220
0.0
230
1.0
 70
     8
 71
     3
 72
     8
 73
     4
 74
     0
 42
0.00000001
 43
0.00000001
 40
0.0
 40
0.0
 40
0.0
 40
0.0
 40
1.0
 40
1.0
 40
1.0
 40
1.0
 10
369.367394649574
 20
639.9707713316035
 30
0.0
 10
369.1903333012419
 20
639.952445541063
 30
0.0
 10
369.0127651810448
 20
639.9432867080703
 30
0.0
 10
368.8346902880601
 20
639.9432867080703
 30
0.0
  0
SPLINE
  5
156
330
1F
100
AcDbEntity
  8
0
  6
SLD-Solid
 62
   142
420
    32960
370
     0
100
AcDbSpline
210
0.0
220
0.0
230
1.0
 70
     8
 71
     3
 72
     8
 73
     4
 74
     0
 42
0.00000001
 43
0.00000001
 40
0.0
 40
0.0
 40
0.0
 40
0.0
 40
1.0
 40
1.0
 40
1.0
 40
1.0
 10
290.053185707296
 20
639.9432867080703
 30
0.0
 10
289.8751108143112
 20
639.9432867080703
 30
0.0
 10
289.6975426941137
 20
639.952445541063
 30
0.0
 10
289.5204813457815
 20
639.9707713316035
 30
0.0
  0
SPLINE
  5
157
330
1F
100
AcDbEntity
  8
0
  6
SLD-Solid
 62
   142
420
    32960
370
     0
100
AcDbSpline
210
0.0
220
0.0
230
1.0
 70
     8
 71
     3
 72
     8
 73
     4
 74
     0
 42
0.00000001
 43
0.00000001
 40
0.0
 40
0.0
 40
0.0
 40
0.0
 40
1.0
 40
1.0
 40
1.0
 40
1.0
 10
190.053185707296
 20
639.9432867080706
 30
0.0
 10
189.8751108143121
 20
639.9432867080706
 30
0.0
 10
189.6975426941156
 20
639.952445541063
 30
0.0
 10
189.5204813457843
 20
639.9707713316034
 30
0.0
  0
SPLINE
  5
158
330
1F
100
AcDbEntity
  8
0
  6
SLD-Solid
 62
   142
420
    32960
370
     0
100
AcDbSpline
210
0.0
220
0.0
230
1.0
 70
     8
 71
     3
 72
     8
 73
     4
 74
     0
 42
0.00000001
 43
0.00000001
 40
0.0
 40
0.0
 40
0.0
 40
0.0
 40
1.0
 40
1.0
 40
1.0
 40
1.0
 10
169.3673946495832
 20
639.9707713316035
 30
0.0
 10
169.190333301248
 20
639.9524455410624
 30
0.0
 10
169.0127651810477
 20
639.9432867080694
 30
0.0
 10
168.8346902880601
 20
639.9432867080694
 30
0.0
  0
SPLINE
  5
159
330
1F
100
AcDbEntity
  8
0
  6
SLD-Solid
 62
   142
420
    32960
370
     0
100
AcDbSpline
210
0.0
220
0.0
230
1.0
 70
     8
 71
     3
 72
     8
 73
     4
 74
     0
 42
0.00000001
 43
0.00000001
 40
0.0
 40
0.0
 40
0.0
 40
0.0
 40
1.0
 40
1.0
 40
1.0
 40
1.0
 10
90.05318570729587
 20
639.9432867080693
 30
0.0
 10
89.87511081430804
 20
639.9432867080693
 30
0.0
 10
89.69754269410763
 20
639.9524455410624
 30
0.0
 10
89.52048134577234
 20
639.9707713316035
 30
0.0
  0
SPLINE
  5
15A
330
1F
100
AcDbEntity
  8
0
  6
SLD-Solid
 62
   142
420
    32960
370
     0
100
AcDbSpline
210
0.0
220
0.0
230
1.0
 70
     8
 71
     3
 72
     8
 73
     4
 74
     0
 42
0.00000001
 43
0.00000001
 40
0.0
 40
0.0
 40
0.0
 40
0.0
 40
1.0
 40
1.0
 40
1.0
 40
1.0
 10
69.36739464958202
 20
639.9707713316034
 30
0.0
 10
69.19033330124729
 20
639.9524455410624
 30
0.0
 10
69.01276518104743
 20
639.9432867080694
 30
0.0
 10
68.83469028806016
 20
639.9432867080694
 30
0.0
  0
SPLINE
  5
15B
330
1F
100
AcDbEntity
  8
0
  6
SLD-Solid
 62
   142
420
    32960
370
     0
100
AcDbSpline
210
0.0
220
0.0
230
1.0
 70
     8
 71
     3
 72
     8
 73
     4
 74
     0
 42
0.00000001
 43
0.00000001
 40
0.0
 40
0.0
 40
0.0
 40
0.0
 40
1.0
 40
1.0
 40
1.0
 40
1.0
 10
859.9342694778427
 20
639.9707713316035
 30
0.0
 10
859.7572081295084
 20
639.9524455410626
 30
0.0
 10
859.5796400093088
 20
639.9432867080696
 30
0.0
 10
859.401565116322
 20
639.9432867080696
 30
0.0
  0
SPLINE
  5
15C
330
1F
100
AcDbEntity
  8
0
  6
SLD-Solid
 62
   142
420
    32960
370
     0
100
AcDbSpline
210
0.0
220
0.0
230
1.0
 70
     8
 71
     3
 72
     8
 73
     4
 74
     0
 42
0.00000001
 43
0.00000001
 40
0.0
 40
0.0
 40
0.0
 40
0.0
 40
1.0
 40
1.0
 40
1.0
 40
1.0
 10
790.053185707296
 20
639.9432867080696
 30
0.0
 10
789.8751108143092
 20
639.9432867080696
 30
0.0
 10
789.6975426941098
 20
639.9524455410625
 30
0.0
 10
789.5204813457755
 20
639.9707713316034
 30
0.0
  0
SPLINE
  5
15D
330
1F
100
AcDbEntity
  8
0
  6
SLD-Solid
 62
   142
420
    32960
370
     0
100
AcDbSpline
210
0.0
220
0.0
230
1.0
 70
     8
 71
     3
 72
     8
 73
     4
 74
     0
 42
0.00000001
 43
0.00000001
 40
0.0
 40
0.0
 40
0.0
 40
0.0
 40
1.0
 40
1.0
 40
1.0
 40
1.0
 10
769.3673946495504
 20
639.9707713316034
 30
0.0
 10
769.1903333012262
 20
639.9524455410645
 30
0.0
 10
769.0127651810368
 20
639.9432867080727
 30
0.0
 10
768.8346902880602
 20
639.9432867080727
 30
0.0
  0
SPLINE
  5
15E
330
1F
100
AcDbEntity
  8
0
  6
SLD-Solid
 62
   142
420
    32960
370
     0
100
AcDbSpline
210
0.0
220
0.0
230
1.0
 70
     8
 71
     3
 72
     8
 73
     4
 74
     0
 42
0.00000001
 43
0.00000001
 40
0.0
 40
0.0
 40
0.0
 40
0.0
 40
1.0
 40
1.0
 40
1.0
 40
1.0
 10
669.3673946495713
 20
639.9707713316034
 30
0.0
 10
669.1903333012401
 20
639.9524455410631
 30
0.0
 10
669.0127651810438
 20
639.9432867080706
 30
0.0
 10
668.8346902880602
 20
639.9432867080706
 30
0.0
  0
LINE
  5
15F
330
1F
100
AcDbEntity
  8
0
  6
SLD-Solid
 62
   142
420
    32960
370
     0
100
AcDbLine
 10
768.8346902881
 20
640.1503378819
 30
0.0
 11
768.8346902881
 21
639.9432867081
 31
0.0
  0
LINE
  5
160
330
1F
100
AcDbEntity
  8
0
  6
SLD-Solid
 62
   142
420
    32960
370
     0
100
AcDbLine
 10
690.0531857073
 20
640.1503378819
 30
0.0
 11
768.8346902881
 21
640.1503378819
 31
0.0
  0
LINE
  5
161
330
1F
100
AcDbEntity
  8
0
  6
SLD-Solid
 62
   142
420
    32960
370
     0
100
AcDbLine
 10
668.8346902881
 20
640.1503378819
 30
0.0
 11
668.8346902881
 21
639.9432867081
 31
0.0
  0
LINE
  5
162
330
1F
100
AcDbEntity
  8
0
  6
SLD-Solid
 62
   142
420
    32960
370
     0
100
AcDbLine
 10
590.0531857073
 20
640.1503378819
 30
0.0
 11
668.8346902881
 21
640.1503378819
 31
0.0
  0
LINE
  5
163
330
1F
100
AcDbEntity
  8
0
  6
SLD-Solid
 62
   142
420
    32960
370
     0
100
AcDbLine
 10
190.0531857073
 20
640.1503378819
 30
0.0
 11
268.8346902881
 21
640.1503378819
 31
0.0
  0
LINE
  5
164
330
1F
100
AcDbEntity
  8
0
  6
SLD-Solid
 62
   142
420
    32960
370
     0
100
AcDbLine
 10
190.0531857073
 20
640.1503378819
 30
0.0
 11
190.0531857073
 21
639.9432867081
 31
0.0
  0
LINE
  5
165
330
1F
100
AcDbEntity
  8
0
  6
SLD-Solid
 62
   142
420
    32960
370
     0
100
AcDbLine
 10
490.0531857073
 20
640.1503378819
 30
0.0
 11
568.8346902881
 21
640.1503378819
 31
0.0
  0
LINE
  5
166
330
1F
100
AcDbEntity
  8
0
  6
SLD-Solid
 62
   142
420
    32960
370
     0
100
AcDbLine
 10
468.8346902881
 20
640.1503378819
 30
0.0
 11
468.8346902881
 21
639.9432867081
 31
0.0
  0
LINE
  5
167
330
1F
100
AcDbEntity
  8
0
  6
SLD-Solid
 62
   142
420
    32960
370
     0
100
AcDbLine
 10
390.0531857073
 20
640.1503378819
 30
0.0
 11
468.8346902881
 21
640.1503378819
 31
0.0
  0
LINE
  5
168
330
1F
100
AcDbEntity
  8
0
  6
SLD-Solid
 62
   142
420
    32960
370
     0
100
AcDbLine
 10
390.0531857073
 20
640.1503378819
 30
0.0
 11
390.0531857073
 21
639.9432867081
 31
0.0
  0
LINE
  5
169
330
1F
100
AcDbEntity
  8
0
  6
SLD-Solid
 62
   142
420
    32960
370
     0
100
AcDbLine
 10
368.8346902881
 20
640.1503378819
 30
0.0
 11
368.8346902881
 21
639.9432867081
 31
0.0
  0
LINE
  5
16A
330
1F
100
AcDbEntity
  8
0
  6
SLD-Solid
 62
   142
420
    32960
370
     0
100
AcDbLine
 10
290.0531857073
 20
640.1503378819
 30
0.0
 11
368.8346902881
 21
640.1503378819
 31
0.0
  0
LINE
  5
16B
330
1F
100
AcDbEntity
  8
0
  6
SLD-Solid
 62
   142
420
    32960
370
     0
100
AcDbLine
 10
290.0531857073
 20
640.1503378819
 30
0.0
 11
290.0531857073
 21
639.9432867081
 31
0.0
  0
LINE
  5
16C
330
1F
100
AcDbEntity
  8
0
  6
SLD-Solid
 62
   142
420
    32960
370
     0
100
AcDbLine
 10
168.8346902881
 20
640.1503378819
 30
0.0
 11
168.8346902881
 21
639.9432867081
 31
0.0
  0
LINE
  5
16D
330
1F
100
AcDbEntity
  8
0
  6
SLD-Solid
 62
   142
420
    32960
370
     0
100
AcDbLine
 10
90.0531857073
 20
640.1503378819
 30
0.0
 11
168.8346902881
 21
640.1503378819
 31
0.0
  0
LINE
  5
16E
330
1F
100
AcDbEntity
  8
0
  6
SLD-Solid
 62
   142
420
    32960
370
     0
100
AcDbLine
 10
90.0531857073
 20
640.1503378819
 30
0.0
 11
90.0531857073
 21
639.9432867081
 31
0.0
  0
LINE
  5
16F
330
1F
100
AcDbEntity
  8
0
  6
SLD-Solid
 62
   142
420
    32960
370
     0
100
AcDbLine
 10
68.8346902881
 20
640.1503378819
 30
0.0
 11
68.8346902881
 21
639.9432867081
 31
0.0
  0
LINE
  5
170
330
1F
100
AcDbEntity
  8
0
  6
SLD-Solid
 62
   142
420
    32960
370
     0
100
AcDbLine
 10
9.4015651163
 20
640.1503378819
 30
0.0
 11
68.8346902881
 21
640.1503378819
 31
0.0
  0
LINE
  5
171
330
1F
100
AcDbEntity
  8
0
  6
SLD-Solid
 62
   142
420
    32960
370
     0
100
AcDbLine
 10
859.4015651163
 20
640.1503378819
 30
0.0
 11
859.4015651163
 21
639.9432867081
 31
0.0
  0
LINE
  5
172
330
1F
100
AcDbEntity
  8
0
  6
SLD-Solid
 62
   142
420
    32960
370
     0
100
AcDbLine
 10
790.0531857073
 20
640.1503378819
 30
0.0
 11
859.4015651163
 21
640.1503378819
 31
0.0
  0
LINE
  5
173
330
1F
100
AcDbEntity
  8
0
  6
SLD-Solid
 62
   142
420
    32960
370
     0
100
AcDbLine
 10
790.0531857073
 20
640.1503378819
 30
0.0
 11
790.0531857073
 21
639.9432867081
 31
0.0
  0
LINE
  5
174
330
1F
100
AcDbEntity
  8
0
  6
SLD-Solid
 62
   142
420
    32960
370
     0
100
AcDbLine
 10
69.3673946496
 20
640.1778265677
 30
0.0
 11
8.8688607548
 21
640.1778265677
 31
0.0
  0
LINE
  5
175
330
1F
100
AcDbEntity
  8
0
  6
SLD-Solid
 62
   142
420
    32960
370
     0
100
AcDbLine
 10
169.3673946496
 20
640.1778265677
 30
0.0
 11
89.5204813458
 21
640.1778265677
 31
0.0
  0
LINE
  5
176
330
1F
100
AcDbEntity
  8
0
  6
SLD-Solid
 62
   142
420
    32960
370
     0
100
AcDbLine
 10
269.3673946496
 20
640.1778265677
 30
0.0
 11
189.5204813458
 21
640.1778265677
 31
0.0
  0
LINE
  5
177
330
1F
100
AcDbEntity
  8
0
  6
SLD-Solid
 62
   142
420
    32960
370
     0
100
AcDbLine
 10
369.3673946496
 20
640.1778265677
 30
0.0
 11
289.5204813458
 21
640.1778265677
 31
0.0
  0
LINE
  5
178
330
1F
100
AcDbEntity
  8
0
  6
SLD-Solid
 62
   142
420
    32960
370
     0
100
AcDbLine
 10
469.3673946496
 20
640.1778265677
 30
0.0
 11
389.5204813458
 21
640.1778265677
 31
0.0
  0
LINE
  5
179
330
1F
100
AcDbEntity
  8
0
  6
SLD-Solid
 62
   142
420
    32960
370
     0
100
AcDbLine
 10
569.3673946496
 20
640.1778265677
 30
0.0
 11
489.5204813458
 21
640.1778265677
 31
0.0
  0
LINE
  5
17A
330
1F
100
AcDbEntity
  8
0
  6
SLD-Solid
 62
   142
420
    32960
370
     0
100
AcDbLine
 10
669.3673946496
 20
640.1778265677
 30
0.0
 11
589.5204813458
 21
640.1778265677
 31
0.0
  0
LINE
  5
17B
330
1F
100
AcDbEntity
  8
0
  6
SLD-Solid
 62
   142
420
    32960
370
     0
100
AcDbLine
 10
769.3673946496
 20
640.1778265677
 30
0.0
 11
689.5204813458
 21
640.1778265677
 31
0.0
  0
LINE
  5
17C
330
1F
100
AcDbEntity
  8
0
  6
SLD-Solid
 62
   142
420
    32960
370
     0
100
AcDbLine
 10
859.9342694778
 20
640.1778265677
 30
0.0
 11
789.5204813458
 21
640.1778265677
 31
0.0
  0
LINE
  5
17D
330
1F
100
AcDbEntity
  8
0
  6
SLD-Solid
 62
   142
420
    32960
370
     0
100
AcDbLine
 10
-15.5984348837
 20
620.8483026952
 30
0.0
 11
-15.5984348837
 21
619.5983026952
 31
0.0
  0
LINE
  5
17E
330
1F
100
AcDbEntity
  8
0
  6
SLD-Solid
 62
   142
420
    32960
370
     0
100
AcDbLine
 10
884.4015651163
 20
620.8483026952
 30
0.0
 11
884.4015651163
 21
619.5983026952
 31
0.0
  0
LINE
  5
17F
330
1F
100
AcDbEntity
  8
0
  6
SLD-Solid
 62
     7
370
    15
100
AcDbLine
 10
884.4015651163
 20
619.5983026952
 30
0.0
 11
884.4015651163
 21
598.3983026952
 31
0.0
  0
LINE
  5
180
330
1F
100
AcDbEntity
  8
0
  6
SLD-Solid
 62
   142
420
    32960
370
     0
100
AcDbLine
 10
-15.5984348837
 20
619.5983026952
 30
0.0
 11
-15.5984348837
 21
598.3983026952
 31
0.0
  0
LINE
  5
181
330
1F
100
AcDbEntity
  8
0
  6
SLD-Solid
 62
     7
370
    15
100
AcDbLine
 10
884.4015651163
 20
596.3483026952
 30
0.0
 11
-15.5984348837
 21
596.3483026952
 31
0.0
  0
LINE
  5
182
330
1F
100
AcDbEntity
  8
0
  6
SLD-Solid
 62
   142
420
    32960
370
     0
100
AcDbLine
 10
-15.5984348837
 20
598.3983026952
 30
0.0
 11
-15.5984348837
 21
596.3483026952
 31
0.0
  0
LINE
  5
183
330
1F
100
AcDbEntity
  8
0
  6
SLD-Solid
 62
   142
420
    32960
370
     0
100
AcDbLine
 10
884.4015651163
 20
598.3983026952
 30
0.0
 11
884.4015651163
 21
596.3483026952
 31
0.0
  0
LINE
  5
184
330
1F
100
AcDbEntity
  8
0
  6
SLD-Solid
 62
   142
420
    32960
370
     0
100
AcDbLine
 10
-15.5984348837
 20
596.3483026952
 30
0.0
 11
-15.5984348837
 21
595.0983026952
 31
0.0
  0
LINE
  5
185
330
1F
100
AcDbEntity
  8
0
  6
SLD-Solid
 62
   142
420
    32960
370
     0
100
AcDbLine
 10
884.4015651163
 20
596.3483026952
 30
0.0
 11
884.4015651163
 21
595.0983026952
 31
0.0
  0
LINE
  5
186
330
1F
100
AcDbEntity
  8
0
  6
SLD-Solid
 62
     7
370
    15
100
AcDbLine
 10
884.4015651163
 20
595.0983026952
 30
0.0
 11
884.4015651163
 21
572.8983026952
 31
0.0
  0
LINE
  5
187
330
1F
100
AcDbEntity
  8
0
  6
SLD-Solid
 62
     7
370
    15
100
AcDbLine
 10
-15.5984348837
 20
595.0983026952
 30
0.0
 11
-15.5984348837
 21
572.8983026952
 31
0.0
  0
ARC
  5
188
330
1F
100
AcDbEntity
  8
0
  6
SLD-Solid
 62
   142
420
    32960
370
     0
100
AcDbCircle
 10
799.4015651163
 20
582.3483026952
 30
0.0
 40
6.5
100
AcDbArc
 50
270.0
 51
319.6000136141
  0
ARC
  5
189
330
1F
100
AcDbEntity
  8
0
  6
SLD-Solid
 62
   142
420
    32960
370
     0
100
AcDbCircle
 10
799.4015651163
 20
582.3483026952
 30
0.0
 40
6.500000000000061
100
AcDbArc
 50
40.3999863859
 51
90.4407411121
  0
ARC
  5
18A
330
1F
100
AcDbEntity
  8
0
  6
SLD-Solid
 62
   142
420
    32960
370
     0
100
AcDbCircle
 10
69.4015651163
 20
582.3483026952
 30
0.0
 40
6.499999999999908
100
AcDbArc
 50
89.5592588879
 51
139.6000136143
  0
ARC
  5
18B
330
1F
100
AcDbEntity
  8
0
  6
SLD-Solid
 62
   142
420
    32960
370
     0
100
AcDbCircle
 10
69.4015651163
 20
582.3483026952
 30
0.0
 40
6.49999999999989
100
AcDbArc
 50
220.3999863857
 51
270.0
  0
ARC
  5
18C
330
1F
100
AcDbEntity
  8
0
  6
SLD-Solid
 62
   142
420
    32960
370
     0
100
AcDbCircle
 10
845.4015651163
 20
580.3483026952
 30
0.0
 40
4.799999999999969
100
AcDbArc
 50
138.5544325213
 51
233.8768392808
  0
ARC
  5
18D
330
1F
100
AcDbEntity
  8
0
  6
SLD-Solid
 62
   142
420
    32960
370
     0
100
AcDbCircle
 10
23.4015651163
 20
580.3483026952
 30
0.0
 40
4.799999999999979
100
AcDbArc
 50
171.548944128
 51
248.5882216303
  0
LINE
  5
18E
330
1F
100
AcDbEntity
  8
0
  6
SLD-Solid
 62
     7
370
    15
100
AcDbLine
 10
884.4015651163
 20
572.8983026952
 30
0.0
 11
884.4015651163
 21
570.8483026952
 31
0.0
  0
LINE
  5
18F
330
1F
100
AcDbEntity
  8
0
  6
SLD-Solid
 62
     7
370
    15
100
AcDbLine
 10
884.4015651163
 20
570.8483026952
 30
0.0
 11
882.3515651163
 21
570.8483026952
 31
0.0
  0
LINE
  5
190
330
1F
100
AcDbEntity
  8
0
  6
SLD-Solid
 62
     7
370
    15
100
AcDbLine
 10
804.3515651163
 20
570.8483026952
 30
0.0
 11
799.3515651163
 21
570.8483026952
 31
0.0
  0
LINE
  5
191
330
1F
100
AcDbEntity
  8
0
  6
SLD-Solid
 62
     7
370
    15
100
AcDbLine
 10
559.4515651163
 20
570.8483026952
 30
0.0
 11
554.3515651163
 21
570.8483026952
 31
0.0
  0
LINE
  5
192
330
1F
100
AcDbEntity
  8
0
  6
SLD-Solid
 62
     7
370
    15
100
AcDbLine
 10
314.4515651163
 20
570.8483026952
 30
0.0
 11
309.3515651163
 21
570.8483026952
 31
0.0
  0
LINE
  5
193
330
1F
100
AcDbEntity
  8
0
  6
SLD-Solid
 62
     7
370
    15
100
AcDbLine
 10
69.4515651163
 20
570.8483026952
 30
0.0
 11
64.4515651163
 21
570.8483026952
 31
0.0
  0
LINE
  5
194
330
1F
100
AcDbEntity
  8
0
  6
SLD-Solid
 62
     7
370
    15
100
AcDbLine
 10
-13.5484348837
 20
570.8483026952
 30
0.0
 11
-15.5984348837
 21
570.8483026952
 31
0.0
  0
LINE
  5
195
330
1F
100
AcDbEntity
  8
0
  6
SLD-Solid
 62
   142
420
    32960
370
     0
100
AcDbLine
 10
-15.5984348837
 20
572.8983026952
 30
0.0
 11
-15.5984348837
 21
570.8483026952
 31
0.0
  0
LINE
  5
196
330
1F
100
AcDbEntity
  8
0
  6
SLD-Solid
 62
   142
420
    32960
370
     0
100
AcDbLine
 10
483.9015651163
 20
-91.9185058032
 30
0.0
 11
483.9015651163
 21
-93.9000448975
 31
0.0
  0
ARC
  5
197
330
1F
100
AcDbEntity
  8
0
  6
SLD-Solid
 62
   142
420
    32960
370
     0
100
AcDbCircle
 10
482.9304268131
 20
-93.8693575128
 30
0.0
 40
0.9716230336755062
100
AcDbArc
 50
268.2978000298
 51
358.190090174
  0
LINE
  5
198
330
1F
100
AcDbEntity
  8
0
  6
SLD-Solid
 62
   142
420
    32960
370
     0
100
AcDbLine
 10
480.9015651163
 20
-94.840551789
 30
0.0
 11
482.9015651163
 21
-94.840551789
 31
0.0
  0
ARC
  5
199
330
1F
100
AcDbEntity
  8
0
  6
SLD-Solid
 62
   142
420
    32960
370
     0
100
AcDbCircle
 10
480.8727034195
 20
-93.8693575128
 30
0.0
 40
0.971623033675385
100
AcDbArc
 50
181.809909826
 51
271.7021999702
  0
LINE
  5
19A
330
1F
100
AcDbEntity
  8
0
  6
SLD-Solid
 62
   142
420
    32960
370
     0
100
AcDbLine
 10
479.9015651163
 20
-91.9185058032
 30
0.0
 11
479.9015651163
 21
-93.9000448975
 31
0.0
  0
ARC
  5
19B
330
1F
100
AcDbEntity
  8
0
  6
SLD-Solid
 62
   142
420
    32960
370
     0
100
AcDbCircle
 10
627.72009317
 20
-95.3239573124
 30
0.0
 40
2.381648798345454
100
AcDbArc
 50
0.7251224719
 51
80.7819046021
  0
ARC
  5
19C
330
1F
100
AcDbEntity
  8
0
  6
SLD-Solid
 62
   142
420
    32960
370
     0
100
AcDbCircle
 10
627.4831398223
 20
-95.3239573125
 30
0.0
 40
2.38164879836741
100
AcDbArc
 50
99.2180953981
 51
179.2748775165
  0
ARC
  5
19D
330
1F
100
AcDbEntity
  8
0
  6
SLD-Solid
 62
   142
420
    32960
370
     0
100
AcDbCircle
 10
627.6016164961
 20
-95.1281920177
 30
0.0
 40
3.50387002963259
100
AcDbArc
 50
182.7093246465
 51
357.2906753696
  0
ARC
  5
19E
330
1F
100
AcDbEntity
  8
0
  6
SLD-Solid
 62
   142
420
    32960
370
     0
100
AcDbCircle
 10
395.4015651163
 20
714.8483026953
 30
0.0
 40
4.000000000000045
100
AcDbArc
 50
36.8698976456
 51
143.1301023539
  0
ARC
  5
19F
330
1F
100
AcDbEntity
  8
0
  6
SLD-Solid
 62
   142
420
    32960
370
     0
100
AcDbCircle
 10
395.4015651163
 20
714.8483026953
 30
0.0
 40
4.000000000000045
100
AcDbArc
 50
216.8698976461
 51
323.1301023544
  0
LINE
  5
1A0
330
1F
100
AcDbEntity
  8
0
  6
SLD-Solid
 62
     7
370
    15
100
AcDbLine
 10
180.9225483145
 20
687.7948846827
 30
0.0
 11
180.9225483145
 21
692.1017207079
 31
0.0
  0
SPLINE
  5
1A1
330
1F
100
AcDbEntity
  8
0
  6
SLD-Solid
 62
     7
370
    15
100
AcDbSpline
210
0.0
220
0.0
230
1.0
 70
     8
 71
     3
 72
     8
 73
     4
 74
     0
 42
0.00000001
 43
0.00000001
 40
0.0
 40
0.0
 40
0.0
 40
0.0
 40
1.0
 40
1.0
 40
1.0
 40
1.0
 10
186.6523363509038
 20
692.1017207078814
 30
0.0
 10
185.715019614725
 20
692.3743650972325
 30
0.0
 10
184.7636301790517
 20
692.5483026952659
 30
0.0
 10
183.7874423326993
 20
692.5483026952659
 30
0.0
  0
LINE
  5
1A2
330
1F
100
AcDbEntity
  8
0
  6
SLD-Solid
 62
     7
370
    15
100
AcDbLine
 10
186.6523363509
 20
687.7948846827
 30
0.0
 11
186.6523363509
 21
692.1017207079
 31
0.0
  0
SPLINE
  5
1A3
330
1F
100
AcDbEntity
  8
0
  6
SLD-Solid
 62
   142
420
    32960
370
     0
100
AcDbSpline
210
0.0
220
0.0
230
1.0
 70
     8
 71
     3
 72
    12
 73
     8
 74
     0
 42
0.00000001
 43
0.00000001
 40
0.0
 40
0.0
 40
0.0
 40
0.0
 40
0.2500000000000148
 40
0.2500000000000148
 40
0.5000000000000296
 40
0.5000000000000296
 40
1.0
 40
1.0
 40
1.0
 40
1.0
 10
183.7874423326993
 20
692.5483026952659
 30
0.0
 10
183.5443075509829
 20
692.5483026952659
 30
0.0
 10
183.3000828999219
 20
692.5377471347425
 30
0.0
 10
182.8169554729508
 20
692.4968984081821
 30
0.0
 10
182.577007629154
 20
692.4666444981422
 30
0.0
 10
181.8614257840147
 20
692.3499583728939
 30
0.0
 10
181.3900368865731
 20
692.2377026351669
 30
0.0
 10
180.9225483144948
 20
692.101720707881
 30
0.0
  0
SPLINE
  5
1A4
330
1F
100
AcDbEntity
  8
0
  6
SLD-Solid
 62
   142
420
    32960
370
     0
100
AcDbSpline
210
0.0
220
0.0
230
1.0
 70
     8
 71
     3
 72
    12
 73
     8
 74
     0
 42
0.00000001
 43
0.00000001
 40
0.0
 40
0.0
 40
0.0
 40
0.0
 40
0.2500000000000148
 40
0.2500000000000148
 40
0.5000000000000296
 40
0.5000000000000296
 40
1.0
 40
1.0
 40
1.0
 40
1.0
 10
183.7874423326993
 20
687.3483026952659
 30
0.0
 10
183.5443075509829
 20
687.3483026952658
 30
0.0
 10
183.3000828999219
 20
687.3588582557893
 30
0.0
 10
182.8169554729508
 20
687.3997069823498
 30
0.0
 10
182.577007629154
 20
687.4299608923898
 30
0.0
 10
181.8614257840147
 20
687.5466470176382
 30
0.0
 10
181.3900368865731
 20
687.6589027553649
 30
0.0
 10
180.9225483144948
 20
687.7948846826507
 30
0.0
  0
SPLINE
  5
1A5
330
1F
100
AcDbEntity
  8
0
  6
SLD-Solid
 62
   142
420
    32960
370
     0
100
AcDbSpline
210
0.0
220
0.0
230
1.0
 70
     8
 71
     3
 72
     8
 73
     4
 74
     0
 42
0.00000001
 43
0.00000001
 40
0.0
 40
0.0
 40
0.0
 40
0.0
 40
1.0
 40
1.0
 40
1.0
 40
1.0
 10
186.6523363509038
 20
687.7948846826505
 30
0.0
 10
185.715019614725
 20
687.5222402932992
 30
0.0
 10
184.7636301790517
 20
687.3483026952659
 30
0.0
 10
183.7874423326993
 20
687.3483026952659
 30
0.0
  0
LINE
  5
1A6
330
1F
100
AcDbEntity
  8
0
  6
SLD-Solid
 62
     7
370
    15
100
AcDbLine
 10
183.7874423327
 20
692.5483026953
 30
0.0
 11
188.3918447518
 21
692.5483026953
 31
0.0
  0
SPLINE
  5
1A7
330
1F
100
AcDbEntity
  8
0
  6
SLD-Solid
 62
     7
370
    15
100
AcDbSpline
210
0.0
220
0.0
230
1.0
 70
     8
 71
     3
 72
    10
 73
     6
 74
     0
 42
0.00000001
 43
0.00000001
 40
0.0
 40
0.0
 40
0.0
 40
0.0
 40
0.5
 40
0.5
 40
1.0
 40
1.0
 40
1.0
 40
1.0
 10
188.3918447518191
 20
692.5483026952659
 30
0.0
 10
188.097721794394
 20
692.5483026952659
 30
0.0
 10
187.7995995875011
 20
692.5052123482315
 30
0.0
 10
187.2185634225123
 20
692.3486819881462
 30
0.0
 10
186.9336051614644
 20
692.2364660619957
 30
0.0
 10
186.6523363509038
 20
692.1017207078806
 30
0.0
  0
LINE
  5
1A8
330
1F
100
AcDbEntity
  8
0
  6
SLD-Solid
 62
   142
420
    32960
370
     0
100
AcDbLine
 10
190.1313531527
 20
691.4983026953
 30
0.0
 11
190.1313531527
 21
692.1017207079
 31
0.0
  0
SPLINE
  5
1A9
330
1F
100
AcDbEntity
  8
0
  6
SLD-Solid
 62
   142
420
    32960
370
     0
100
AcDbSpline
210
0.0
220
0.0
230
1.0
 70
     8
 71
     3
 72
    10
 73
     6
 74
     0
 42
0.00000001
 43
0.00000001
 40
0.0
 40
0.0
 40
0.0
 40
0.0
 40
0.5
 40
0.5
 40
1.0
 40
1.0
 40
1.0
 40
1.0
 10
190.1313531527344
 20
692.1017207078808
 30
0.0
 10
189.8484362041812
 20
692.237255623188
 30
0.0
 10
189.5586737476363
 20
692.3509335220211
 30
0.0
 10
188.9778369500232
 20
692.5063722564138
 30
0.0
 10
188.6857930641854
 20
692.5483026952659
 30
0.0
 10
188.3918447518191
 20
692.5483026952659
 30
0.0
  0
LINE
  5
1AA
330
1F
100
AcDbEntity
  8
0
  6
SLD-Solid
 62
   142
420
    32960
370
     0
100
AcDbLine
 10
187.6716804042
 20
687.4638567339
 30
0.0
 11
186.6523363509
 21
687.7948846827
 31
0.0
  0
LINE
  5
1AB
330
1F
100
AcDbEntity
  8
0
  6
SLD-Solid
 62
     7
370
    15
100
AcDbLine
 10
179.4015651163
 20
692.5483026953
 30
0.0
 11
179.7971626972
 21
692.5483026953
 31
0.0
  0
LINE
  5
1AC
330
1F
100
AcDbEntity
  8
0
  6
SLD-Solid
 62
   142
420
    32960
370
     0
100
AcDbLine
 10
179.7971626972
 20
692.5483026953
 30
0.0
 11
183.7874423327
 21
692.5483026953
 31
0.0
  0
LINE
  5
1AD
330
1F
100
AcDbEntity
  8
0
  6
SLD-Solid
 62
   142
420
    32960
370
     0
100
AcDbLine
 10
188.3918447518
 20
692.5483026953
 30
0.0
 11
189.4015651163
 21
692.5483026953
 31
0.0
  0
LINE
  5
1AE
330
1F
100
AcDbEntity
  8
0
  6
SLD-Solid
 62
     7
370
    15
100
AcDbLine
 10
178.6717770799
 20
687.7948846827
 30
0.0
 11
178.6717770799
 21
692.1017207079
 31
0.0
  0
SPLINE
  5
1AF
330
1F
100
AcDbEntity
  8
0
  6
SLD-Solid
 62
     7
370
    15
100
AcDbSpline
210
0.0
220
0.0
230
1.0
 70
     8
 71
     3
 72
     9
 73
     5
 74
     0
 42
0.00000001
 43
0.00000001
 40
0.0
 40
0.0
 40
0.0
 40
0.0
 40
0.0956043695030061
 40
1.0
 40
1.0
 40
1.0
 40
1.0
 10
179.7971626972057
 20
692.5483026952659
 30
0.0
 10
179.7704798700726
 20
692.5479882710474
 30
0.0
 10
179.4913835560464
 20
692.5446994651059
 30
0.0
 10
179.21788176721
 20
692.3787417679104
 30
0.0
 10
178.9705279444531
 20
692.2286503517195
 30
0.0
  0
SPLINE
  5
1B0
330
1F
100
AcDbEntity
  8
0
  6
SLD-Solid
 62
   142
420
    32960
370
     0
100
AcDbSpline
210
0.0
220
0.0
230
1.0
 70
     8
 71
     3
 72
     8
 73
     4
 74
     0
 42
0.00000001
 43
0.00000001
 40
0.0
 40
0.0
 40
0.0
 40
0.0
 40
1.0
 40
1.0
 40
1.0
 40
1.0
 10
180.9225483144948
 20
692.1017207078814
 30
0.0
 10
180.5543522252025
 20
692.3743650972325
 30
0.0
 10
180.1806281081691
 20
692.5483026952659
 30
0.0
 10
179.7971626972057
 20
692.5483026952659
 30
0.0
  0
SPLINE
  5
1B1
330
1F
100
AcDbEntity
  8
0
  6
SLD-Solid
 62
   142
420
    32960
370
     0
100
AcDbSpline
210
0.0
220
0.0
230
1.0
 70
     8
 71
     3
 72
    12
 73
     8
 74
     0
 42
0.00000001
 43
0.00000001
 40
0.0
 40
0.0
 40
0.0
 40
0.0
 40
0.2500000000000042
 40
0.2500000000000042
 40
0.5000000000000084
 40
0.5000000000000084
 40
1.0
 40
1.0
 40
1.0
 40
1.0
 10
179.7971626972057
 20
687.3483026952659
 30
0.0
 10
179.701654666309
 20
687.3483026952658
 30
0.0
 10
179.6057185137167
 20
687.3588582557892
 30
0.0
 10
179.4159367437187
 20
687.3997069823497
 30
0.0
 10
179.3216806034941
 20
687.4299608923898
 30
0.0
 10
179.0405862553629
 20
687.5466470176382
 30
0.0
 10
178.855415606131
 20
687.658902755365
 30
0.0
 10
178.6717770799166
 20
687.7948846826507
 30
0.0
  0
SPLINE
  5
1B2
330
1F
100
AcDbEntity
  8
0
  6
SLD-Solid
 62
   142
420
    32960
370
     0
100
AcDbSpline
210
0.0
220
0.0
230
1.0
 70
     8
 71
     3
 72
     8
 73
     4
 74
     0
 42
0.00000001
 43
0.00000001
 40
0.0
 40
0.0
 40
0.0
 40
0.0
 40
1.0
 40
1.0
 40
1.0
 40
1.0
 10
180.9225483144948
 20
687.7948846826505
 30
0.0
 10
180.5543522252025
 20
687.5222402932992
 30
0.0
 10
180.1806281081691
 20
687.3483026952659
 30
0.0
 10
179.7971626972057
 20
687.3483026952659
 30
0.0
  0
LINE
  5
1B3
330
1F
100
AcDbEntity
  8
0
  6
SLD-Solid
 62
   142
420
    32960
370
     0
100
AcDbLine
 10
181.7008822565
 20
692.2931198354
 30
0.0
 11
180.4112854808
 21
692.5483026953
 31
0.0
  0
LINE
  5
1B4
330
1F
100
AcDbEntity
  8
0
  6
SLD-Solid
 62
   142
420
    32960
370
     0
100
AcDbLine
 10
181.2906132927
 20
687.5223023439
 30
0.0
 11
180.4112854808
 21
687.3483026953
 31
0.0
  0
SPLINE
  5
1B5
330
1F
100
AcDbEntity
  8
0
  6
SLD-Solid
 62
   142
420
    32960
370
     0
100
AcDbSpline
210
0.0
220
0.0
230
1.0
 70
     8
 71
     3
 72
     9
 73
     5
 74
     0
 42
0.00000001
 43
0.00000001
 40
0.0
 40
0.0
 40
0.0
 40
0.0
 40
0.0979709367165774
 40
1.0
 40
1.0
 40
1.0
 40
1.0
 10
185.0156878999517
 20
687.3483026952659
 30
0.0
 10
185.0836154435844
 20
687.3486048513129
 30
0.0
 10
185.7769592648161
 20
687.3516889909271
 30
0.0
 10
186.4564051306007
 20
687.5135126231637
 30
0.0
 10
187.0692850484662
 20
687.6594822425673
 30
0.0
  0
LINE
  5
1B6
330
1F
100
AcDbEntity
  8
0
  6
SLD-Solid
 62
   142
420
    32960
370
     0
100
AcDbLine
 10
628.1016164962
 20
-93.0070432512
 30
0.0
 11
628.1016164962
 21
-91.9185058032
 31
0.0
  0
LWPOLYLINE
  5
1B7
330
1F
100
AcDbEntity
  8
0
  6
SLD-Solid
 62
   142
420
    32960
370
     0
100
AcDbPolyline
 90
       16
 70
   128
 43
0.0
 10
628.1016164962
 20
-93.0070432512
 10
628.9995516503
 20
-93.3614864777
 10
629.6853777578
 20
-94.0117003213
 10
630.0550342538
 20
-94.8590276746
 10
630.0524330668
 20
-95.7749033488
 10
629.6779688756
 20
-96.6203613015
 10
628.9884592244
 20
-97.2671199883
 10
628.0885235832
 20
-97.6170465539
 10
627.1147094092
 20
-97.6170465539
 10
626.2147737679
 20
-97.2671199883
 10
625.5252641167
 20
-96.6203613015
 10
625.1507999255
 20
-95.7749033488
 10
625.1481987385
 20
-94.8590276746
 10
625.5178552346
 20
-94.0117003213
 10
626.2036813421
 20
-93.3614864777
 10
627.1016164962
 20
-93.0070432512
  0
LINE
  5
1B8
330
1F
100
AcDbEntity
  8
0
  6
SLD-Solid
 62
   142
420
    32960
370
     0
100
AcDbLine
 10
627.1016164962
 20
-93.0070432512
 30
0.0
 11
627.1016164962
 21
-91.9185058032
 31
0.0
  0
ARC
  5
1B9
330
1F
100
AcDbEntity
  8
0
  6
SLD-Solid
 62
   142
420
    32960
370
     0
100
AcDbCircle
 10
482.9592885099
 20
-93.8046926669
 30
0.0
 40
1.943246067350875
100
AcDbArc
 50
268.2978000298
 51
358.190090174
  0
LINE
  5
1BA
330
1F
100
AcDbEntity
  8
0
  6
SLD-Solid
 62
   142
420
    32960
370
     0
100
AcDbLine
 10
480.9015651163
 20
-95.7470812192
 30
0.0
 11
482.9015651163
 21
-95.7470812192
 31
0.0
  0
ARC
  5
1BB
330
1F
100
AcDbEntity
  8
0
  6
SLD-Solid
 62
   142
420
    32960
370
     0
100
AcDbCircle
 10
480.8438417228
 20
-93.8046926669
 30
0.0
 40
1.943246067350888
100
AcDbArc
 50
181.809909826
 51
271.7021999702
  0
SPLINE
  5
1BC
330
1F
100
AcDbEntity
  8
0
  6
SLD-Solid
 62
     7
370
    15
100
AcDbSpline
210
0.0
220
0.0
230
1.0
 70
     8
 71
     3
 72
    10
 73
     6
 74
     0
 42
0.00000001
 43
0.00000001
 40
0.0
 40
0.0
 40
0.0
 40
0.0
 40
0.3844979385118718
 40
0.7689958770237825
 40
1.0
 40
1.0
 40
1.0
 40
1.0
 10
-16.59843488367846
 20
-35.50169730474467
 30
0.0
 10
-16.56625186433575
 20
-35.45645620317689
 30
0.0
 10
-16.50188582565043
 20
-35.36597400004143
 30
0.0
 10
-16.10870083075783
 20
-35.24831120646971
 30
0.0
 10
-15.73768199108821
 20
-35.17588951446615
 30
0.0
 10
-15.59843488368068
 20
-35.14870892403022
 30
0.0
  0
LINE
  5
1BD
330
1F
100
AcDbEntity
  8
0
  6
SLD-Solid
 62
     7
370
    15
100
AcDbLine
 10
-16.5984348837
 20
-51.1096240982
 30
0.0
 11
-16.5984348837
 21
-35.5016973047
 31
0.0
  0
SPLINE
  5
1BE
330
1F
100
AcDbEntity
  8
0
  6
SLD-Solid
 62
   142
420
    32960
370
     0
100
AcDbSpline
210
0.0
220
0.0
230
1.0
 70
     8
 71
     3
 72
    10
 73
     6
 74
     0
 42
0.00000001
 43
0.00000001
 40
0.0
 40
0.0
 40
0.0
 40
0.0
 40
0.2310041229774044
 40
0.6155020614887211
 40
1.0
 40
1.0
 40
1.0
 40
1.0
 10
-15.59843488367813
 20
-51.29827541605875
 30
0.0
 10
-15.73768199108655
 20
-51.28374900531524
 30
0.0
 10
-16.10870083075716
 20
-51.24504391363366
 30
0.0
 10
-16.50188582565032
 20
-51.18216014101395
 30
0.0
 10
-16.56625186433563
 20
-51.13380277913776
 30
0.0
 10
-16.59843488367846
 20
-51.1096240981998
 30
0.0
  0
LINE
  5
1BF
330
1F
100
AcDbEntity
  8
0
  6
SLD-Solid
 62
     7
370
    15
100
AcDbLine
 10
-16.5984348837
 20
-88.9912558901
 30
0.0
 11
-16.5984348837
 21
-51.1096240982
 31
0.0
  0
SPLINE
  5
1C0
330
1F
100
AcDbEntity
  8
0
  6
SLD-Solid
 62
   142
420
    32960
370
     0
100
AcDbSpline
210
0.0
220
0.0
230
1.0
 70
     8
 71
     3
 72
    11
 73
     7
 74
     0
 42
0.00000001
 43
0.00000001
 40
0.0
 40
0.0
 40
0.0
 40
0.0
 40
0.1487266808526899
 40
0.4898065598976304
 40
0.8308861428331783
 40
1.0
 40
1.0
 40
1.0
 40
1.0
 10
-15.5984348836779
 20
-90.80691758188885
 30
0.0
 10
-15.69100382558203
 20
-90.75259590180079
 30
0.0
 10
-15.9958642227051
 20
-90.57369649317293
 30
0.0
 10
-16.35495292672978
 20
-90.06582615568354
 30
0.0
 10
-16.57427758684388
 20
-89.48217114023416
 30
0.0
 10
-16.59242091376706
 20
-89.11346946237553
 30
0.0
 10
-16.59843488367846
 20
-88.99125589006057
 30
0.0
  0
SPLINE
  5
1C1
330
1F
100
AcDbEntity
  8
0
  6
SLD-Solid
 62
   142
420
    32960
370
     0
100
AcDbSpline
210
0.0
220
0.0
230
1.0
 70
     8
 71
     3
 72
    10
 73
     6
 74
     0
 42
0.00000001
 43
0.00000001
 40
0.0
 40
0.0
 40
0.0
 40
0.0
 40
0.3844979385119122
 40
0.7689958770237859
 40
1.0
 40
1.0
 40
1.0
 40
1.0
 10
-16.59843488367857
 20
-51.1096240981998
 30
0.0
 10
-16.56625186433575
 20
-51.35519576594471
 30
0.0
 10
-16.5018858256501
 20
-51.84633910143438
 30
0.0
 10
-16.10870083075761
 20
-52.41726951415804
 30
0.0
 10
-15.7376819910881
 20
-52.6111140748805
 30
0.0
 10
-15.59843488368079
 20
-52.68386589091051
 30
0.0
  0
SPLINE
  5
1C2
330
1F
100
AcDbEntity
  8
0
  6
SLD-Solid
 62
   142
420
    32960
370
     0
100
AcDbSpline
210
0.0
220
0.0
230
1.0
 70
     8
 71
     3
 72
    10
 73
     6
 74
     0
 42
0.00000001
 43
0.00000001
 40
0.0
 40
0.0
 40
0.0
 40
0.0
 40
0.2310041229762055
 40
0.6155020614881157
 40
1.0
 40
1.0
 40
1.0
 40
1.0
 10
-15.59843488368068
 20
-33.78514499899965
 30
0.0
 10
-15.7376819910881
 20
-33.86636070226589
 30
0.0
 10
-16.10870083075783
 20
-34.08275698187158
 30
0.0
 10
-16.50188582565032
 20
-34.70350091981689
 30
0.0
 10
-16.56625186433575
 20
-35.23563184310202
 30
0.0
 10
-16.59843488367846
 20
-35.50169730474467
 30
0.0
  0
LINE
  5
1C3
330
1F
100
AcDbEntity
  8
0
  6
SLD-Solid
 62
   142
420
    32960
370
     0
100
AcDbLine
 10
-14.3984348837
 20
49.4483026953
 30
0.0
 11
-14.3984348837
 21
50.6483026953
 31
0.0
  0
LINE
  5
1C4
330
1F
100
AcDbEntity
  8
0
  6
SLD-Solid
 62
     7
370
    15
100
AcDbLine
 10
143.4015651163
 20
-102.5271265609
 30
0.0
 11
143.4015651163
 21
-91.9185058032
 31
0.0
  0
ARC
  5
1C5
330
1F
100
AcDbEntity
  8
0
  6
SLD-Solid
 62
   142
420
    32960
370
     0
100
AcDbCircle
 10
152.0419304505
 20
-91.6206643098
 30
0.0
 40
0.9768703153321602
100
AcDbArc
 50
300.4073827834
 51
342.2482381027
  0
LINE
  5
1C6
330
1F
100
AcDbEntity
  8
0
  6
SLD-Solid
 62
   142
420
    32960
370
     0
100
AcDbLine
 10
140.4015651163
 20
-91.9185058032
 30
0.0
 11
140.4015651163
 21
-102.5271265609
 31
0.0
  0
ARC
  5
1C7
330
1F
100
AcDbEntity
  8
0
  6
SLD-Solid
 62
   142
420
    32960
370
     0
100
AcDbCircle
 10
140.0201905741
 20
-134.3296567037
 30
0.0
 40
42.77178596746938
100
AcDbArc
 50
97.4455800572
 51
101.8092612125
  0
LWPOLYLINE
  5
1C8
330
1F
100
AcDbEntity
  8
0
  6
SLD-Solid
 62
   142
420
    32960
370
     0
100
AcDbPolyline
 90
        9
 70
   128
 43
0.0
 10
140.4015651163
 20
-102.5271265609
 10
140.5157458176
 20
-102.704510087
 10
140.8409049445
 20
-102.8548885792
 10
141.3275399678
 20
-102.9553682753
 10
141.9015651163
 20
-102.9906520524
 10
142.4755902649
 20
-102.9553682753
 10
142.9622252881
 20
-102.8548885792
 10
143.2873844151
 20
-102.704510087
 10
143.4015651163
 20
-102.5271265609
  0
ARC
  5
1C9
330
1F
100
AcDbEntity
  8
0
  6
SLD-Solid
 62
   142
420
    32960
370
     0
100
AcDbCircle
 10
141.3776922406
 20
-102.0766997297
 30
0.0
 40
0.9764498166443968
100
AcDbArc
 50
88.5990561917
 51
178.5269450074
  0
ARC
  5
1CA
330
1F
100
AcDbEntity
  8
0
  6
SLD-Solid
 62
   142
420
    32960
370
     0
100
AcDbCircle
 10
142.425437992
 20
-102.0766997297
 30
0.0
 40
0.9764498166442813
100
AcDbArc
 50
1.4730549926
 51
91.4009438083
  0
LWPOLYLINE
  5
1CB
330
1F
100
AcDbEntity
  8
0
  6
SLD-Solid
 62
   142
420
    32960
370
     0
100
AcDbPolyline
 90
        9
 70
   128
 43
0.0
 10
141.4015651163
 20
-101.1005417864
 10
141.4396253501
 20
-101.1596696285
 10
141.5480117257
 20
-101.2097957925
 10
141.7102234001
 20
-101.2432890246
 10
141.9015651163
 20
-101.2550502836
 10
142.0929068325
 20
-101.2432890246
 10
142.2551185069
 20
-101.2097957925
 10
142.3635048826
 20
-101.1596696285
 10
142.4015651163
 20
-101.1005417864
  0
LINE
  5
1CC
330
1F
100
AcDbEntity
  8
0
  6
SLD-Solid
 62
     7
370
    15
100
AcDbLine
 10
151.5757291525
 20
-96.0263437303
 30
0.0
 11
151.5683796282
 21
-96.2315391971
 31
0.0
  0
ARC
  5
1CD
330
1F
100
AcDbEntity
  8
0
  6
SLD-Solid
 62
   142
420
    32960
370
     0
100
AcDbCircle
 10
131.1742834673
 20
-91.5901167729
 30
0.0
 40
0.8779320999911853
100
AcDbArc
 50
201.9655056417
 51
276.0465602684
  0
ARC
  5
1CE
330
1F
100
AcDbEntity
  8
0
  6
SLD-Solid
 62
   142
420
    32960
370
     0
100
AcDbCircle
 10
131.353621274
 20
-101.0320633058
 30
0.0
 40
1.056025610322225
100
AcDbArc
 50
182.228814608
 51
265.2820210055
  0
ARC
  5
1CF
330
1F
100
AcDbEntity
  8
0
  6
SLD-Solid
 62
   142
420
    32960
370
     0
100
AcDbCircle
 10
152.6250660734
 20
-91.583823144
 30
0.0
 40
0.8838035354356343
100
AcDbArc
 50
264.2401525825
 51
337.7477815074
  0
ARC
  5
1D0
330
1F
100
AcDbEntity
  8
0
  6
SLD-Solid
 62
   142
420
    32960
370
     0
100
AcDbCircle
 10
152.4495089586
 20
-101.0320633058
 30
0.0
 40
1.056025610322016
100
AcDbArc
 50
274.7179789945
 51
357.771185392
  0
ARC
  5
1D1
330
1F
100
AcDbEntity
  8
0
  6
SLD-Solid
 62
   142
420
    32960
370
     0
100
AcDbCircle
 10
152.6761756426
 20
-101.7873980733
 30
0.0
 40
0.3283625867094232
100
AcDbArc
 50
244.8005252402
 51
329.0472742273
  0
ARC
  5
1D2
330
1F
100
AcDbEntity
  8
0
  6
SLD-Solid
 62
   142
420
    32960
370
     0
100
AcDbCircle
 10
131.1269546172
 20
-101.7874022189
 30
0.0
 40
0.3283588241371703
100
AcDbArc
 50
210.9564726157
 51
295.1997784618
  0
ARC
  5
1D3
330
1F
100
AcDbEntity
  8
0
  6
SLD-Solid
 62
   142
420
    32960
370
     0
100
AcDbCircle
 10
153.0388861997
 20
-101.2180322845
 30
0.0
 40
0.4878644017476147
100
AcDbArc
 50
307.8229808006
 51
17.2780034262
  0
ARC
  5
1D4
330
1F
100
AcDbEntity
  8
0
  6
SLD-Solid
 62
   142
420
    32960
370
     0
100
AcDbCircle
 10
130.7642342484
 20
-101.2180329945
 30
0.0
 40
0.4878552696160232
100
AcDbArc
 50
162.7215756541
 51
232.1699982603
  0
LINE
  5
1D5
330
1F
100
AcDbEntity
  8
0
  6
SLD-Solid
 62
     7
370
    15
100
AcDbLine
 10
884.4015651163
 20
58.2483026952
 30
0.0
 11
884.4015651163
 21
53.2483026952
 31
0.0
  0
LINE
  5
1D6
330
1F
100
AcDbEntity
  8
0
  6
SLD-Solid
 62
     7
370
    15
100
AcDbLine
 10
884.4015651163
 20
563.2483026952
 30
0.0
 11
884.4015651163
 21
58.2483026952
 31
0.0
  0
LINE
  5
1D7
330
1F
100
AcDbEntity
  8
0
  6
SLD-Solid
 62
     7
370
    15
100
AcDbLine
 10
884.4015651163
 20
568.2483026952
 30
0.0
 11
884.4015651163
 21
563.2483026952
 31
0.0
  0
LINE
  5
1D8
330
1F
100
AcDbEntity
  8
0
  6
SLD-Solid
 62
   142
420
    32960
370
     0
100
AcDbLine
 10
883.6015651163
 20
563.2483026952
 30
0.0
 11
883.6015651163
 21
58.2483026952
 31
0.0
  0
LINE
  5
1D9
330
1F
100
AcDbEntity
  8
0
  6
SLD-Solid
 62
   142
420
    32960
370
     0
100
AcDbLine
 10
883.6015651163
 20
568.2483026952
 30
0.0
 11
883.6015651163
 21
563.2483026952
 31
0.0
  0
LINE
  5
1DA
330
1F
100
AcDbEntity
  8
0
  6
SLD-Solid
 62
   142
420
    32960
370
     0
100
AcDbLine
 10
884.4015651163
 20
568.2483026952
 30
0.0
 11
883.6015651163
 21
568.2483026952
 31
0.0
  0
LINE
  5
1DB
330
1F
100
AcDbEntity
  8
0
  6
SLD-Solid
 62
   142
420
    32960
370
     0
100
AcDbLine
 10
883.6015651163
 20
58.2483026952
 30
0.0
 11
883.6015651163
 21
53.2483026952
 31
0.0
  0
LINE
  5
1DC
330
1F
100
AcDbEntity
  8
0
  6
SLD-Solid
 62
   142
420
    32960
370
     0
100
AcDbLine
 10
884.4015651163
 20
53.2483026952
 30
0.0
 11
883.6015651163
 21
53.2483026952
 31
0.0
  0
LINE
  5
1DD
330
1F
100
AcDbEntity
  8
0
  6
SLD-Solid
 62
   142
420
    32960
370
     0
100
AcDbLine
 10
883.6015651163
 20
568.2483026952
 30
0.0
 11
883.4192729415
 21
568.2483026952
 31
0.0
  0
LINE
  5
1DE
330
1F
100
AcDbEntity
  8
0
  6
SLD-Solid
 62
   142
420
    32960
370
     0
100
AcDbLine
 10
883.4192729415
 20
53.2483026952
 30
0.0
 11
883.6015651163
 21
53.2483026952
 31
0.0
  0
LINE
  5
1DF
330
1F
100
AcDbEntity
  8
0
  6
SLD-Solid
 62
   142
420
    32960
370
     0
100
AcDbLine
 10
781.4015651163
 20
-91.9185058032
 30
0.0
 11
781.4015651163
 21
-93.9000448975
 31
0.0
  0
ARC
  5
1E0
330
1F
100
AcDbEntity
  8
0
  6
SLD-Solid
 62
   142
420
    32960
370
     0
100
AcDbCircle
 10
780.4304268131
 20
-93.8693575128
 30
0.0
 40
0.9716230336757922
100
AcDbArc
 50
268.2978000298
 51
358.190090174
  0
LINE
  5
1E1
330
1F
100
AcDbEntity
  8
0
  6
SLD-Solid
 62
   142
420
    32960
370
     0
100
AcDbLine
 10
778.4015651163
 20
-94.840551789
 30
0.0
 11
780.4015651163
 21
-94.840551789
 31
0.0
  0
ARC
  5
1E2
330
1F
100
AcDbEntity
  8
0
  6
SLD-Solid
 62
   142
420
    32960
370
     0
100
AcDbCircle
 10
778.3727034195
 20
-93.8693575128
 30
0.0
 40
0.9716230336756754
100
AcDbArc
 50
181.809909826
 51
271.7021999702
  0
LINE
  5
1E3
330
1F
100
AcDbEntity
  8
0
  6
SLD-Solid
 62
   142
420
    32960
370
     0
100
AcDbLine
 10
777.4015651163
 20
-91.9185058032
 30
0.0
 11
777.4015651163
 21
-93.9000448975
 31
0.0
  0
LINE
  5
1E4
330
1F
100
AcDbEntity
  8
0
  6
SLD-Solid
 62
   142
420
    32960
370
     0
100
AcDbLine
 10
883.2015651163
 20
48.1983026953
 30
0.0
 11
882.3515651163
 21
48.1983026953
 31
0.0
  0
LINE
  5
1E5
330
1F
100
AcDbEntity
  8
0
  6
SLD-Solid
 62
   142
420
    32960
370
     0
100
AcDbLine
 10
804.3515651163
 20
48.1983026953
 30
0.0
 11
799.3515651163
 21
48.1983026953
 31
0.0
  0
LINE
  5
1E6
330
1F
100
AcDbEntity
  8
0
  6
SLD-Solid
 62
   142
420
    32960
370
     0
100
AcDbLine
 10
559.4515651163
 20
48.1983026953
 30
0.0
 11
554.3515651163
 21
48.1983026953
 31
0.0
  0
LINE
  5
1E7
330
1F
100
AcDbEntity
  8
0
  6
SLD-Solid
 62
   142
420
    32960
370
     0
100
AcDbLine
 10
314.4515651163
 20
48.1983026953
 30
0.0
 11
309.3515651163
 21
48.1983026953
 31
0.0
  0
LINE
  5
1E8
330
1F
100
AcDbEntity
  8
0
  6
SLD-Solid
 62
   142
420
    32960
370
     0
100
AcDbLine
 10
69.4515651163
 20
48.1983026953
 30
0.0
 11
64.4515651163
 21
48.1983026953
 31
0.0
  0
LINE
  5
1E9
330
1F
100
AcDbEntity
  8
0
  6
SLD-Solid
 62
   142
420
    32960
370
     0
100
AcDbLine
 10
-13.5484348837
 20
48.1983026953
 30
0.0
 11
-14.3984348837
 21
48.1983026953
 31
0.0
  0
LINE
  5
1EA
330
1F
100
AcDbEntity
  8
0
  6
SLD-Solid
 62
     7
370
    15
100
AcDbLine
 10
883.2015651163
 20
26.3983026953
 30
0.0
 11
883.2015651163
 21
48.1983026953
 31
0.0
  0
LINE
  5
1EB
330
1F
100
AcDbEntity
  8
0
  6
SLD-Solid
 62
   142
420
    32960
370
     0
100
AcDbLine
 10
883.2015651163
 20
26.3983026953
 30
0.0
 11
-14.3984348837
 21
26.3983026953
 31
0.0
  0
LINE
  5
1EC
330
1F
100
AcDbEntity
  8
0
  6
SLD-Solid
 62
     7
370
    15
100
AcDbLine
 10
-14.3984348837
 20
26.3983026953
 30
0.0
 11
-14.3984348837
 21
48.1983026953
 31
0.0
  0
ARC
  5
1ED
330
1F
100
AcDbEntity
  8
0
  6
SLD-Solid
 62
   142
420
    32960
370
     0
100
AcDbCircle
 10
23.4015651163
 20
41.1483026953
 30
0.0
 40
4.799999999999935
100
AcDbArc
 50
104.8187076862
 51
186.420602468
  0
ARC
  5
1EE
330
1F
100
AcDbEntity
  8
0
  6
SLD-Solid
 62
   142
420
    32960
370
     0
100
AcDbCircle
 10
845.4015651163
 20
41.1483026953
 30
0.0
 40
4.800000000000027
100
AcDbArc
 50
125.0737861889
 51
220.2574562026
  0
ARC
  5
1EF
330
1F
100
AcDbEntity
  8
0
  6
SLD-Solid
 62
   142
420
    32960
370
     0
100
AcDbCircle
 10
69.4015651163
 20
39.1483026953
 30
0.0
 40
6.499999999999883
100
AcDbArc
 50
89.5592588879
 51
139.6000136143
  0
ARC
  5
1F0
330
1F
100
AcDbEntity
  8
0
  6
SLD-Solid
 62
   142
420
    32960
370
     0
100
AcDbCircle
 10
69.4015651163
 20
39.1483026953
 30
0.0
 40
6.499999999999901
100
AcDbArc
 50
220.3999863857
 51
270.0
  0
ARC
  5
1F1
330
1F
100
AcDbEntity
  8
0
  6
SLD-Solid
 62
   142
420
    32960
370
     0
100
AcDbCircle
 10
799.4015651163
 20
39.1483026953
 30
0.0
 40
6.500000000000008
100
AcDbArc
 50
270.0
 51
319.6000136142
  0
ARC
  5
1F2
330
1F
100
AcDbEntity
  8
0
  6
SLD-Solid
 62
   142
420
    32960
370
     0
100
AcDbCircle
 10
799.4015651163
 20
39.1483026953
 30
0.0
 40
6.500000000000004
100
AcDbArc
 50
40.3999863858
 51
90.4407411121
  0
LINE
  5
1F3
330
1F
100
AcDbEntity
  8
0
  6
SLD-Solid
 62
   142
420
    32960
370
     0
100
AcDbLine
 10
883.2015651163
 20
48.1983026953
 30
0.0
 11
883.2015651163
 21
50.6483026953
 31
0.0
  0
LINE
  5
1F4
330
1F
100
AcDbEntity
  8
0
  6
SLD-Solid
 62
     7
370
    15
100
AcDbLine
 10
882.3515651163
 20
29.7983026952
 30
0.0
 11
882.3515651163
 21
591.7983026952
 31
0.0
  0
CIRCLE
  5
1F5
330
1F
100
AcDbEntity
  8
0
  6
SLD-Solid
 62
     7
370
    15
100
AcDbCircle
 10
840.3515651163
 20
579.7983026952
 30
0.0
 40
7.500000000000114
  0
CIRCLE
  5
1F6
330
1F
100
AcDbEntity
  8
0
  6
SLD-Solid
 62
     7
370
    15
100
AcDbCircle
 10
840.3515651163
 20
41.7983026952
 30
0.0
 40
7.5
  0
LINE
  5
1F7
330
1F
100
AcDbEntity
  8
0
  6
SLD-Solid
 62
     7
370
    15
100
AcDbLine
 10
804.3515651163
 20
591.7983026952
 30
0.0
 11
804.3515651163
 21
29.7983026952
 31
0.0
  0
LINE
  5
1F8
330
1F
100
AcDbEntity
  8
0
  6
SLD-Solid
 62
     7
370
    15
100
AcDbLine
 10
882.3515651163
 20
591.7983026952
 30
0.0
 11
804.3515651163
 21
591.7983026952
 31
0.0
  0
LINE
  5
1F9
330
1F
100
AcDbEntity
  8
0
  6
SLD-Solid
 62
     7
370
    15
100
AcDbLine
 10
804.3515651163
 20
29.7983026952
 30
0.0
 11
882.3515651163
 21
29.7983026952
 31
0.0
  0
CIRCLE
  5
1FA
330
1F
100
AcDbEntity
  8
0
  6
SLD-Solid
 62
     7
370
    15
100
AcDbCircle
 10
840.3515651163
 20
579.7983026952
 30
0.0
 40
4.0
  0
CIRCLE
  5
1FB
330
1F
100
AcDbEntity
  8
0
  6
SLD-Solid
 62
     7
370
    15
100
AcDbCircle
 10
840.3515651163
 20
41.7983026952
 30
0.0
 40
4.0
  0
ARC
  5
1FC
330
1F
100
AcDbEntity
  8
0
  6
SLD-Solid
 62
   142
420
    32960
370
     0
100
AcDbCircle
 10
786.6434740399
 20
-91.5379446771
 30
0.0
 40
15.59591360520445
100
AcDbArc
 50
338.6102845448
 51
358.6017676596
  0
ARC
  5
1FD
330
1F
100
AcDbEntity
  8
0
  6
SLD-Solid
 62
   142
420
    32960
370
     0
100
AcDbCircle
 10
804.9435536368
 20
-91.4719099453
 30
0.0
 40
6.883671770093101
100
AcDbArc
 50
183.7198232552
 51
236.7089678534
  0
LINE
  5
1FE
330
1F
100
AcDbEntity
  8
0
  6
SLD-Solid
 62
     7
370
    15
100
AcDbLine
 10
-15.5984348837
 20
22.6983026953
 30
0.0
 11
-15.5984348837
 21
-68.6185058032
 31
0.0
  0
LINE
  5
1FF
330
1F
100
AcDbEntity
  8
0
  6
SLD-Solid
 62
     7
370
    15
100
AcDbLine
 10
-15.5984348837
 20
22.6983026953
 30
0.0
 11
-13.1484348837
 21
22.6983026953
 31
0.0
  0
LINE
  5
200
330
1F
100
AcDbEntity
  8
0
  6
SLD-Solid
 62
   142
420
    32960
370
     0
100
AcDbLine
 10
-13.1484348837
 20
-68.6185058032
 30
0.0
 11
-15.5984348837
 21
-68.6185058032
 31
0.0
  0
LINE
  5
201
330
1F
100
AcDbEntity
  8
0
  6
SLD-Solid
 62
     7
370
    15
100
AcDbLine
 10
881.9515651163
 20
25.1483026953
 30
0.0
 11
881.9515651163
 21
22.6983026953
 31
0.0
  0
LINE
  5
202
330
1F
100
AcDbEntity
  8
0
  6
SLD-Solid
 62
     7
370
    15
100
AcDbLine
 10
884.4015651163
 20
-68.6185058032
 30
0.0
 11
884.4015651163
 21
22.6983026953
 31
0.0
  0
LINE
  5
203
330
1F
100
AcDbEntity
  8
0
  6
SLD-Solid
 62
   142
420
    32960
370
     0
100
AcDbLine
 10
884.4015651163
 20
-68.6185058032
 30
0.0
 11
881.9515651163
 21
-68.6185058032
 31
0.0
  0
LINE
  5
204
330
1F
100
AcDbEntity
  8
0
  6
SLD-Solid
 62
   142
420
    32960
370
     0
100
AcDbLine
 10
881.9515651163
 20
22.6983026953
 30
0.0
 11
884.4015651163
 21
22.6983026953
 31
0.0
  0
LINE
  5
205
330
1F
100
AcDbEntity
  8
0
  6
SLD-Solid
 62
     7
370
    15
100
AcDbLine
 10
881.9515651163
 20
25.1483026953
 30
0.0
 11
-13.1484348837
 21
25.1483026953
 31
0.0
  0
LINE
  5
206
330
1F
100
AcDbEntity
  8
0
  6
SLD-Solid
 62
   142
420
    32960
370
     0
100
AcDbLine
 10
-13.1484348837
 20
22.6983026953
 30
0.0
 11
-13.1484348837
 21
25.1483026953
 31
0.0
  0
LINE
  5
207
330
1F
100
AcDbEntity
  8
0
  6
SLD-Solid
 62
     7
370
    15
100
AcDbLine
 10
883.2015651163
 20
-91.9185058032
 30
0.0
 11
883.2015651163
 21
-69.1185058032
 31
0.0
  0
LINE
  5
208
330
1F
100
AcDbEntity
  8
0
  6
SLD-Solid
 62
     7
370
    15
100
AcDbLine
 10
-14.3984348837
 20
-91.9185058032
 30
0.0
 11
-14.3984348837
 21
-69.1185058032
 31
0.0
  0
LINE
  5
209
330
1F
100
AcDbEntity
  8
0
  6
SLD-Solid
 62
   142
420
    32960
370
     0
100
AcDbLine
 10
881.9515651163
 20
-69.1185058032
 30
0.0
 11
883.2015651163
 21
-69.1185058032
 31
0.0
  0
LINE
  5
20A
330
1F
100
AcDbEntity
  8
0
  6
SLD-Solid
 62
   142
420
    32960
370
     0
100
AcDbLine
 10
881.9515651163
 20
-68.6185058032
 30
0.0
 11
881.9515651163
 21
-69.1185058032
 31
0.0
  0
LINE
  5
20B
330
1F
100
AcDbEntity
  8
0
  6
SLD-Solid
 62
   142
420
    32960
370
     0
100
AcDbLine
 10
-13.1484348837
 20
-69.1185058032
 30
0.0
 11
-13.1484348837
 21
-68.6185058032
 31
0.0
  0
LINE
  5
20C
330
1F
100
AcDbEntity
  8
0
  6
SLD-Solid
 62
   142
420
    32960
370
     0
100
AcDbLine
 10
-14.3984348837
 20
-69.1185058032
 30
0.0
 11
-13.1484348837
 21
-69.1185058032
 31
0.0
  0
LINE
  5
20D
330
1F
100
AcDbEntity
  8
0
  6
SLD-Solid
 62
     7
370
    15
100
AcDbLine
 10
-15.5984348837
 20
26.3983026953
 30
0.0
 11
-15.5984348837
 21
48.1983026953
 31
0.0
  0
LINE
  5
20E
330
1F
100
AcDbEntity
  8
0
  6
SLD-Solid
 62
     7
370
    15
100
AcDbLine
 10
-15.5984348837
 20
-90.6185058032
 30
0.0
 11
-15.5984348837
 21
-69.1185058032
 31
0.0
  0
LINE
  5
20F
330
1F
100
AcDbEntity
  8
0
  6
SLD-Solid
 62
   142
420
    32960
370
     0
100
AcDbLine
 10
-15.5984348837
 20
-69.1185058032
 30
0.0
 11
-15.5984348837
 21
-68.6185058032
 31
0.0
  0
LINE
  5
210
330
1F
100
AcDbEntity
  8
0
  6
SLD-Solid
 62
   142
420
    32960
370
     0
100
AcDbLine
 10
-15.5984348837
 20
22.6983026953
 30
0.0
 11
-15.5984348837
 21
23.9383026953
 31
0.0
  0
LINE
  5
211
330
1F
100
AcDbEntity
  8
0
  6
SLD-Solid
 62
   142
420
    32960
370
     0
100
AcDbLine
 10
-15.5984348837
 20
23.9383026953
 30
0.0
 11
-15.5984348837
 21
26.3983026953
 31
0.0
  0
LINE
  5
212
330
1F
100
AcDbEntity
  8
0
  6
SLD-Solid
 62
   142
420
    32960
370
     0
100
AcDbLine
 10
-15.5984348837
 20
48.1983026953
 30
0.0
 11
-15.5984348837
 21
49.4383026953
 31
0.0
  0
LINE
  5
213
330
1F
100
AcDbEntity
  8
0
  6
SLD-Solid
 62
   142
420
    32960
370
     0
100
AcDbLine
 10
-14.3984348837
 20
48.1983026953
 30
0.0
 11
-14.3984348837
 21
49.4383026953
 31
0.0
  0
LINE
  5
214
330
1F
100
AcDbEntity
  8
0
  6
SLD-Solid
 62
   142
420
    32960
370
     0
100
AcDbLine
 10
-14.3984348837
 20
23.9383026953
 30
0.0
 11
-14.3984348837
 21
26.3983026953
 31
0.0
  0
LINE
  5
215
330
1F
100
AcDbEntity
  8
0
  6
SLD-Solid
 62
   142
420
    32960
370
     0
100
AcDbLine
 10
-14.3984348837
 20
22.6983026953
 30
0.0
 11
-14.3984348837
 21
23.9383026953
 31
0.0
  0
LINE
  5
216
330
1F
100
AcDbEntity
  8
0
  6
SLD-Solid
 62
   142
420
    32960
370
     0
100
AcDbLine
 10
-14.3984348837
 20
-69.1185058032
 30
0.0
 11
-14.3984348837
 21
-68.6185058032
 31
0.0
  0
LINE
  5
217
330
1F
100
AcDbEntity
  8
0
  6
SLD-Solid
 62
     7
370
    15
100
AcDbLine
 10
884.4015651163
 20
-90.6185058032
 30
0.0
 11
884.4015651163
 21
-69.1185058032
 31
0.0
  0
LINE
  5
218
330
1F
100
AcDbEntity
  8
0
  6
SLD-Solid
 62
     7
370
    15
100
AcDbLine
 10
884.4015651163
 20
23.9383026953
 30
0.0
 11
884.4015651163
 21
26.3983026953
 31
0.0
  0
LINE
  5
219
330
1F
100
AcDbEntity
  8
0
  6
SLD-Solid
 62
     7
370
    15
100
AcDbLine
 10
884.4015651163
 20
26.3983026953
 30
0.0
 11
884.4015651163
 21
48.1983026953
 31
0.0
  0
LINE
  5
21A
330
1F
100
AcDbEntity
  8
0
  6
SLD-Solid
 62
   142
420
    32960
370
     0
100
AcDbLine
 10
884.4015651163
 20
48.1983026953
 30
0.0
 11
884.4015651163
 21
49.4383026953
 31
0.0
  0
LINE
  5
21B
330
1F
100
AcDbEntity
  8
0
  6
SLD-Solid
 62
   142
420
    32960
370
     0
100
AcDbLine
 10
884.4015651163
 20
22.6983026953
 30
0.0
 11
884.4015651163
 21
23.9383026953
 31
0.0
  0
LINE
  5
21C
330
1F
100
AcDbEntity
  8
0
  6
SLD-Solid
 62
   142
420
    32960
370
     0
100
AcDbLine
 10
884.4015651163
 20
-69.1185058032
 30
0.0
 11
884.4015651163
 21
-68.6185058032
 31
0.0
  0
LINE
  5
21D
330
1F
100
AcDbEntity
  8
0
  6
SLD-Solid
 62
   142
420
    32960
370
     0
100
AcDbLine
 10
-15.5984348837
 20
-69.1185058032
 30
0.0
 11
-14.3984348837
 21
-69.1185058032
 31
0.0
  0
LINE
  5
21E
330
1F
100
AcDbEntity
  8
0
  6
SLD-Solid
 62
     7
370
    15
100
AcDbLine
 10
883.2015651163
 20
23.9383026953
 30
0.0
 11
883.2015651163
 21
23.9483026953
 31
0.0
  0
LINE
  5
21F
330
1F
100
AcDbEntity
  8
0
  6
SLD-Solid
 62
     7
370
    15
100
AcDbLine
 10
883.2015651163
 20
25.1483026953
 30
0.0
 11
883.2015651163
 21
26.3983026953
 31
0.0
  0
LINE
  5
220
330
1F
100
AcDbEntity
  8
0
  6
SLD-Solid
 62
   142
420
    32960
370
     0
100
AcDbLine
 10
883.2015651163
 20
-69.1185058032
 30
0.0
 11
883.2015651163
 21
-68.6185058032
 31
0.0
  0
LINE
  5
221
330
1F
100
AcDbEntity
  8
0
  6
SLD-Solid
 62
   142
420
    32960
370
     0
100
AcDbLine
 10
883.2015651163
 20
22.6983026953
 30
0.0
 11
883.2015651163
 21
23.9383026953
 31
0.0
  0
LINE
  5
222
330
1F
100
AcDbEntity
  8
0
  6
SLD-Solid
 62
   142
420
    32960
370
     0
100
AcDbLine
 10
884.4015651163
 20
-69.1185058032
 30
0.0
 11
883.2015651163
 21
-69.1185058032
 31
0.0
  0
LINE
  5
223
330
1F
100
AcDbEntity
  8
0
  6
SLD-Solid
 62
   142
420
    32960
370
     0
100
AcDbLine
 10
-13.1484348837
 20
25.1483026953
 30
0.0
 11
-14.3984348837
 21
25.1483026953
 31
0.0
  0
LINE
  5
224
330
1F
100
AcDbEntity
  8
0
  6
SLD-Solid
 62
   142
420
    32960
370
     0
100
AcDbLine
 10
883.2015651163
 20
25.1483026953
 30
0.0
 11
881.9515651163
 21
25.1483026953
 31
0.0
  0
LINE
  5
225
330
1F
100
AcDbEntity
  8
0
  6
SLD-Solid
 62
   142
420
    32960
370
     0
100
AcDbLine
 10
883.2015651163
 20
25.1483026953
 30
0.0
 11
883.2015651163
 21
23.9483026953
 31
0.0
  0
LINE
  5
226
330
1F
100
AcDbEntity
  8
0
  6
SLD-Solid
 62
   142
420
    32960
370
     0
100
AcDbLine
 10
-15.5984348837
 20
23.9383026953
 30
0.0
 11
-14.3984348837
 21
23.9383026953
 31
0.0
  0
LINE
  5
227
330
1F
100
AcDbEntity
  8
0
  6
SLD-Solid
 62
   142
420
    32960
370
     0
100
AcDbLine
 10
884.4015651163
 20
23.9383026953
 30
0.0
 11
883.2015651163
 21
23.9383026953
 31
0.0
  0
LINE
  5
228
330
1F
100
AcDbEntity
  8
0
  6
SLD-Solid
 62
   142
420
    32960
370
     0
100
AcDbLine
 10
-15.5984348837
 20
48.1983026953
 30
0.0
 11
-14.3984348837
 21
48.1983026953
 31
0.0
  0
LINE
  5
229
330
1F
100
AcDbEntity
  8
0
  6
SLD-Solid
 62
   142
420
    32960
370
     0
100
AcDbLine
 10
-15.5984348837
 20
26.3983026953
 30
0.0
 11
-14.3984348837
 21
26.3983026953
 31
0.0
  0
LINE
  5
22A
330
1F
100
AcDbEntity
  8
0
  6
SLD-Solid
 62
   142
420
    32960
370
     0
100
AcDbLine
 10
884.4015651163
 20
48.1983026953
 30
0.0
 11
883.2015651163
 21
48.1983026953
 31
0.0
  0
LINE
  5
22B
330
1F
100
AcDbEntity
  8
0
  6
SLD-Solid
 62
   142
420
    32960
370
     0
100
AcDbLine
 10
884.4015651163
 20
49.4383026953
 30
0.0
 11
883.2015651163
 21
49.4383026953
 31
0.0
  0
LINE
  5
22C
330
1F
100
AcDbEntity
  8
0
  6
SLD-Solid
 62
   142
420
    32960
370
     0
100
AcDbLine
 10
-14.2666495223
 20
49.4383026953
 30
0.0
 11
-15.5984348837
 21
49.4383026953
 31
0.0
  0
LINE
  5
22D
330
1F
100
AcDbEntity
  8
0
  6
SLD-Solid
 62
   142
420
    32960
370
     0
100
AcDbLine
 10
883.2015651163
 20
49.4383026953
 30
0.0
 11
882.3515651163
 21
49.4383026953
 31
0.0
  0
LINE
  5
22E
330
1F
100
AcDbEntity
  8
0
  6
SLD-Solid
 62
     7
370
    15
100
AcDbLine
 10
884.4015651163
 20
-102.9289110556
 30
0.0
 11
884.4015651163
 21
-90.6185058032
 31
0.0
  0
LINE
  5
22F
330
1F
100
AcDbEntity
  8
0
  6
SLD-Solid
 62
     7
370
    15
100
AcDbLine
 10
-15.5984348837
 20
-102.9289110556
 30
0.0
 11
-15.5984348837
 21
-90.6185058032
 31
0.0
  0
LINE
  5
230
330
1F
100
AcDbEntity
  8
0
  6
SLD-Solid
 62
   142
420
    32960
370
     0
100
AcDbLine
 10
805.4891598408
 20
-96.7215655719
 30
0.0
 11
805.4891598408
 21
-95.7810586804
 31
0.0
  0
LINE
  5
231
330
1F
100
AcDbEntity
  8
0
  6
SLD-Solid
 62
   142
420
    32960
370
     0
100
AcDbLine
 10
805.4891598408
 20
-95.7810586804
 30
0.0
 11
814.7391598408
 21
-95.3108052347
 31
0.0
  0
LINE
  5
232
330
1F
100
AcDbEntity
  8
0
  6
SLD-Solid
 62
   142
420
    32960
370
     0
100
AcDbLine
 10
814.7391598408
 20
-95.3108052347
 30
0.0
 11
814.7391598408
 21
-97.1918190176
 31
0.0
  0
LINE
  5
233
330
1F
100
AcDbEntity
  8
0
  6
SLD-Solid
 62
   142
420
    32960
370
     0
100
AcDbLine
 10
805.4891598408
 20
-96.7215655719
 30
0.0
 11
814.7391598408
 21
-97.1918190176
 31
0.0
  0
ARC
  5
234
330
1F
100
AcDbEntity
  8
0
  6
SLD-Solid
 62
   142
420
    32960
370
     0
100
AcDbCircle
 10
804.977915599
 20
-91.4144620574
 30
0.0
 40
7.920822647618845
100
AcDbArc
 50
183.6484980511
 51
245.1616206438
  0
ARC
  5
235
330
1F
100
AcDbEntity
  8
0
  6
SLD-Solid
 62
   142
420
    32960
370
     0
100
AcDbCircle
 10
786.7058971623
 20
-91.5305041578
 30
0.0
 40
16.53363877235002
100
AcDbArc
 50
334.6758697716
 51
358.6552931251
  0
LINE
  5
236
330
1F
100
AcDbEntity
  8
0
  6
SLD-Solid
 62
   142
420
    32960
370
     0
100
AcDbLine
 10
626.1016164962
 20
-92.3366613028
 30
0.0
 11
626.1016164962
 21
-91.9185058032
 31
0.0
  0
LINE
  5
237
330
1F
100
AcDbEntity
  8
0
  6
SLD-Solid
 62
   142
420
    32960
370
     0
100
AcDbLine
 10
629.1016164962
 20
-92.3366613028
 30
0.0
 11
629.1016164962
 21
-91.9185058032
 31
0.0
  0
LWPOLYLINE
  5
238
330
1F
100
AcDbEntity
  8
0
  6
SLD-Solid
 62
   142
420
    32960
370
     0
100
AcDbPolyline
 90
       17
 70
   128
 43
0.0
 10
629.1016164962
 20
-92.3366613028
 10
630.0637070956
 20
-92.9712085866
 10
630.7482708089
 20
-93.8694752367
 10
631.0781436051
 20
-94.9302086239
 10
631.016142218
 20
-96.0338428662
 10
630.5692554449
 20
-97.0559762969
 10
629.7878563689
 20
-97.8813940216
 10
628.7600243045
 20
-98.4170549431
 10
627.6016164962
 20
-98.602579355
 10
626.4432086878
 20
-98.4170549431
 10
625.4153766234
 20
-97.8813940216
 10
624.6339775474
 20
-97.0559762969
 10
624.1870907743
 20
-96.0338428662
 10
624.1250893872
 20
-94.9302086239
 10
624.4549621834
 20
-93.8694752367
 10
625.1395258968
 20
-92.9712085866
 10
626.1016164962
 20
-92.3366613028
  0
LINE
  5
239
330
1F
100
AcDbEntity
  8
0
  6
SLD-Solid
 62
   142
420
    32960
370
     0
100
AcDbLine
 10
493.9015651163
 20
-96.7215655719
 30
0.0
 11
493.9015651163
 21
-91.9185058032
 31
0.0
  0
ARC
  5
23A
330
1F
100
AcDbEntity
  8
0
  6
SLD-Solid
 62
   142
420
    32960
370
     0
100
AcDbCircle
 10
491.9592885099
 20
-96.6601908025
 30
0.0
 40
1.943246067350829
100
AcDbArc
 50
268.2978000298
 51
358.190090174
  0
LINE
  5
23B
330
1F
100
AcDbEntity
  8
0
  6
SLD-Solid
 62
   142
420
    32960
370
     0
100
AcDbLine
 10
491.9015651163
 20
-98.6025793548
 30
0.0
 11
471.9015651163
 21
-98.6025793548
 31
0.0
  0
ARC
  5
23C
330
1F
100
AcDbEntity
  8
0
  6
SLD-Solid
 62
   142
420
    32960
370
     0
100
AcDbCircle
 10
471.8438417228
 20
-96.6601908025
 30
0.0
 40
1.943246067351064
100
AcDbArc
 50
181.809909826
 51
271.7021999702
  0
LINE
  5
23D
330
1F
100
AcDbEntity
  8
0
  6
SLD-Solid
 62
   142
420
    32960
370
     0
100
AcDbLine
 10
469.9015651163
 20
-91.9185058032
 30
0.0
 11
469.9015651163
 21
-96.7215655719
 31
0.0
  0
LINE
  5
23E
330
1F
100
AcDbEntity
  8
0
  6
SLD-Solid
 62
   142
420
    32960
370
     0
100
AcDbLine
 10
202.4015651163
 20
-96.7215655719
 30
0.0
 11
202.4015651163
 21
-91.9185058032
 31
0.0
  0
ARC
  5
23F
330
1F
100
AcDbEntity
  8
0
  6
SLD-Solid
 62
   142
420
    32960
370
     0
100
AcDbCircle
 10
200.4592885099
 20
-96.6601908025
 30
0.0
 40
1.943246067350732
100
AcDbArc
 50
268.2978000298
 51
358.190090174
  0
LINE
  5
240
330
1F
100
AcDbEntity
  8
0
  6
SLD-Solid
 62
   142
420
    32960
370
     0
100
AcDbLine
 10
200.4015651163
 20
-98.6025793548
 30
0.0
 11
180.4015651163
 21
-98.6025793548
 31
0.0
  0
ARC
  5
241
330
1F
100
AcDbEntity
  8
0
  6
SLD-Solid
 62
   142
420
    32960
370
     0
100
AcDbCircle
 10
180.3438417228
 20
-96.6601908025
 30
0.0
 40
1.943246067350977
100
AcDbArc
 50
181.809909826
 51
271.7021999702
  0
LINE
  5
242
330
1F
100
AcDbEntity
  8
0
  6
SLD-Solid
 62
   142
420
    32960
370
     0
100
AcDbLine
 10
178.4015651163
 20
-91.9185058032
 30
0.0
 11
178.4015651163
 21
-96.7215655719
 31
0.0
  0
LINE
  5
243
330
1F
100
AcDbEntity
  8
0
  6
SLD-Solid
 62
   142
420
    32960
370
     0
100
AcDbLine
 10
785.4015651163
 20
-96.7215655719
 30
0.0
 11
785.4015651163
 21
-91.9185058032
 31
0.0
  0
ARC
  5
244
330
1F
100
AcDbEntity
  8
0
  6
SLD-Solid
 62
   142
420
    32960
370
     0
100
AcDbCircle
 10
783.4592885099
 20
-96.6601908025
 30
0.0
 40
1.943246067351002
100
AcDbArc
 50
268.2978000298
 51
358.190090174
  0
LINE
  5
245
330
1F
100
AcDbEntity
  8
0
  6
SLD-Solid
 62
   142
420
    32960
370
     0
100
AcDbLine
 10
783.4015651163
 20
-98.6025793548
 30
0.0
 11
763.4015651163
 21
-98.6025793548
 31
0.0
  0
ARC
  5
246
330
1F
100
AcDbEntity
  8
0
  6
SLD-Solid
 62
   142
420
    32960
370
     0
100
AcDbCircle
 10
763.3438417228
 20
-96.6601908025
 30
0.0
 40
1.943246067350845
100
AcDbArc
 50
181.809909826
 51
271.7021999702
  0
LINE
  5
247
330
1F
100
AcDbEntity
  8
0
  6
SLD-Solid
 62
   142
420
    32960
370
     0
100
AcDbLine
 10
761.4015651163
 20
-91.9185058032
 30
0.0
 11
761.4015651163
 21
-96.7215655719
 31
0.0
  0
ARC
  5
248
330
1F
100
AcDbEntity
  8
0
  6
SLD-Solid
 62
   142
420
    32960
370
     0
100
AcDbCircle
 10
387.1331102308
 20
-91.3237922406
 30
0.0
 40
7.282469014314207
100
AcDbArc
 50
268.1779813902
 51
355.3157967588
  0
ARC
  5
249
330
1F
100
AcDbEntity
  8
0
  6
SLD-Solid
 62
   142
420
    32960
370
     0
100
AcDbCircle
 10
386.6700200018
 20
-91.3237922406
 30
0.0
 40
7.282469014314366
100
AcDbArc
 50
184.6842032412
 51
271.8220186098
  0
LINE
  5
24A
330
1F
100
AcDbEntity
  8
0
  6
SLD-Solid
 62
   142
420
    32960
370
     0
100
AcDbLine
 10
805.4891598408
 20
-92.0190311146
 30
0.0
 11
805.4891598408
 21
-91.9185058032
 31
0.0
  0
LINE
  5
24B
330
1F
100
AcDbEntity
  8
0
  6
SLD-Solid
 62
   142
420
    32960
370
     0
100
AcDbLine
 10
814.7391598408
 20
-91.9185058032
 30
0.0
 11
814.7391598408
 21
-92.4892845603
 31
0.0
  0
LINE
  5
24C
330
1F
100
AcDbEntity
  8
0
  6
SLD-Solid
 62
   142
420
    32960
370
     0
100
AcDbLine
 10
805.4891598408
 20
-92.0190311146
 30
0.0
 11
814.7391598408
 21
-92.4892845603
 31
0.0
  0
ARC
  5
24D
330
1F
100
AcDbEntity
  8
0
  6
SLD-Solid
 62
   142
420
    32960
370
     0
100
AcDbCircle
 10
763.3438417228
 20
-96.6262133413
 30
0.0
 40
1.943246067350772
100
AcDbArc
 50
181.809909826
 51
271.7021999702
  0
LINE
  5
24E
330
1F
100
AcDbEntity
  8
0
  6
SLD-Solid
 62
   142
420
    32960
370
     0
100
AcDbLine
 10
783.4015651163
 20
-98.5686018936
 30
0.0
 11
763.4015651163
 21
-98.5686018936
 31
0.0
  0
ARC
  5
24F
330
1F
100
AcDbEntity
  8
0
  6
SLD-Solid
 62
   142
420
    32960
370
     0
100
AcDbCircle
 10
783.4592885099
 20
-96.6262133413
 30
0.0
 40
1.943246067351003
100
AcDbArc
 50
268.2978000298
 51
358.190090174
  0
LINE
  5
250
330
1F
100
AcDbEntity
  8
0
  6
SLD-Solid
 62
     7
370
    15
100
AcDbLine
 10
884.4015651163
 20
-110.0593452437
 30
0.0
 11
884.4015651163
 21
-102.9289110556
 31
0.0
  0
LINE
  5
251
330
1F
100
AcDbEntity
  8
0
  6
SLD-Solid
 62
     7
370
    15
100
AcDbLine
 10
-15.5984348837
 20
-110.0593452437
 30
0.0
 11
-15.5984348837
 21
-102.9289110556
 31
0.0
  0
SPLINE
  5
252
330
1F
100
AcDbEntity
  8
0
  6
SLD-Solid
 62
   142
420
    32960
370
     0
100
AcDbSpline
210
0.0
220
0.0
230
1.0
 70
     8
 71
     3
 72
    32
 73
    28
 74
     0
 42
0.00000001
 43
0.00000001
 40
0.0
 40
0.0
 40
0.0
 40
0.0
 40
0.1250000000000162
 40
0.1250000000000162
 40
0.1875000000000244
 40
0.1875000000000244
 40
0.2187500000000265
 40
0.2187500000000265
 40
0.2500000000000287
 40
0.2500000000000287
 40
0.3750000000000279
 40
0.3750000000000279
 40
0.4375000000000286
 40
0.4375000000000286
 40
0.5000000000000293
 40
0.5000000000000293
 40
0.6250000000000213
 40
0.6250000000000213
 40
0.6875000000000173
 40
0.6875000000000173
 40
0.7500000000000133
 40
0.7500000000000133
 40
0.8125000000000094
 40
0.8125000000000094
 40
0.8750000000000054
 40
0.8750000000000054
 40
1.0
 40
1.0
 40
1.0
 40
1.0
 10
372.7297562778398
 20
-127.4816976944987
 30
0.0
 10
373.1853256296857
 20
-127.5083218273921
 30
0.0
 10
373.6343057020198
 20
-127.4910350062513
 30
0.0
 10
374.2983979406612
 20
-127.4032596891791
 30
0.0
 10
374.5181854043247
 20
-127.3636158808847
 30
0.0
 10
374.8454486208513
 20
-127.2884227385209
 30
0.0
 10
374.9541325835262
 20
-127.2607328154342
 30
0.0
 10
375.1706743410626
 20
-127.2000236219267
 30
0.0
 10
375.2786466452843
 20
-127.1668524646206
 30
0.0
 10
375.8136001934421
 20
-126.9914285638535
 30
0.0
 10
376.2274630054631
 20
-126.8179097350211
 30
0.0
 10
376.8251493315027
 20
-126.5062825508837
 30
0.0
 10
377.0205339671691
 20
-126.3938362480822
 30
0.0
 10
377.4033165929876
 20
-126.1512739465936
 30
0.0
 10
377.5912491957373
 20
-126.0206462665011
 30
0.0
 10
378.1319857113182
 20
-125.6094360250275
 30
0.0
 10
378.4653557147171
 20
-125.3077691880728
 30
0.0
 10
378.9258880590901
 20
-124.8152965668304
 30
0.0
 10
379.0727748432668
 20
-124.6444387043026
 30
0.0
 10
379.3532099860011
 20
-124.2893265534278
 30
0.0
 10
379.4865518921702
 20
-124.105110014546
 30
0.0
 10
379.7351367010353
 20
-123.7311220116997
 30
0.0
 10
379.851322879313
 20
-123.5407875759429
 30
0.0
 10
380.0647537175455
 20
-123.1485947881898
 30
0.0
 10
380.1623076671078
 20
-122.9472812725957
 30
0.0
 10
380.4269976194868
 20
-122.3275115366242
 30
0.0
 10
380.5669154223873
 20
-121.88964927954
 30
0.0
 10
380.6630745668249
 20
-121.4417391944423
 30
0.0
  0
SPLINE
  5
253
330
1F
100
AcDbEntity
  8
0
  6
SLD-Solid
 62
   142
420
    32960
370
     0
100
AcDbSpline
210
0.0
220
0.0
230
1.0
 70
     8
 71
     3
 72
    10
 73
     6
 74
     0
 42
0.00000001
 43
0.00000001
 40
0.0
 40
0.0
 40
0.0
 40
0.0
 40
0.5
 40
0.5
 40
1.0
 40
1.0
 40
1.0
 40
1.0
 10
237.9074919901776
 20
-115.6417043335831
 30
0.0
 10
260.3164006554999
 20
-118.2730772399423
 30
0.0
 10
282.7638998059687
 20
-120.5760875351947
 30
0.0
 10
327.7071445901473
 20
-124.5228979944227
 30
0.0
 10
350.2052156632205
 20
-126.1670524893323
 30
0.0
 10
372.7297562778398
 20
-127.4816976944983
 30
0.0
  0
LWPOLYLINE
  5
254
330
1F
100
AcDbEntity
  8
0
  6
SLD-Solid
 62
   142
420
    32960
370
     0
100
AcDbPolyline
 90
        6
 70
   128
 43
0.0
 10
237.9074919902
 20
-115.6417043336
 10
237.9407278814
 20
-115.3579001678
 10
237.9644844284
 20
-115.1548230182
 10
237.9787195451
 20
-115.0328326456
 10
237.9834080136
 20
-114.9921451615
 10
237.9834079883
 20
-114.9921451646
  0
LWPOLYLINE
  5
255
330
1F
100
AcDbEntity
  8
0
  6
SLD-Solid
 62
   142
420
    32960
370
     0
100
AcDbPolyline
 90
        6
 70
   128
 43
0.0
 10
380.6630745668
 20
-121.4417391944
 10
380.3818108652
 20
-121.3813821795
 10
380.1805236579
 20
-121.3381929961
 10
380.059571822
 20
-121.3122486465
 10
380.019171004
 20
-121.3035953873
 10
380.0191709546
 20
-121.303595397
  0
LINE
  5
256
330
1F
100
AcDbEntity
  8
0
  6
SLD-Solid
 62
   142
420
    32960
370
     0
100
AcDbLine
 10
380.6623633989
 20
-121.4417391944
 30
0.0
 11
380.0909313735
 21
-122.8342663052
 31
0.0
  0
LINE
  5
257
330
1F
100
AcDbEntity
  8
0
  6
SLD-Solid
 62
   142
420
    32960
370
     0
100
AcDbLine
 10
188.2899426773
 20
680.1948846827
 30
0.0
 11
188.2899426773
 21
684.5017207079
 31
0.0
  0
SPLINE
  5
258
330
1F
100
AcDbEntity
  8
0
  6
SLD-Solid
 62
   142
420
    32960
370
     0
100
AcDbSpline
210
0.0
220
0.0
230
1.0
 70
     8
 71
     3
 72
     8
 73
     4
 74
     0
 42
0.00000001
 43
0.00000001
 40
0.0
 40
0.0
 40
0.0
 40
0.0
 40
1.0
 40
1.0
 40
1.0
 40
1.0
 10
188.2899426772546
 20
684.5017207078814
 30
0.0
 10
187.3672837580509
 20
684.7743650972326
 30
0.0
 10
186.4307722090961
 20
684.9483026952659
 30
0.0
 10
185.4698500485391
 20
684.9483026952659
 30
0.0
  0
SPLINE
  5
259
330
1F
100
AcDbEntity
  8
0
  6
SLD-Solid
 62
   142
420
    32960
370
     0
100
AcDbSpline
210
0.0
220
0.0
230
1.0
 70
     8
 71
     3
 72
    12
 73
     8
 74
     0
 42
0.00000001
 43
0.00000001
 40
0.0
 40
0.0
 40
0.0
 40
0.0
 40
0.2500000000000038
 40
0.2500000000000038
 40
0.5000000000000075
 40
0.5000000000000075
 40
1.0
 40
1.0
 40
1.0
 40
1.0
 10
185.4698500485391
 20
684.9483026952659
 30
0.0
 10
185.2305174235462
 20
684.9483026952661
 30
0.0
 10
184.9901119726531
 20
684.9377471347425
 30
0.0
 10
184.5145397222055
 20
684.896898408182
 30
0.0
 10
184.2783441976005
 20
684.8666444981421
 30
0.0
 10
183.5739526655242
 20
684.7499583728936
 30
0.0
 10
183.1099353767567
 20
684.6377026351669
 30
0.0
 10
182.6497574198236
 20
684.5017207078811
 30
0.0
  0
LINE
  5
25A
330
1F
100
AcDbEntity
  8
0
  6
SLD-Solid
 62
   142
420
    32960
370
     0
100
AcDbLine
 10
182.6497574198
 20
680.1948846827
 30
0.0
 11
182.6497574198
 21
684.5017207079
 31
0.0
  0
SPLINE
  5
25B
330
1F
100
AcDbEntity
  8
0
  6
SLD-Solid
 62
   142
420
    32960
370
     0
100
AcDbSpline
210
0.0
220
0.0
230
1.0
 70
     8
 71
     3
 72
    12
 73
     8
 74
     0
 42
0.00000001
 43
0.00000001
 40
0.0
 40
0.0
 40
0.0
 40
0.0
 40
0.2500000000000038
 40
0.2500000000000038
 40
0.5000000000000075
 40
0.5000000000000075
 40
1.0
 40
1.0
 40
1.0
 40
1.0
 10
185.4698500485391
 20
679.748302695266
 30
0.0
 10
185.2305174235462
 20
679.748302695266
 30
0.0
 10
184.9901119726531
 20
679.7588582557894
 30
0.0
 10
184.5145397222055
 20
679.7997069823498
 30
0.0
 10
184.2783441976005
 20
679.8299608923896
 30
0.0
 10
183.5739526655242
 20
679.946647017638
 30
0.0
 10
183.1099353767567
 20
680.0589027553648
 30
0.0
 10
182.6497574198236
 20
680.1948846826508
 30
0.0
  0
SPLINE
  5
25C
330
1F
100
AcDbEntity
  8
0
  6
SLD-Solid
 62
   142
420
    32960
370
     0
100
AcDbSpline
210
0.0
220
0.0
230
1.0
 70
     8
 71
     3
 72
     8
 73
     4
 74
     0
 42
0.00000001
 43
0.00000001
 40
0.0
 40
0.0
 40
0.0
 40
0.0
 40
1.0
 40
1.0
 40
1.0
 40
1.0
 10
188.2899426772546
 20
680.1948846826505
 30
0.0
 10
187.3672837580509
 20
679.9222402932993
 30
0.0
 10
186.4307722090961
 20
679.748302695266
 30
0.0
 10
185.4698500485391
 20
679.748302695266
 30
0.0
  0
LINE
  5
25D
330
1F
100
AcDbEntity
  8
0
  6
SLD-Solid
 62
     7
370
    15
100
AcDbLine
 10
580.6515651163
 20
-102.5271265609
 30
0.0
 11
580.6515651163
 21
-91.9185058032
 31
0.0
  0
LINE
  5
25E
330
1F
100
AcDbEntity
  8
0
  6
SLD-Solid
 62
     7
370
    15
100
AcDbLine
 10
577.6515651163
 20
-91.9185058032
 30
0.0
 11
577.6515651163
 21
-102.5271265609
 31
0.0
  0
ARC
  5
25F
330
1F
100
AcDbEntity
  8
0
  6
SLD-Solid
 62
   142
420
    32960
370
     0
100
AcDbCircle
 10
589.2919304505
 20
-91.6206643098
 30
0.0
 40
0.9768703153287025
100
AcDbArc
 50
300.4073827833
 51
342.2482381025
  0
ARC
  5
260
330
1F
100
AcDbEntity
  8
0
  6
SLD-Solid
 62
   142
420
    32960
370
     0
100
AcDbCircle
 10
569.0697391011
 20
-91.573812105
 30
0.0
 40
1.047249590910126
100
AcDbArc
 50
199.2166993276
 51
238.1276797865
  0
LWPOLYLINE
  5
261
330
1F
100
AcDbEntity
  8
0
  6
SLD-Solid
 62
   142
420
    32960
370
     0
100
AcDbPolyline
 90
        9
 70
   128
 43
0.0
 10
577.6515651163
 20
-102.5271265609
 10
577.7657458176
 20
-102.704510087
 10
578.0909049445
 20
-102.8548885792
 10
578.5775399678
 20
-102.9553682753
 10
579.1515651163
 20
-102.9906520524
 10
579.7255902649
 20
-102.9553682753
 10
580.2122252881
 20
-102.8548885792
 10
580.5373844151
 20
-102.704510087
 10
580.6515651163
 20
-102.5271265609
  0
ARC
  5
262
330
1F
100
AcDbEntity
  8
0
  6
SLD-Solid
 62
   142
420
    32960
370
     0
100
AcDbCircle
 10
579.675437992
 20
-102.0766997297
 30
0.0
 40
0.9764498166443785
100
AcDbArc
 50
1.4730549926
 51
91.4009438083
  0
ARC
  5
263
330
1F
100
AcDbEntity
  8
0
  6
SLD-Solid
 62
   142
420
    32960
370
     0
100
AcDbCircle
 10
578.6276922406
 20
-102.0766997297
 30
0.0
 40
0.9764498166443926
100
AcDbArc
 50
88.5990561917
 51
178.5269450074
  0
LWPOLYLINE
  5
264
330
1F
100
AcDbEntity
  8
0
  6
SLD-Solid
 62
   142
420
    32960
370
     0
100
AcDbPolyline
 90
        9
 70
   128
 43
0.0
 10
578.6515651163
 20
-101.1005417864
 10
578.6896253501
 20
-101.1596696285
 10
578.7980117257
 20
-101.2097957925
 10
578.9602234001
 20
-101.2432890246
 10
579.1515651163
 20
-101.2550502836
 10
579.3429068325
 20
-101.2432890246
 10
579.5051185069
 20
-101.2097957925
 10
579.6135048826
 20
-101.1596696285
 10
579.6515651163
 20
-101.1005417864
  0
LINE
  5
265
330
1F
100
AcDbEntity
  8
0
  6
SLD-Solid
 62
     7
370
    15
100
AcDbLine
 10
588.8257291525
 20
-96.0263437303
 30
0.0
 11
588.8183796282
 21
-96.2315391971
 31
0.0
  0
ARC
  5
266
330
1F
100
AcDbEntity
  8
0
  6
SLD-Solid
 62
   142
420
    32960
370
     0
100
AcDbCircle
 10
589.8750660734
 20
-91.583823144
 30
0.0
 40
0.8838035354354308
100
AcDbArc
 50
264.2401525825
 51
337.747781507
  0
ARC
  5
267
330
1F
100
AcDbEntity
  8
0
  6
SLD-Solid
 62
   142
420
    32960
370
     0
100
AcDbCircle
 10
589.6995089586
 20
-101.0320633058
 30
0.0
 40
1.056025610322378
100
AcDbArc
 50
274.7179789945
 51
357.771185392
  0
ARC
  5
268
330
1F
100
AcDbEntity
  8
0
  6
SLD-Solid
 62
   142
420
    32960
370
     0
100
AcDbCircle
 10
568.4242834673
 20
-91.5901167729
 30
0.0
 40
0.8779320999914222
100
AcDbArc
 50
201.9655056421
 51
276.0465602684
  0
ARC
  5
269
330
1F
100
AcDbEntity
  8
0
  6
SLD-Solid
 62
   142
420
    32960
370
     0
100
AcDbCircle
 10
568.603621274
 20
-101.0320633058
 30
0.0
 40
1.056025610322355
100
AcDbArc
 50
182.228814608
 51
265.2820210055
  0
ARC
  5
26A
330
1F
100
AcDbEntity
  8
0
  6
SLD-Solid
 62
   142
420
    32960
370
     0
100
AcDbCircle
 10
589.9261756291
 20
-101.7874001335
 30
0.0
 40
0.3283607168093238
100
AcDbArc
 50
244.8003743102
 51
329.0454122091
  0
ARC
  5
26B
330
1F
100
AcDbEntity
  8
0
  6
SLD-Solid
 62
   142
420
    32960
370
     0
100
AcDbCircle
 10
568.3769546035
 20
-101.7874001251
 30
0.0
 40
0.3283607244466974
100
AcDbArc
 50
210.9545801856
 51
295.1996250733
  0
ARC
  5
26C
330
1F
100
AcDbEntity
  8
0
  6
SLD-Solid
 62
   142
420
    32960
370
     0
100
AcDbCircle
 10
568.014240495
 20
-101.2180325412
 30
0.0
 40
0.4878610996568079
100
AcDbArc
 50
162.7218443771
 51
232.1744806753
  0
ARC
  5
26D
330
1F
100
AcDbEntity
  8
0
  6
SLD-Solid
 62
   142
420
    32960
370
     0
100
AcDbCircle
 10
590.288881544
 20
-101.2180319468
 30
0.0
 40
0.4878687470062925
100
AcDbArc
 50
307.8196406387
 51
17.2778031553
  0
LINE
  5
26E
330
1F
100
AcDbEntity
  8
0
  6
SLD-Solid
 62
     7
370
    15
100
AcDbLine
 10
559.4515651163
 20
29.7983026953
 30
0.0
 11
799.3515651163
 21
29.7983026953
 31
0.0
  0
LINE
  5
26F
330
1F
100
AcDbEntity
  8
0
  6
SLD-Solid
 62
     7
370
    15
100
AcDbLine
 10
799.3515651163
 20
29.7983026953
 30
0.0
 11
799.3515651163
 21
591.6983026953
 31
0.0
  0
LINE
  5
270
330
1F
100
AcDbEntity
  8
0
  6
SLD-Solid
 62
     7
370
    15
100
AcDbLine
 10
559.4515651163
 20
591.6983026953
 30
0.0
 11
559.4515651163
 21
29.7983026953
 31
0.0
  0
LINE
  5
271
330
1F
100
AcDbEntity
  8
0
  6
SLD-Solid
 62
     7
370
    15
100
AcDbLine
 10
799.3515651163
 20
591.6983026953
 30
0.0
 11
559.4515651163
 21
591.6983026953
 31
0.0
  0
ARC
  5
272
330
1F
100
AcDbEntity
  8
0
  6
SLD-Solid
 62
     7
370
    15
100
AcDbCircle
 10
379.4515651163
 20
638.1483026953
 30
0.0
 40
10.29999999999998
100
AcDbArc
 50
11.3639867807
 51
55.117906693
  0
LINE
  5
273
330
1F
100
AcDbEntity
  8
0
  6
SLD-Solid
 62
   142
420
    32960
370
     0
100
AcDbLine
 10
193.0307097553
 20
691.4983026953
 30
0.0
 11
188.3349011838
 21
691.4983026953
 31
0.0
  0
LINE
  5
274
330
1F
100
AcDbEntity
  8
0
  6
SLD-Solid
 62
   142
420
    32960
370
     0
100
AcDbLine
 10
188.3349011838
 20
691.4983026953
 30
0.0
 11
188.3349011838
 21
686.3983026953
 31
0.0
  0
LINE
  5
275
330
1F
100
AcDbEntity
  8
0
  6
SLD-Solid
 62
   142
420
    32960
370
     0
100
AcDbLine
 10
188.3349011838
 20
686.3983026953
 30
0.0
 11
193.0307097553
 21
686.3983026953
 31
0.0
  0
LINE
  5
276
330
1F
100
AcDbEntity
  8
0
  6
SLD-Solid
 62
   142
420
    32960
370
     0
100
AcDbLine
 10
193.0307097553
 20
686.3983026953
 30
0.0
 11
193.0307097553
 21
691.4983026953
 31
0.0
  0
SPLINE
  5
277
330
1F
100
AcDbEntity
  8
0
  6
SLD-Solid
 62
   142
420
    32960
370
     0
100
AcDbSpline
210
0.0
220
0.0
230
1.0
 70
     8
 71
     3
 72
    16
 73
    12
 74
     0
 42
0.00000001
 43
0.00000001
 40
0.0
 40
0.0
 40
0.0
 40
0.0
 40
0.2500000000000197
 40
0.2500000000000197
 40
0.5000000000000393
 40
0.5000000000000393
 40
0.750000000000059
 40
0.750000000000059
 40
0.8750000000000294
 40
0.8750000000000294
 40
1.0
 40
1.0
 40
1.0
 40
1.0
 10
180.7504943200649
 20
687.0983026952659
 30
0.0
 10
180.6334096363922
 20
687.0983026952659
 30
0.0
 10
180.5170413710321
 20
687.0688390542834
 30
0.0
 10
180.3005837498556
 20
686.9543517970346
 30
0.0
 10
180.1991989136137
 20
686.8681144450737
 30
0.0
 10
180.0291877797401
 20
686.6499480050564
 30
0.0
 10
179.9592293371369
 20
686.5162274862488
 30
0.0
 10
179.8881199842966
 20
686.2952568113238
 30
0.0
 10
179.8697400830263
 20
686.2171912766283
 30
0.0
 10
179.8454975722905
 20
686.0599036907965
 30
0.0
 10
179.8392961180454
 20
685.9798445413247
 30
0.0
 10
179.8392961180455
 20
685.898302695266
 30
0.0
  0
LINE
  5
278
330
1F
100
AcDbEntity
  8
0
  6
SLD-Solid
 62
   142
420
    32960
370
     0
100
AcDbLine
 10
179.839296118
 20
685.8983026953
 30
0.0
 11
179.5465465181
 21
685.8983026953
 31
0.0
  0
SPLINE
  5
279
330
1F
100
AcDbEntity
  8
0
  6
SLD-Solid
 62
   142
420
    32960
370
     0
100
AcDbSpline
210
0.0
220
0.0
230
1.0
 70
     8
 71
     3
 72
    16
 73
    12
 74
     0
 42
0.00000001
 43
0.00000001
 40
0.0
 40
0.0
 40
0.0
 40
0.0
 40
0.1250000000000074
 40
0.1250000000000074
 40
0.2500000000000148
 40
0.2500000000000148
 40
0.5000000000000099
 40
0.5000000000000099
 40
0.7500000000000049
 40
0.7500000000000049
 40
1.0
 40
1.0
 40
1.0
 40
1.0
 10
179.5465465181423
 20
685.898302695266
 30
0.0
 10
179.5465465181424
 20
685.9959965082884
 30
0.0
 10
179.5535037835665
 20
686.0919736738226
 30
0.0
 10
179.5807230275935
 20
686.2806430082553
 30
0.0
 10
179.6013541947946
 20
686.374328685779
 30
0.0
 10
179.6813375228071
 20
686.6401458805773
 30
0.0
 10
179.7601215925436
 20
686.8016033554767
 30
0.0
 10
179.9522128726221
 20
687.0663006774101
 30
0.0
 10
180.0670362718883
 20
687.1716292392208
 30
0.0
 10
180.3123255354284
 20
687.3118911544069
 30
0.0
 10
180.4443052921163
 20
687.348302695266
 30
0.0
 10
180.5767402740388
 20
687.3483026952659
 30
0.0
  0
ARC
  5
27A
330
1F
100
AcDbEntity
  8
0
  6
SLD-Solid
 62
   142
420
    32960
370
     0
100
AcDbCircle
 10
180.5302528221
 20
687.1306122268
 30
0.0
 40
0.2225987944097987
100
AcDbArc
 50
351.6542123666
 51
77.94563917
  0
ARC
  5
27B
330
1F
100
AcDbEntity
  8
0
  6
SLD-Solid
 62
   142
420
    32960
370
     0
100
AcDbCircle
 10
780.4592885099
 20
-93.8046926669
 30
0.0
 40
1.943246067350888
100
AcDbArc
 50
268.2978000298
 51
358.190090174
  0
LINE
  5
27C
330
1F
100
AcDbEntity
  8
0
  6
SLD-Solid
 62
   142
420
    32960
370
     0
100
AcDbLine
 10
778.4015651163
 20
-95.7470812192
 30
0.0
 11
780.4015651163
 21
-95.7470812192
 31
0.0
  0
ARC
  5
27D
330
1F
100
AcDbEntity
  8
0
  6
SLD-Solid
 62
   142
420
    32960
370
     0
100
AcDbCircle
 10
778.3438417228
 20
-93.8046926669
 30
0.0
 40
1.94324606735077
100
AcDbArc
 50
181.809909826
 51
271.7021999702
  0
LINE
  5
27E
330
1F
100
AcDbEntity
  8
0
  6
SLD-Solid
 62
   142
420
    32960
370
     0
100
AcDbLine
 10
868.4015651163
 20
26.3983026953
 30
0.0
 11
868.4015651163
 21
25.1483026953
 31
0.0
  0
LINE
  5
27F
330
1F
100
AcDbEntity
  8
0
  6
SLD-Solid
 62
     7
370
    15
100
AcDbLine
 10
884.4015651163
 20
570.8483026952
 30
0.0
 11
884.4015651163
 21
568.2483026952
 31
0.0
  0
LINE
  5
280
330
1F
100
AcDbEntity
  8
0
  6
SLD-Solid
 62
     7
370
    15
100
AcDbLine
 10
884.4015651163
 20
53.2483026952
 30
0.0
 11
884.4015651163
 21
49.4383026953
 31
0.0
  0
LINE
  5
281
330
1F
100
AcDbEntity
  8
0
  6
SLD-Solid
 62
   142
420
    32960
370
     0
100
AcDbLine
 10
0.4015651163
 20
25.1483026953
 30
0.0
 11
0.4015651163
 21
26.3983026953
 31
0.0
  0
LINE
  5
282
330
1F
100
AcDbEntity
  8
0
  6
SLD-Solid
 62
     7
370
    15
100
AcDbLine
 10
-15.5984348837
 20
49.4383026953
 30
0.0
 11
-15.5984348837
 21
53.2483026953
 31
0.0
  0
LINE
  5
283
330
1F
100
AcDbEntity
  8
0
  6
SLD-Solid
 62
     7
370
    15
100
AcDbLine
 10
-15.5984348837
 20
568.2483026953
 30
0.0
 11
-15.5984348837
 21
570.8483026952
 31
0.0
  0
LINE
  5
284
330
1F
100
AcDbEntity
  8
0
  6
SLD-Solid
 62
     7
370
    15
100
AcDbLine
 10
723.4015651163
 20
-91.9185058032
 30
0.0
 11
723.4015651163
 21
-102.5271265609
 31
0.0
  0
LINE
  5
285
330
1F
100
AcDbEntity
  8
0
  6
SLD-Solid
 62
     7
370
    15
100
AcDbLine
 10
726.4015651163
 20
-102.5271265609
 30
0.0
 11
726.4015651163
 21
-91.9185058032
 31
0.0
  0
ARC
  5
286
330
1F
100
AcDbEntity
  8
0
  6
SLD-Solid
 62
   142
420
    32960
370
     0
100
AcDbCircle
 10
735.0419304505
 20
-91.6206643098
 30
0.0
 40
0.9768703153314789
100
AcDbArc
 50
300.4073827834
 51
342.2482381028
  0
ARC
  5
287
330
1F
100
AcDbEntity
  8
0
  6
SLD-Solid
 62
   142
420
    32960
370
     0
100
AcDbCircle
 10
714.8197391011
 20
-91.573812105
 30
0.0
 40
1.047249590915269
100
AcDbArc
 50
199.2166993275
 51
238.1276797864
  0
LWPOLYLINE
  5
288
330
1F
100
AcDbEntity
  8
0
  6
SLD-Solid
 62
   142
420
    32960
370
     0
100
AcDbPolyline
 90
        9
 70
   128
 43
0.0
 10
723.4015651163
 20
-102.5271265609
 10
723.5157458176
 20
-102.704510087
 10
723.8409049445
 20
-102.8548885792
 10
724.3275399678
 20
-102.9553682753
 10
724.9015651163
 20
-102.9906520524
 10
725.4755902649
 20
-102.9553682753
 10
725.9622252881
 20
-102.8548885792
 10
726.2873844151
 20
-102.704510087
 10
726.4015651163
 20
-102.5271265609
  0
ARC
  5
289
330
1F
100
AcDbEntity
  8
0
  6
SLD-Solid
 62
   142
420
    32960
370
     0
100
AcDbCircle
 10
725.425437992
 20
-102.0766997297
 30
0.0
 40
0.9764498166443358
100
AcDbArc
 50
1.4730549926
 51
91.4009438083
  0
ARC
  5
28A
330
1F
100
AcDbEntity
  8
0
  6
SLD-Solid
 62
   142
420
    32960
370
     0
100
AcDbCircle
 10
724.3776922406
 20
-102.0766997297
 30
0.0
 40
0.9764498166445127
100
AcDbArc
 50
88.5990561917
 51
178.5269450074
  0
LWPOLYLINE
  5
28B
330
1F
100
AcDbEntity
  8
0
  6
SLD-Solid
 62
   142
420
    32960
370
     0
100
AcDbPolyline
 90
        9
 70
   128
 43
0.0
 10
724.4015651163
 20
-101.1005417864
 10
724.4396253501
 20
-101.1596696285
 10
724.5480117257
 20
-101.2097957925
 10
724.7102234001
 20
-101.2432890246
 10
724.9015651163
 20
-101.2550502836
 10
725.0929068325
 20
-101.2432890246
 10
725.2551185069
 20
-101.2097957925
 10
725.3635048826
 20
-101.1596696285
 10
725.4015651163
 20
-101.1005417864
  0
LINE
  5
28C
330
1F
100
AcDbEntity
  8
0
  6
SLD-Solid
 62
     7
370
    15
100
AcDbLine
 10
734.5757291525
 20
-96.0263437303
 30
0.0
 11
734.5683796282
 21
-96.2315391971
 31
0.0
  0
ARC
  5
28D
330
1F
100
AcDbEntity
  8
0
  6
SLD-Solid
 62
   142
420
    32960
370
     0
100
AcDbCircle
 10
735.6250660734
 20
-91.583823144
 30
0.0
 40
0.883803535435686
100
AcDbArc
 50
264.2401525825
 51
337.7477815074
  0
ARC
  5
28E
330
1F
100
AcDbEntity
  8
0
  6
SLD-Solid
 62
   142
420
    32960
370
     0
100
AcDbCircle
 10
714.1742834673
 20
-91.5901167729
 30
0.0
 40
0.8779320999906362
100
AcDbArc
 50
201.9655056417
 51
276.0465602685
  0
ARC
  5
28F
330
1F
100
AcDbEntity
  8
0
  6
SLD-Solid
 62
   142
420
    32960
370
     0
100
AcDbCircle
 10
714.353621274
 20
-101.0320633058
 30
0.0
 40
1.056025610322456
100
AcDbArc
 50
182.228814608
 51
265.2820210055
  0
ARC
  5
290
330
1F
100
AcDbEntity
  8
0
  6
SLD-Solid
 62
   142
420
    32960
370
     0
100
AcDbCircle
 10
714.1269546019
 20
-101.7873998924
 30
0.0
 40
0.3283609356427615
100
AcDbArc
 50
210.954369873
 51
295.1996080263
  0
ARC
  5
291
330
1F
100
AcDbEntity
  8
0
  6
SLD-Solid
 62
   142
420
    32960
370
     0
100
AcDbCircle
 10
713.7642502365
 20
-101.2180318345
 30
0.0
 40
0.4878701916820803
100
AcDbArc
 50
162.7222634275
 51
232.1814697925
  0
LINE
  5
292
330
1F
100
AcDbEntity
  8
0
  6
SLD-Solid
 62
   142
420
    32960
370
     0
100
AcDbLine
 10
179.5465465181
 20
685.1983026953
 30
0.0
 11
187.1325703709
 21
685.1983026953
 31
0.0
  0
LINE
  5
293
330
1F
100
AcDbEntity
  8
0
  6
SLD-Solid
 62
   142
420
    32960
370
     0
100
AcDbLine
 10
187.1325703709
 20
685.8983026953
 30
0.0
 11
179.7734347598
 21
685.8983026953
 31
0.0
  0
LINE
  5
294
330
1F
100
AcDbEntity
  8
0
  6
SLD-Solid
 62
   142
420
    32960
370
     0
100
AcDbLine
 10
187.1325703709
 20
685.8983026953
 30
0.0
 11
187.1325703709
 21
685.1983026953
 31
0.0
  0
LINE
  5
295
330
1F
100
AcDbEntity
  8
0
  6
SLD-Solid
 62
   142
420
    32960
370
     0
100
AcDbLine
 10
179.5465465181
 20
680.7983026953
 30
0.0
 11
179.5465465181
 21
685.8983026953
 31
0.0
  0
LINE
  5
296
330
1F
100
AcDbEntity
  8
0
  6
SLD-Solid
 62
   142
420
    32960
370
     0
100
AcDbLine
 10
175.2716731044
 20
680.7983026953
 30
0.0
 11
179.5465465181
 21
680.7983026953
 31
0.0
  0
LINE
  5
297
330
1F
100
AcDbEntity
  8
0
  6
SLD-Solid
 62
   142
420
    32960
370
     0
100
AcDbLine
 10
175.2716731044
 20
685.8983026953
 30
0.0
 11
175.2716731044
 21
680.7983026953
 31
0.0
  0
LINE
  5
298
330
1F
100
AcDbEntity
  8
0
  6
SLD-Solid
 62
   142
420
    32960
370
     0
100
AcDbLine
 10
179.5465465181
 20
685.8983026953
 30
0.0
 11
175.2716731044
 21
685.8983026953
 31
0.0
  0
ARC
  5
299
330
1F
100
AcDbEntity
  8
0
  6
SLD-Solid
 62
   142
420
    32960
370
     0
100
AcDbCircle
 10
387.8983887771
 20
-93.733564083
 30
0.0
 40
1.498704915935648
100
AcDbArc
 50
182.8711035151
 51
298.8471995542
  0
LINE
  5
29A
330
1F
100
AcDbEntity
  8
0
  6
SLD-Solid
 62
   142
420
    32960
370
     0
100
AcDbLine
 10
393.2896295969
 20
-92.644439501
 30
0.0
 11
388.6214770327
 21
-95.0462939866
 31
0.0
  0
ARC
  5
29B
330
1F
100
AcDbEntity
  8
0
  6
SLD-Solid
 62
   142
420
    32960
370
     0
100
AcDbCircle
 10
386.9170783673
 20
-91.1396229566
 30
0.0
 40
6.547815055917106
100
AcDbArc
 50
186.8316864055
 51
346.7135461548
  0
ARC
  5
29C
330
1F
100
AcDbEntity
  8
0
  6
SLD-Solid
 62
   142
420
    32960
370
     0
100
AcDbCircle
 10
387.1323420353
 20
-91.287989116
 30
0.0
 40
7.284269376759987
100
AcDbArc
 50
268.1844772979
 51
355.0343393838
  0
ARC
  5
29D
330
1F
100
AcDbEntity
  8
0
  6
SLD-Solid
 62
   142
420
    32960
370
     0
100
AcDbCircle
 10
386.7310078944
 20
-91.2201844679
 30
0.0
 40
7.350396477640119
100
AcDbArc
 50
185.4515834598
 51
271.3295998585
  0
LINE
  5
29E
330
1F
100
AcDbEntity
  8
0
  6
SLD-Solid
 62
     7
370
    15
100
AcDbLine
 10
69.4515651163
 20
29.7983026953
 30
0.0
 11
309.3515651163
 21
29.7983026953
 31
0.0
  0
LINE
  5
29F
330
1F
100
AcDbEntity
  8
0
  6
SLD-Solid
 62
     7
370
    15
100
AcDbLine
 10
69.4515651163
 20
591.6983026953
 30
0.0
 11
69.4515651163
 21
29.7983026953
 31
0.0
  0
LINE
  5
2A0
330
1F
100
AcDbEntity
  8
0
  6
SLD-Solid
 62
     7
370
    15
100
AcDbLine
 10
309.3515651163
 20
591.6983026953
 30
0.0
 11
69.4515651163
 21
591.6983026953
 31
0.0
  0
LINE
  5
2A1
330
1F
100
AcDbEntity
  8
0
  6
SLD-Solid
 62
     7
370
    15
100
AcDbLine
 10
309.3515651163
 20
29.7983026953
 30
0.0
 11
309.3515651163
 21
591.6983026953
 31
0.0
  0
LINE
  5
2A2
330
1F
100
AcDbEntity
  8
0
  6
SLD-Solid
 62
   142
420
    32960
370
     0
100
AcDbLine
 10
188.3349011838
 20
686.3983026953
 30
0.0
 11
187.6716804042
 21
686.3983026953
 31
0.0
  0
LINE
  5
2A3
330
1F
100
AcDbEntity
  8
0
  6
SLD-Solid
 62
   142
420
    32960
370
     0
100
AcDbLine
 10
187.6716804042
 20
686.3983026953
 30
0.0
 11
187.6716804042
 21
691.4983026953
 31
0.0
  0
LINE
  5
2A4
330
1F
100
AcDbEntity
  8
0
  6
SLD-Solid
 62
   142
420
    32960
370
     0
100
AcDbLine
 10
187.6716804042
 20
691.4983026953
 30
0.0
 11
188.3349011838
 21
691.4983026953
 31
0.0
  0
LINE
  5
2A5
330
1F
100
AcDbEntity
  8
0
  6
SLD-Solid
 62
     7
370
    15
100
AcDbLine
 10
175.9515651163
 20
687.3483026953
 30
0.0
 11
176.4066431694
 21
687.3483026953
 31
0.0
  0
LINE
  5
2A6
330
1F
100
AcDbEntity
  8
0
  6
SLD-Solid
 62
   142
420
    32960
370
     0
100
AcDbLine
 10
180.8069016495
 20
687.3483026953
 30
0.0
 11
187.6716804042
 21
687.3483026953
 31
0.0
  0
LINE
  5
2A7
330
1F
100
AcDbEntity
  8
0
  6
SLD-Solid
 62
   142
420
    32960
370
     0
100
AcDbLine
 10
180.576740274
 20
687.3483026953
 30
0.0
 11
180.8069016495
 21
687.3483026953
 31
0.0
  0
LINE
  5
2A8
330
1F
100
AcDbEntity
  8
0
  6
SLD-Solid
 62
   142
420
    32960
370
     0
100
AcDbLine
 10
176.4066431694
 20
687.3483026953
 30
0.0
 11
180.576740274
 21
687.3483026953
 31
0.0
  0
LINE
  5
2A9
330
1F
100
AcDbEntity
  8
0
  6
SLD-Solid
 62
   142
420
    32960
370
     0
100
AcDbLine
 10
176.3403643764
 20
686.3983026953
 30
0.0
 11
176.3403643764
 21
687.0983026953
 31
0.0
  0
LINE
  5
2AA
330
1F
100
AcDbEntity
  8
0
  6
SLD-Solid
 62
   142
420
    32960
370
     0
100
AcDbLine
 10
176.3403643764
 20
686.3983026953
 30
0.0
 11
176.2328891234
 21
686.3983026953
 31
0.0
  0
SPLINE
  5
2AB
330
1F
100
AcDbEntity
  8
0
  6
SLD-Solid
 62
   142
420
    32960
370
     0
100
AcDbSpline
210
0.0
220
0.0
230
1.0
 70
     8
 71
     3
 72
    10
 73
     6
 74
     0
 42
0.00000001
 43
0.00000001
 40
0.0
 40
0.0
 40
0.0
 40
0.0
 40
0.5
 40
0.5
 40
1.0
 40
1.0
 40
1.0
 40
1.0
 10
175.8515642160167
 20
685.898302695266
 30
0.0
 10
175.8515642160168
 20
686.034649192693
 30
0.0
 10
175.8955952212152
 20
686.1662029577034
 30
0.0
 10
176.0389028683929
 20
686.3485436705279
 30
0.0
 10
176.1350394158659
 20
686.398302695266
 30
0.0
 10
176.2328891233856
 20
686.3983026952659
 30
0.0
  0
SPLINE
  5
2AC
330
1F
100
AcDbEntity
  8
0
  6
SLD-Solid
 62
   142
420
    32960
370
     0
100
AcDbSpline
210
0.0
220
0.0
230
1.0
 70
     8
 71
     3
 72
    16
 73
    12
 74
     0
 42
0.00000001
 43
0.00000001
 40
0.0
 40
0.0
 40
0.0
 40
0.0
 40
0.250000000000059
 40
0.250000000000059
 40
0.3750000000000491
 40
0.3750000000000491
 40
0.5000000000000393
 40
0.5000000000000393
 40
0.7500000000000197
 40
0.7500000000000197
 40
1.0
 40
1.0
 40
1.0
 40
1.0
 10
175.3216909213662
 20
685.898302695266
 30
0.0
 10
175.3216909213662
 20
686.0615644897614
 30
0.0
 10
175.3471079277816
 20
686.222865705061
 30
0.0
 10
175.4182252454526
 20
686.4433417202373
 30
0.0
 10
175.4479344780672
 20
686.5145539760283
 30
0.0
 10
175.5159337757734
 20
686.6449679411057
 30
0.0
 10
175.554350058217
 20
686.7049165358338
 30
0.0
 10
175.6826217222664
 20
686.8692575199725
 30
0.0
 10
175.7828024195905
 20
686.954395497212
 30
0.0
 10
176.0010012730172
 20
687.0695291217186
 30
0.0
 10
176.1157118199287
 20
687.0983026952659
 30
0.0
 10
176.2328891233856
 20
687.0983026952659
 30
0.0
  0
LINE
  5
2AD
330
1F
100
AcDbEntity
  8
0
  6
SLD-Solid
 62
   142
420
    32960
370
     0
100
AcDbLine
 10
176.2328891234
 20
687.0983026953
 30
0.0
 11
176.3403643764
 21
687.0983026953
 31
0.0
  0
SPLINE
  5
2AE
330
1F
100
AcDbEntity
  8
0
  6
SLD-Solid
 62
   142
420
    32960
370
     0
100
AcDbSpline
210
0.0
220
0.0
230
1.0
 70
     8
 71
     3
 72
    10
 73
     6
 74
     0
 42
0.00000001
 43
0.00000001
 40
0.0
 40
0.0
 40
0.0
 40
0.0
 40
0.5
 40
0.5
 40
1.0
 40
1.0
 40
1.0
 40
1.0
 10
176.3403643764093
 20
687.0983026952659
 30
0.0
 10
176.3403643764093
 20
687.1716136718147
 30
0.0
 10
176.3802437125546
 20
687.239694364578
 30
0.0
 10
176.4943321712742
 20
687.3271545091397
 30
0.0
 10
176.5660495738981
 20
687.348302695266
 30
0.0
 10
176.6368045448664
 20
687.3483026952659
 30
0.0
  0
LINE
  5
2AF
330
1F
100
AcDbEntity
  8
0
  6
SLD-Solid
 62
   142
420
    32960
370
     0
100
AcDbLine
 10
187.6716804042
 20
686.3983026953
 30
0.0
 11
179.8412546566
 21
686.3983026953
 31
0.0
  0
LINE
  5
2B0
330
1F
100
AcDbEntity
  8
0
  6
SLD-Solid
 62
   142
420
    32960
370
     0
100
AcDbLine
 10
179.5186250236
 20
686.3983026953
 30
0.0
 11
176.3403643764
 21
686.3983026953
 31
0.0
  0
SPLINE
  5
2B1
330
1F
100
AcDbEntity
  8
0
  6
SLD-Solid
 62
   142
420
    32960
370
     0
100
AcDbSpline
210
0.0
220
0.0
230
1.0
 70
     8
 71
     3
 72
     9
 73
     5
 74
     0
 42
0.00000001
 43
0.00000001
 40
0.0
 40
0.0
 40
0.0
 40
0.0
 40
0.9170405201231989
 40
0.9999999999999999
 40
0.9999999999999999
 40
0.9999999999999999
 40
0.9999999999999999
 10
189.2565837145087
 20
685.8983026952659
 30
0.0
 10
189.253975522695
 20
686.0603362959989
 30
0.0
 10
189.2511313824892
 20
686.2370281620372
 30
0.0
 10
189.1934103596837
 20
686.3859483536284
 30
0.0
 10
189.1886218536538
 20
686.3983026952658
 30
0.0
  0
SPLINE
  5
2B2
330
1F
100
AcDbEntity
  8
0
  6
SLD-Solid
 62
   142
420
    32960
370
     0
100
AcDbSpline
210
0.0
220
0.0
230
1.0
 70
     8
 71
     3
 72
    11
 73
     7
 74
     0
 42
0.00000001
 43
0.00000001
 40
0.0
 40
0.0
 40
0.0
 40
0.0
 40
0.1178017593635875
 40
0.4819133104265071
 40
0.8281840587211211
 40
0.9999999999999999
 40
0.9999999999999999
 40
0.9999999999999999
 40
0.9999999999999999
 10
193.0307097553047
 20
687.0787709574058
 30
0.0
 10
193.0681155822313
 20
687.0530824579506
 30
0.0
 10
193.2211384740865
 20
686.9479937913704
 30
0.0
 10
193.4021165440314
 20
686.6179936614205
 30
0.0
 10
193.5189609513049
 20
686.225184858029
 30
0.0
 10
193.5283450334649
 20
685.9797106562893
 30
0.0
 10
193.5314571282972
 20
685.8983026952659
 30
0.0
  0
LINE
  5
2B3
330
1F
100
AcDbEntity
  8
0
  6
SLD-Solid
 62
   142
420
    32960
370
     0
100
AcDbLine
 10
193.5314571283
 20
680.7983026953
 30
0.0
 11
189.2565837145
 21
680.7983026953
 31
0.0
  0
LINE
  5
2B4
330
1F
100
AcDbEntity
  8
0
  6
SLD-Solid
 62
   142
420
    32960
370
     0
100
AcDbLine
 10
189.2565837145
 20
680.7983026953
 30
0.0
 11
189.2565837145
 21
684.9483026953
 31
0.0
  0
LINE
  5
2B5
330
1F
100
AcDbEntity
  8
0
  6
SLD-Solid
 62
   142
420
    32960
370
     0
100
AcDbLine
 10
193.5314571283
 20
685.8983026953
 30
0.0
 11
193.5314571283
 21
680.7983026953
 31
0.0
  0
LINE
  5
2B6
330
1F
100
AcDbEntity
  8
0
  6
SLD-Solid
 62
   142
420
    32960
370
     0
100
AcDbLine
 10
757.9015651163
 20
667.6483026953
 30
0.0
 11
781.4900121832
 21
667.6483026953
 31
0.0
  0
ARC
  5
2B7
330
1F
100
AcDbEntity
  8
0
  6
SLD-Solid
 62
   142
420
    32960
370
     0
100
AcDbCircle
 10
387.9005063366
 20
-93.8175875384
 30
0.0
 40
0.4995683053119772
100
AcDbArc
 50
182.8711035151
 51
298.8471995542
  0
LINE
  5
2B8
330
1F
100
AcDbEntity
  8
0
  6
SLD-Solid
 62
   142
420
    32960
370
     0
100
AcDbLine
 10
387.4015651163
 20
-93.8426105355
 30
0.0
 11
387.4015651163
 21
-91.9185058032
 31
0.0
  0
LINE
  5
2B9
330
1F
100
AcDbEntity
  8
0
  6
SLD-Solid
 62
   142
420
    32960
370
     0
100
AcDbLine
 10
392.6829756409
 20
-91.9185058032
 30
0.0
 11
388.1415357551
 21
-94.255164173
 31
0.0
  0
LINE
  5
2BA
330
1F
100
AcDbEntity
  8
0
  6
SLD-Solid
 62
     7
370
    15
100
AcDbLine
 10
180.027510758
 20
675.8483026952
 30
0.0
 11
180.027510758
 21
679.0517207079
 31
0.0
  0
SPLINE
  5
2BB
330
1F
100
AcDbEntity
  8
0
  6
SLD-Solid
 62
   142
420
    32960
370
     0
100
AcDbSpline
210
0.0
220
0.0
230
1.0
 70
     8
 71
     3
 72
    12
 73
     8
 74
     0
 42
0.00000001
 43
0.00000001
 40
0.0
 40
0.0
 40
0.0
 40
0.0
 40
0.249999999999989
 40
0.249999999999989
 40
0.499999999999978
 40
0.499999999999978
 40
1.0
 40
1.0
 40
1.0
 40
1.0
 10
182.7527976432093
 20
679.4983026952659
 30
0.0
 10
182.5215108913323
 20
679.4983026952659
 30
0.0
 10
182.2891873797661
 20
679.4877471347424
 30
0.0
 10
181.8296028952344
 20
679.446898408182
 30
0.0
 10
181.6013477808492
 20
679.416644498142
 30
0.0
 10
180.9206364507131
 20
679.2999583728938
 30
0.0
 10
180.4722184736942
 20
679.1877026351669
 30
0.0
 10
180.0275107580298
 20
679.051720707881
 30
0.0
  0
SPLINE
  5
2BC
330
1F
100
AcDbEntity
  8
0
  6
SLD-Solid
 62
   142
420
    32960
370
     0
100
AcDbSpline
210
0.0
220
0.0
230
1.0
 70
     8
 71
     3
 72
     8
 73
     4
 74
     0
 42
0.00000001
 43
0.00000001
 40
0.0
 40
0.0
 40
0.0
 40
0.0
 40
1.0
 40
1.0
 40
1.0
 40
1.0
 10
185.478084528389
 20
679.0517207078815
 30
0.0
 10
184.5864435140493
 20
679.3243650972324
 30
0.0
 10
183.6814155670246
 20
679.4983026952659
 30
0.0
 10
182.7527976432093
 20
679.4983026952659
 30
0.0
  0
LINE
  5
2BD
330
1F
100
AcDbEntity
  8
0
  6
SLD-Solid
 62
     7
370
    15
100
AcDbLine
 10
185.4780845284
 20
675.8483026952
 30
0.0
 11
185.4780845284
 21
679.0517207079
 31
0.0
  0
SPLINE
  5
2BE
330
1F
100
AcDbEntity
  8
0
  6
SLD-Solid
 62
     7
370
    15
100
AcDbSpline
210
0.0
220
0.0
230
1.0
 70
     8
 71
     3
 72
     8
 73
     4
 74
     0
 42
0.00000001
 43
0.00000001
 40
0.0
 40
0.0
 40
0.0
 40
0.0
 40
1.0
 40
1.0
 40
1.0
 40
1.0
 10
189.8521388866846
 20
679.0517207078815
 30
0.0
 10
189.1366020589809
 20
679.3243650972324
 30
0.0
 10
188.4103222941623
 20
679.4983026952659
 30
0.0
 10
187.6651117075367
 20
679.4983026952659
 30
0.0
  0
LINE
  5
2BF
330
1F
100
AcDbEntity
  8
0
  6
SLD-Solid
 62
     7
370
    15
100
AcDbLine
 10
189.8521388867
 20
675.8483026952
 30
0.0
 11
189.8521388867
 21
679.0517207079
 31
0.0
  0
SPLINE
  5
2C0
330
1F
100
AcDbEntity
  8
0
  6
SLD-Solid
 62
   142
420
    32960
370
     0
100
AcDbSpline
210
0.0
220
0.0
230
1.0
 70
     8
 71
     3
 72
    12
 73
     8
 74
     0
 42
0.00000001
 43
0.00000001
 40
0.0
 40
0.0
 40
0.0
 40
0.0
 40
0.2499999999999977
 40
0.2499999999999977
 40
0.4999999999999954
 40
0.4999999999999954
 40
1.0
 40
1.0
 40
1.0
 40
1.0
 10
187.6651117075367
 20
679.4983026952659
 30
0.0
 10
187.4795054085145
 20
679.498302695266
 30
0.0
 10
187.2930671157558
 20
679.4877471347424
 30
0.0
 10
186.9242531885868
 20
679.446898408182
 30
0.0
 10
186.741079761358
 20
679.4166444981421
 30
0.0
 10
186.1948128019941
 20
679.2999583728938
 30
0.0
 10
185.8349599334054
 20
679.1877026351669
 30
0.0
 10
185.4780845283888
 20
679.051720707881
 30
0.0
  0
SPLINE
  5
2C1
330
1F
100
AcDbEntity
  8
0
  6
SLD-Solid
 62
     7
370
    15
100
AcDbSpline
210
0.0
220
0.0
230
1.0
 70
     8
 71
     3
 72
    10
 73
     6
 74
     0
 42
0.00000001
 43
0.00000001
 40
0.0
 40
0.0
 40
0.0
 40
0.0
 40
0.5
 40
0.5
 40
1.0
 40
1.0
 40
1.0
 40
1.0
 10
189.3138791806528
 20
679.4983026952659
 30
0.0
 10
189.4048902597125
 20
679.4983026952659
 30
0.0
 10
189.4971388348613
 20
679.4552123482314
 30
0.0
 10
189.6769300650709
 20
679.2986819881461
 30
0.0
 10
189.7651052930504
 20
679.1864660619956
 30
0.0
 10
189.8521388866845
 20
679.0517207078807
 30
0.0
  0
LINE
  5
2C2
330
1F
100
AcDbEntity
  8
0
  6
SLD-Solid
 62
   142
420
    32960
370
     0
100
AcDbLine
 10
187.6651117075
 20
679.4983026953
 30
0.0
 11
189.4015651163
 21
679.4983026953
 31
0.0
  0
LINE
  5
2C3
330
1F
100
AcDbEntity
  8
0
  6
SLD-Solid
 62
     7
370
    15
100
AcDbLine
 10
178.950991346
 20
675.8483026952
 30
0.0
 11
178.950991346
 21
679.0517207079
 31
0.0
  0
SPLINE
  5
2C4
330
1F
100
AcDbEntity
  8
0
  6
SLD-Solid
 62
   142
420
    32960
370
     0
100
AcDbSpline
210
0.0
220
0.0
230
1.0
 70
     8
 71
     3
 72
    10
 73
     6
 74
     0
 42
0.00000001
 43
0.00000001
 40
0.0
 40
0.0
 40
0.0
 40
0.0
 40
0.5
 40
0.5
 40
1.0
 40
1.0
 40
1.0
 40
1.0
 10
178.9509913459665
 20
679.0517207078808
 30
0.0
 10
179.0385349263709
 20
679.1872556231881
 30
0.0
 10
179.1281967265649
 20
679.3009335220211
 30
0.0
 10
179.3079262661126
 20
679.4563722564138
 30
0.0
 10
179.3982940137225
 20
679.4983026952659
 30
0.0
 10
179.4892510519982
 20
679.4983026952659
 30
0.0
  0
SPLINE
  5
2C5
330
1F
100
AcDbEntity
  8
0
  6
SLD-Solid
 62
   142
420
    32960
370
     0
100
AcDbSpline
210
0.0
220
0.0
230
1.0
 70
     8
 71
     3
 72
    10
 73
     6
 74
     0
 42
0.00000001
 43
0.00000001
 40
0.0
 40
0.0
 40
0.0
 40
0.0
 40
0.5
 40
0.5
 40
1.0
 40
1.0
 40
1.0
 40
1.0
 10
179.4892510519982
 20
679.4983026952659
 30
0.0
 10
179.5802621310579
 20
679.4983026952659
 30
0.0
 10
179.6725107062065
 20
679.4552123482314
 30
0.0
 10
179.8523019364164
 20
679.2986819881461
 30
0.0
 10
179.9404771643959
 20
679.1864660619956
 30
0.0
 10
180.0275107580299
 20
679.0517207078807
 30
0.0
  0
LINE
  5
2C6
330
1F
100
AcDbEntity
  8
0
  6
SLD-Solid
 62
   142
420
    32960
370
     0
100
AcDbLine
 10
179.8521711801
 20
679.2357379369
 30
0.0
 11
181.1380185251
 21
679.4983026953
 31
0.0
  0
LINE
  5
2C7
330
1F
100
AcDbEntity
  8
0
  6
SLD-Solid
 62
     7
370
    15
100
AcDbLine
 10
184.4015651163
 20
679.2281256879
 30
0.0
 11
186.0503325894
 21
679.4983026953
 31
0.0
  0
SPLINE
  5
2C8
330
1F
100
AcDbEntity
  8
0
  6
SLD-Solid
 62
   142
420
    32960
370
     0
100
AcDbSpline
210
0.0
220
0.0
230
1.0
 70
     8
 71
     3
 72
     9
 73
     5
 74
     0
 42
0.00000001
 43
0.00000001
 40
0.0
 40
0.0
 40
0.0
 40
0.0
 40
0.2139726712782229
 40
0.9999999999999999
 40
0.9999999999999999
 40
0.9999999999999999
 40
0.9999999999999999
 10
186.0503325894416
 20
679.4983026952659
 30
0.0
 10
186.1150000873241
 20
679.4986018866731
 30
0.0
 10
186.4172232520685
 20
679.5000001559266
 30
0.0
 10
186.7133930982097
 20
679.4287169154655
 30
0.0
 10
186.9461906912198
 20
679.3726863403833
 30
0.0
  0
LINE
  5
2C9
330
1F
100
AcDbEntity
  8
0
  6
SLD-Solid
 62
   142
420
    32960
370
     0
100
AcDbLine
 10
186.0503325894
 20
679.4983026953
 30
0.0
 11
182.7283168191
 21
679.4983026953
 31
0.0
  0
SPLINE
  5
2CA
330
1F
100
AcDbEntity
  8
0
  6
SLD-Solid
 62
   142
420
    32960
370
     0
100
AcDbSpline
210
0.0
220
0.0
230
1.0
 70
     8
 71
     3
 72
     9
 73
     5
 74
     0
 42
0.00000001
 43
0.00000001
 40
0.0
 40
0.0
 40
0.0
 40
0.0
 40
0.9170405201230586
 40
1.0
 40
1.0
 40
1.0
 40
1.0
 10
180.4682290488678
 20
686.3983026952658
 30
0.0
 10
180.4705538804861
 20
686.2362690945325
 30
0.0
 10
180.4730890264989
 20
686.059577228494
 30
0.0
 10
180.5244068405837
 20
685.9106570369034
 30
0.0
 10
180.5286641397485
 20
685.8983026952659
 30
0.0
  0
SPLINE
  5
2CB
330
1F
100
AcDbEntity
  8
0
  6
SLD-Solid
 62
   142
420
    32960
370
     0
100
AcDbSpline
210
0.0
220
0.0
230
1.0
 70
     8
 71
     3
 72
     9
 73
     5
 74
     0
 42
0.00000001
 43
0.00000001
 40
0.0
 40
0.0
 40
0.0
 40
0.0
 40
0.5388390010313161
 40
1.0
 40
1.0
 40
1.0
 40
1.0
 10
180.8726852635373
 20
685.198302695266
 30
0.0
 10
180.9591029283218
 20
685.120731595089
 30
0.0
 10
181.1194804522558
 20
684.9767718964991
 30
0.0
 10
181.2999345703577
 20
684.957287937337
 30
0.0
 10
181.3831529717295
 20
684.9483026952659
 30
0.0
  0
LINE
  5
2CC
330
1F
100
AcDbEntity
  8
0
  6
SLD-Solid
 62
   142
420
    32960
370
     0
100
AcDbLine
 10
179.5465465181
 20
684.9483026953
 30
0.0
 11
181.3831529717
 21
684.9483026953
 31
0.0
  0
LINE
  5
2CD
330
1F
100
AcDbEntity
  8
0
  6
SLD-Solid
 62
   142
420
    32960
370
     0
100
AcDbLine
 10
175.7724204773
 20
687.2726792944
 30
0.0
 11
175.7724204773
 21
691.4983026953
 31
0.0
  0
LINE
  5
2CE
330
1F
100
AcDbEntity
  8
0
  6
SLD-Solid
 62
   142
420
    32960
370
     0
100
AcDbLine
 10
175.7724204773
 20
691.4983026953
 30
0.0
 11
176.6745377185
 21
691.4983026953
 31
0.0
  0
LINE
  5
2CF
330
1F
100
AcDbEntity
  8
0
  6
SLD-Solid
 62
   142
420
    32960
370
     0
100
AcDbLine
 10
805.4891598408
 20
-96.6875881107
 30
0.0
 11
814.7391598408
 21
-97.1578415564
 31
0.0
  0
SPLINE
  5
2D0
330
1F
100
AcDbEntity
  8
0
  6
SLD-Solid
 62
   142
420
    32960
370
     0
100
AcDbSpline
210
0.0
220
0.0
230
1.0
 70
     8
 71
     3
 72
    10
 73
     6
 74
     0
 42
0.00000001
 43
0.00000001
 40
0.0
 40
0.0
 40
0.0
 40
0.0
 40
0.5
 40
0.5
 40
1.0
 40
1.0
 40
1.0
 40
1.0
 10
496.1737301041365
 20
-127.4816976944913
 30
0.0
 10
518.6982698964291
 20
-126.1670525086883
 30
0.0
 10
541.2035782045689
 20
-124.522333570192
 30
0.0
 10
586.1468101095717
 20
-120.575381900377
 30
0.0
 10
608.5870839677217
 20
-118.2730772691613
 30
0.0
 10
630.9959928666553
 20
-115.6417043335753
 30
0.0
  0
LINE
  5
2D1
330
1F
100
AcDbEntity
  8
0
  6
SLD-Solid
 62
   142
420
    32960
370
     0
100
AcDbLine
 10
496.1353173712
 20
-126.8225868982
 30
0.0
 11
496.1737301041
 21
-127.4816976945
 31
0.0
  0
LINE
  5
2D2
330
1F
100
AcDbEntity
  8
0
  6
SLD-Solid
 62
   142
420
    32960
370
     0
100
AcDbLine
 10
630.9197223837
 20
-114.9921451614
 30
0.0
 11
630.9959928667
 21
-115.6417043336
 31
0.0
  0
LINE
  5
2D3
330
1F
100
AcDbEntity
  8
0
  6
SLD-Solid
 62
   142
420
    32960
370
     0
100
AcDbLine
 10
187.5716538056
 20
691.4983026953
 30
0.0
 11
187.51251694
 21
691.4983026953
 31
0.0
  0
LINE
  5
2D4
330
1F
100
AcDbEntity
  8
0
  6
SLD-Solid
 62
   142
420
    32960
370
     0
100
AcDbLine
 10
187.5716538056
 20
691.4983026953
 30
0.0
 11
187.6716804042
 21
691.4983026953
 31
0.0
  0
LWPOLYLINE
  5
2D5
330
1F
100
AcDbEntity
  8
0
  6
SLD-Solid
 62
   142
420
    32960
370
     0
100
AcDbPolyline
 90
        9
 70
   128
 43
0.0
 10
187.76251694
 20
691.7483026953
 10
187.7447956109
 20
691.7434990154
 10
187.7277553027
 20
691.7292725784
 10
187.7120508646
 20
691.7061700983
 10
187.6982858095
 20
691.6750793906
 10
187.6869891208
 20
691.6371952535
 10
187.6785949237
 20
691.5939735534
 10
187.6734258027
 20
691.5470752758
 10
187.6716804042
 20
691.4983026953
  0
ARC
  5
2D6
330
1F
100
AcDbEntity
  8
0
  6
SLD-Solid
 62
   142
420
    32960
370
     0
100
AcDbCircle
 10
187.7966661014
 20
691.5243739592
 30
0.0
 40
0.2265176462358828
100
AcDbArc
 50
98.670808753
 51
186.609159394
  0
LINE
  5
2D7
330
1F
100
AcDbEntity
  8
0
  6
SLD-Solid
 62
   142
420
    32960
370
     0
100
AcDbLine
 10
805.4891598408
 20
-91.9850536534
 30
0.0
 11
814.7391598408
 21
-92.4553070991
 31
0.0
  0
LINE
  5
2D8
330
1F
100
AcDbEntity
  8
0
  6
SLD-Solid
 62
   142
420
    32960
370
     0
100
AcDbLine
 10
176.6745377185
 20
691.4983026953
 30
0.0
 11
176.6745377185
 21
687.3483026953
 31
0.0
  0
LINE
  5
2D9
330
1F
100
AcDbEntity
  8
0
  6
SLD-Solid
 62
   142
420
    32960
370
     0
100
AcDbLine
 10
178.6717770799
 20
691.4983026953
 30
0.0
 11
176.6745377185
 21
691.4983026953
 31
0.0
  0
LINE
  5
2DA
330
1F
100
AcDbEntity
  8
0
  6
SLD-Solid
 62
   142
420
    32960
370
     0
100
AcDbLine
 10
386.4015651163
 20
-93.8426105355
 30
0.0
 11
386.4015651163
 21
-91.9185058032
 31
0.0
  0
ARC
  5
2DB
330
1F
100
AcDbEntity
  8
0
  6
SLD-Solid
 62
   142
420
    32960
370
     0
100
AcDbCircle
 10
386.9178554279
 20
-91.1749052722
 30
0.0
 40
6.546759004562757
100
AcDbArc
 50
186.5219014349
 51
346.7230973532
  0
LINE
  5
2DC
330
1F
100
AcDbEntity
  8
0
  6
SLD-Solid
 62
   142
420
    32960
370
     0
100
AcDbLine
 10
393.2896295969
 20
-92.6784169622
 30
0.0
 11
388.6214770327
 21
-95.0802714478
 31
0.0
  0
ARC
  5
2DD
330
1F
100
AcDbEntity
  8
0
  6
SLD-Solid
 62
   142
420
    32960
370
     0
100
AcDbCircle
 10
387.8983887771
 20
-93.7675415442
 30
0.0
 40
1.498704915935648
100
AcDbArc
 50
182.8711035151
 51
298.8471995542
  0
ARC
  5
2DE
330
1F
100
AcDbEntity
  8
0
  6
SLD-Solid
 62
   142
420
    32960
370
     0
100
AcDbCircle
 10
180.3438417228
 20
-96.6262133413
 30
0.0
 40
1.943246067350918
100
AcDbArc
 50
181.809909826
 51
271.7021999702
  0
LINE
  5
2DF
330
1F
100
AcDbEntity
  8
0
  6
SLD-Solid
 62
   142
420
    32960
370
     0
100
AcDbLine
 10
200.4015651163
 20
-98.5686018936
 30
0.0
 11
180.4015651163
 21
-98.5686018936
 31
0.0
  0
ARC
  5
2E0
330
1F
100
AcDbEntity
  8
0
  6
SLD-Solid
 62
   142
420
    32960
370
     0
100
AcDbCircle
 10
200.4592885099
 20
-96.6262133413
 30
0.0
 40
1.943246067350842
100
AcDbArc
 50
268.2978000298
 51
358.190090174
  0
LINE
  5
2E1
330
1F
100
AcDbEntity
  8
0
  6
SLD-Solid
 62
     7
370
    15
100
AcDbLine
 10
314.4515651163
 20
591.6983026953
 30
0.0
 11
314.4515651163
 21
29.7983026953
 31
0.0
  0
LINE
  5
2E2
330
1F
100
AcDbEntity
  8
0
  6
SLD-Solid
 62
     7
370
    15
100
AcDbLine
 10
554.3515651163
 20
29.7983026953
 30
0.0
 11
554.3515651163
 21
591.6983026953
 31
0.0
  0
LINE
  5
2E3
330
1F
100
AcDbEntity
  8
0
  6
SLD-Solid
 62
     7
370
    15
100
AcDbLine
 10
554.3515651163
 20
591.6983026953
 30
0.0
 11
314.4515651163
 21
591.6983026953
 31
0.0
  0
LINE
  5
2E4
330
1F
100
AcDbEntity
  8
0
  6
SLD-Solid
 62
     7
370
    15
100
AcDbLine
 10
314.4515651163
 20
29.7983026953
 30
0.0
 11
554.3515651163
 21
29.7983026953
 31
0.0
  0
LINE
  5
2E5
330
1F
100
AcDbEntity
  8
0
  6
SLD-Solid
 62
     7
370
    15
100
AcDbLine
 10
431.9015651163
 20
-91.9185058032
 30
0.0
 11
431.9015651163
 21
-102.5271265609
 31
0.0
  0
LINE
  5
2E6
330
1F
100
AcDbEntity
  8
0
  6
SLD-Solid
 62
   142
420
    32960
370
     0
100
AcDbLine
 10
434.9015651163
 20
-102.5271265609
 30
0.0
 11
434.9015651163
 21
-91.9185058032
 31
0.0
  0
ARC
  5
2E7
330
1F
100
AcDbEntity
  8
0
  6
SLD-Solid
 62
   142
420
    32960
370
     0
100
AcDbCircle
 10
443.5419304505
 20
-91.6206643098
 30
0.0
 40
0.9768703153308675
100
AcDbArc
 50
300.4073827834
 51
342.2482381028
  0
ARC
  5
2E8
330
1F
100
AcDbEntity
  8
0
  6
SLD-Solid
 62
   142
420
    32960
370
     0
100
AcDbCircle
 10
423.3197391011
 20
-91.573812105
 30
0.0
 40
1.04724959090719
100
AcDbArc
 50
199.2166993273
 51
238.1276797866
  0
LWPOLYLINE
  5
2E9
330
1F
100
AcDbEntity
  8
0
  6
SLD-Solid
 62
   142
420
    32960
370
     0
100
AcDbPolyline
 90
        9
 70
   128
 43
0.0
 10
431.9015651163
 20
-102.5271265609
 10
432.0157458176
 20
-102.704510087
 10
432.3409049445
 20
-102.8548885792
 10
432.8275399678
 20
-102.9553682753
 10
433.4015651163
 20
-102.9906520524
 10
433.9755902649
 20
-102.9553682753
 10
434.4622252881
 20
-102.8548885792
 10
434.7873844151
 20
-102.704510087
 10
434.9015651163
 20
-102.5271265609
  0
LINE
  5
2EA
330
1F
100
AcDbEntity
  8
0
  6
SLD-Solid
 62
     7
370
    15
100
AcDbLine
 10
443.0757291525
 20
-96.0263437303
 30
0.0
 11
443.0683796282
 21
-96.2315391971
 31
0.0
  0
ARC
  5
2EB
330
1F
100
AcDbEntity
  8
0
  6
SLD-Solid
 62
   142
420
    32960
370
     0
100
AcDbCircle
 10
444.1250660734
 20
-91.583823144
 30
0.0
 40
0.8838035354359858
100
AcDbArc
 50
264.2401525825
 51
337.7477815073
  0
ARC
  5
2EC
330
1F
100
AcDbEntity
  8
0
  6
SLD-Solid
 62
   142
420
    32960
370
     0
100
AcDbCircle
 10
443.9495089586
 20
-101.0320633058
 30
0.0
 40
1.056025610322053
100
AcDbArc
 50
274.7179789945
 51
357.771185392
  0
ARC
  5
2ED
330
1F
100
AcDbEntity
  8
0
  6
SLD-Solid
 62
   142
420
    32960
370
     0
100
AcDbCircle
 10
422.6742834673
 20
-91.5901167729
 30
0.0
 40
0.8779320999909798
100
AcDbArc
 50
201.9655056417
 51
276.0465602684
  0
ARC
  5
2EE
330
1F
100
AcDbEntity
  8
0
  6
SLD-Solid
 62
   142
420
    32960
370
     0
100
AcDbCircle
 10
422.853621274
 20
-101.0320633058
 30
0.0
 40
1.056025610322222
100
AcDbArc
 50
182.228814608
 51
265.2820210055
  0
ARC
  5
2EF
330
1F
100
AcDbEntity
  8
0
  6
SLD-Solid
 62
   142
420
    32960
370
     0
100
AcDbCircle
 10
444.1761756292
 20
-101.7874001232
 30
0.0
 40
0.3283607262088654
100
AcDbArc
 50
244.8003750689
 51
329.0454215696
  0
ARC
  5
2F0
330
1F
100
AcDbEntity
  8
0
  6
SLD-Solid
 62
   142
420
    32960
370
     0
100
AcDbCircle
 10
422.6269546052
 20
-101.7874003956
 30
0.0
 40
0.328360479002075
100
AcDbArc
 50
210.954824605
 51
295.1996448848
  0
ARC
  5
2F1
330
1F
100
AcDbEntity
  8
0
  6
SLD-Solid
 62
   142
420
    32960
370
     0
100
AcDbCircle
 10
422.2642424813
 20
-101.2180323971
 30
0.0
 40
0.487862953569018
100
AcDbArc
 50
162.7219298263
 51
232.1759059188
  0
ARC
  5
2F2
330
1F
100
AcDbEntity
  8
0
  6
SLD-Solid
 62
   142
420
    32960
370
     0
100
AcDbCircle
 10
444.5388917441
 20
-101.2180326868
 30
0.0
 40
0.4878592270544707
100
AcDbArc
 50
307.826959002
 51
17.278241935
  0
LWPOLYLINE
  5
2F3
330
1F
100
AcDbEntity
  8
0
  6
SLD-Solid
 62
   142
420
    32960
370
     0
100
AcDbPolyline
 90
        9
 70
   128
 43
0.0
 10
434.9015651163
 20
-102.0515983027
 10
434.7873844151
 20
-102.2289818288
 10
434.4622252881
 20
-102.3793603211
 10
433.9755902649
 20
-102.4798400172
 10
433.4015651163
 20
-102.5151237943
 10
432.8275399678
 20
-102.4798400172
 10
432.3409049445
 20
-102.3793603211
 10
432.0157458176
 20
-102.2289818288
 10
431.9015651163
 20
-102.0515983027
  0
SPLINE
  5
2F4
330
1F
100
AcDbEntity
  8
0
  6
SLD-Solid
 62
   142
420
    32960
370
     0
100
AcDbSpline
210
0.0
220
0.0
230
1.0
 70
     8
 71
     3
 72
    10
 73
     6
 74
     0
 42
0.00000001
 43
0.00000001
 40
0.0
 40
0.0
 40
0.0
 40
0.0
 40
0.5
 40
0.5
 40
1.0
 40
1.0
 40
1.0
 40
1.0
 10
192.0950118638072
 20
685.198302695266
 30
0.0
 10
192.0950118638073
 20
685.1249917187172
 30
0.0
 10
192.0544861315958
 20
685.0569110259539
 30
0.0
 10
191.9385949793079
 20
684.969450881392
 30
0.0
 10
191.8657648707824
 20
684.9483026952659
 30
0.0
 10
191.7939412287572
 20
684.9483026952659
 30
0.0
  0
LINE
  5
2F5
330
1F
100
AcDbEntity
  8
0
  6
SLD-Solid
 62
   142
420
    32960
370
     0
100
AcDbLine
 10
181.5899042281
 20
684.9483026953
 30
0.0
 11
191.7939412288
 21
684.9483026953
 31
0.0
  0
LINE
  5
2F6
330
1F
100
AcDbEntity
  8
0
  6
SLD-Solid
 62
   142
420
    32960
370
     0
100
AcDbLine
 10
192.8515651163
 20
684.9483026953
 30
0.0
 11
191.7939412288
 21
684.9483026953
 31
0.0
  0
SPLINE
  5
2F7
330
1F
100
AcDbEntity
  8
0
  6
SLD-Solid
 62
   142
420
    32960
370
     0
100
AcDbSpline
210
0.0
220
0.0
230
1.0
 70
     8
 71
     3
 72
    10
 73
     6
 74
     0
 42
0.00000001
 43
0.00000001
 40
0.0
 40
0.0
 40
0.0
 40
0.0
 40
0.5
 40
0.5
 40
1.0
 40
1.0
 40
1.0
 40
1.0
 10
181.6705598617057
 20
685.198302695266
 30
0.0
 10
181.6705598617057
 20
685.1249917187173
 30
0.0
 10
181.6594753437442
 20
685.0569110259539
 30
0.0
 10
181.6282285554589
 20
684.969450881392
 30
0.0
 10
181.6087908198162
 20
684.9483026952659
 30
0.0
 10
181.589904228074
 20
684.9483026952659
 30
0.0
  0
LINE
  5
2F8
330
1F
100
AcDbEntity
  8
0
  6
SLD-Solid
 62
   142
420
    32960
370
     0
100
AcDbLine
 10
192.0950118638
 20
685.8983026953
 30
0.0
 11
192.0950118638
 21
685.1983026953
 31
0.0
  0
LINE
  5
2F9
330
1F
100
AcDbEntity
  8
0
  6
SLD-Solid
 62
   142
420
    32960
370
     0
100
AcDbLine
 10
187.1325703709
 20
685.8983026953
 30
0.0
 11
192.0950118638
 21
685.8983026953
 31
0.0
  0
LINE
  5
2FA
330
1F
100
AcDbEntity
  8
0
  6
SLD-Solid
 62
   142
420
    32960
370
     0
100
AcDbLine
 10
193.1015651163
 20
685.8983026953
 30
0.0
 11
192.0950118638
 21
685.8983026953
 31
0.0
  0
LINE
  5
2FB
330
1F
100
AcDbEntity
  8
0
  6
SLD-Solid
 62
     7
370
    15
100
AcDbLine
 10
-15.5984348837
 20
563.2483026953
 30
0.0
 11
-15.5984348837
 21
568.2483026953
 31
0.0
  0
LINE
  5
2FC
330
1F
100
AcDbEntity
  8
0
  6
SLD-Solid
 62
   142
420
    32960
370
     0
100
AcDbLine
 10
-15.5984348837
 20
568.2483026953
 30
0.0
 11
-14.7984348837
 21
568.2483026953
 31
0.0
  0
LINE
  5
2FD
330
1F
100
AcDbEntity
  8
0
  6
SLD-Solid
 62
   142
420
    32960
370
     0
100
AcDbLine
 10
-14.7984348837
 20
563.2483026953
 30
0.0
 11
-14.7984348837
 21
568.2483026953
 31
0.0
  0
LINE
  5
2FE
330
1F
100
AcDbEntity
  8
0
  6
SLD-Solid
 62
     7
370
    15
100
AcDbLine
 10
-15.5984348837
 20
58.2483026953
 30
0.0
 11
-15.5984348837
 21
563.2483026953
 31
0.0
  0
LINE
  5
2FF
330
1F
100
AcDbEntity
  8
0
  6
SLD-Solid
 62
     7
370
    15
100
AcDbLine
 10
-15.5984348837
 20
53.2483026953
 30
0.0
 11
-15.5984348837
 21
58.2483026953
 31
0.0
  0
LINE
  5
300
330
1F
100
AcDbEntity
  8
0
  6
SLD-Solid
 62
   142
420
    32960
370
     0
100
AcDbLine
 10
-14.7984348837
 20
58.2483026953
 30
0.0
 11
-14.7984348837
 21
563.2483026953
 31
0.0
  0
LINE
  5
301
330
1F
100
AcDbEntity
  8
0
  6
SLD-Solid
 62
   142
420
    32960
370
     0
100
AcDbLine
 10
-14.7984348837
 20
53.2483026953
 30
0.0
 11
-14.7984348837
 21
58.2483026953
 31
0.0
  0
LINE
  5
302
330
1F
100
AcDbEntity
  8
0
  6
SLD-Solid
 62
   142
420
    32960
370
     0
100
AcDbLine
 10
-15.5984348837
 20
53.2483026953
 30
0.0
 11
-14.7984348837
 21
53.2483026953
 31
0.0
  0
LINE
  5
303
330
1F
100
AcDbEntity
  8
0
  6
SLD-Solid
 62
   142
420
    32960
370
     0
100
AcDbLine
 10
-14.7984348837
 20
53.2483026953
 30
0.0
 11
-14.6161427089
 21
53.2483026953
 31
0.0
  0
LINE
  5
304
330
1F
100
AcDbEntity
  8
0
  6
SLD-Solid
 62
   142
420
    32960
370
     0
100
AcDbLine
 10
-14.6161427089
 20
568.2483026953
 30
0.0
 11
-14.7984348837
 21
568.2483026953
 31
0.0
  0
ARC
  5
305
330
1F
100
AcDbEntity
  8
0
  6
SLD-Solid
 62
   142
420
    32960
370
     0
100
AcDbCircle
 10
786.7052464564
 20
-91.4962987389
 30
0.0
 40
16.53432445345032
100
AcDbArc
 50
334.6761202426
 51
358.5367825212
  0
ARC
  5
306
330
1F
100
AcDbEntity
  8
0
  6
SLD-Solid
 62
   142
420
    32960
370
     0
100
AcDbCircle
 10
804.9789584401
 20
-91.3792029508
 30
0.0
 40
7.922423802461115
100
AcDbArc
 50
183.9033119856
 51
245.1586698993
  0
ARC
  5
307
330
1F
100
AcDbEntity
  8
0
  6
SLD-Solid
 62
   142
420
    32960
370
     0
100
AcDbCircle
 10
804.944631941
 20
-91.4369235233
 30
0.0
 40
6.885107034996374
100
AcDbArc
 50
184.010857141
 51
236.7060757581
  0
ARC
  5
308
330
1F
100
AcDbEntity
  8
0
  6
SLD-Solid
 62
   142
420
    32960
370
     0
100
AcDbCircle
 10
786.6429042509
 20
-91.5038005299
 30
0.0
 40
15.59650493990304
100
AcDbArc
 50
338.6104777875
 51
358.4763469291
  0
ARC
  5
309
330
1F
100
AcDbEntity
  8
0
  6
SLD-Solid
 62
   142
420
    32960
370
     0
100
AcDbCircle
 10
185.4592885099
 20
-93.8046926669
 30
0.0
 40
1.943246067350764
100
AcDbArc
 50
268.2978000298
 51
358.190090174
  0
LINE
  5
30A
330
1F
100
AcDbEntity
  8
0
  6
SLD-Solid
 62
   142
420
    32960
370
     0
100
AcDbLine
 10
183.4015651163
 20
-95.7470812192
 30
0.0
 11
185.4015651163
 21
-95.7470812192
 31
0.0
  0
ARC
  5
30B
330
1F
100
AcDbEntity
  8
0
  6
SLD-Solid
 62
   142
420
    32960
370
     0
100
AcDbCircle
 10
183.3438417228
 20
-93.8046926669
 30
0.0
 40
1.943246067350874
100
AcDbArc
 50
181.809909826
 51
271.7021999702
  0
LINE
  5
30C
330
1F
100
AcDbEntity
  8
0
  6
SLD-Solid
 62
   142
420
    32960
370
     0
100
AcDbLine
 10
187.76251694
 20
691.7483026953
 30
0.0
 11
188.238495888
 21
691.7483026953
 31
0.0
  0
LINE
  5
30D
330
1F
100
AcDbEntity
  8
0
  6
SLD-Solid
 62
   142
420
    32960
370
     0
100
AcDbLine
 10
188.238495888
 20
691.7483026953
 30
0.0
 11
192.8192111122
 21
691.7483026953
 31
0.0
  0
LINE
  5
30E
330
1F
100
AcDbEntity
  8
0
  6
SLD-Solid
 62
     7
370
    15
100
AcDbLine
 10
64.4515651163
 20
29.7983026953
 30
0.0
 11
64.4515651163
 21
591.7983026953
 31
0.0
  0
LINE
  5
30F
330
1F
100
AcDbEntity
  8
0
  6
SLD-Solid
 62
     7
370
    15
100
AcDbLine
 10
-13.5484348837
 20
29.7983026953
 30
0.0
 11
64.4515651163
 21
29.7983026953
 31
0.0
  0
CIRCLE
  5
310
330
1F
100
AcDbEntity
  8
0
  6
SLD-Solid
 62
     7
370
    15
100
AcDbCircle
 10
22.4515651163
 20
579.7983026953
 30
0.0
 40
7.49999999999995
  0
CIRCLE
  5
311
330
1F
100
AcDbEntity
  8
0
  6
SLD-Solid
 62
     7
370
    15
100
AcDbCircle
 10
22.4515651163
 20
41.7983026953
 30
0.0
 40
7.49999999999995
  0
LINE
  5
312
330
1F
100
AcDbEntity
  8
0
  6
SLD-Solid
 62
     7
370
    15
100
AcDbLine
 10
-13.5484348837
 20
591.7983026953
 30
0.0
 11
-13.5484348837
 21
29.7983026953
 31
0.0
  0
LINE
  5
313
330
1F
100
AcDbEntity
  8
0
  6
SLD-Solid
 62
     7
370
    15
100
AcDbLine
 10
64.4515651163
 20
591.7983026953
 30
0.0
 11
-13.5484348837
 21
591.7983026953
 31
0.0
  0
CIRCLE
  5
314
330
1F
100
AcDbEntity
  8
0
  6
SLD-Solid
 62
     7
370
    15
100
AcDbCircle
 10
22.4515651163
 20
41.7983026953
 30
0.0
 40
4.000000000000004
  0
CIRCLE
  5
315
330
1F
100
AcDbEntity
  8
0
  6
SLD-Solid
 62
     7
370
    15
100
AcDbCircle
 10
22.4515651163
 20
579.7983026953
 30
0.0
 40
4.000000000000004
  0
LINE
  5
316
330
1F
100
AcDbEntity
  8
0
  6
SLD-Solid
 62
   142
420
    32960
370
     0
100
AcDbLine
 10
762.4015651163
 20
-91.9185058032
 30
0.0
 11
762.4015651163
 21
-96.7215655719
 31
0.0
  0
ARC
  5
317
330
1F
100
AcDbEntity
  8
0
  6
SLD-Solid
 62
   142
420
    32960
370
     0
100
AcDbCircle
 10
763.3727034195
 20
-96.6908781872
 30
0.0
 40
0.9716230336753942
100
AcDbArc
 50
181.809909826
 51
271.7021999702
  0
LINE
  5
318
330
1F
100
AcDbEntity
  8
0
  6
SLD-Solid
 62
   142
420
    32960
370
     0
100
AcDbLine
 10
783.4015651163
 20
-97.6620724634
 30
0.0
 11
763.4015651163
 21
-97.6620724634
 31
0.0
  0
ARC
  5
319
330
1F
100
AcDbEntity
  8
0
  6
SLD-Solid
 62
   142
420
    32960
370
     0
100
AcDbCircle
 10
783.4304268131
 20
-96.6908781872
 30
0.0
 40
0.971623033675451
100
AcDbArc
 50
268.2978000298
 51
358.190090174
  0
LINE
  5
31A
330
1F
100
AcDbEntity
  8
0
  6
SLD-Solid
 62
   142
420
    32960
370
     0
100
AcDbLine
 10
784.4015651163
 20
-96.7215655719
 30
0.0
 11
784.4015651163
 21
-91.9185058032
 31
0.0
  0
LINE
  5
31B
330
1F
100
AcDbEntity
  8
0
  6
SLD-Solid
 62
   142
420
    32960
370
     0
100
AcDbLine
 10
782.4015651163
 20
-91.9185058032
 30
0.0
 11
782.4015651163
 21
-93.9000448975
 31
0.0
  0
ARC
  5
31C
330
1F
100
AcDbEntity
  8
0
  6
SLD-Solid
 62
   142
420
    32960
370
     0
100
AcDbCircle
 10
780.4592885099
 20
-93.8386701281
 30
0.0
 40
1.943246067350767
100
AcDbArc
 50
268.2978000298
 51
358.190090174
  0
LINE
  5
31D
330
1F
100
AcDbEntity
  8
0
  6
SLD-Solid
 62
   142
420
    32960
370
     0
100
AcDbLine
 10
778.4015651163
 20
-95.7810586804
 30
0.0
 11
780.4015651163
 21
-95.7810586804
 31
0.0
  0
ARC
  5
31E
330
1F
100
AcDbEntity
  8
0
  6
SLD-Solid
 62
   142
420
    32960
370
     0
100
AcDbCircle
 10
778.3438417228
 20
-93.8386701281
 30
0.0
 40
1.94324606735077
100
AcDbArc
 50
181.809909826
 51
271.7021999702
  0
LINE
  5
31F
330
1F
100
AcDbEntity
  8
0
  6
SLD-Solid
 62
   142
420
    32960
370
     0
100
AcDbLine
 10
776.4015651163
 20
-91.9185058032
 30
0.0
 11
776.4015651163
 21
-93.9000448975
 31
0.0
  0
LINE
  5
320
330
1F
100
AcDbEntity
  8
0
  6
SLD-Solid
 62
   142
420
    32960
370
     0
100
AcDbLine
 10
182.4015651163
 20
-91.9185058032
 30
0.0
 11
182.4015651163
 21
-93.9000448975
 31
0.0
  0
ARC
  5
321
330
1F
100
AcDbEntity
  8
0
  6
SLD-Solid
 62
   142
420
    32960
370
     0
100
AcDbCircle
 10
183.3727034195
 20
-93.8693575128
 30
0.0
 40
0.9716230336755062
100
AcDbArc
 50
181.809909826
 51
271.7021999702
  0
LINE
  5
322
330
1F
100
AcDbEntity
  8
0
  6
SLD-Solid
 62
   142
420
    32960
370
     0
100
AcDbLine
 10
183.4015651163
 20
-94.840551789
 30
0.0
 11
185.4015651163
 21
-94.840551789
 31
0.0
  0
ARC
  5
323
330
1F
100
AcDbEntity
  8
0
  6
SLD-Solid
 62
   142
420
    32960
370
     0
100
AcDbCircle
 10
185.4304268131
 20
-93.8693575128
 30
0.0
 40
0.9716230336753556
100
AcDbArc
 50
268.2978000298
 51
358.190090174
  0
LINE
  5
324
330
1F
100
AcDbEntity
  8
0
  6
SLD-Solid
 62
   142
420
    32960
370
     0
100
AcDbLine
 10
186.4015651163
 20
-91.9185058032
 30
0.0
 11
186.4015651163
 21
-93.9000448975
 31
0.0
  0
ENDSEC
  0
SECTION
  2
OBJECTS
  0
DICTIONARY
  5
C
330
0
100
AcDbDictionary
281
     1
  3
ACAD_GROUP
350
D
  3
ACAD_LAYOUT
350
1A
  3
ACAD_MATERIAL
350
3B
  3
ACAD_MLEADERSTYLE
350
326
  3
ACAD_MLINESTYLE
350
17
  3
ACAD_PLOTSETTINGS
350
19
  3
ACAD_PLOTSTYLENAME
350
E
  3
ACAD_TABLESTYLE
350
325
  3
ACAD_VISUALSTYLE
350
2A
  0
DICTIONARY
  5
D
102
{ACAD_REACTORS
330
C
102
}
330
C
100
AcDbDictionary
281
     1
  0
DICTIONARY
  5
1A
102
{ACAD_REACTORS
330
C
102
}
330
C
100
AcDbDictionary
281
     1
  3
Layout1
350
1E
  3
Layout2
350
26
  3
Model
350
22
  0
DICTIONARY
  5
3B
102
{ACAD_REACTORS
330
C
102
}
330
C
100
AcDbDictionary
281
     1
  3
ByBlock
350
3D
  3
ByLayer
350
3C
  3
Global
350
3E
  0
DICTIONARY
  5
326
102
{ACAD_REACTORS
330
C
102
}
330
C
100
AcDbDictionary
281
     1
  0
DICTIONARY
  5
17
102
{ACAD_REACTORS
330
C
102
}
330
C
100
AcDbDictionary
281
     1
  3
Standard
350
18
  0
DICTIONARY
  5
19
102
{ACAD_REACTORS
330
C
102
}
330
C
100
AcDbDictionary
281
     1
  0
ACDBDICTIONARYWDFLT
  5
E
102
{ACAD_REACTORS
330
C
102
}
330
C
100
AcDbDictionary
281
     1
  3
Normal
350
F
100
AcDbDictionaryWithDefault
340
F
  0
DICTIONARY
  5
325
102
{ACAD_REACTORS
330
C
102
}
330
C
100
AcDbDictionary
281
     1
  0
DICTIONARY
  5
2A
102
{ACAD_REACTORS
330
C
102
}
330
C
100
AcDbDictionary
281
     1
  3
2dWireframe
350
2F
  3
3D Hidden
350
31
  3
3dWireframe
350
30
  3
Basic
350
32
  3
Brighten
350
36
  3
ColorChange
350
3A
  3
Conceptual
350
34
  3
Dim
350
35
  3
Facepattern
350
39
  3
Flat
350
2B
  3
FlatWithEdges
350
2C
  3
Gouraud
350
2D
  3
GouraudWithEdges
350
2E
  3
Linepattern
350
38
  3
Realistic
350
33
  3
Thicken
350
37
  0
LAYOUT
  5
1E
102
{ACAD_REACTORS
330
1A
102
}
330
1A
100
AcDbPlotSettings
  1

  2
none_device
  4

  6

 40
0.0
 41
0.0
 42
0.0
 43
0.0
 44
0.0
 45
0.0
 46
0.0
 47
0.0
 48
0.0
 49
0.0
140
0.0
141
0.0
142
1.0
143
1.0
 70
   688
 72
     0
 73
     0
 74
     5
  7

 75
    16
 76
     0
 77
     2
 78
   300
147
1.0
148
0.0
149
0.0
100
AcDbLayout
  1
Layout1
 70
     1
 71
     1
 10
0.0
 20
0.0
 11
420.0
 21
297.0
 12
0.0
 22
0.0
 32
0.0
 14
1.0000000000E+20
 24
1.0000000000E+20
 34
1.0000000000E+20
 15
-1.0000000000E+20
 25
-1.0000000000E+20
 35
-1.0000000000E+20
146
0.0
 13
0.0
 23
0.0
 33
0.0
 16
1.0
 26
0.0
 36
0.0
 17
0.0
 27
1.0
 37
0.0
 76
     0
330
1B
  0
LAYOUT
  5
26
102
{ACAD_REACTORS
330
1A
102
}
330
1A
100
AcDbPlotSettings
  1

  2
none_device
  4

  6

 40
0.0
 41
0.0
 42
0.0
 43
0.0
 44
0.0
 45
0.0
 46
0.0
 47
0.0
 48
0.0
 49
0.0
140
0.0
141
0.0
142
1.0
143
1.0
 70
   688
 72
     0
 73
     0
 74
     5
  7

 75
    16
 76
     0
 77
     2
 78
   300
147
1.0
148
0.0
149
0.0
100
AcDbLayout
  1
Layout2
 70
     1
 71
     2
 10
0.0
 20
0.0
 11
0.0
 21
0.0
 12
0.0
 22
0.0
 32
0.0
 14
0.0
 24
0.0
 34
0.0
 15
0.0
 25
0.0
 35
0.0
146
0.0
 13
0.0
 23
0.0
 33
0.0
 16
1.0
 26
0.0
 36
0.0
 17
0.0
 27
1.0
 37
0.0
 76
     0
330
23
  0
LAYOUT
  5
22
102
{ACAD_REACTORS
330
1A
102
}
330
1A
100
AcDbPlotSettings
  1

  2
none_device
  4

  6

 40
0.0
 41
0.0
 42
0.0
 43
0.0
 44
0.0
 45
0.0
 46
0.0
 47
0.0
 48
0.0
 49
0.0
140
0.0
141
0.0
142
1.0
143
1.0
 70
  1712
 72
     0
 73
     0
 74
     0
  7

 75
     0
 76
     0
 77
     2
 78
   300
147
1.0
148
0.0
149
0.0
100
AcDbLayout
  1
Model
 70
     1
 71
     0
 10
0.0
 20
0.0
 11
841.0
 21
594.0
 12
0.0
 22
0.0
 32
0.0
 14
0.0
 24
0.0
 34
0.0
 15
841.0
 25
594.0
 35
0.0
146
0.0
 13
0.0
 23
0.0
 33
0.0
 16
1.0
 26
0.0
 36
0.0
 17
0.0
 27
1.0
 37
0.0
 76
     0
330
1F
331
29
  0
MATERIAL
  5
3D
102
{ACAD_REACTORS
330
3B
102
}
330
3B
100
AcDbMaterial
  1
ByBlock
 72
     1
 94
      127
  0
MATERIAL
  5
3C
102
{ACAD_REACTORS
330
3B
102
}
330
3B
100
AcDbMaterial
  1
ByLayer
 72
     1
 94
      127
  0
MATERIAL
  5
3E
102
{ACAD_REACTORS
330
3B
102
}
330
3B
100
AcDbMaterial
  1
Global
 72
     1
 94
      127
  0
MLINESTYLE
  5
18
102
{ACAD_REACTORS
330
17
102
}
330
17
100
AcDbMlineStyle
  2
Standard
 70
     0
  3

 62
   256
 51
90.0
 52
90.0
 71
     2
 49
0.5
 62
   256
  6
BYLAYER
 49
-0.5
 62
   256
  6
BYLAYER
  0
ACDBPLACEHOLDER
  5
F
102
{ACAD_REACTORS
330
E
102
}
330
E
  0
VISUALSTYLE
  5
2F
102
{ACAD_REACTORS
330
2A
102
}
330
2A
100
AcDbVisualStyle
  2
2dWireframe
 70
     4
 71
     0
 72
     2
 73
     0
 90
        0
 40
-0.6
 41
-30.0
 62
     5
 63
     7
421
 16777215
 74
     1
 91
        4
 64
     7
 65
   257
 75
     1
175
     1
 42
1.0
 92
        0
 66
   257
 43
1.0
 76
     1
 77
     6
 78
     2
 67
     7
 79
     5
170
     0
171
     0
290
     0
174
     0
 93
        1
 44
0.0
173
     0
291
     0
 45
0.0
  0
VISUALSTYLE
  5
31
102
{ACAD_REACTORS
330
2A
102
}
330
2A
100
AcDbVisualStyle
  2
3D Hidden
 70
     6
 71
     1
 72
     2
 73
     2
 90
        0
 40
-0.6
 41
-30.0
 62
     5
 63
     7
421
 16777215
 74
     2
 91
        2
 64
     7
 65
   257
 75
     2
175
     1
 42
40.0
 92
        0
 66
   257
 43
1.0
 76
     1
 77
     6
 78
     2
 67
     7
 79
     3
170
     0
171
     0
290
     0
174
     0
 93
        1
 44
0.0
173
     0
291
     0
 45
0.0
  0
VISUALSTYLE
  5
30
102
{ACAD_REACTORS
330
2A
102
}
330
2A
100
AcDbVisualStyle
  2
3dWireframe
 70
     5
 71
     0
 72
     2
 73
     0
 90
        0
 40
-0.6
 41
-30.0
 62
     5
 63
     7
421
 16777215
 74
     1
 91
        4
 64
     7
 65
   257
 75
     1
175
     1
 42
1.0
 92
        0
 66
   257
 43
1.0
 76
     1
 77
     6
 78
     2
 67
     7
 79
     5
170
     0
171
     0
290
     0
174
     0
 93
        1
 44
0.0
173
     0
291
     0
 45
0.0
  0
VISUALSTYLE
  5
32
102
{ACAD_REACTORS
330
2A
102
}
330
2A
100
AcDbVisualStyle
  2
Basic
 70
     7
 71
     1
 72
     0
 73
     1
 90
        0
 40
-0.6
 41
-30.0
 62
     5
 63
     7
421
 16777215
 74
     0
 91
        4
 64
     7
 65
   257
 75
     1
175
     1
 42
1.0
 92
        8
 66
     7
 43
1.0
 76
     1
 77
     6
 78
     2
 67
     7
 79
     5
170
     0
171
     0
290
     0
174
     0
 93
        1
 44
0.0
173
     0
291
     1
 45
0.0
  0
VISUALSTYLE
  5
36
102
{ACAD_REACTORS
330
2A
102
}
330
2A
100
AcDbVisualStyle
  2
Brighten
 70
    12
 71
     2
 72
     2
 73
     0
 90
        0
 40
-0.6
 41
-30.0
 62
     5
 63
     7
421
 16777215
 74
     1
 91
        4
 64
     7
 65
   257
 75
     1
175
     1
 42
1.0
 92
        8
 66
     7
 43
1.0
 76
     1
 77
     6
 78
     2
 67
     7
 79
     5
170
     0
171
     0
290
     0
174
     0
 93
        1
 44
50.0
173
     0
291
     1
 45
0.0
  0
VISUALSTYLE
  5
3A
102
{ACAD_REACTORS
330
2A
102
}
330
2A
100
AcDbVisualStyle
  2
ColorChange
 70
    16
 71
     2
 72
     2
 73
     3
 90
        0
 40
-0.6
 41
-30.0
 62
     5
 63
     8
421
  8421504
 74
     1
 91
        4
 64
     7
 65
   257
 75
     1
175
     1
 42
1.0
 92
        8
 66
     8
424
  8421504
 43
1.0
 76
     1
 77
     6
 78
     2
 67
     7
 79
     5
170
     0
171
     0
290
     0
174
     0
 93
        1
 44
0.0
173
     0
291
     1
 45
0.0
  0
VISUALSTYLE
  5
34
102
{ACAD_REACTORS
330
2A
102
}
330
2A
100
AcDbVisualStyle
  2
Conceptual
 70
     9
 71
     3
 72
     2
 73
     0
 90
        0
 40
-0.6
 41
-30.0
 62
     5
 63
     7
421
 16777215
 74
     2
 91
        2
 64
     7
 65
   257
 75
     1
175
     1
 42
40.0
 92
        8
 66
     7
 43
1.0
 76
     1
 77
     6
 78
     2
 67
     7
 79
     3
170
     0
171
     0
290
     0
174
     0
 93
        1
 44
0.0
173
     0
291
     0
 45
0.0
  0
VISUALSTYLE
  5
35
102
{ACAD_REACTORS
330
2A
102
}
330
2A
100
AcDbVisualStyle
  2
Dim
 70
    11
 71
     2
 72
     2
 73
     0
 90
        0
 40
-0.6
 41
-30.0
 62
     5
 63
     7
421
 16777215
 74
     1
 91
        4
 64
     7
 65
   257
 75
     1
175
     1
 42
1.0
 92
        8
 66
     7
 43
1.0
 76
     1
 77
     6
 78
     2
 67
     7
 79
     5
170
     0
171
     0
290
     0
174
     0
 93
        1
 44
-50.0
173
     0
291
     1
 45
0.0
  0
VISUALSTYLE
  5
39
102
{ACAD_REACTORS
330
2A
102
}
330
2A
100
AcDbVisualStyle
  2
Facepattern
 70
    15
 71
     2
 72
     2
 73
     0
 90
        0
 40
-0.6
 41
-30.0
 62
     5
 63
     7
421
 16777215
 74
     1
 91
        4
 64
     7
 65
   257
 75
     1
175
     1
 42
1.0
 92
        8
 66
     7
 43
1.0
 76
     1
 77
     6
 78
     2
 67
     7
 79
     5
170
     0
171
     0
290
     0
174
     0
 93
        1
 44
0.0
173
     0
291
     1
 45
0.0
  0
VISUALSTYLE
  5
2B
102
{ACAD_REACTORS
330
2A
102
}
330
2A
100
AcDbVisualStyle
  2
Flat
 70
     0
 71
     2
 72
     1
 73
     1
 90
        2
 40
-0.6
 41
30.0
 62
     5
 63
     7
421
 16777215
 74
     0
 91
        4
 64
     7
 65
   257
 75
     1
175
     1
 42
1.0
 92
        8
 66
     7
 43
1.0
 76
     1
 77
     6
 78
     2
 67
     7
 79
     5
170
     0
171
     0
290
     0
174
     0
 93
       13
 44
0.0
173
     0
291
     1
 45
0.0
  0
VISUALSTYLE
  5
2C
102
{ACAD_REACTORS
330
2A
102
}
330
2A
100
AcDbVisualStyle
  2
FlatWithEdges
 70
     1
 71
     2
 72
     1
 73
     1
 90
        2
 40
-0.6
 41
30.0
 62
     5
 63
     7
421
 16777215
 74
     1
 91
        4
 64
     7
 65
   257
 75
     1
175
     1
 42
1.0
 92
        0
 66
   257
 43
1.0
 76
     1
 77
     6
 78
     2
 67
     7
 79
     5
170
     0
171
     0
290
     0
174
     0
 93
       13
 44
0.0
173
     0
291
     1
 45
0.0
  0
VISUALSTYLE
  5
2D
102
{ACAD_REACTORS
330
2A
102
}
330
2A
100
AcDbVisualStyle
  2
Gouraud
 70
     2
 71
     2
 72
     2
 73
     1
 90
        2
 40
-0.6
 41
30.0
 62
     5
 63
     7
421
 16777215
 74
     0
 91
        4
 64
     7
 65
   257
 75
     1
175
     1
 42
1.0
 92
        0
 66
     7
 43
1.0
 76
     1
 77
     6
 78
     2
 67
     7
 79
     5
170
     0
171
     0
290
     0
174
     0
 93
       13
 44
0.0
173
     0
291
     1
 45
0.0
  0
VISUALSTYLE
  5
2E
102
{ACAD_REACTORS
330
2A
102
}
330
2A
100
AcDbVisualStyle
  2
GouraudWithEdges
 70
     3
 71
     2
 72
     2
 73
     1
 90
        2
 40
-0.6
 41
30.0
 62
     5
 63
     7
421
 16777215
 74
     1
 91
        4
 64
     7
 65
   257
 75
     1
175
     1
 42
1.0
 92
        0
 66
   257
 43
1.0
 76
     1
 77
     6
 78
     2
 67
     7
 79
     5
170
     0
171
     0
290
     0
174
     0
 93
       13
 44
0.0
173
     0
291
     1
 45
0.0
  0
VISUALSTYLE
  5
38
102
{ACAD_REACTORS
330
2A
102
}
330
2A
100
AcDbVisualStyle
  2
Linepattern
 70
    14
 71
     2
 72
     2
 73
     0
 90
        0
 40
-0.6
 41
-30.0
 62
     5
 63
     7
421
 16777215
 74
     1
 91
        4
 64
     7
 65
   257
 75
     7
175
     7
 42
1.0
 92
        8
 66
     7
 43
1.0
 76
     1
 77
     6
 78
     2
 67
     7
 79
     5
170
     0
171
     0
290
     0
174
     0
 93
        1
 44
0.0
173
     0
291
     1
 45
0.0
  0
VISUALSTYLE
  5
33
102
{ACAD_REACTORS
330
2A
102
}
330
2A
100
AcDbVisualStyle
  2
Realistic
 70
     8
 71
     2
 72
     2
 73
     0
 90
        0
 40
-0.6
 41
-30.0
 62
     5
 63
     7
421
 16777215
 74
     1
 91
        0
 64
     7
 65
   257
 75
     1
175
     1
 42
1.0
 92
        8
 66
     8
424
  7895160
 43
1.0
 76
     1
 77
     6
 78
     2
 67
     7
 79
     5
170
     0
171
     0
290
     0
174
     0
 93
       13
 44
0.0
173
     0
291
     0
 45
0.0
  0
VISUALSTYLE
  5
37
102
{ACAD_REACTORS
330
2A
102
}
330
2A
100
AcDbVisualStyle
  2
Thicken
 70
    13
 71
     2
 72
     2
 73
     0
 90
        0
 40
-0.6
 41
-30.0
 62
     5
 63
     7
421
 16777215
 74
     1
 91
        4
 64
     7
 65
   257
 75
     1
175
     1
 42
1.0
 92
       12
 66
     7
 43
1.0
 76
     1
 77
     6
 78
     2
 67
     7
 79
     5
170
     0
171
     0
290
     0
174
     0
 93
        1
 44
0.0
173
     0
291
     1
 45
0.0
  0
ENDSEC
  0
EOF
