  0
SECTION
  2
HEADER
  9
$ACADVER
  1
AC1021
  9
$ACADMAINTVER
 70
    25
  9
$DWGCODEPAGE
  3
ANSI_1252
  9
$INSBASE
 10
0.0
 20
0.0
 30
0.0
  9
$EXTMIN
 10
0.0
 20
0.0
 30
0.0
  9
$EXTMAX
 10
841.0
 20
594.0
 30
0.0
  9
$LIMMIN
 10
0.0
 20
0.0
  9
$LIMMAX
 10
841.0
 20
594.0
  9
$ORTHOMODE
 70
     0
  9
$REGENMODE
 70
     1
  9
$FILLMODE
 70
     1
  9
$QTEXTMODE
 70
     0
  9
$MIRRTEXT
 70
     1
  9
$LTSCALE
 40
1.0
  9
$ATTMODE
 70
     1
  9
$TEXTSIZE
 40
3.5
  9
$TRACEWID
 40
1.0
  9
$TEXTSTYLE
  7
STANDARD
  9
$CLAYER
  8
0
  9
$CELTYPE
  6
ByLayer
  9
$CECOLOR
 62
   256
  9
$CELTSCALE
 40
1.0
  9
$DISPSILH
 70
     0
  9
$DIMSCALE
 40
1.0
  9
$DIMASZ
 40
3.302
  9
$DIMEXO
 40
1.0
  9
$DIMDLI
 40
3.75
  9
$DIMRND
 40
0.0
  9
$DIMDLE
 40
0.0
  9
$DIMEXE
 40
1.0
  9
$DIMTP
 40
0.0
  9
$DIMTM
 40
0.0
  9
$DIMTXT
 40
3.5
  9
$DIMCEN
 40
2.5
  9
$DIMTSZ
 40
0.0
  9
$DIMTOL
 70
     0
  9
$DIMLIM
 70
     0
  9
$DIMTIH
 70
     1
  9
$DIMTOH
 70
     1
  9
$DIMSE1
 70
     0
  9
$DIMSE2
 70
     0
  9
$DIMTAD
 70
     1
  9
$DIMZIN
 70
     0
  9
$DIMBLK
  1

  9
$DIMASO
 70
     1
  9
$DIMSHO
 70
     1
  9
$DIMPOST
  1

  9
$DIMAPOST
  1

  9
$DIMALT
 70
     0
  9
$DIMALTD
 70
     3
  9
$DIMALTF
 40
0.0393700787
  9
$DIMLFAC
 40
1.0
  9
$DIMTOFL
 70
     1
  9
$DIMTVP
 40
0.0
  9
$DIMTIX
 70
     0
  9
$DIMSOXD
 70
     0
  9
$DIMSAH
 70
     0
  9
$DIMBLK1
  1

  9
$DIMBLK2
  1

  9
$DIMSTYLE
  2
ISO-25
  9
$DIMCLRD
 70
     0
  9
$DIMCLRE
 70
     0
  9
$DIMCLRT
 70
     0
  9
$DIMTFAC
 40
1.0
  9
$DIMGAP
 40
1.524
  9
$DIMJUST
 70
     0
  9
$DIMSD1
 70
     0
  9
$DIMSD2
 70
     0
  9
$DIMTOLJ
 70
     0
  9
$DIMTZIN
 70
     0
  9
$DIMALTZ
 70
     0
  9
$DIMALTTZ
 70
     0
  9
$DIMUPT
 70
     0
  9
$DIMDEC
 70
     1
  9
$DIMTDEC
 70
     1
  9
$DIMALTU
 70
     2
  9
$DIMALTTD
 70
     3
  9
$DIMTXSTY
  7
STANDARD
  9
$DIMAUNIT
 70
     0
  9
$DIMADEC
 70
     1
  9
$DIMALTRND
 40
0.0
  9
$DIMAZIN
 70
     0
  9
$DIMDSEP
 70
    44
  9
$DIMATFIT
 70
     3
  9
$DIMFRAC
 70
     0
  9
$DIMLDRBLK
  1

  9
$DIMLUNIT
 70
     2
  9
$DIMLWD
 70
    -2
  9
$DIMLWE
 70
    -2
  9
$DIMTMOVE
 70
     0
  9
$DIMFXL
 40
1.0
  9
$DIMFXLON
 70
     0
  9
$DIMJOGANG
 40
0.7853981634
  9
$DIMTFILL
 70
     0
  9
$DIMTFILLCLR
 70
     0
  9
$DIMARCSYM
 70
     0
  9
$DIMLTYPE
  6

  9
$DIMLTEX1
  6

  9
$DIMLTEX2
  6

  9
$LUNITS
 70
     2
  9
$LUPREC
 70
     1
  9
$SKETCHINC
 40
1.0
  9
$FILLETRAD
 40
10.0
  9
$AUNITS
 70
     0
  9
$AUPREC
 70
     1
  9
$MENU
  1
.
  9
$ELEVATION
 40
0.0
  9
$PELEVATION
 40
0.0
  9
$THICKNESS
 40
0.0
  9
$LIMCHECK
 70
     0
  9
$CHAMFERA
 40
10.0
  9
$CHAMFERB
 40
10.0
  9
$CHAMFERC
 40
20.0
  9
$CHAMFERD
 40
0.0
  9
$SKPOLY
 70
     0
  9
$TDCREATE
 40
2455700.624391875
  9
$TDUCREATE
 40
2455700.582725208
  9
$TDUPDATE
 40
2455700.624391886
  9
$TDUUPDATE
 40
2455700.58272522
  9
$TDINDWG
 40
0.0000000116
  9
$TDUSRTIMER
 40
0.0000000116
  9
$USRTIMER
 70
     1
  9
$ANGBASE
 50
0.0
  9
$ANGDIR
 70
     0
  9
$PDMODE
 70
     0
  9
$PDSIZE
 40
-1.0
  9
$PLINEWID
 40
0.0
  9
$SPLFRAME
 70
     0
  9
$SPLINETYPE
 70
     6
  9
$SPLINESEGS
 70
     8
  9
$HANDSEED
  5
2E4
  9
$SURFTAB1
 70
     6
  9
$SURFTAB2
 70
     6
  9
$SURFTYPE
 70
     6
  9
$SURFU
 70
     6
  9
$SURFV
 70
     6
  9
$UCSBASE
  2

  9
$UCSNAME
  2

  9
$UCSORG
 10
0.0
 20
0.0
 30
0.0
  9
$UCSXDIR
 10
1.0
 20
0.0
 30
0.0
  9
$UCSYDIR
 10
0.0
 20
1.0
 30
0.0
  9
$UCSORTHOREF
  2

  9
$UCSORTHOVIEW
 70
     0
  9
$UCSORGTOP
 10
0.0
 20
0.0
 30
0.0
  9
$UCSORGBOTTOM
 10
0.0
 20
0.0
 30
0.0
  9
$UCSORGLEFT
 10
0.0
 20
0.0
 30
0.0
  9
$UCSORGRIGHT
 10
0.0
 20
0.0
 30
0.0
  9
$UCSORGFRONT
 10
0.0
 20
0.0
 30
0.0
  9
$UCSORGBACK
 10
0.0
 20
0.0
 30
0.0
  9
$PUCSBASE
  2

  9
$PUCSNAME
  2

  9
$PUCSORG
 10
0.0
 20
0.0
 30
0.0
  9
$PUCSXDIR
 10
1.0
 20
0.0
 30
0.0
  9
$PUCSYDIR
 10
0.0
 20
1.0
 30
0.0
  9
$PUCSORTHOREF
  2

  9
$PUCSORTHOVIEW
 70
     0
  9
$PUCSORGTOP
 10
0.0
 20
0.0
 30
0.0
  9
$PUCSORGBOTTOM
 10
0.0
 20
0.0
 30
0.0
  9
$PUCSORGLEFT
 10
0.0
 20
0.0
 30
0.0
  9
$PUCSORGRIGHT
 10
0.0
 20
0.0
 30
0.0
  9
$PUCSORGFRONT
 10
0.0
 20
0.0
 30
0.0
  9
$PUCSORGBACK
 10
0.0
 20
0.0
 30
0.0
  9
$USERI1
 70
     0
  9
$USERI2
 70
     0
  9
$USERI3
 70
     0
  9
$USERI4
 70
     0
  9
$USERI5
 70
     0
  9
$USERR1
 40
0.0
  9
$USERR2
 40
0.0
  9
$USERR3
 40
0.0
  9
$USERR4
 40
0.0
  9
$USERR5
 40
0.0
  9
$WORLDVIEW
 70
     1
  9
$SHADEDGE
 70
     3
  9
$SHADEDIF
 70
    70
  9
$TILEMODE
 70
     1
  9
$MAXACTVP
 70
    64
  9
$PINSBASE
 10
0.0
 20
0.0
 30
0.0
  9
$PLIMCHECK
 70
     0
  9
$PEXTMIN
 10
1.0000000000E+20
 20
1.0000000000E+20
 30
1.0000000000E+20
  9
$PEXTMAX
 10
-1.0000000000E+20
 20
-1.0000000000E+20
 30
-1.0000000000E+20
  9
$PLIMMIN
 10
0.0
 20
0.0
  9
$PLIMMAX
 10
420.0
 20
297.0
  9
$UNITMODE
 70
     0
  9
$VISRETAIN
 70
     1
  9
$PLINEGEN
 70
     0
  9
$PSLTSCALE
 70
     1
  9
$TREEDEPTH
 70
  3020
  9
$CMLSTYLE
  2
Standard
  9
$CMLJUST
 70
     0
  9
$CMLSCALE
 40
20.0
  9
$PROXYGRAPHICS
 70
     1
  9
$MEASUREMENT
 70
     1
  9
$CELWEIGHT
370
    -1
  9
$ENDCAPS
280
     0
  9
$JOINSTYLE
280
     0
  9
$LWDISPLAY
290
     1
  9
$INSUNITS
 70
     4
  9
$HYPERLINKBASE
  1

  9
$STYLESHEET
  1

  9
$XEDIT
290
     1
  9
$CEPSNTYPE
380
     0
  9
$PSTYLEMODE
290
     1
  9
$FINGERPRINTGUID
  2
{3DCB38E7-3C06-4296-9DBA-8B184292FB7E}
  9
$VERSIONGUID
  2
{FAEB1C32-E019-11D5-929B-00C0DF256EC4}
  9
$EXTNAMES
290
     1
  9
$PSVPSCALE
 40
0.0
  9
$OLESTARTUP
290
     0
  9
$SORTENTS
280
   127
  9
$INDEXCTL
280
     0
  9
$HIDETEXT
280
     1
  9
$XCLIPFRAME
290
     0
  9
$HALOGAP
280
     0
  9
$OBSCOLOR
 70
   257
  9
$OBSLTYPE
280
     0
  9
$INTERSECTIONDISPLAY
280
     0
  9
$INTERSECTIONCOLOR
 70
   257
  9
$DIMASSOC
280
     2
  9
$PROJECTNAME
  1

  9
$CAMERADISPLAY
290
     0
  9
$LENSLENGTH
 40
50.0
  9
$CAMERAHEIGHT
 40
0.0
  9
$STEPSPERSEC
 40
2.0
  9
$STEPSIZE
 40
6.0
  9
$3DDWFPREC
 40
2.0
  9
$PSOLWIDTH
 40
5.0
  9
$PSOLHEIGHT
 40
80.0
  9
$LOFTANG1
 40
1.5707963268
  9
$LOFTANG2
 40
1.5707963268
  9
$LOFTMAG1
 40
0.0
  9
$LOFTMAG2
 40
0.0
  9
$LOFTPARAM
 70
     7
  9
$LOFTNORMALS
280
     1
  9
$LATITUDE
 40
37.795
  9
$LONGITUDE
 40
-122.394
  9
$NORTHDIRECTION
 40
0.0
  9
$TIMEZONE
 70
 -8000
  9
$LIGHTGLYPHDISPLAY
280
     1
  9
$TILEMODELIGHTSYNCH
280
     1
  9
$SOLIDHIST
280
     1
  9
$SHOWHIST
280
     1
  9
$DWFFRAME
280
     2
  9
$DGNFRAME
280
     2
  9
$REALWORLDSCALE
290
     1
  9
$INTERFERECOLOR
 62
   256
  9
$CSHADOW
280
     0
  9
$SHADOWPLANELOCATION
 40
0.0
  0
ENDSEC
  0
SECTION
  2
CLASSES
  0
CLASS
  1
ACDBDICTIONARYWDFLT
  2
AcDbDictionaryWithDefault
  3
ObjectDBX Classes
 90
        0
 91
        4
280
     0
281
     0
  0
CLASS
  1
VISUALSTYLE
  2
AcDbVisualStyle
  3
ObjectDBX Classes
 90
     4095
 91
        4
280
     0
281
     0
  0
CLASS
  1
MATERIAL
  2
AcDbMaterial
  3
ObjectDBX Classes
 90
     1153
 91
        4
280
     0
281
     0
  0
ENDSEC
  0
SECTION
  2
TABLES
  0
TABLE
  2
VPORT
  5
8
330
0
100
AcDbSymbolTable
 70
     1
  0
VPORT
  5
29
330
8
100
AcDbSymbolTableRecord
100
AcDbViewportTableRecord
  2
*Active
 70
     0
 10
0.0
 20
0.0
 11
1.0
 21
1.0
 12
420.5
 22
297.0
 13
0.0
 23
0.0
 14
10.0
 24
10.0
 15
10.0
 25
10.0
 16
0.0
 26
0.0
 36
1.0
 17
0.0
 27
0.0
 37
0.0
 40
594.0
 41
1.4158249158
 42
50.0
 43
0.0
 44
0.0
 50
0.0
 51
0.0
 71
     0
 72
  2000
 73
     1
 74
     3
 75
     0
 76
     0
 77
     0
 78
     0
281
     0
 65
     1
110
0.0
120
0.0
130
0.0
111
1.0
121
0.0
131
0.0
112
0.0
122
1.0
132
0.0
 79
     0
146
0.0
 60
     3
 61
     5
292
     1
282
     1
141
0.0
142
0.0
 63
   250
  0
ENDTAB
  0
TABLE
  2
LTYPE
  5
5
330
0
100
AcDbSymbolTable
 70
     8
  0
LTYPE
  5
14
330
5
100
AcDbSymbolTableRecord
100
AcDbLinetypeTableRecord
  2
ByBlock
 70
     0
  3

 72
    65
 73
     0
 40
0.0
  0
LTYPE
  5
15
330
5
100
AcDbSymbolTableRecord
100
AcDbLinetypeTableRecord
  2
ByLayer
 70
     0
  3

 72
    65
 73
     0
 40
0.0
  0
LTYPE
  5
16
330
5
100
AcDbSymbolTableRecord
100
AcDbLinetypeTableRecord
  2
Continuous
 70
     0
  3
Solid line
 72
    65
 73
     0
 40
0.0
  0
LTYPE
  5
3F
330
5
100
AcDbSymbolTableRecord
100
AcDbLinetypeTableRecord
  2
SLD-Solid
 70
     0
  3
SolidWorks Line Style
 72
    65
 73
     0
 40
0.0
  0
LTYPE
  5
40
330
5
100
AcDbSymbolTableRecord
100
AcDbLinetypeTableRecord
  2
SLD-Dashed
 70
     0
  3
SolidWorks Line Style
 72
    65
 73
     2
 40
1.905
 49
1.27
 74
     0
 49
-0.635
 74
     0
  0
LTYPE
  5
41
330
5
100
AcDbSymbolTableRecord
100
AcDbLinetypeTableRecord
  2
SLD-Phantom
 70
     0
  3
SolidWorks Line Style
 72
    65
 73
     6
 40
12.7
 49
6.35
 74
     0
 49
-1.27
 74
     0
 49
1.27
 74
     0
 49
-1.27
 74
     0
 49
1.27
 74
     0
 49
-1.27
 74
     0
  0
LTYPE
  5
42
330
5
100
AcDbSymbolTableRecord
100
AcDbLinetypeTableRecord
  2
SLD-Chain
 70
     0
  3
SolidWorks Line Style
 72
    65
 73
     4
 40
10.16
 49
6.35
 74
     0
 49
-1.27
 74
     0
 49
1.27
 74
     0
 49
-1.27
 74
     0
  0
LTYPE
  5
43
330
5
100
AcDbSymbolTableRecord
100
AcDbLinetypeTableRecord
  2
SLD-Center
 70
     0
  3
SolidWorks Line Style
 72
    65
 73
     4
 40
19.05
 49
15.24
 74
     0
 49
-1.27
 74
     0
 49
1.27
 74
     0
 49
-1.27
 74
     0
  0
LTYPE
  5
44
330
5
100
AcDbSymbolTableRecord
100
AcDbLinetypeTableRecord
  2
SLD-Stitch
 70
     0
  3
SolidWorks Line Style
 72
    65
 73
     2
 40
0.635
 49
0.0
 74
     0
 49
-0.635
 74
     0
  0
LTYPE
  5
45
330
5
100
AcDbSymbolTableRecord
100
AcDbLinetypeTableRecord
  2
SLD-Thin-Thick-Chain
 70
     0
  3
SolidWorks Line Style
 72
    65
 73
     4
 40
10.16
 49
6.35
 74
     0
 49
-1.27
 74
     0
 49
1.27
 74
     0
 49
-1.27
 74
     0
  0
ENDTAB
  0
TABLE
  2
LAYER
  5
2
330
0
100
AcDbSymbolTable
 70
     1
  0
LAYER
  5
10
330
2
100
AcDbSymbolTableRecord
100
AcDbLayerTableRecord
  2
0
 70
     0
 62
     7
  6
Continuous
370
    -3
390
F
347
3E
  0
ENDTAB
  0
TABLE
  2
STYLE
  5
3
330
0
100
AcDbSymbolTable
 70
     1
  0
STYLE
  5
11
330
3
100
AcDbSymbolTableRecord
100
AcDbTextStyleTableRecord
  2
STANDARD
 70
     0
 40
0.0
 41
1.0
 50
0.0
 71
     0
 42
2.5
  3
GOTHIC.TTF
  4

1001
ACAD
1000
CENTURY GOTHIC
1071
       34
  0
ENDTAB
  0
TABLE
  2
VIEW
  5
6
330
0
100
AcDbSymbolTable
 70
     0
  0
ENDTAB
  0
TABLE
  2
UCS
  5
7
330
0
100
AcDbSymbolTable
 70
     0
  0
ENDTAB
  0
TABLE
  2
APPID
  5
9
330
0
100
AcDbSymbolTable
 70
     1
  0
APPID
  5
12
330
9
100
AcDbSymbolTableRecord
100
AcDbRegAppTableRecord
  2
ACAD
 70
     0
  0
ENDTAB
  0
TABLE
  2
DIMSTYLE
  5
A
330
0
100
AcDbSymbolTable
 70
     1
100
AcDbDimStyleTable
  0
DIMSTYLE
105
27
330
A
100
AcDbSymbolTableRecord
100
AcDbDimStyleTableRecord
  2
ISO-25
 70
     0
 41
2.5
 42
0.625
 43
3.75
 44
1.25
 73
     0
 74
     0
 77
     1
 78
     8
140
2.5
141
2.5
143
0.0393700787
147
0.625
171
     3
172
     1
271
     2
272
     2
274
     3
278
    44
283
     0
284
     8
340
11
  0
ENDTAB
  0
TABLE
  2
BLOCK_RECORD
  5
1
330
0
100
AcDbSymbolTable
 70
     1
  0
BLOCK_RECORD
  5
1F
330
1
100
AcDbSymbolTableRecord
100
AcDbBlockTableRecord
  2
*Model_Space
340
22
 70
     0
280
     1
281
     0
  0
BLOCK_RECORD
  5
1B
330
1
100
AcDbSymbolTableRecord
100
AcDbBlockTableRecord
  2
*Paper_Space
340
1E
 70
     0
280
     1
281
     0
  0
BLOCK_RECORD
  5
23
330
1
100
AcDbSymbolTableRecord
100
AcDbBlockTableRecord
  2
*Paper_Space0
340
26
 70
     0
280
     1
281
     0
  0
ENDTAB
  0
ENDSEC
  0
SECTION
  2
BLOCKS
  0
BLOCK
  5
20
330
1F
100
AcDbEntity
  8
0
100
AcDbBlockBegin
  2
*Model_Space
 70
     0
 10
0.0
 20
0.0
 30
0.0
  3
*Model_Space
  1

  0
ENDBLK
  5
21
330
1F
100
AcDbEntity
  8
0
100
AcDbBlockEnd
  0
BLOCK
  5
1C
330
1B
100
AcDbEntity
 67
     1
  8
0
100
AcDbBlockBegin
  2
*Paper_Space
 70
     0
 10
0.0
 20
0.0
 30
0.0
  3
*Paper_Space
  1

  0
ENDBLK
  5
1D
330
1B
100
AcDbEntity
 67
     1
  8
0
100
AcDbBlockEnd
  0
BLOCK
  5
24
330
23
100
AcDbEntity
  8
0
100
AcDbBlockBegin
  2
*Paper_Space0
 70
     0
 10
0.0
 20
0.0
 30
0.0
  3
*Paper_Space0
  1

  0
ENDBLK
  5
25
330
23
100
AcDbEntity
  8
0
100
AcDbBlockEnd
  0
ENDSEC
  0
SECTION
  2
ENTITIES
  0
LINE
  5
46
330
1F
100
AcDbEntity
  8
0
  6
SLD-Solid
 62
     7
370
    15
100
AcDbLine
 10
817.3295916905
 20
677.4476046106
 30
0.0
 11
817.3295916905
 21
673.1983026953
 31
0.0
  0
LINE
  5
47
330
1F
100
AcDbEntity
  8
0
  6
SLD-Solid
 62
     7
370
    15
100
AcDbLine
 10
842.3295916905
 20
673.1983026953
 30
0.0
 11
842.3295916905
 21
677.4476046106
 31
0.0
  0
LINE
  5
48
330
1F
100
AcDbEntity
  8
0
  6
SLD-Solid
 62
     7
370
    15
100
AcDbLine
 10
277.8237306758
 20
-91.2685058076
 30
0.0
 11
277.8188329764
 21
-91.5353575188
 31
0.0
  0
SPLINE
  5
49
330
1F
100
AcDbEntity
  8
0
  6
SLD-Solid
 62
     7
370
    15
100
AcDbSpline
210
0.0
220
0.0
230
1.0
 70
     8
 71
     3
 72
    12
 73
     8
 74
     0
 42
0.00000001
 43
0.00000001
 40
0.0
 40
0.0
 40
0.0
 40
0.0
 40
0.145738552987306
 40
0.4224065763375946
 40
0.7025645190542635
 40
0.9915723830945733
 40
1.0
 40
1.0
 40
1.0
 40
1.0
 10
256.6759985736449
 20
-91.40160959512356
 30
0.0
 10
256.8449471340896
 20
-91.61491924941973
 30
0.0
 10
257.3346252702572
 20
-92.23317295733735
 30
0.0
 10
257.922102888524
 20
-93.24786642191629
 30
0.0
 10
258.3109272098619
 20
-94.44045563984649
 30
0.0
 10
258.4672405467157
 20
-95.23384230965975
 30
0.0
 10
258.4102454829288
 20
-95.6459433140105
 30
0.0
 10
258.4086305694639
 20
-95.65761989469269
 30
0.0
  0
SPLINE
  5
4A
330
1F
100
AcDbEntity
  8
0
  6
SLD-Solid
 62
     7
370
    15
100
AcDbSpline
210
0.0
220
0.0
230
1.0
 70
     8
 71
     3
 72
    11
 73
     7
 74
     0
 42
0.00000001
 43
0.00000001
 40
0.0
 40
0.0
 40
0.0
 40
0.0
 40
0.270672889337798
 40
0.5972761992813249
 40
0.9114942371269962
 40
1.0
 40
1.0
 40
1.0
 40
1.0
 10
277.7750447092604
 20
-95.3067402748416
 30
0.0
 10
277.8043811961523
 20
-94.96479134475777
 30
0.0
 10
277.8691161071142
 20
-94.21023495823366
 30
0.0
 10
278.3482742922791
 20
-93.0290397924448
 30
0.0
 10
278.949866837337
 20
-92.0601412485898
 30
0.0
 10
279.3870958794946
 20
-91.52025849303807
 30
0.0
 10
279.4831847867242
 20
-91.40160959506677
 30
0.0
  0
SPLINE
  5
4B
330
1F
100
AcDbEntity
  8
0
  6
SLD-Solid
 62
     7
370
    15
100
AcDbSpline
210
0.0
220
0.0
230
1.0
 70
     8
 71
     3
 72
    11
 73
     7
 74
     0
 42
0.00000001
 43
0.00000001
 40
0.0
 40
0.0
 40
0.0
 40
0.0
 40
0.0925535171476964
 40
0.4249799083412158
 40
0.7579032427934113
 40
0.9999999999999999
 40
0.9999999999999999
 40
0.9999999999999999
 40
0.9999999999999999
 10
272.072910564975
 20
-102.2586284257714
 30
0.0
 10
272.3001036632468
 20
-102.2466510753481
 30
0.0
 10
273.3433109346163
 20
-102.1916544264697
 30
0.0
 10
275.1336300383313
 20
-101.9949668528263
 30
0.0
 10
277.1992856232587
 20
-101.7049636118845
 30
0.0
 10
278.4108474037096
 20
-101.4635368940122
 30
0.0
 10
278.9209429333396
 20
-101.3618906622583
 30
0.0
  0
SPLINE
  5
4C
330
1F
100
AcDbEntity
  8
0
  6
SLD-Solid
 62
     7
370
    15
100
AcDbSpline
210
0.0
220
0.0
230
1.0
 70
     8
 71
     3
 72
    10
 73
     6
 74
     0
 42
0.00000001
 43
0.00000001
 40
0.0
 40
0.0
 40
0.0
 40
0.0
 40
0.2502355006435896
 40
0.7279697107289623
 40
1.0
 40
1.0
 40
1.0
 40
1.0
 10
257.2382404270322
 20
-101.3618906623145
 30
0.0
 10
257.6055228910613
 20
-101.4356800162301
 30
0.0
 10
258.673998420742
 20
-101.6503434612116
 30
0.0
 10
260.2328237850162
 20
-101.9008528992424
 30
0.0
 10
261.4748362944408
 20
-102.0266772735955
 30
0.0
 10
261.9254644883697
 20
-102.0723289962123
 30
0.0
  0
LINE
  5
4D
330
1F
100
AcDbEntity
  8
0
  6
SLD-Solid
 62
     7
370
    15
100
AcDbLine
 10
256.3373442186
 20
-99.9929319054
 30
0.0
 11
256.4267251159
 21
-100.5335888469
 31
0.0
  0
SPLINE
  5
4E
330
1F
100
AcDbEntity
  8
0
  6
SLD-Solid
 62
     7
370
    15
100
AcDbSpline
210
0.0
220
0.0
230
1.0
 70
     8
 71
     3
 72
     9
 73
     5
 74
     0
 42
0.00000001
 43
0.00000001
 40
0.0
 40
0.0
 40
0.0
 40
0.0
 40
0.6408276450967166
 40
1.0
 40
1.0
 40
1.0
 40
1.0
 10
254.7173270759344
 20
-91.26850580756374
 30
0.0
 10
255.106635619596
 20
-93.15028891105904
 30
0.0
 10
255.7141445912209
 20
-96.08677755647544
 30
0.0
 10
256.1726586458202
 20
-98.96069883280556
 30
0.0
 10
256.3373442185668
 20
-99.99293190543179
 30
0.0
  0
SPLINE
  5
4F
330
1F
100
AcDbEntity
  8
0
  6
SLD-Solid
 62
     7
370
    15
100
AcDbSpline
210
0.0
220
0.0
230
1.0
 70
     8
 71
     3
 72
     9
 73
     5
 74
     0
 42
0.00000001
 43
0.00000001
 40
0.0
 40
0.0
 40
0.0
 40
0.0
 40
0.7329316034321816
 40
1.0
 40
1.0
 40
1.0
 40
1.0
 10
279.7020560027911
 20
-100.5466625005644
 30
0.0
 10
280.0817386567102
 20
-98.29645335688664
 30
0.0
 10
280.5997715156305
 20
-95.22630447377057
 30
0.0
 10
281.2629606653666
 20
-92.1027172412836
 30
0.0
 10
281.4400775282077
 20
-91.2685058075638
 30
0.0
  0
LINE
  5
50
330
1F
100
AcDbEntity
  8
0
  6
SLD-Solid
 62
     7
370
    15
100
AcDbLine
 10
189.0338254965
 20
-109.309345243
 30
0.0
 11
193.2685782958
 21
-128.7331824648
 31
0.0
  0
ARC
  5
51
330
1F
100
AcDbEntity
  8
0
  6
SLD-Solid
 62
     7
370
    15
100
AcDbCircle
 10
473.5058347184
 20
2052.5797453044
 30
0.0
 40
2203.9000000166
100
AcDbArc
 50
262.8511702807
 51
267.3056035116
  0
LINE
  5
52
330
1F
100
AcDbEntity
  8
0
  6
SLD-Solid
 62
     7
370
    15
100
AcDbLine
 10
377.0763834432
 20
-143.3606822773
 30
0.0
 11
384.3858327542
 21
-109.309345243
 31
0.0
  0
ARC
  5
53
330
1F
100
AcDbEntity
  8
0
  6
SLD-Solid
 62
     7
370
    15
100
AcDbCircle
 10
370.2322913504
 20
-141.8915316186
 30
0.0
 40
7.000000016603425
100
AcDbArc
 50
267.3056035116
 51
270.0
  0
ARC
  5
54
330
1F
100
AcDbEntity
  8
0
  6
SLD-Solid
 62
     7
370
    15
100
AcDbCircle
 10
370.2322913504
 20
-141.8915316186
 30
0.0
 40
7.000000016603441
100
AcDbArc
 50
270.0
 51
347.8847581975
  0
ARC
  5
55
330
1F
100
AcDbEntity
  8
0
  6
SLD-Solid
 62
     7
370
    15
100
AcDbCircle
 10
200.1079214154
 20
-127.2420802129
 30
0.0
 40
7.000000016602927
100
AcDbArc
 50
192.2990746699
 51
262.8511702807
  0
ARC
  5
56
330
1F
100
AcDbEntity
  8
0
  6
SLD-Solid
 62
     7
370
    15
100
AcDbCircle
 10
218.2716858392
 20
-107.2899072783
 30
0.0
 40
6.999999710807622
100
AcDbArc
 50
196.7676449038
 51
263.3030611363
  0
LINE
  5
57
330
1F
100
AcDbEntity
  8
0
  6
SLD-Solid
 62
     7
370
    15
100
AcDbLine
 10
361.9048124914
 20
-109.309345243
 30
0.0
 11
359.4911252876
 21
-120.5535953873
 31
0.0
  0
SPLINE
  5
58
330
1F
100
AcDbEntity
  8
0
  6
SLD-Solid
 62
     7
370
    15
100
AcDbSpline
210
0.0
220
0.0
230
1.0
 70
     8
 71
     3
 72
    11
 73
     7
 74
     0
 42
0.00000001
 43
0.00000001
 40
0.0
 40
0.0
 40
0.0
 40
0.0
 40
0.0993660010507434
 40
0.4975785994138279
 40
0.8851827206186945
 40
1.0
 40
1.0
 40
1.0
 40
1.0
 10
423.4719469229249
 20
-94.42370913954379
 30
0.0
 10
423.4688226606668
 20
-94.31963295099155
 30
0.0
 10
423.4531778121051
 20
-93.79846792890606
 30
0.0
 10
423.7330284373944
 20
-92.86221994550803
 30
0.0
 10
424.1889528889853
 20
-91.88345645042139
 30
0.0
 10
424.5608532742896
 20
-91.32910851062609
 30
0.0
 10
424.6458428674711
 20
-91.2024245712006
 30
0.0
  0
SPLINE
  5
59
330
1F
100
AcDbEntity
  8
0
  6
SLD-Solid
 62
     7
370
    15
100
AcDbSpline
210
0.0
220
0.0
230
1.0
 70
     8
 71
     3
 72
    12
 73
     8
 74
     0
 42
0.00000001
 43
0.00000001
 40
0.0
 40
0.0
 40
0.0
 40
0.0
 40
0.1259017184716537
 40
0.3634317704983568
 40
0.6027074492253092
 40
0.847323849047819
 40
1.0
 40
1.0
 40
1.0
 40
1.0
 10
401.8553229708034
 20
-91.59692277874987
 30
0.0
 10
402.0553229807434
 20
-91.81121170618344
 30
0.0
 10
402.6326491570223
 20
-92.42978471091095
 30
0.0
 10
403.3590318381596
 20
-93.44935724329173
 30
0.0
 10
403.9294161103281
 20
-94.64473836152753
 30
0.0
 10
404.214009322034
 20
-95.67208003854044
 30
0.0
 10
404.1936856701446
 20
-96.30633848508529
 30
0.0
 10
404.1858754634399
 20
-96.5500786159752
 30
0.0
  0
SPLINE
  5
5A
330
1F
100
AcDbEntity
  8
0
  6
SLD-Solid
 62
     7
370
    15
100
AcDbSpline
210
0.0
220
0.0
230
1.0
 70
     8
 71
     3
 72
    12
 73
     8
 74
     0
 42
0.00000001
 43
0.00000001
 40
0.0
 40
0.0
 40
0.0
 40
0.0
 40
0.1289882235802482
 40
0.3744913951633442
 40
0.6203569596255076
 40
0.866698619194092
 40
1.0
 40
1.0
 40
1.0
 40
1.0
 10
415.9983321297951
 20
-102.360761925387
 30
0.0
 10
416.4288035373233
 20
-102.3428349856617
 30
0.0
 10
417.6785907931567
 20
-102.2907877174504
 30
0.0
 10
419.7107284681139
 20
-102.1299471348593
 30
0.0
 10
422.0303344805063
 20
-101.8473591409523
 30
0.0
 10
423.8930341242553
 20
-101.5328024810935
 30
0.0
 10
424.9428484968557
 20
-101.3018077684041
 30
0.0
 10
425.3114624066998
 20
-101.2207002255659
 30
0.0
  0
SPLINE
  5
5B
330
1F
100
AcDbEntity
  8
0
  6
SLD-Solid
 62
     7
370
    15
100
AcDbSpline
210
0.0
220
0.0
230
1.0
 70
     8
 71
     3
 72
     9
 73
     5
 74
     0
 42
0.00000001
 43
0.00000001
 40
0.0
 40
0.0
 40
0.0
 40
0.0
 40
0.7526542952560986
 40
0.9999999999999999
 40
0.9999999999999999
 40
0.9999999999999999
 40
0.9999999999999999
 10
426.0706355333197
 20
-100.43070701239
 30
0.0
 10
426.505305498621
 20
-98.14901915298935
 30
0.0
 10
427.0828215880673
 20
-95.11749741215553
 30
0.0
 10
427.7994757418235
 20
-92.0317517444123
 30
0.0
 10
427.976737068542
 20
-91.2685058075638
 30
0.0
  0
SPLINE
  5
5C
330
1F
100
AcDbEntity
  8
0
  6
SLD-Solid
 62
     7
370
    15
100
AcDbSpline
210
0.0
220
0.0
230
1.0
 70
     8
 71
     3
 72
    12
 73
     8
 74
     0
 42
0.00000001
 43
0.00000001
 40
0.0
 40
0.0
 40
0.0
 40
0.0
 40
0.1293208081816221
 40
0.3760429086035962
 40
0.6222822499580494
 40
0.8681157522887165
 40
1.0
 40
1.0
 40
1.0
 40
1.0
 10
403.6455109597869
 20
-101.4946790209361
 30
0.0
 10
404.0212805522226
 20
-101.5639967107349
 30
0.0
 10
405.113954596649
 20
-101.765560759523
 30
0.0
 10
407.0374052151499
 20
-102.0317451080026
 30
0.0
 10
409.4224136449753
 20
-102.2565509640406
 30
0.0
 10
411.4994609647491
 20
-102.3675440391326
 30
0.0
 10
412.7687533099762
 20
-102.3884353578308
 30
0.0
 10
413.2119404942093
 20
-102.3957297882617
 30
0.0
  0
LINE
  5
5D
330
1F
100
AcDbEntity
  8
0
  6
SLD-Solid
 62
     7
370
    15
100
AcDbLine
 10
402.6282605948
 20
-99.3490613386
 30
0.0
 11
402.8128746068
 21
-100.6416548716
 31
0.0
  0
SPLINE
  5
5E
330
1F
100
AcDbEntity
  8
0
  6
SLD-Solid
 62
     7
370
    15
100
AcDbSpline
210
0.0
220
0.0
230
1.0
 70
     8
 71
     3
 72
     9
 73
     5
 74
     0
 42
0.00000001
 43
0.00000001
 40
0.0
 40
0.0
 40
0.0
 40
0.0
 40
0.7070028918580966
 40
1.0
 40
1.0
 40
1.0
 40
1.0
 10
401.2842777507198
 20
-91.26850580756374
 30
0.0
 10
401.644381619324
 20
-93.18999363398683
 30
0.0
 10
402.15372022706
 20
-95.90778708087538
 30
0.0
 10
402.5207282928192
 20
-98.56925804320338
 30
0.0
 10
402.6282605947513
 20
-99.34906133856919
 30
0.0
  0
LINE
  5
5F
330
1F
100
AcDbEntity
  8
0
  6
SLD-Solid
 62
     7
370
    15
100
AcDbLine
 10
-34.9704083203
 20
-91.2685058076
 30
0.0
 11
862.6295916797
 21
-91.2685058076
 31
0.0
  0
LINE
  5
60
330
1F
100
AcDbEntity
  8
0
  6
SLD-Solid
 62
     7
370
    15
100
AcDbLine
 10
-36.1704083203
 20
-89.9685058076
 30
0.0
 11
-34.9704083203
 21
-89.9685058076
 31
0.0
  0
LINE
  5
61
330
1F
100
AcDbEntity
  8
0
  6
SLD-Solid
 62
     7
370
    15
100
AcDbLine
 10
862.6295916797
 20
-89.9685058076
 30
0.0
 11
863.8295916797
 21
-89.9685058076
 31
0.0
  0
LINE
  5
62
330
1F
100
AcDbEntity
  8
0
  6
SLD-Solid
 62
     7
370
    15
100
AcDbLine
 10
634.4845327982
 20
-128.7331824648
 30
0.0
 11
638.7192855976
 21
-109.309345243
 31
0.0
  0
ARC
  5
63
330
1F
100
AcDbEntity
  8
0
  6
SLD-Solid
 62
     7
370
    15
100
AcDbCircle
 10
354.2472763757
 20
2052.5797453044
 30
0.0
 40
2203.9000000166
100
AcDbArc
 50
272.6943964884
 51
277.1488297193
  0
LINE
  5
64
330
1F
100
AcDbEntity
  8
0
  6
SLD-Solid
 62
     7
370
    15
100
AcDbLine
 10
443.3672783399
 20
-109.309345243
 30
0.0
 11
450.6767276509
 21
-143.3606822773
 31
0.0
  0
ARC
  5
65
330
1F
100
AcDbEntity
  8
0
  6
SLD-Solid
 62
     7
370
    15
100
AcDbCircle
 10
457.5208197437
 20
-141.8915316187
 30
0.0
 40
7.000000016603441
100
AcDbArc
 50
192.1152418025
 51
270.0
  0
ARC
  5
66
330
1F
100
AcDbEntity
  8
0
  6
SLD-Solid
 62
     7
370
    15
100
AcDbCircle
 10
457.5208197437
 20
-141.8915316187
 30
0.0
 40
7.000000016603425
100
AcDbArc
 50
270.0
 51
272.6943964884
  0
ARC
  5
67
330
1F
100
AcDbEntity
  8
0
  6
SLD-Solid
 62
     7
370
    15
100
AcDbCircle
 10
627.6451896787
 20
-127.2420802129
 30
0.0
 40
7.000000016602927
100
AcDbArc
 50
277.1488297193
 51
347.7009253301
  0
ARC
  5
68
330
1F
100
AcDbEntity
  8
0
  6
SLD-Solid
 62
     7
370
    15
100
AcDbCircle
 10
475.1060776003
 20
-119.0844447928
 30
0.0
 40
6.999999710807611
100
AcDbArc
 50
192.1152418025
 51
273.335403964
  0
LINE
  5
69
330
1F
100
AcDbEntity
  8
0
  6
SLD-Solid
 62
     7
370
    15
100
AcDbLine
 10
468.2619858065
 20
-120.5535953873
 30
0.0
 11
465.8482986027
 21
-109.309345243
 31
0.0
  0
LINE
  5
6A
330
1F
100
AcDbEntity
  8
0
  6
SLD-Solid
 62
     7
370
    15
100
AcDbLine
 10
132.0499657438
 20
-91.2685058076
 30
0.0
 11
132.0451489501
 21
-91.5309493636
 31
0.0
  0
LINE
  5
6B
330
1F
100
AcDbEntity
  8
0
  6
SLD-Solid
 62
     7
370
    15
100
AcDbLine
 10
112.5973092729
 20
-91.5340607883
 30
0.0
 11
112.5924353733
 21
-91.2685058076
 31
0.0
  0
SPLINE
  5
6C
330
1F
100
AcDbEntity
  8
0
  6
SLD-Solid
 62
     7
370
    15
100
AcDbSpline
210
0.0
220
0.0
230
1.0
 70
     8
 71
     3
 72
    11
 73
     7
 74
     0
 42
0.00000001
 43
0.00000001
 40
0.0
 40
0.0
 40
0.0
 40
0.0
 40
0.1902282316767584
 40
0.5511222014831761
 40
0.8995875727423382
 40
1.0
 40
1.0
 40
1.0
 40
1.0
 10
132.025020907957
 20
-94.85232326149074
 30
0.0
 10
132.0302232056799
 20
-94.6333592456573
 30
0.0
 10
132.0452951103522
 20
-93.9989847924646
 30
0.0
 10
132.4113744473983
 20
-92.94434369704175
 30
0.0
 10
132.9403166961514
 20
-91.96959044979897
 30
0.0
 10
133.3442171644238
 20
-91.42256258717669
 30
0.0
 10
133.4345683168393
 20
-91.30019432649433
 30
0.0
  0
SPLINE
  5
6D
330
1F
100
AcDbEntity
  8
0
  6
SLD-Solid
 62
     7
370
    15
100
AcDbSpline
210
0.0
220
0.0
230
1.0
 70
     8
 71
     3
 72
    12
 73
     8
 74
     0
 42
0.00000001
 43
0.00000001
 40
0.0
 40
0.0
 40
0.0
 40
0.0
 40
0.1347780779229475
 40
0.3897137515207467
 40
0.6471317600295778
 40
0.9114710502251744
 40
1.0
 40
1.0
 40
1.0
 40
1.0
 10
110.6317391630054
 20
-91.50200674335402
 30
0.0
 10
110.8165857337207
 20
-91.7159322056898
 30
0.0
 10
111.3510736240313
 20
-92.33450234526642
 30
0.0
 10
112.0088075002257
 20
-93.35183185748208
 30
0.0
 10
112.492464354271
 20
-94.54507679636487
 30
0.0
 10
112.7031788171302
 20
-95.45848132070634
 30
0.0
 10
112.656635859339
 20
-95.98563216345552
 30
0.0
 10
112.6449589819499
 20
-96.11788580715385
 30
0.0
  0
LINE
  5
6E
330
1F
100
AcDbEntity
  8
0
  6
SLD-Solid
 62
     7
370
    15
100
AcDbLine
 10
132.0082229474
 20
-101.5883085543
 30
0.0
 11
133.5010699453
 21
-101.2906346924
 31
0.0
  0
SPLINE
  5
6F
330
1F
100
AcDbEntity
  8
0
  6
SLD-Solid
 62
     7
370
    15
100
AcDbSpline
210
0.0
220
0.0
230
1.0
 70
     8
 71
     3
 72
    10
 73
     6
 74
     0
 42
0.00000001
 43
0.00000001
 40
0.0
 40
0.0
 40
0.0
 40
0.0
 40
0.2754771108787869
 40
0.8012094880352195
 40
1.0
 40
1.0
 40
1.0
 40
1.0
 10
111.8227600294339
 20
-101.4309436736756
 30
0.0
 10
112.1947377300878
 20
-101.5021772372101
 30
0.0
 10
113.2766136875881
 20
-101.7093559998606
 30
0.0
 10
114.7029529060228
 20
-101.9310094603948
 30
0.0
 10
115.7981635901079
 20
-102.0359450834226
 30
0.0
 10
116.0986613326467
 20
-102.0647367289843
 30
0.0
  0
SPLINE
  5
70
330
1F
100
AcDbEntity
  8
0
  6
SLD-Solid
 62
     7
370
    15
100
AcDbSpline
210
0.0
220
0.0
230
1.0
 70
     8
 71
     3
 72
     9
 73
     5
 74
     0
 42
0.00000001
 43
0.00000001
 40
0.0
 40
0.0
 40
0.0
 40
0.0
 40
0.7428489255007523
 40
1.0
 40
1.0
 40
1.0
 40
1.0
 10
134.2710897846956
 20
-100.4883467423058
 30
0.0
 10
134.6788690492969
 20
-98.22212967795713
 30
0.0
 10
135.2278087469971
 20
-95.17141911413535
 30
0.0
 10
135.918857530799
 20
-92.06684927703267
 30
0.0
 10
136.096561468085
 20
-91.26850580756374
 30
0.0
  0
LINE
  5
71
330
1F
100
AcDbEntity
  8
0
  6
SLD-Solid
 62
     7
370
    15
100
AcDbLine
 10
110.8567087789
 20
-99.6567786789
 30
0.0
 11
111.0002840789
 21
-100.59000055
 31
0.0
  0
SPLINE
  5
72
330
1F
100
AcDbEntity
  8
0
  6
SLD-Solid
 62
     7
370
    15
100
AcDbSpline
210
0.0
220
0.0
230
1.0
 70
     8
 71
     3
 72
     9
 73
     5
 74
     0
 42
0.00000001
 43
0.00000001
 40
0.0
 40
0.0
 40
0.0
 40
0.0
 40
0.6740984956870065
 40
0.9999999999999999
 40
0.9999999999999999
 40
0.9999999999999999
 40
0.9999999999999999
 10
109.382196878859
 20
-91.26850580756374
 30
0.0
 10
109.7568945838101
 20
-93.17101422746809
 30
0.0
 10
110.3127446670671
 20
-95.9933145768635
 30
0.0
 10
110.7230044865656
 20
-98.75631325373423
 30
0.0
 10
110.8567087788993
 20
-99.65677867894118
 30
0.0
  0
LINE
  5
73
330
1F
100
AcDbEntity
  8
0
  6
SLD-Solid
 62
     7
370
    15
100
AcDbLine
 10
-36.1704083199
 20
-109.309345243
 30
0.0
 11
863.8295916801
 21
-109.309345243
 31
0.0
  0
SPLINE
  5
74
330
1F
100
AcDbEntity
  8
0
  6
SLD-Solid
 62
     7
370
    15
100
AcDbSpline
210
0.0
220
0.0
230
1.0
 70
     8
 71
     3
 72
    11
 73
     7
 74
     0
 42
0.00000001
 43
0.00000001
 40
0.0
 40
0.0
 40
0.0
 40
0.0
 40
0.2706728893344784
 40
0.597276199279313
 40
0.9114942371262928
 40
1.0
 40
1.0
 40
1.0
 40
1.0
 10
715.0250447092582
 20
-95.30674027356744
 30
0.0
 10
715.0543811961486
 20
-94.96479134348917
 30
0.0
 10
715.1191161071076
 20
-94.2102349569704
 30
0.0
 10
715.598274292267
 20
-93.02903979118749
 30
0.0
 10
716.1998668373216
 20
-92.06014124733186
 30
0.0
 10
716.6370958794782
 20
-91.52025849177909
 30
0.0
 10
716.7331847867077
 20
-91.40160959380734
 30
0.0
  0
SPLINE
  5
75
330
1F
100
AcDbEntity
  8
0
  6
SLD-Solid
 62
     7
370
    15
100
AcDbSpline
210
0.0
220
0.0
230
1.0
 70
     8
 71
     3
 72
    12
 73
     8
 74
     0
 42
0.00000001
 43
0.00000001
 40
0.0
 40
0.0
 40
0.0
 40
0.0
 40
0.145738552986717
 40
0.4224065763361964
 40
0.7025645190515819
 40
0.9915723830906162
 40
1.0
 40
1.0
 40
1.0
 40
1.0
 10
693.9259985736285
 20
-91.40160959387289
 30
0.0
 10
694.0949471340738
 20
-91.61491924816895
 30
0.0
 10
694.584625270244
 20
-92.23317295608724
 30
0.0
 10
695.1721028885136
 20
-93.24786642066651
 30
0.0
 10
695.5609272098553
 20
-94.44045563859765
 30
0.0
 10
695.7172405467123
 20
-95.2338423084153
 30
0.0
 10
695.660245482924
 20
-95.64594331277193
 30
0.0
 10
695.6586305694583
 20
-95.65761989345972
 30
0.0
  0
SPLINE
  5
76
330
1F
100
AcDbEntity
  8
0
  6
SLD-Solid
 62
     7
370
    15
100
AcDbSpline
210
0.0
220
0.0
230
1.0
 70
     8
 71
     3
 72
    11
 73
     7
 74
     0
 42
0.00000001
 43
0.00000001
 40
0.0
 40
0.0
 40
0.0
 40
0.0
 40
0.0925535171473593
 40
0.4249799083409196
 40
0.7579032427931354
 40
0.9999999999999999
 40
0.9999999999999999
 40
0.9999999999999999
 40
0.9999999999999999
 10
709.3229105649879
 20
-102.2586284245153
 30
0.0
 10
709.5501036632588
 20
-102.2466510740921
 30
0.0
 10
710.5933109346277
 20
-102.1916544252136
 30
0.0
 10
712.3836300383415
 20
-101.9949668515697
 30
0.0
 10
714.4492856232692
 20
-101.704963610627
 30
0.0
 10
715.6608474037201
 20
-101.4635368927544
 30
0.0
 10
716.1709429333506
 20
-101.3618906610003
 30
0.0
  0
SPLINE
  5
77
330
1F
100
AcDbEntity
  8
0
  6
SLD-Solid
 62
     7
370
    15
100
AcDbSpline
210
0.0
220
0.0
230
1.0
 70
     8
 71
     3
 72
    10
 73
     6
 74
     0
 42
0.00000001
 43
0.00000001
 40
0.0
 40
0.0
 40
0.0
 40
0.0
 40
0.2502355006436308
 40
0.7279697107284409
 40
1.0
 40
1.0
 40
1.0
 40
1.0
 10
694.4882404270431
 20
-101.3618906610625
 30
0.0
 10
694.8555228910725
 20
-101.435680014978
 30
0.0
 10
695.9239984207528
 20
-101.6503434599589
 30
0.0
 10
697.4828237850274
 20
-101.9008528979899
 30
0.0
 10
698.7248362944521
 20
-102.0266772723423
 30
0.0
 10
699.1754644883819
 20
-102.072328994959
 30
0.0
  0
SPLINE
  5
78
330
1F
100
AcDbEntity
  8
0
  6
SLD-Solid
 62
     7
370
    15
100
AcDbSpline
210
0.0
220
0.0
230
1.0
 70
     8
 71
     3
 72
     9
 73
     5
 74
     0
 42
0.00000001
 43
0.00000001
 40
0.0
 40
0.0
 40
0.0
 40
0.0
 40
0.7329316035308121
 40
1.0
 40
1.0
 40
1.0
 40
1.0
 10
716.9520560028014
 20
-100.5466624993069
 30
0.0
 10
717.3317386567182
 20
-98.29645335562998
 30
0.0
 10
717.8497715155659
 20
-95.22630447292812
 30
0.0
 10
718.5129606652092
 20
-92.10271724086316
 30
0.0
 10
718.6900775279602
 20
-91.26850580756374
 30
0.0
  0
LINE
  5
79
330
1F
100
AcDbEntity
  8
0
  6
SLD-Solid
 62
     7
370
    15
100
AcDbLine
 10
693.5873442186
 20
-99.9929319042
 30
0.0
 11
693.6767251159
 21
-100.5335888457
 31
0.0
  0
SPLINE
  5
7A
330
1F
100
AcDbEntity
  8
0
  6
SLD-Solid
 62
     7
370
    15
100
AcDbSpline
210
0.0
220
0.0
230
1.0
 70
     8
 71
     3
 72
     9
 73
     5
 74
     0
 42
0.00000001
 43
0.00000001
 40
0.0
 40
0.0
 40
0.0
 40
0.0
 40
0.6408276450475581
 40
1.0
 40
1.0
 40
1.0
 40
1.0
 10
691.9673270761957
 20
-91.26850580756374
 30
0.0
 10
692.3566356197687
 20
-93.15028891064186
 30
0.0
 10
692.9641445913021
 20
-96.08677755563232
 30
0.0
 10
693.4226586458309
 20
-98.96069883154551
 30
0.0
 10
693.5873442185748
 20
-99.99293190416326
 30
0.0
  0
SPLINE
  5
7B
330
1F
100
AcDbEntity
  8
0
  6
SLD-Solid
 62
     7
370
    15
100
AcDbSpline
210
0.0
220
0.0
230
1.0
 70
     8
 71
     3
 72
    11
 73
     7
 74
     0
 42
0.00000001
 43
0.00000001
 40
0.0
 40
0.0
 40
0.0
 40
0.0
 40
0.270672889334443
 40
0.597276199279269
 40
0.9114942371262694
 40
1.0
 40
1.0
 40
1.0
 40
1.0
 10
569.2750447092583
 20
-95.30674027398578
 30
0.0
 10
569.3043811961486
 20
-94.96479134390756
 30
0.0
 10
569.3691161071076
 20
-94.210234957389
 30
0.0
 10
569.8482742922669
 20
-93.02903979160575
 30
0.0
 10
570.4498668373216
 20
-92.06014124774981
 30
0.0
 10
570.8870958794781
 20
-91.5202584921977
 30
0.0
 10
570.9831847867079
 20
-91.40160959422572
 30
0.0
  0
SPLINE
  5
7C
330
1F
100
AcDbEntity
  8
0
  6
SLD-Solid
 62
     7
370
    15
100
AcDbSpline
210
0.0
220
0.0
230
1.0
 70
     8
 71
     3
 72
    12
 73
     8
 74
     0
 42
0.00000001
 43
0.00000001
 40
0.0
 40
0.0
 40
0.0
 40
0.0
 40
0.1457385529867358
 40
0.4224065763362141
 40
0.7025645190516074
 40
0.9915723830906806
 40
1.0
 40
1.0
 40
1.0
 40
1.0
 10
548.1759985736285
 20
-91.40160959429127
 30
0.0
 10
548.3449471340739
 20
-91.6149192485875
 30
0.0
 10
548.8346252702439
 20
-92.23317295650563
 30
0.0
 10
549.4221028885136
 20
-93.2478664210848
 30
0.0
 10
549.8109272098551
 20
-94.44045563901582
 30
0.0
 10
549.9672405467121
 20
-95.23384230883313
 30
0.0
 10
549.910245482924
 20
-95.64594331318999
 30
0.0
 10
549.9086305694584
 20
-95.65761989387761
 30
0.0
  0
SPLINE
  5
7D
330
1F
100
AcDbEntity
  8
0
  6
SLD-Solid
 62
     7
370
    15
100
AcDbSpline
210
0.0
220
0.0
230
1.0
 70
     8
 71
     3
 72
    11
 73
     7
 74
     0
 42
0.00000001
 43
0.00000001
 40
0.0
 40
0.0
 40
0.0
 40
0.0
 40
0.092553517147345
 40
0.4249799083408872
 40
0.7579032427932066
 40
1.0
 40
1.0
 40
1.0
 40
1.0
 10
563.5729105649875
 20
-102.2586284249338
 30
0.0
 10
563.8001036632584
 20
-102.2466510745106
 30
0.0
 10
564.8433109346272
 20
-102.1916544256318
 30
0.0
 10
566.6336300383415
 20
-101.994966851988
 30
0.0
 10
568.6992856232692
 20
-101.7049636110455
 30
0.0
 10
569.9108474037203
 20
-101.4635368931727
 30
0.0
 10
570.4209429333506
 20
-101.3618906614187
 30
0.0
  0
SPLINE
  5
7E
330
1F
100
AcDbEntity
  8
0
  6
SLD-Solid
 62
     7
370
    15
100
AcDbSpline
210
0.0
220
0.0
230
1.0
 70
     8
 71
     3
 72
    10
 73
     6
 74
     0
 42
0.00000001
 43
0.00000001
 40
0.0
 40
0.0
 40
0.0
 40
0.0
 40
0.2502355006436269
 40
0.7279697107284108
 40
0.9999999999999999
 40
0.9999999999999999
 40
0.9999999999999999
 40
0.9999999999999999
 10
548.7382404270433
 20
-101.3618906614809
 30
0.0
 10
549.1055228910725
 20
-101.4356800153965
 30
0.0
 10
550.1739984207528
 20
-101.6503434603773
 30
0.0
 10
551.7328237850273
 20
-101.900852898408
 30
0.0
 10
552.974836294452
 20
-102.0266772727605
 30
0.0
 10
553.4254644883819
 20
-102.0723289953774
 30
0.0
  0
SPLINE
  5
7F
330
1F
100
AcDbEntity
  8
0
  6
SLD-Solid
 62
     7
370
    15
100
AcDbSpline
210
0.0
220
0.0
230
1.0
 70
     8
 71
     3
 72
     9
 73
     5
 74
     0
 42
0.00000001
 43
0.00000001
 40
0.0
 40
0.0
 40
0.0
 40
0.0
 40
0.732931603498522
 40
1.0
 40
1.0
 40
1.0
 40
1.0
 10
571.2020560028014
 20
-100.5466624997254
 30
0.0
 10
571.5817386567197
 20
-98.29645335604658
 30
0.0
 10
572.099771515592
 20
-95.22630447320685
 30
0.0
 10
572.7629606652666
 20
-92.10271724100139
 30
0.0
 10
572.9400775280476
 20
-91.26850580756374
 30
0.0
  0
LINE
  5
80
330
1F
100
AcDbEntity
  8
0
  6
SLD-Solid
 62
     7
370
    15
100
AcDbLine
 10
547.8373442186
 20
-99.9929319046
 30
0.0
 11
547.9267251159
 21
-100.5335888461
 31
0.0
  0
SPLINE
  5
81
330
1F
100
AcDbEntity
  8
0
  6
SLD-Solid
 62
     7
370
    15
100
AcDbSpline
210
0.0
220
0.0
230
1.0
 70
     8
 71
     3
 72
     9
 73
     5
 74
     0
 42
0.00000001
 43
0.00000001
 40
0.0
 40
0.0
 40
0.0
 40
0.0
 40
0.6408276450642402
 40
1.0
 40
1.0
 40
1.0
 40
1.0
 10
546.2173270761134
 20
-91.26850580756374
 30
0.0
 10
546.6066356197155
 20
-93.15028891078026
 30
0.0
 10
547.2141445912785
 20
-96.08677755591027
 30
0.0
 10
547.67265864583
 20
-98.96069883196002
 30
0.0
 10
547.8373442185745
 20
-99.99293190457892
 30
0.0
  0
LINE
  5
82
330
1F
100
AcDbEntity
  8
0
  6
SLD-Solid
 62
     7
370
    15
100
AcDbLine
 10
538.8795916843
 20
28.7983026953
 30
0.0
 11
778.7795916843
 21
28.7983026953
 31
0.0
  0
LINE
  5
83
330
1F
100
AcDbEntity
  8
0
  6
SLD-Solid
 62
     7
370
    15
100
AcDbLine
 10
778.7795916843
 20
28.7983026953
 30
0.0
 11
778.7795916843
 21
590.6983026953
 31
0.0
  0
LINE
  5
84
330
1F
100
AcDbEntity
  8
0
  6
SLD-Solid
 62
     7
370
    15
100
AcDbLine
 10
538.8795916843
 20
590.6983026953
 30
0.0
 11
538.8795916843
 21
28.7983026953
 31
0.0
  0
LINE
  5
85
330
1F
100
AcDbEntity
  8
0
  6
SLD-Solid
 62
     7
370
    15
100
AcDbLine
 10
778.7795916843
 20
590.6983026953
 30
0.0
 11
538.8795916843
 21
590.6983026953
 31
0.0
  0
ARC
  5
86
330
1F
100
AcDbEntity
  8
0
  6
SLD-Solid
 62
   142
420
    32960
370
     0
100
AcDbCircle
 10
366.5580961997
 20
-90.5325936712
 30
0.0
 40
7.28959052843771
100
AcDbArc
 50
268.2036728142
 51
354.205900694
  0
ARC
  5
87
330
1F
100
AcDbEntity
  8
0
  6
SLD-Solid
 62
   142
420
    32960
370
     0
100
AcDbCircle
 10
366.1608271854
 20
-90.4643646928
 30
0.0
 40
7.356173339427692
100
AcDbArc
 50
186.2758378792
 51
271.3145886126
  0
ARC
  5
88
330
1F
100
AcDbEntity
  8
0
  6
SLD-Solid
 62
   142
420
    32960
370
     0
100
AcDbCircle
 10
366.3428441161
 20
-90.3858112088
 30
0.0
 40
6.550892147400361
100
AcDbArc
 50
187.7438273945
 51
346.6856443791
  0
LINE
  5
89
330
1F
100
AcDbEntity
  8
0
  6
SLD-Solid
 62
   142
420
    32960
370
     0
100
AcDbLine
 10
372.7176561607
 20
-91.8944395003
 30
0.0
 11
368.0495035965
 21
-94.2962939859
 31
0.0
  0
ARC
  5
8A
330
1F
100
AcDbEntity
  8
0
  6
SLD-Solid
 62
   142
420
    32960
370
     0
100
AcDbCircle
 10
367.3264153409
 20
-92.9835640823
 30
0.0
 40
1.498704915935653
100
AcDbArc
 50
182.8711035151
 51
298.8471995542
  0
LINE
  5
8B
330
1F
100
AcDbEntity
  8
0
  6
SLD-Solid
 62
   142
420
    32960
370
     0
100
AcDbLine
 10
755.8295916801
 20
-91.2685058076
 30
0.0
 11
755.8295916801
 21
-93.1500448968
 31
0.0
  0
ARC
  5
8C
330
1F
100
AcDbEntity
  8
0
  6
SLD-Solid
 62
   142
420
    32960
370
     0
100
AcDbCircle
 10
757.7718682866
 20
-93.0886701274
 30
0.0
 40
1.943246067350886
100
AcDbArc
 50
181.809909826
 51
271.7021999702
  0
LINE
  5
8D
330
1F
100
AcDbEntity
  8
0
  6
SLD-Solid
 62
   142
420
    32960
370
     0
100
AcDbLine
 10
757.8295916801
 20
-95.0310586797
 30
0.0
 11
759.8295916801
 21
-95.0310586797
 31
0.0
  0
ARC
  5
8E
330
1F
100
AcDbEntity
  8
0
  6
SLD-Solid
 62
   142
420
    32960
370
     0
100
AcDbCircle
 10
759.8873150737
 20
-93.0886701274
 30
0.0
 40
1.943246067350884
100
AcDbArc
 50
268.2978000298
 51
358.190090174
  0
LINE
  5
8F
330
1F
100
AcDbEntity
  8
0
  6
SLD-Solid
 62
   142
420
    32960
370
     0
100
AcDbLine
 10
761.8295916801
 20
-91.2685058076
 30
0.0
 11
761.8295916801
 21
-93.1500448968
 31
0.0
  0
LINE
  5
90
330
1F
100
AcDbEntity
  8
0
  6
SLD-Solid
 62
   142
420
    32960
370
     0
100
AcDbLine
 10
763.8295916801
 20
-95.9715655712
 30
0.0
 11
763.8295916801
 21
-91.2685058076
 31
0.0
  0
ARC
  5
91
330
1F
100
AcDbEntity
  8
0
  6
SLD-Solid
 62
   142
420
    32960
370
     0
100
AcDbCircle
 10
762.8584533769
 20
-95.9408781865
 30
0.0
 40
0.9716230336757953
100
AcDbArc
 50
268.2978000298
 51
358.190090174
  0
LINE
  5
92
330
1F
100
AcDbEntity
  8
0
  6
SLD-Solid
 62
   142
420
    32960
370
     0
100
AcDbLine
 10
762.8295916801
 20
-96.9120724627
 30
0.0
 11
742.8295916801
 21
-96.9120724627
 31
0.0
  0
ARC
  5
93
330
1F
100
AcDbEntity
  8
0
  6
SLD-Solid
 62
   142
420
    32960
370
     0
100
AcDbCircle
 10
742.8007299834
 20
-95.9408781865
 30
0.0
 40
0.9716230336755078
100
AcDbArc
 50
181.809909826
 51
271.7021999702
  0
LINE
  5
94
330
1F
100
AcDbEntity
  8
0
  6
SLD-Solid
 62
   142
420
    32960
370
     0
100
AcDbLine
 10
741.8295916801
 20
-91.2685058076
 30
0.0
 11
741.8295916801
 21
-95.9715655712
 31
0.0
  0
ARC
  5
95
330
1F
100
AcDbEntity
  8
0
  6
SLD-Solid
 62
   142
420
    32960
370
     0
100
AcDbCircle
 10
267.5557188045
 20
-101.3266997314
 30
0.0
 40
0.9764498166439795
100
AcDbArc
 50
88.5990561918
 51
178.5269450076
  0
LINE
  5
96
330
1F
100
AcDbEntity
  8
0
  6
SLD-Solid
 62
   142
420
    32960
370
     0
100
AcDbLine
 10
267.5795916802
 20
-91.2685058076
 30
0.0
 11
267.5795916802
 21
-100.3505417881
 31
0.0
  0
CIRCLE
  5
97
330
1F
100
AcDbEntity
  8
0
  6
SLD-Solid
 62
     7
370
    15
100
AcDbCircle
 10
168.8064099483
 20
177.2483026955
 30
0.0
 40
91.49999999999987
  0
CIRCLE
  5
98
330
1F
100
AcDbEntity
  8
0
  6
SLD-Solid
 62
     7
370
    15
100
AcDbCircle
 10
168.8064099483
 20
177.2483026955
 30
0.0
 40
93.49999999999999
  0
CIRCLE
  5
99
330
1F
100
AcDbEntity
  8
0
  6
SLD-Solid
 62
     7
370
    15
100
AcDbCircle
 10
168.8064099483
 20
177.2483026955
 30
0.0
 40
27.5
  0
CIRCLE
  5
9A
330
1F
100
AcDbEntity
  8
0
  6
SLD-Solid
 62
     7
370
    15
100
AcDbCircle
 10
168.8090128703
 20
177.244575851
 30
0.0
 40
14.00000000000002
  0
LINE
  5
9B
330
1F
100
AcDbEntity
  8
0
  6
SLD-Solid
 62
     7
370
    15
100
AcDbLine
 10
-36.170408322
 20
673.1983026953
 30
0.0
 11
-36.170408322
 21
670.6177236528
 31
0.0
  0
LINE
  5
9C
330
1F
100
AcDbEntity
  8
0
  6
SLD-Solid
 62
     7
370
    15
100
AcDbLine
 10
863.829591678
 20
673.1983026953
 30
0.0
 11
-36.170408322
 21
673.1983026953
 31
0.0
  0
LINE
  5
9D
330
1F
100
AcDbEntity
  8
0
  6
SLD-Solid
 62
   142
420
    32960
370
     0
100
AcDbLine
 10
863.829591678
 20
673.1983026953
 30
0.0
 11
863.829591678
 21
670.6177236528
 31
0.0
  0
LINE
  5
9E
330
1F
100
AcDbEntity
  8
0
  6
SLD-Solid
 62
     7
370
    15
100
AcDbLine
 10
863.829591678
 20
670.6177236528
 30
0.0
 11
863.829591678
 21
637.3207713316
 31
0.0
  0
ARC
  5
9F
330
1F
100
AcDbEntity
  8
0
  6
SLD-Solid
 62
     7
370
    15
100
AcDbCircle
 10
458.3118175476
 20
660.9486657228
 30
0.0
 40
4.841279373383052
100
AcDbArc
 50
333.2478610927
 51
91.5842536627
  0
LINE
  5
A0
330
1F
100
AcDbEntity
  8
0
  6
SLD-Solid
 62
     7
370
    15
100
AcDbLine
 10
458.177971087
 20
665.7880945214
 30
0.0
 11
379.3964665062
 21
665.7880945214
 31
0.0
  0
LINE
  5
A1
330
1F
100
AcDbEntity
  8
0
  6
SLD-Solid
 62
     7
370
    15
100
AcDbLine
 10
374.9395408552
 20
663.1474787419
 30
0.0
 11
365.0242866179
 21
644.3119251292
 31
0.0
  0
ARC
  5
A2
330
1F
100
AcDbEntity
  8
0
  6
SLD-Solid
 62
     7
370
    15
100
AcDbCircle
 10
369.3234639433
 20
642.1281727287
 30
0.0
 40
4.82200168206796
100
AcDbArc
 50
153.0718636158
 51
265.540211537
  0
ARC
  5
A3
330
1F
100
AcDbEntity
  8
0
  6
SLD-Solid
 62
     7
370
    15
100
AcDbCircle
 10
358.3118175476
 20
660.9486657228
 30
0.0
 40
4.841279373383162
100
AcDbArc
 50
333.2478610927
 51
91.5842536627
  0
LINE
  5
A4
330
1F
100
AcDbEntity
  8
0
  6
SLD-Solid
 62
     7
370
    15
100
AcDbLine
 10
358.177971087
 20
665.7880945214
 30
0.0
 11
279.3964665062
 21
665.7880945214
 31
0.0
  0
LINE
  5
A5
330
1F
100
AcDbEntity
  8
0
  6
SLD-Solid
 62
     7
370
    15
100
AcDbLine
 10
258.177971087
 20
665.7880945214
 30
0.0
 11
179.3964665062
 21
665.7880945214
 31
0.0
  0
ARC
  5
A6
330
1F
100
AcDbEntity
  8
0
  6
SLD-Solid
 62
     7
370
    15
100
AcDbCircle
 10
169.3234639433
 20
642.1281727287
 30
0.0
 40
4.82200168206782
100
AcDbArc
 50
153.0718636158
 51
265.540211537
  0
LINE
  5
A7
330
1F
100
AcDbEntity
  8
0
  6
SLD-Solid
 62
     7
370
    15
100
AcDbLine
 10
158.177971087
 20
665.7880945213
 30
0.0
 11
79.3964665062
 21
665.7880945214
 31
0.0
  0
LINE
  5
A8
330
1F
100
AcDbEntity
  8
0
  6
SLD-Solid
 62
     7
370
    15
100
AcDbLine
 10
74.9395408552
 20
663.1474787419
 30
0.0
 11
65.0242866179
 21
644.3119251292
 31
0.0
  0
ARC
  5
A9
330
1F
100
AcDbEntity
  8
0
  6
SLD-Solid
 62
     7
370
    15
100
AcDbCircle
 10
69.3234639433
 20
642.1281727287
 30
0.0
 40
4.82200168206745
100
AcDbArc
 50
153.0718636158
 51
265.5402115369
  0
LINE
  5
AA
330
1F
100
AcDbEntity
  8
0
  6
SLD-Solid
 62
     7
370
    15
100
AcDbLine
 10
58.177971087
 20
665.7880945213
 30
0.0
 11
-11.170408322
 21
665.7880945213
 31
0.0
  0
ARC
  5
AB
330
1F
100
AcDbEntity
  8
0
  6
SLD-Solid
 62
     7
370
    15
100
AcDbCircle
 10
-11.2541424446
 20
660.8717774473
 30
0.0
 40
4.917030097156775
100
AcDbArc
 50
89.0242395005
 51
178.9898148908
  0
LINE
  5
AC
330
1F
100
AcDbEntity
  8
0
  6
SLD-Solid
 62
     7
370
    15
100
AcDbLine
 10
-16.170408322
 20
660.9584653899
 30
0.0
 11
-16.170408322
 21
642.1229117773
 31
0.0
  0
LINE
  5
AD
330
1F
100
AcDbEntity
  8
0
  6
SLD-Solid
 62
     7
370
    15
100
AcDbLine
 10
-36.170408322
 20
670.6177236528
 30
0.0
 11
-36.170408322
 21
637.3207713316
 31
0.0
  0
ARC
  5
AE
330
1F
100
AcDbEntity
  8
0
  6
SLD-Solid
 62
     7
370
    15
100
AcDbCircle
 10
838.9349322771
 20
642.1973054787
 30
0.0
 40
4.895224721419783
100
AcDbArc
 50
275.0084220182
 51
359.1292311494
  0
ARC
  5
AF
330
1F
100
AcDbEntity
  8
0
  6
SLD-Solid
 62
     7
370
    15
100
AcDbCircle
 10
838.9133258006
 20
660.8717774473
 30
0.0
 40
4.917030097157036
100
AcDbArc
 50
1.0101851092
 51
90.9757604995
  0
LINE
  5
B0
330
1F
100
AcDbEntity
  8
0
  6
SLD-Solid
 62
     7
370
    15
100
AcDbLine
 10
838.829591678
 20
665.7880945214
 30
0.0
 11
779.3964665062
 21
665.7880945213
 31
0.0
  0
LINE
  5
B1
330
1F
100
AcDbEntity
  8
0
  6
SLD-Solid
 62
     7
370
    15
100
AcDbLine
 10
774.9395408552
 20
663.1474787419
 30
0.0
 11
765.0242866179
 21
644.3119251292
 31
0.0
  0
ARC
  5
B2
330
1F
100
AcDbEntity
  8
0
  6
SLD-Solid
 62
     7
370
    15
100
AcDbCircle
 10
769.3234639433
 20
642.1281727287
 30
0.0
 40
4.822001682067321
100
AcDbArc
 50
153.0718636158
 51
265.5402115369
  0
LINE
  5
B3
330
1F
100
AcDbEntity
  8
0
  6
SLD-Solid
 62
     7
370
    15
100
AcDbLine
 10
752.7196425008
 20
639.9338984253
 30
0.0
 11
762.634896738
 21
658.769452038
 31
0.0
  0
ARC
  5
B4
330
1F
100
AcDbEntity
  8
0
  6
SLD-Solid
 62
     7
370
    15
100
AcDbCircle
 10
758.3118175476
 20
660.9486657228
 30
0.0
 40
4.841279373383111
100
AcDbArc
 50
333.2478610927
 51
91.5842536627
  0
LINE
  5
B5
330
1F
100
AcDbEntity
  8
0
  6
SLD-Solid
 62
     7
370
    15
100
AcDbLine
 10
758.177971087
 20
665.7880945214
 30
0.0
 11
679.3964665062
 21
665.7880945214
 31
0.0
  0
ARC
  5
B6
330
1F
100
AcDbEntity
  8
0
  6
SLD-Solid
 62
     7
370
    15
100
AcDbCircle
 10
679.3605192554
 20
660.767180515
 30
0.0
 40
5.021042686942042
100
AcDbArc
 50
89.5897976815
 51
151.7015410578
  0
LINE
  5
B7
330
1F
100
AcDbEntity
  8
0
  6
SLD-Solid
 62
     7
370
    15
100
AcDbLine
 10
674.9395408552
 20
663.1474787419
 30
0.0
 11
665.0242866179
 21
644.3119251292
 31
0.0
  0
LINE
  5
B8
330
1F
100
AcDbEntity
  8
0
  6
SLD-Solid
 62
     7
370
    15
100
AcDbLine
 10
658.177971087
 20
665.7880945214
 30
0.0
 11
579.3964665062
 21
665.7880945214
 31
0.0
  0
LINE
  5
B9
330
1F
100
AcDbEntity
  8
0
  6
SLD-Solid
 62
     7
370
    15
100
AcDbLine
 10
574.9395408552
 20
663.1474787419
 30
0.0
 11
565.0242866179
 21
644.3119251292
 31
0.0
  0
ARC
  5
BA
330
1F
100
AcDbEntity
  8
0
  6
SLD-Solid
 62
     7
370
    15
100
AcDbCircle
 10
548.3131593125
 20
642.2981317555
 30
0.0
 40
5.000669288031489
100
AcDbArc
 50
275.5341758578
 51
331.784876003
  0
ARC
  5
BB
330
1F
100
AcDbEntity
  8
0
  6
SLD-Solid
 62
     7
370
    15
100
AcDbCircle
 10
558.3118175476
 20
660.9486657228
 30
0.0
 40
4.841279373382958
100
AcDbArc
 50
333.2478610927
 51
91.5842536627
  0
LINE
  5
BC
330
1F
100
AcDbEntity
  8
0
  6
SLD-Solid
 62
     7
370
    15
100
AcDbLine
 10
558.177971087
 20
665.7880945214
 30
0.0
 11
479.3964665062
 21
665.7880945214
 31
0.0
  0
LINE
  5
BD
330
1F
100
AcDbEntity
  8
0
  6
SLD-Solid
 62
     7
370
    15
100
AcDbLine
 10
474.9395408552
 20
663.1474787419
 30
0.0
 11
465.0242866179
 21
644.3119251292
 31
0.0
  0
ARC
  5
BE
330
1F
100
AcDbEntity
  8
0
  6
SLD-Solid
 62
   142
420
    32960
370
     0
100
AcDbCircle
 10
469.3234639433
 20
642.1281727287
 30
0.0
 40
4.822001682067866
100
AcDbArc
 50
153.0718636158
 51
265.540211537
  0
ARC
  5
BF
330
1F
100
AcDbEntity
  8
0
  6
SLD-Solid
 62
   142
420
    32960
370
     0
100
AcDbCircle
 10
479.3605192554
 20
660.767180515
 30
0.0
 40
5.021042686941701
100
AcDbArc
 50
89.5897976815
 51
151.7015410578
  0
LINE
  5
C0
330
1F
100
AcDbEntity
  8
0
  6
SLD-Solid
 62
   142
420
    32960
370
     0
100
AcDbLine
 10
552.7196425008
 20
639.9338984253
 30
0.0
 11
562.634896738
 21
658.7694520379
 31
0.0
  0
ARC
  5
C1
330
1F
100
AcDbEntity
  8
0
  6
SLD-Solid
 62
   142
420
    32960
370
     0
100
AcDbCircle
 10
569.3234639433
 20
642.1281727287
 30
0.0
 40
4.822001682067866
100
AcDbArc
 50
153.0718636158
 51
265.540211537
  0
ARC
  5
C2
330
1F
100
AcDbEntity
  8
0
  6
SLD-Solid
 62
   142
420
    32960
370
     0
100
AcDbCircle
 10
579.3605192554
 20
660.767180515
 30
0.0
 40
5.021042686941815
100
AcDbArc
 50
89.5897976815
 51
151.7015410578
  0
ARC
  5
C3
330
1F
100
AcDbEntity
  8
0
  6
SLD-Solid
 62
   142
420
    32960
370
     0
100
AcDbCircle
 10
658.3118175476
 20
660.9486657228
 30
0.0
 40
4.841279373383009
100
AcDbArc
 50
333.2478610927
 51
91.5842536627
  0
LINE
  5
C4
330
1F
100
AcDbEntity
  8
0
  6
SLD-Solid
 62
   142
420
    32960
370
     0
100
AcDbLine
 10
652.7196425008
 20
639.9338984253
 30
0.0
 11
662.634896738
 21
658.7694520379
 31
0.0
  0
ARC
  5
C5
330
1F
100
AcDbEntity
  8
0
  6
SLD-Solid
 62
   142
420
    32960
370
     0
100
AcDbCircle
 10
648.3131593125
 20
642.2981317555
 30
0.0
 40
5.00066928803165
100
AcDbArc
 50
275.5341758578
 51
331.784876003
  0
ARC
  5
C6
330
1F
100
AcDbEntity
  8
0
  6
SLD-Solid
 62
   142
420
    32960
370
     0
100
AcDbCircle
 10
669.3234639433
 20
642.1281727287
 30
0.0
 40
4.82200168206852
100
AcDbArc
 50
153.0718636158
 51
265.5402115372
  0
ARC
  5
C7
330
1F
100
AcDbEntity
  8
0
  6
SLD-Solid
 62
   142
420
    32960
370
     0
100
AcDbCircle
 10
748.3131593125
 20
642.2981317555
 30
0.0
 40
5.00066928803252
100
AcDbArc
 50
275.5341758576
 51
331.784876003
  0
ARC
  5
C8
330
1F
100
AcDbEntity
  8
0
  6
SLD-Solid
 62
   142
420
    32960
370
     0
100
AcDbCircle
 10
779.3605192554
 20
660.767180515
 30
0.0
 40
5.02104268694159
100
AcDbArc
 50
89.5897976815
 51
151.7015410578
  0
LINE
  5
C9
330
1F
100
AcDbEntity
  8
0
  6
SLD-Solid
 62
   142
420
    32960
370
     0
100
AcDbLine
 10
843.829591678
 20
642.1229117773
 30
0.0
 11
843.829591678
 21
660.9584653899
 31
0.0
  0
ARC
  5
CA
330
1F
100
AcDbEntity
  8
0
  6
SLD-Solid
 62
   142
420
    32960
370
     0
100
AcDbCircle
 10
-11.2757489212
 20
642.1973054787
 30
0.0
 40
4.895224721419525
100
AcDbArc
 50
180.8707688506
 51
264.9915779818
  0
ARC
  5
CB
330
1F
100
AcDbEntity
  8
0
  6
SLD-Solid
 62
   142
420
    32960
370
     0
100
AcDbCircle
 10
58.3118175476
 20
660.9486657228
 30
0.0
 40
4.84127937338306
100
AcDbArc
 50
333.2478610927
 51
91.5842536627
  0
LINE
  5
CC
330
1F
100
AcDbEntity
  8
0
  6
SLD-Solid
 62
   142
420
    32960
370
     0
100
AcDbLine
 10
52.7196425008
 20
639.9338984253
 30
0.0
 11
62.634896738
 21
658.7694520379
 31
0.0
  0
ARC
  5
CD
330
1F
100
AcDbEntity
  8
0
  6
SLD-Solid
 62
   142
420
    32960
370
     0
100
AcDbCircle
 10
48.3131593125
 20
642.2981317555
 30
0.0
 40
5.000669288031084
100
AcDbArc
 50
275.534175858
 51
331.784876003
  0
ARC
  5
CE
330
1F
100
AcDbEntity
  8
0
  6
SLD-Solid
 62
   142
420
    32960
370
     0
100
AcDbCircle
 10
79.3605192554
 20
660.767180515
 30
0.0
 40
5.021042686941361
100
AcDbArc
 50
89.5897976815
 51
151.7015410578
  0
ARC
  5
CF
330
1F
100
AcDbEntity
  8
0
  6
SLD-Solid
 62
   142
420
    32960
370
     0
100
AcDbCircle
 10
158.3118175476
 20
660.9486657228
 30
0.0
 40
4.841279373382941
100
AcDbArc
 50
333.2478610927
 51
91.5842536627
  0
LINE
  5
D0
330
1F
100
AcDbEntity
  8
0
  6
SLD-Solid
 62
   142
420
    32960
370
     0
100
AcDbLine
 10
152.7196425008
 20
639.9338984253
 30
0.0
 11
162.634896738
 21
658.7694520379
 31
0.0
  0
ARC
  5
D1
330
1F
100
AcDbEntity
  8
0
  6
SLD-Solid
 62
   142
420
    32960
370
     0
100
AcDbCircle
 10
148.3131593125
 20
642.2981317555
 30
0.0
 40
5.000669288030976
100
AcDbArc
 50
275.534175858
 51
331.784876003
  0
LINE
  5
D2
330
1F
100
AcDbEntity
  8
0
  6
SLD-Solid
 62
   142
420
    32960
370
     0
100
AcDbLine
 10
174.9395408552
 20
663.1474787419
 30
0.0
 11
165.0242866179
 21
644.3119251292
 31
0.0
  0
ARC
  5
D3
330
1F
100
AcDbEntity
  8
0
  6
SLD-Solid
 62
   142
420
    32960
370
     0
100
AcDbCircle
 10
179.3605192554
 20
660.767180515
 30
0.0
 40
5.02104268694166
100
AcDbArc
 50
89.5897976815
 51
151.7015410578
  0
ARC
  5
D4
330
1F
100
AcDbEntity
  8
0
  6
SLD-Solid
 62
   142
420
    32960
370
     0
100
AcDbCircle
 10
258.3118175476
 20
660.9486657228
 30
0.0
 40
4.841279373382958
100
AcDbArc
 50
333.2478610927
 51
91.5842536627
  0
LINE
  5
D5
330
1F
100
AcDbEntity
  8
0
  6
SLD-Solid
 62
   142
420
    32960
370
     0
100
AcDbLine
 10
252.7196425008
 20
639.9338984253
 30
0.0
 11
262.634896738
 21
658.7694520379
 31
0.0
  0
ARC
  5
D6
330
1F
100
AcDbEntity
  8
0
  6
SLD-Solid
 62
   142
420
    32960
370
     0
100
AcDbCircle
 10
248.3131593125
 20
642.2981317555
 30
0.0
 40
5.00066928803165
100
AcDbArc
 50
275.5341758578
 51
331.784876003
  0
ARC
  5
D7
330
1F
100
AcDbEntity
  8
0
  6
SLD-Solid
 62
   142
420
    32960
370
     0
100
AcDbCircle
 10
269.3234639433
 20
642.1281727287
 30
0.0
 40
4.822001682067926
100
AcDbArc
 50
153.0718636158
 51
265.540211537
  0
LINE
  5
D8
330
1F
100
AcDbEntity
  8
0
  6
SLD-Solid
 62
   142
420
    32960
370
     0
100
AcDbLine
 10
274.9395408552
 20
663.1474787419
 30
0.0
 11
265.0242866179
 21
644.3119251292
 31
0.0
  0
ARC
  5
D9
330
1F
100
AcDbEntity
  8
0
  6
SLD-Solid
 62
   142
420
    32960
370
     0
100
AcDbCircle
 10
279.3605192554
 20
660.767180515
 30
0.0
 40
5.021042686941507
100
AcDbArc
 50
89.5897976815
 51
151.7015410578
  0
LINE
  5
DA
330
1F
100
AcDbEntity
  8
0
  6
SLD-Solid
 62
   142
420
    32960
370
     0
100
AcDbLine
 10
352.7196425008
 20
639.9338984253
 30
0.0
 11
362.634896738
 21
658.7694520379
 31
0.0
  0
ARC
  5
DB
330
1F
100
AcDbEntity
  8
0
  6
SLD-Solid
 62
   142
420
    32960
370
     0
100
AcDbCircle
 10
348.3131593125
 20
642.2981317555
 30
0.0
 40
5.000669288030976
100
AcDbArc
 50
275.5341758579
 51
331.784876003
  0
ARC
  5
DC
330
1F
100
AcDbEntity
  8
0
  6
SLD-Solid
 62
   142
420
    32960
370
     0
100
AcDbCircle
 10
379.3605192554
 20
660.767180515
 30
0.0
 40
5.021042686942268
100
AcDbArc
 50
89.5897976815
 51
151.7015410578
  0
LINE
  5
DD
330
1F
100
AcDbEntity
  8
0
  6
SLD-Solid
 62
   142
420
    32960
370
     0
100
AcDbLine
 10
452.7196425008
 20
639.9338984253
 30
0.0
 11
462.634896738
 21
658.7694520379
 31
0.0
  0
ARC
  5
DE
330
1F
100
AcDbEntity
  8
0
  6
SLD-Solid
 62
   142
420
    32960
370
     0
100
AcDbCircle
 10
448.3131593125
 20
642.2981317555
 30
0.0
 40
5.000669288031346
100
AcDbArc
 50
275.5341758579
 51
331.784876003
  0
LWPOLYLINE
  5
DF
330
1F
100
AcDbEntity
  8
0
  6
SLD-Solid
 62
   142
420
    32960
370
     0
100
AcDbPolyline
 90
        3
 70
   128
 43
0.0
 10
762.634896738
 20
658.976507274
 10
763.0625817472
 20
660.1339323295
 10
763.1768222068
 20
661.0619930102
  0
LWPOLYLINE
  5
E0
330
1F
100
AcDbEntity
  8
0
  6
SLD-Solid
 62
   142
420
    32960
370
     0
100
AcDbPolyline
 90
        3
 70
   128
 43
0.0
 10
562.634896738
 20
658.976507274
 10
563.0625817472
 20
660.1339323295
 10
563.1768222067
 20
661.0619930079
  0
LINE
  5
E1
330
1F
100
AcDbEntity
  8
0
  6
SLD-Solid
 62
   142
420
    32960
370
     0
100
AcDbLine
 10
562.634896738
 20
658.976507274
 30
0.0
 11
562.634896738
 21
658.7694520379
 31
0.0
  0
LWPOLYLINE
  5
E2
330
1F
100
AcDbEntity
  8
0
  6
SLD-Solid
 62
   142
420
    32960
370
     0
100
AcDbPolyline
 90
        3
 70
   128
 43
0.0
 10
462.634896738
 20
658.976507274
 10
463.0625817472
 20
660.1339323295
 10
463.1768222067
 20
661.0619930086
  0
LINE
  5
E3
330
1F
100
AcDbEntity
  8
0
  6
SLD-Solid
 62
   142
420
    32960
370
     0
100
AcDbLine
 10
462.634896738
 20
658.976507274
 30
0.0
 11
462.634896738
 21
658.7694520379
 31
0.0
  0
LWPOLYLINE
  5
E4
330
1F
100
AcDbEntity
  8
0
  6
SLD-Solid
 62
   142
420
    32960
370
     0
100
AcDbPolyline
 90
        3
 70
   128
 43
0.0
 10
362.634896738
 20
658.976507274
 10
363.0625817472
 20
660.1339323295
 10
363.1768222068
 20
661.0619930109
  0
LINE
  5
E5
330
1F
100
AcDbEntity
  8
0
  6
SLD-Solid
 62
   142
420
    32960
370
     0
100
AcDbLine
 10
362.634896738
 20
658.976507274
 30
0.0
 11
362.634896738
 21
658.7694520379
 31
0.0
  0
LINE
  5
E6
330
1F
100
AcDbEntity
  8
0
  6
SLD-Solid
 62
   142
420
    32960
370
     0
100
AcDbLine
 10
752.7196425008
 20
640.1409536614
 30
0.0
 11
762.634896738
 21
658.976507274
 31
0.0
  0
LINE
  5
E7
330
1F
100
AcDbEntity
  8
0
  6
SLD-Solid
 62
   142
420
    32960
370
     0
100
AcDbLine
 10
752.7196425008
 20
640.1409536614
 30
0.0
 11
752.7196425008
 21
639.9338984253
 31
0.0
  0
SPLINE
  5
E8
330
1F
100
AcDbEntity
  8
0
  6
SLD-Solid
 62
     7
370
    15
100
AcDbSpline
210
0.0
220
0.0
230
1.0
 70
     8
 71
     3
 72
     8
 73
     4
 74
     0
 42
0.00000001
 43
0.00000001
 40
0.0
 40
0.0
 40
0.0
 40
0.0
 40
1.0
 40
1.0
 40
1.0
 40
1.0
 10
369.481212268961
 20
637.2932867080772
 30
0.0
 10
369.3031373759766
 20
637.2932867080772
 30
0.0
 10
369.1255692557796
 20
637.3024455410698
 30
0.0
 10
368.9485079074477
 20
637.3207713316103
 30
0.0
  0
ARC
  5
E9
330
1F
100
AcDbEntity
  8
0
  6
SLD-Solid
 62
   142
420
    32960
370
     0
100
AcDbCircle
 10
369.4811720332
 20
642.6749522535
 30
0.0
 40
5.174614371781336
100
AcDbArc
 50
264.0916247809
 51
270.0004455097
  0
ARC
  5
EA
330
1F
100
AcDbEntity
  8
0
  6
SLD-Solid
 62
   142
420
    32960
370
     0
100
AcDbCircle
 10
369.378402417
 20
642.4083492871
 30
0.0
 40
4.899419486383027
100
AcDbArc
 50
182.1278163859
 51
264.9661675262
  0
SPLINE
  5
EB
330
1F
100
AcDbEntity
  8
0
  6
SLD-Solid
 62
     7
370
    15
100
AcDbSpline
210
0.0
220
0.0
230
1.0
 70
     8
 71
     3
 72
     8
 73
     4
 74
     0
 42
0.00000001
 43
0.00000001
 40
0.0
 40
0.0
 40
0.0
 40
0.0
 40
1.0
 40
1.0
 40
1.0
 40
1.0
 10
169.4812122689611
 20
637.2932867080774
 30
0.0
 10
169.3031373759772
 20
637.2932867080774
 30
0.0
 10
169.1255692557808
 20
637.3024455410698
 30
0.0
 10
168.9485079074494
 20
637.3207713316102
 30
0.0
  0
ARC
  5
EC
330
1F
100
AcDbEntity
  8
0
  6
SLD-Solid
 62
   142
420
    32960
370
     0
100
AcDbCircle
 10
169.4811720332
 20
642.6749522536
 30
0.0
 40
5.174614371839083
100
AcDbArc
 50
264.0916247809
 51
270.0004455097
  0
ARC
  5
ED
330
1F
100
AcDbEntity
  8
0
  6
SLD-Solid
 62
   142
420
    32960
370
     0
100
AcDbCircle
 10
169.3784024169
 20
642.4083492868
 30
0.0
 40
4.899419486152741
100
AcDbArc
 50
182.1278162907
 51
264.9661675272
  0
SPLINE
  5
EE
330
1F
100
AcDbEntity
  8
0
  6
SLD-Solid
 62
     7
370
    15
100
AcDbSpline
210
0.0
220
0.0
230
1.0
 70
     8
 71
     3
 72
     8
 73
     4
 74
     0
 42
0.00000001
 43
0.00000001
 40
0.0
 40
0.0
 40
0.0
 40
0.0
 40
1.0
 40
1.0
 40
1.0
 40
1.0
 10
769.4812122689611
 20
637.2932867080765
 30
0.0
 10
769.3031373759743
 20
637.2932867080765
 30
0.0
 10
769.125569255775
 20
637.3024455410693
 30
0.0
 10
768.9485079074407
 20
637.3207713316102
 30
0.0
  0
ARC
  5
EF
330
1F
100
AcDbEntity
  8
0
  6
SLD-Solid
 62
   142
420
    32960
370
     0
100
AcDbCircle
 10
769.4811720332
 20
642.6749522535
 30
0.0
 40
5.174614371782577
100
AcDbArc
 50
264.0916247808
 51
270.0004455097
  0
ARC
  5
F0
330
1F
100
AcDbEntity
  8
0
  6
SLD-Solid
 62
   142
420
    32960
370
     0
100
AcDbCircle
 10
769.3784024171
 20
642.4083492872
 30
0.0
 40
4.899419486515356
100
AcDbArc
 50
182.1278164406
 51
264.9661675256
  0
SPLINE
  5
F1
330
1F
100
AcDbEntity
  8
0
  6
SLD-Solid
 62
     7
370
    15
100
AcDbSpline
210
0.0
220
0.0
230
1.0
 70
     8
 71
     3
 72
     8
 73
     4
 74
     0
 42
0.00000001
 43
0.00000001
 40
0.0
 40
0.0
 40
0.0
 40
0.0
 40
1.0
 40
1.0
 40
1.0
 40
1.0
 10
69.48121226896109
 20
637.2932867080762
 30
0.0
 10
69.30313737597326
 20
637.2932867080762
 30
0.0
 10
69.12556925577262
 20
637.3024455410692
 30
0.0
 10
68.94850790743735
 20
637.3207713316103
 30
0.0
  0
ARC
  5
F2
330
1F
100
AcDbEntity
  8
0
  6
SLD-Solid
 62
   142
420
    32960
370
     0
100
AcDbCircle
 10
69.4811720332
 20
642.6749522535
 30
0.0
 40
5.174614371792696
100
AcDbArc
 50
264.0916247808
 51
270.0004455097
  0
ARC
  5
F3
330
1F
100
AcDbEntity
  8
0
  6
SLD-Solid
 62
   142
420
    32960
370
     0
100
AcDbCircle
 10
69.3784024168
 20
642.4083492866
 30
0.0
 40
4.899419485923305
100
AcDbArc
 50
182.1278161961
 51
264.9661675281
  0
SPLINE
  5
F4
330
1F
100
AcDbEntity
  8
0
  6
SLD-Solid
 62
     7
370
    15
100
AcDbSpline
210
0.0
220
0.0
230
1.0
 70
     8
 71
     3
 72
     8
 73
     4
 74
     0
 42
0.00000001
 43
0.00000001
 40
0.0
 40
0.0
 40
0.0
 40
0.0
 40
1.0
 40
1.0
 40
1.0
 40
1.0
 10
839.3622960395078
 20
637.3207713316103
 30
0.0
 10
839.1852346911735
 20
637.3024455410695
 30
0.0
 10
839.007666570974
 20
637.2932867080765
 30
0.0
 10
838.8295916779871
 20
637.2932867080765
 30
0.0
  0
ARC
  5
F5
330
1F
100
AcDbEntity
  8
0
  6
SLD-Solid
 62
   142
420
    32960
370
     0
100
AcDbCircle
 10
838.9349322771
 20
642.4043607148
 30
0.0
 40
4.895224721419475
100
AcDbArc
 50
275.0084220182
 51
359.1292311494
  0
ARC
  5
F6
330
1F
100
AcDbEntity
  8
0
  6
SLD-Solid
 62
   142
420
    32960
370
     0
100
AcDbCircle
 10
838.8296319138
 20
642.6749522535
 30
0.0
 40
5.174614371794304
100
AcDbArc
 50
269.9995544903
 51
275.9083752192
  0
SPLINE
  5
F7
330
1F
100
AcDbEntity
  8
0
  6
SLD-Solid
 62
     7
370
    15
100
AcDbSpline
210
0.0
220
0.0
230
1.0
 70
     8
 71
     3
 72
     8
 73
     4
 74
     0
 42
0.00000001
 43
0.00000001
 40
0.0
 40
0.0
 40
0.0
 40
0.0
 40
1.0
 40
1.0
 40
1.0
 40
1.0
 10
548.7954212112363
 20
637.3207713316102
 30
0.0
 10
548.6183598629052
 20
637.3024455410699
 30
0.0
 10
548.4407917427088
 20
637.2932867080774
 30
0.0
 10
548.2627168497252
 20
637.2932867080774
 30
0.0
  0
LINE
  5
F8
330
1F
100
AcDbEntity
  8
0
  6
SLD-Solid
 62
   142
420
    32960
370
     0
100
AcDbLine
 10
552.7196425008
 20
640.1409536614
 30
0.0
 11
552.7196425008
 21
639.9338984253
 31
0.0
  0
ARC
  5
F9
330
1F
100
AcDbEntity
  8
0
  6
SLD-Solid
 62
   142
420
    32960
370
     0
100
AcDbCircle
 10
548.3131593125
 20
642.5051869916
 30
0.0
 40
5.000669288030926
100
AcDbArc
 50
275.5341758578
 51
331.784876003
  0
ARC
  5
FA
330
1F
100
AcDbEntity
  8
0
  6
SLD-Solid
 62
   142
420
    32960
370
     0
100
AcDbCircle
 10
548.2627570855
 20
642.6749522536
 30
0.0
 40
5.174614371842036
100
AcDbArc
 50
269.9995544903
 51
275.9083752191
  0
LINE
  5
FB
330
1F
100
AcDbEntity
  8
0
  6
SLD-Solid
 62
     7
370
    15
100
AcDbLine
 10
648.2627168497
 20
637.2932867081
 30
0.0
 11
569.481212269
 21
637.2932867081
 31
0.0
  0
LINE
  5
FC
330
1F
100
AcDbEntity
  8
0
  6
SLD-Solid
 62
     7
370
    15
100
AcDbLine
 10
748.2627168497
 20
637.2932867081
 30
0.0
 11
669.481212269
 21
637.2932867081
 31
0.0
  0
LINE
  5
FD
330
1F
100
AcDbEntity
  8
0
  6
SLD-Solid
 62
     7
370
    15
100
AcDbLine
 10
838.829591678
 20
637.2932867081
 30
0.0
 11
769.481212269
 21
637.2932867081
 31
0.0
  0
LINE
  5
FE
330
1F
100
AcDbEntity
  8
0
  6
SLD-Solid
 62
     7
370
    15
100
AcDbLine
 10
863.829591678
 20
637.3207713316
 30
0.0
 11
863.829591678
 21
618.1983026953
 31
0.0
  0
LINE
  5
FF
330
1F
100
AcDbEntity
  8
0
  6
SLD-Solid
 62
     7
370
    15
100
AcDbLine
 10
863.829591678
 20
618.1983026953
 30
0.0
 11
-36.170408322
 21
618.1983026953
 31
0.0
  0
LINE
  5
100
330
1F
100
AcDbEntity
  8
0
  6
SLD-Solid
 62
     7
370
    15
100
AcDbLine
 10
-36.170408322
 20
637.3207713316
 30
0.0
 11
-36.170408322
 21
618.1983026953
 31
0.0
  0
LINE
  5
101
330
1F
100
AcDbEntity
  8
0
  6
SLD-Solid
 62
     7
370
    15
100
AcDbLine
 10
48.2627168497
 20
637.2932867081
 30
0.0
 11
-11.170408322
 21
637.2932867081
 31
0.0
  0
LINE
  5
102
330
1F
100
AcDbEntity
  8
0
  6
SLD-Solid
 62
     7
370
    15
100
AcDbLine
 10
148.2627168497
 20
637.2932867081
 30
0.0
 11
69.481212269
 21
637.2932867081
 31
0.0
  0
LINE
  5
103
330
1F
100
AcDbEntity
  8
0
  6
SLD-Solid
 62
     7
370
    15
100
AcDbLine
 10
248.2627168497
 20
637.2932867081
 30
0.0
 11
169.481212269
 21
637.2932867081
 31
0.0
  0
LINE
  5
104
330
1F
100
AcDbEntity
  8
0
  6
SLD-Solid
 62
     7
370
    15
100
AcDbLine
 10
348.2627168497
 20
637.2932867081
 30
0.0
 11
269.481212269
 21
637.2932867081
 31
0.0
  0
LINE
  5
105
330
1F
100
AcDbEntity
  8
0
  6
SLD-Solid
 62
     7
370
    15
100
AcDbLine
 10
448.2627168497
 20
637.2932867081
 30
0.0
 11
369.481212269
 21
637.2932867081
 31
0.0
  0
LINE
  5
106
330
1F
100
AcDbEntity
  8
0
  6
SLD-Solid
 62
     7
370
    15
100
AcDbLine
 10
548.2627168497
 20
637.2932867081
 30
0.0
 11
469.481212269
 21
637.2932867081
 31
0.0
  0
SPLINE
  5
107
330
1F
100
AcDbEntity
  8
0
  6
SLD-Solid
 62
   142
420
    32960
370
     0
100
AcDbSpline
210
0.0
220
0.0
230
1.0
 70
     8
 71
     3
 72
     8
 73
     4
 74
     0
 42
0.00000001
 43
0.00000001
 40
0.0
 40
0.0
 40
0.0
 40
0.0
 40
1.0
 40
1.0
 40
1.0
 40
1.0
 10
469.481212268961
 20
637.2932867080774
 30
0.0
 10
469.3031373759772
 20
637.2932867080774
 30
0.0
 10
469.1255692557807
 20
637.3024455410698
 30
0.0
 10
468.9485079074494
 20
637.3207713316102
 30
0.0
  0
SPLINE
  5
108
330
1F
100
AcDbEntity
  8
0
  6
SLD-Solid
 62
   142
420
    32960
370
     0
100
AcDbSpline
210
0.0
220
0.0
230
1.0
 70
     8
 71
     3
 72
     8
 73
     4
 74
     0
 42
0.00000001
 43
0.00000001
 40
0.0
 40
0.0
 40
0.0
 40
0.0
 40
1.0
 40
1.0
 40
1.0
 40
1.0
 10
448.7954212112381
 20
637.3207713316103
 30
0.0
 10
448.6183598629063
 20
637.3024455410698
 30
0.0
 10
448.4407917427095
 20
637.2932867080773
 30
0.0
 10
448.2627168497252
 20
637.2932867080773
 30
0.0
  0
SPLINE
  5
109
330
1F
100
AcDbEntity
  8
0
  6
SLD-Solid
 62
   142
420
    32960
370
     0
100
AcDbSpline
210
0.0
220
0.0
230
1.0
 70
     8
 71
     3
 72
     8
 73
     4
 74
     0
 42
0.00000001
 43
0.00000001
 40
0.0
 40
0.0
 40
0.0
 40
0.0
 40
1.0
 40
1.0
 40
1.0
 40
1.0
 10
348.7954212112392
 20
637.3207713316103
 30
0.0
 10
348.6183598629071
 20
637.3024455410698
 30
0.0
 10
348.4407917427098
 20
637.2932867080772
 30
0.0
 10
348.2627168497253
 20
637.2932867080772
 30
0.0
  0
SPLINE
  5
10A
330
1F
100
AcDbEntity
  8
0
  6
SLD-Solid
 62
   142
420
    32960
370
     0
100
AcDbSpline
210
0.0
220
0.0
230
1.0
 70
     8
 71
     3
 72
     8
 73
     4
 74
     0
 42
0.00000001
 43
0.00000001
 40
0.0
 40
0.0
 40
0.0
 40
0.0
 40
1.0
 40
1.0
 40
1.0
 40
1.0
 10
269.4812122689611
 20
637.2932867080772
 30
0.0
 10
269.3031373759763
 20
637.2932867080772
 30
0.0
 10
269.1255692557788
 20
637.3024455410698
 30
0.0
 10
268.9485079074466
 20
637.3207713316103
 30
0.0
  0
SPLINE
  5
10B
330
1F
100
AcDbEntity
  8
0
  6
SLD-Solid
 62
   142
420
    32960
370
     0
100
AcDbSpline
210
0.0
220
0.0
230
1.0
 70
     8
 71
     3
 72
     8
 73
     4
 74
     0
 42
0.00000001
 43
0.00000001
 40
0.0
 40
0.0
 40
0.0
 40
0.0
 40
1.0
 40
1.0
 40
1.0
 40
1.0
 10
248.7954212112364
 20
637.3207713316102
 30
0.0
 10
248.6183598629053
 20
637.3024455410699
 30
0.0
 10
248.4407917427089
 20
637.2932867080774
 30
0.0
 10
248.2627168497253
 20
637.2932867080774
 30
0.0
  0
SPLINE
  5
10C
330
1F
100
AcDbEntity
  8
0
  6
SLD-Solid
 62
   142
420
    32960
370
     0
100
AcDbSpline
210
0.0
220
0.0
230
1.0
 70
     8
 71
     3
 72
     8
 73
     4
 74
     0
 42
0.00000001
 43
0.00000001
 40
0.0
 40
0.0
 40
0.0
 40
0.0
 40
1.0
 40
1.0
 40
1.0
 40
1.0
 10
148.7954212112483
 20
637.3207713316103
 30
0.0
 10
148.6183598629132
 20
637.3024455410692
 30
0.0
 10
148.4407917427129
 20
637.2932867080763
 30
0.0
 10
148.2627168497252
 20
637.2932867080763
 30
0.0
  0
SPLINE
  5
10D
330
1F
100
AcDbEntity
  8
0
  6
SLD-Solid
 62
   142
420
    32960
370
     0
100
AcDbSpline
210
0.0
220
0.0
230
1.0
 70
     8
 71
     3
 72
     8
 73
     4
 74
     0
 42
0.00000001
 43
0.00000001
 40
0.0
 40
0.0
 40
0.0
 40
0.0
 40
1.0
 40
1.0
 40
1.0
 40
1.0
 10
48.79542121124724
 20
637.3207713316102
 30
0.0
 10
48.61835986291252
 20
637.3024455410692
 30
0.0
 10
48.44079174271254
 20
637.2932867080763
 30
0.0
 10
48.26271684972527
 20
637.2932867080763
 30
0.0
  0
SPLINE
  5
10E
330
1F
100
AcDbEntity
  8
0
  6
SLD-Solid
 62
   142
420
    32960
370
     0
100
AcDbSpline
210
0.0
220
0.0
230
1.0
 70
     8
 71
     3
 72
     8
 73
     4
 74
     0
 42
0.00000001
 43
0.00000001
 40
0.0
 40
0.0
 40
0.0
 40
0.0
 40
1.0
 40
1.0
 40
1.0
 40
1.0
 10
-11.17040832201277
 20
637.2932867080763
 30
0.0
 10
-11.34848321500026
 20
637.2932867080763
 30
0.0
 10
-11.52605133520013
 20
637.3024455410692
 30
0.0
 10
-11.70311268353508
 20
637.3207713316102
 30
0.0
  0
SPLINE
  5
10F
330
1F
100
AcDbEntity
  8
0
  6
SLD-Solid
 62
   142
420
    32960
370
     0
100
AcDbSpline
210
0.0
220
0.0
230
1.0
 70
     8
 71
     3
 72
     8
 73
     4
 74
     0
 42
0.00000001
 43
0.00000001
 40
0.0
 40
0.0
 40
0.0
 40
0.0
 40
1.0
 40
1.0
 40
1.0
 40
1.0
 10
748.7954212112155
 20
637.3207713316102
 30
0.0
 10
748.6183598628912
 20
637.3024455410714
 30
0.0
 10
748.4407917427019
 20
637.2932867080796
 30
0.0
 10
748.2627168497254
 20
637.2932867080796
 30
0.0
  0
SPLINE
  5
110
330
1F
100
AcDbEntity
  8
0
  6
SLD-Solid
 62
   142
420
    32960
370
     0
100
AcDbSpline
210
0.0
220
0.0
230
1.0
 70
     8
 71
     3
 72
     8
 73
     4
 74
     0
 42
0.00000001
 43
0.00000001
 40
0.0
 40
0.0
 40
0.0
 40
0.0
 40
1.0
 40
1.0
 40
1.0
 40
1.0
 10
669.481212268961
 20
637.2932867080796
 30
0.0
 10
669.3031373759842
 20
637.2932867080796
 30
0.0
 10
669.1255692557947
 20
637.3024455410714
 30
0.0
 10
668.9485079074703
 20
637.3207713316102
 30
0.0
  0
SPLINE
  5
111
330
1F
100
AcDbEntity
  8
0
  6
SLD-Solid
 62
   142
420
    32960
370
     0
100
AcDbSpline
210
0.0
220
0.0
230
1.0
 70
     8
 71
     3
 72
     8
 73
     4
 74
     0
 42
0.00000001
 43
0.00000001
 40
0.0
 40
0.0
 40
0.0
 40
0.0
 40
1.0
 40
1.0
 40
1.0
 40
1.0
 10
648.7954212112363
 20
637.3207713316102
 30
0.0
 10
648.6183598629052
 20
637.3024455410699
 30
0.0
 10
648.4407917427088
 20
637.2932867080774
 30
0.0
 10
648.2627168497253
 20
637.2932867080774
 30
0.0
  0
SPLINE
  5
112
330
1F
100
AcDbEntity
  8
0
  6
SLD-Solid
 62
   142
420
    32960
370
     0
100
AcDbSpline
210
0.0
220
0.0
230
1.0
 70
     8
 71
     3
 72
     8
 73
     4
 74
     0
 42
0.00000001
 43
0.00000001
 40
0.0
 40
0.0
 40
0.0
 40
0.0
 40
1.0
 40
1.0
 40
1.0
 40
1.0
 10
569.481212268961
 20
637.2932867080774
 30
0.0
 10
569.3031373759771
 20
637.2932867080774
 30
0.0
 10
569.1255692557806
 20
637.3024455410698
 30
0.0
 10
568.9485079074493
 20
637.3207713316102
 30
0.0
  0
LINE
  5
113
330
1F
100
AcDbEntity
  8
0
  6
SLD-Solid
 62
   142
420
    32960
370
     0
100
AcDbLine
 10
748.2627168497
 20
637.5003378819
 30
0.0
 11
748.2627168497
 21
637.2932867081
 31
0.0
  0
LINE
  5
114
330
1F
100
AcDbEntity
  8
0
  6
SLD-Solid
 62
   142
420
    32960
370
     0
100
AcDbLine
 10
669.481212269
 20
637.5003378819
 30
0.0
 11
748.2627168497
 21
637.5003378819
 31
0.0
  0
LINE
  5
115
330
1F
100
AcDbEntity
  8
0
  6
SLD-Solid
 62
   142
420
    32960
370
     0
100
AcDbLine
 10
669.481212269
 20
637.5003378819
 30
0.0
 11
669.481212269
 21
637.2932867081
 31
0.0
  0
LINE
  5
116
330
1F
100
AcDbEntity
  8
0
  6
SLD-Solid
 62
   142
420
    32960
370
     0
100
AcDbLine
 10
469.481212269
 20
637.5003378819
 30
0.0
 11
548.2627168497
 21
637.5003378819
 31
0.0
  0
LINE
  5
117
330
1F
100
AcDbEntity
  8
0
  6
SLD-Solid
 62
   142
420
    32960
370
     0
100
AcDbLine
 10
469.481212269
 20
637.5003378819
 30
0.0
 11
469.481212269
 21
637.2932867081
 31
0.0
  0
LINE
  5
118
330
1F
100
AcDbEntity
  8
0
  6
SLD-Solid
 62
   142
420
    32960
370
     0
100
AcDbLine
 10
648.2627168497
 20
637.5003378819
 30
0.0
 11
648.2627168497
 21
637.2932867081
 31
0.0
  0
LINE
  5
119
330
1F
100
AcDbEntity
  8
0
  6
SLD-Solid
 62
   142
420
    32960
370
     0
100
AcDbLine
 10
569.481212269
 20
637.5003378819
 30
0.0
 11
648.2627168497
 21
637.5003378819
 31
0.0
  0
LINE
  5
11A
330
1F
100
AcDbEntity
  8
0
  6
SLD-Solid
 62
   142
420
    32960
370
     0
100
AcDbLine
 10
569.481212269
 20
637.5003378819
 30
0.0
 11
569.481212269
 21
637.2932867081
 31
0.0
  0
LINE
  5
11B
330
1F
100
AcDbEntity
  8
0
  6
SLD-Solid
 62
   142
420
    32960
370
     0
100
AcDbLine
 10
248.2627168497
 20
637.5003378819
 30
0.0
 11
248.2627168497
 21
637.2932867081
 31
0.0
  0
LINE
  5
11C
330
1F
100
AcDbEntity
  8
0
  6
SLD-Solid
 62
   142
420
    32960
370
     0
100
AcDbLine
 10
169.481212269
 20
637.5003378819
 30
0.0
 11
248.2627168497
 21
637.5003378819
 31
0.0
  0
LINE
  5
11D
330
1F
100
AcDbEntity
  8
0
  6
SLD-Solid
 62
   142
420
    32960
370
     0
100
AcDbLine
 10
448.2627168497
 20
637.5003378819
 30
0.0
 11
448.2627168497
 21
637.2932867081
 31
0.0
  0
LINE
  5
11E
330
1F
100
AcDbEntity
  8
0
  6
SLD-Solid
 62
   142
420
    32960
370
     0
100
AcDbLine
 10
369.481212269
 20
637.5003378819
 30
0.0
 11
448.2627168497
 21
637.5003378819
 31
0.0
  0
LINE
  5
11F
330
1F
100
AcDbEntity
  8
0
  6
SLD-Solid
 62
   142
420
    32960
370
     0
100
AcDbLine
 10
348.2627168497
 20
637.5003378819
 30
0.0
 11
348.2627168497
 21
637.2932867081
 31
0.0
  0
LINE
  5
120
330
1F
100
AcDbEntity
  8
0
  6
SLD-Solid
 62
   142
420
    32960
370
     0
100
AcDbLine
 10
269.481212269
 20
637.5003378819
 30
0.0
 11
348.2627168497
 21
637.5003378819
 31
0.0
  0
LINE
  5
121
330
1F
100
AcDbEntity
  8
0
  6
SLD-Solid
 62
   142
420
    32960
370
     0
100
AcDbLine
 10
269.481212269
 20
637.5003378819
 30
0.0
 11
269.481212269
 21
637.2932867081
 31
0.0
  0
LINE
  5
122
330
1F
100
AcDbEntity
  8
0
  6
SLD-Solid
 62
   142
420
    32960
370
     0
100
AcDbLine
 10
769.481212269
 20
637.5003378819
 30
0.0
 11
838.829591678
 21
637.5003378819
 31
0.0
  0
LINE
  5
123
330
1F
100
AcDbEntity
  8
0
  6
SLD-Solid
 62
   142
420
    32960
370
     0
100
AcDbLine
 10
48.2627168497
 20
637.5003378819
 30
0.0
 11
48.2627168497
 21
637.2932867081
 31
0.0
  0
LINE
  5
124
330
1F
100
AcDbEntity
  8
0
  6
SLD-Solid
 62
   142
420
    32960
370
     0
100
AcDbLine
 10
-11.170408322
 20
637.5003378819
 30
0.0
 11
48.2627168497
 21
637.5003378819
 31
0.0
  0
LINE
  5
125
330
1F
100
AcDbEntity
  8
0
  6
SLD-Solid
 62
   142
420
    32960
370
     0
100
AcDbLine
 10
-11.170408322
 20
637.5003378819
 30
0.0
 11
-11.170408322
 21
637.2932867081
 31
0.0
  0
LINE
  5
126
330
1F
100
AcDbEntity
  8
0
  6
SLD-Solid
 62
   142
420
    32960
370
     0
100
AcDbLine
 10
148.2627168497
 20
637.5003378819
 30
0.0
 11
148.2627168497
 21
637.2932867081
 31
0.0
  0
LINE
  5
127
330
1F
100
AcDbEntity
  8
0
  6
SLD-Solid
 62
   142
420
    32960
370
     0
100
AcDbLine
 10
69.481212269
 20
637.5003378819
 30
0.0
 11
148.2627168497
 21
637.5003378819
 31
0.0
  0
LINE
  5
128
330
1F
100
AcDbEntity
  8
0
  6
SLD-Solid
 62
   142
420
    32960
370
     0
100
AcDbLine
 10
-11.7031126835
 20
637.5278265677
 30
0.0
 11
-12.7096343948
 21
637.5278265677
 31
0.0
  0
LINE
  5
129
330
1F
100
AcDbEntity
  8
0
  6
SLD-Solid
 62
   142
420
    32960
370
     0
100
AcDbLine
 10
48.7954212112
 20
637.5278265677
 30
0.0
 11
-11.7031126835
 21
637.5278265677
 31
0.0
  0
LINE
  5
12A
330
1F
100
AcDbEntity
  8
0
  6
SLD-Solid
 62
   142
420
    32960
370
     0
100
AcDbLine
 10
49.8019429225
 20
637.5278265677
 30
0.0
 11
48.7954212112
 21
637.5278265677
 31
0.0
  0
LINE
  5
12B
330
1F
100
AcDbEntity
  8
0
  6
SLD-Solid
 62
   142
420
    32960
370
     0
100
AcDbLine
 10
148.7954212112
 20
637.5278265677
 30
0.0
 11
68.9485079074
 21
637.5278265677
 31
0.0
  0
LINE
  5
12C
330
1F
100
AcDbEntity
  8
0
  6
SLD-Solid
 62
   142
420
    32960
370
     0
100
AcDbLine
 10
149.8019429225
 20
637.5278265677
 30
0.0
 11
148.7954212112
 21
637.5278265677
 31
0.0
  0
LINE
  5
12D
330
1F
100
AcDbEntity
  8
0
  6
SLD-Solid
 62
   142
420
    32960
370
     0
100
AcDbLine
 10
248.7954212112
 20
637.5278265677
 30
0.0
 11
168.9485079074
 21
637.5278265677
 31
0.0
  0
LINE
  5
12E
330
1F
100
AcDbEntity
  8
0
  6
SLD-Solid
 62
   142
420
    32960
370
     0
100
AcDbLine
 10
268.9485079074
 20
637.5278265677
 30
0.0
 11
267.9419861962
 21
637.5278265677
 31
0.0
  0
LINE
  5
12F
330
1F
100
AcDbEntity
  8
0
  6
SLD-Solid
 62
   142
420
    32960
370
     0
100
AcDbLine
 10
249.8019429225
 20
637.5278265677
 30
0.0
 11
248.7954212112
 21
637.5278265677
 31
0.0
  0
LINE
  5
130
330
1F
100
AcDbEntity
  8
0
  6
SLD-Solid
 62
   142
420
    32960
370
     0
100
AcDbLine
 10
348.7954212112
 20
637.5278265677
 30
0.0
 11
268.9485079074
 21
637.5278265677
 31
0.0
  0
LINE
  5
131
330
1F
100
AcDbEntity
  8
0
  6
SLD-Solid
 62
   142
420
    32960
370
     0
100
AcDbLine
 10
349.8019429225
 20
637.5278265677
 30
0.0
 11
348.7954212112
 21
637.5278265677
 31
0.0
  0
LINE
  5
132
330
1F
100
AcDbEntity
  8
0
  6
SLD-Solid
 62
   142
420
    32960
370
     0
100
AcDbLine
 10
448.7954212112
 20
637.5278265677
 30
0.0
 11
368.9485079074
 21
637.5278265677
 31
0.0
  0
LINE
  5
133
330
1F
100
AcDbEntity
  8
0
  6
SLD-Solid
 62
   142
420
    32960
370
     0
100
AcDbLine
 10
468.9485079074
 20
637.5278265677
 30
0.0
 11
467.9419861962
 21
637.5278265677
 31
0.0
  0
LINE
  5
134
330
1F
100
AcDbEntity
  8
0
  6
SLD-Solid
 62
   142
420
    32960
370
     0
100
AcDbLine
 10
449.8019429225
 20
637.5278265677
 30
0.0
 11
448.7954212112
 21
637.5278265677
 31
0.0
  0
LINE
  5
135
330
1F
100
AcDbEntity
  8
0
  6
SLD-Solid
 62
   142
420
    32960
370
     0
100
AcDbLine
 10
548.7954212112
 20
637.5278265677
 30
0.0
 11
468.9485079074
 21
637.5278265677
 31
0.0
  0
LINE
  5
136
330
1F
100
AcDbEntity
  8
0
  6
SLD-Solid
 62
   142
420
    32960
370
     0
100
AcDbLine
 10
568.9485079074
 20
637.5278265677
 30
0.0
 11
567.9419861962
 21
637.5278265677
 31
0.0
  0
LINE
  5
137
330
1F
100
AcDbEntity
  8
0
  6
SLD-Solid
 62
   142
420
    32960
370
     0
100
AcDbLine
 10
648.7954212112
 20
637.5278265677
 30
0.0
 11
568.9485079074
 21
637.5278265677
 31
0.0
  0
LINE
  5
138
330
1F
100
AcDbEntity
  8
0
  6
SLD-Solid
 62
   142
420
    32960
370
     0
100
AcDbLine
 10
668.9485079075
 20
637.5278265677
 30
0.0
 11
667.9419861962
 21
637.5278265677
 31
0.0
  0
LINE
  5
139
330
1F
100
AcDbEntity
  8
0
  6
SLD-Solid
 62
   142
420
    32960
370
     0
100
AcDbLine
 10
649.8019429225
 20
637.5278265677
 30
0.0
 11
648.7954212112
 21
637.5278265677
 31
0.0
  0
LINE
  5
13A
330
1F
100
AcDbEntity
  8
0
  6
SLD-Solid
 62
   142
420
    32960
370
     0
100
AcDbLine
 10
748.7954212112
 20
637.5278265677
 30
0.0
 11
668.9485079075
 21
637.5278265677
 31
0.0
  0
LINE
  5
13B
330
1F
100
AcDbEntity
  8
0
  6
SLD-Solid
 62
   142
420
    32960
370
     0
100
AcDbLine
 10
749.8019429225
 20
637.5278265677
 30
0.0
 11
748.7954212112
 21
637.5278265677
 31
0.0
  0
LINE
  5
13C
330
1F
100
AcDbEntity
  8
0
  6
SLD-Solid
 62
   142
420
    32960
370
     0
100
AcDbLine
 10
839.3622960395
 20
637.5278265677
 30
0.0
 11
768.9485079074
 21
637.5278265677
 31
0.0
  0
LINE
  5
13D
330
1F
100
AcDbEntity
  8
0
  6
SLD-Solid
 62
     7
370
    15
100
AcDbLine
 10
863.829591678
 20
618.1983026953
 30
0.0
 11
863.829591678
 21
616.9483026953
 31
0.0
  0
LINE
  5
13E
330
1F
100
AcDbEntity
  8
0
  6
SLD-Solid
 62
   142
420
    32960
370
     0
100
AcDbLine
 10
-36.170408322
 20
618.1983026953
 30
0.0
 11
-36.170408322
 21
616.9483026953
 31
0.0
  0
LINE
  5
13F
330
1F
100
AcDbEntity
  8
0
  6
SLD-Solid
 62
     7
370
    15
100
AcDbLine
 10
863.829591678
 20
616.9483026953
 30
0.0
 11
863.829591678
 21
595.7483026953
 31
0.0
  0
LINE
  5
140
330
1F
100
AcDbEntity
  8
0
  6
SLD-Solid
 62
     7
370
    15
100
AcDbLine
 10
-36.170408322
 20
616.9483026953
 30
0.0
 11
-36.170408322
 21
595.7483026953
 31
0.0
  0
LINE
  5
141
330
1F
100
AcDbEntity
  8
0
  6
SLD-Solid
 62
     7
370
    15
100
AcDbLine
 10
863.829591678
 20
593.6983026953
 30
0.0
 11
-36.170408322
 21
593.6983026953
 31
0.0
  0
LINE
  5
142
330
1F
100
AcDbEntity
  8
0
  6
SLD-Solid
 62
   142
420
    32960
370
     0
100
AcDbLine
 10
-36.170408322
 20
595.7483026953
 30
0.0
 11
-36.170408322
 21
593.6983026953
 31
0.0
  0
LINE
  5
143
330
1F
100
AcDbEntity
  8
0
  6
SLD-Solid
 62
   142
420
    32960
370
     0
100
AcDbLine
 10
863.829591678
 20
595.7483026953
 30
0.0
 11
863.829591678
 21
593.6983026953
 31
0.0
  0
LINE
  5
144
330
1F
100
AcDbEntity
  8
0
  6
SLD-Solid
 62
   142
420
    32960
370
     0
100
AcDbLine
 10
-36.170408322
 20
593.6983026953
 30
0.0
 11
-36.170408322
 21
592.4483026953
 31
0.0
  0
LINE
  5
145
330
1F
100
AcDbEntity
  8
0
  6
SLD-Solid
 62
   142
420
    32960
370
     0
100
AcDbLine
 10
863.829591678
 20
593.6983026953
 30
0.0
 11
863.829591678
 21
592.4483026953
 31
0.0
  0
LINE
  5
146
330
1F
100
AcDbEntity
  8
0
  6
SLD-Solid
 62
     7
370
    15
100
AcDbLine
 10
-36.170408322
 20
592.4483026953
 30
0.0
 11
-36.170408322
 21
570.2483026953
 31
0.0
  0
LINE
  5
147
330
1F
100
AcDbEntity
  8
0
  6
SLD-Solid
 62
     7
370
    15
100
AcDbLine
 10
863.829591678
 20
592.4483026953
 30
0.0
 11
863.829591678
 21
570.2483026953
 31
0.0
  0
ARC
  5
148
330
1F
100
AcDbEntity
  8
0
  6
SLD-Solid
 62
   142
420
    32960
370
     0
100
AcDbCircle
 10
778.829591678
 20
579.6983026953
 30
0.0
 40
6.500000000000114
100
AcDbArc
 50
270.0
 51
320.2848627719
  0
ARC
  5
149
330
1F
100
AcDbEntity
  8
0
  6
SLD-Solid
 62
   142
420
    32960
370
     0
100
AcDbCircle
 10
778.829591678
 20
579.6983026953
 30
0.0
 40
6.49999999999998
100
AcDbArc
 50
39.7151372284
 51
90.4407410568
  0
ARC
  5
14A
330
1F
100
AcDbEntity
  8
0
  6
SLD-Solid
 62
   142
420
    32960
370
     0
100
AcDbCircle
 10
48.829591678
 20
579.6983026953
 30
0.0
 40
6.499999999999913
100
AcDbArc
 50
89.7636033752
 51
140.2848625949
  0
ARC
  5
14B
330
1F
100
AcDbEntity
  8
0
  6
SLD-Solid
 62
   142
420
    32960
370
     0
100
AcDbCircle
 10
48.829591678
 20
579.6983026953
 30
0.0
 40
6.500000000000008
100
AcDbArc
 50
219.7151374051
 51
270.0
  0
ARC
  5
14C
330
1F
100
AcDbEntity
  8
0
  6
SLD-Solid
 62
   142
420
    32960
370
     0
100
AcDbCircle
 10
824.829591678
 20
577.6983026953
 30
0.0
 40
4.800000000000014
100
AcDbArc
 50
357.452603701
 51
95.3417582453
  0
ARC
  5
14D
330
1F
100
AcDbEntity
  8
0
  6
SLD-Solid
 62
   142
420
    32960
370
     0
100
AcDbCircle
 10
2.829591678
 20
577.6983026953
 30
0.0
 40
4.799999999999971
100
AcDbArc
 50
84.6582226862
 51
182.5474149306
  0
LINE
  5
14E
330
1F
100
AcDbEntity
  8
0
  6
SLD-Solid
 62
   142
420
    32960
370
     0
100
AcDbLine
 10
863.829591678
 20
570.2483026953
 30
0.0
 11
861.8295916783
 21
570.2483026953
 31
0.0
  0
LINE
  5
14F
330
1F
100
AcDbEntity
  8
0
  6
SLD-Solid
 62
   142
420
    32960
370
     0
100
AcDbLine
 10
783.8295916783
 20
570.2483026953
 30
0.0
 11
778.7795916843
 21
570.2483026953
 31
0.0
  0
LINE
  5
150
330
1F
100
AcDbEntity
  8
0
  6
SLD-Solid
 62
   142
420
    32960
370
     0
100
AcDbLine
 10
538.8795916843
 20
570.2483026953
 30
0.0
 11
533.7795916843
 21
570.2483026953
 31
0.0
  0
LINE
  5
151
330
1F
100
AcDbEntity
  8
0
  6
SLD-Solid
 62
   142
420
    32960
370
     0
100
AcDbLine
 10
293.8795916843
 20
570.2483026953
 30
0.0
 11
288.7564099483
 21
570.2483026953
 31
0.0
  0
LINE
  5
152
330
1F
100
AcDbEntity
  8
0
  6
SLD-Solid
 62
   142
420
    32960
370
     0
100
AcDbLine
 10
48.8564099483
 20
570.2483026953
 30
0.0
 11
43.8295916905
 21
570.2483026953
 31
0.0
  0
LINE
  5
153
330
1F
100
AcDbEntity
  8
0
  6
SLD-Solid
 62
   142
420
    32960
370
     0
100
AcDbLine
 10
-34.1704083099
 20
570.2483026953
 30
0.0
 11
-36.170408322
 21
570.2483026953
 31
0.0
  0
LINE
  5
154
330
1F
100
AcDbEntity
  8
0
  6
SLD-Solid
 62
     7
370
    15
100
AcDbLine
 10
863.829591678
 20
568.9983026953
 30
0.0
 11
861.8295916783
 21
568.9983026953
 31
0.0
  0
LINE
  5
155
330
1F
100
AcDbEntity
  8
0
  6
SLD-Solid
 62
     7
370
    15
100
AcDbLine
 10
783.8295916783
 20
568.9983026953
 30
0.0
 11
778.7795916843
 21
568.9983026953
 31
0.0
  0
LINE
  5
156
330
1F
100
AcDbEntity
  8
0
  6
SLD-Solid
 62
     7
370
    15
100
AcDbLine
 10
538.8795916843
 20
568.9983026953
 30
0.0
 11
533.7795916843
 21
568.9983026953
 31
0.0
  0
LINE
  5
157
330
1F
100
AcDbEntity
  8
0
  6
SLD-Solid
 62
     7
370
    15
100
AcDbLine
 10
293.8795916843
 20
568.9983026953
 30
0.0
 11
288.7564099483
 21
568.9983026953
 31
0.0
  0
LINE
  5
158
330
1F
100
AcDbEntity
  8
0
  6
SLD-Solid
 62
     7
370
    15
100
AcDbLine
 10
48.8564099483
 20
568.9983026953
 30
0.0
 11
43.8295916905
 21
568.9983026953
 31
0.0
  0
LINE
  5
159
330
1F
100
AcDbEntity
  8
0
  6
SLD-Solid
 62
     7
370
    15
100
AcDbLine
 10
-34.1704083099
 20
568.9983026953
 30
0.0
 11
-36.170408322
 21
568.9983026953
 31
0.0
  0
LINE
  5
15A
330
1F
100
AcDbEntity
  8
0
  6
SLD-Solid
 62
   142
420
    32960
370
     0
100
AcDbLine
 10
-36.170408322
 20
570.2483026953
 30
0.0
 11
-36.170408322
 21
568.9983026953
 31
0.0
  0
LINE
  5
15B
330
1F
100
AcDbEntity
  8
0
  6
SLD-Solid
 62
   142
420
    32960
370
     0
100
AcDbLine
 10
863.829591678
 20
570.2483026953
 30
0.0
 11
863.829591678
 21
568.9983026953
 31
0.0
  0
ARC
  5
15C
330
1F
100
AcDbEntity
  8
0
  6
SLD-Solid
 62
   142
420
    32960
370
     0
100
AcDbCircle
 10
325.6373150763
 20
-95.8762133406
 30
0.0
 40
1.943246067350831
100
AcDbArc
 50
268.2978000298
 51
358.190090174
  0
LINE
  5
15D
330
1F
100
AcDbEntity
  8
0
  6
SLD-Solid
 62
   142
420
    32960
370
     0
100
AcDbLine
 10
325.5795916827
 20
-97.8186018929
 30
0.0
 11
305.5795916827
 21
-97.8186018929
 31
0.0
  0
ARC
  5
15E
330
1F
100
AcDbEntity
  8
0
  6
SLD-Solid
 62
   142
420
    32960
370
     0
100
AcDbCircle
 10
305.5218682892
 20
-95.8762133406
 30
0.0
 40
1.943246067350793
100
AcDbArc
 50
181.809909826
 51
271.7021999702
  0
LINE
  5
15F
330
1F
100
AcDbEntity
  8
0
  6
SLD-Solid
 62
     7
370
    15
100
AcDbLine
 10
269.5795916802
 20
-101.7771265626
 30
0.0
 11
269.5795916802
 21
-91.2685058076
 31
0.0
  0
ARC
  5
160
330
1F
100
AcDbEntity
  8
0
  6
SLD-Solid
 62
   142
420
    32960
370
     0
100
AcDbCircle
 10
257.9062811237
 20
-90.9110629187
 30
0.0
 40
0.9253878301565769
100
AcDbArc
 50
202.7221584568
 51
240.085842019
  0
LINE
  5
161
330
1F
100
AcDbEntity
  8
0
  6
SLD-Solid
 62
   142
420
    32960
370
     0
100
AcDbLine
 10
266.5795916802
 20
-91.2685058076
 30
0.0
 11
266.5795916802
 21
-101.7771265626
 31
0.0
  0
ARC
  5
162
330
1F
100
AcDbEntity
  8
0
  6
SLD-Solid
 62
   142
420
    32960
370
     0
100
AcDbCircle
 10
270.1146201981
 20
-132.7700566603
 30
0.0
 40
41.94787849934529
100
AcDbArc
 50
78.1698595004
 51
81.6344335414
  0
LWPOLYLINE
  5
163
330
1F
100
AcDbEntity
  8
0
  6
SLD-Solid
 62
   142
420
    32960
370
     0
100
AcDbPolyline
 90
        9
 70
   128
 43
0.0
 10
266.5795916802
 20
-101.7771265626
 10
266.6937723814
 20
-101.9545100887
 10
267.0189315084
 20
-102.1048885809
 10
267.5055665316
 20
-102.205368277
 10
268.0795916802
 20
-102.2406520541
 10
268.6536168287
 20
-102.205368277
 10
269.140251852
 20
-102.1048885809
 10
269.465410979
 20
-101.9545100887
 10
269.5795916802
 20
-101.7771265626
  0
LINE
  5
164
330
1F
100
AcDbEntity
  8
0
  6
SLD-Solid
 62
   142
420
    32960
370
     0
100
AcDbLine
 10
268.5795916802
 20
-100.3505417881
 30
0.0
 11
268.5795916802
 21
-91.2685058076
 31
0.0
  0
ARC
  5
165
330
1F
100
AcDbEntity
  8
0
  6
SLD-Solid
 62
   142
420
    32960
370
     0
100
AcDbCircle
 10
268.6034645559
 20
-101.3266997314
 30
0.0
 40
0.9764498166445404
100
AcDbArc
 50
1.4730549927
 51
91.4009438085
  0
LINE
  5
166
330
1F
100
AcDbEntity
  8
0
  6
SLD-Solid
 62
     7
370
    15
100
AcDbLine
 10
277.7537557164
 20
-95.276343732
 30
0.0
 11
277.746406192
 21
-95.4815391987
 31
0.0
  0
ARC
  5
167
330
1F
100
AcDbEntity
  8
0
  6
SLD-Solid
 62
   142
420
    32960
370
     0
100
AcDbCircle
 10
257.3566083031
 20
-90.8303739062
 30
0.0
 40
0.887183834743128
100
AcDbArc
 50
209.5936617304
 51
275.7042342682
  0
ARC
  5
168
330
1F
100
AcDbEntity
  8
0
  6
SLD-Solid
 62
   142
420
    32960
370
     0
100
AcDbCircle
 10
257.5316478379
 20
-100.2820633075
 30
0.0
 40
1.056025610322206
100
AcDbArc
 50
182.2288146082
 51
265.2820210057
  0
ARC
  5
169
330
1F
100
AcDbEntity
  8
0
  6
SLD-Solid
 62
   142
420
    32960
370
     0
100
AcDbCircle
 10
278.8025750572
 20
-90.8303739062
 30
0.0
 40
0.8871838347443606
100
AcDbArc
 50
264.2957657321
 51
330.4063382654
  0
ARC
  5
16A
330
1F
100
AcDbEntity
  8
0
  6
SLD-Solid
 62
   142
420
    32960
370
     0
100
AcDbCircle
 10
278.6275355225
 20
-100.2820633075
 30
0.0
 40
1.056025610322108
100
AcDbArc
 50
274.7179789946
 51
357.7711853921
  0
ARC
  5
16B
330
1F
100
AcDbEntity
  8
0
  6
SLD-Solid
 62
   142
420
    32960
370
     0
100
AcDbCircle
 10
278.8542021843
 20
-101.0374014657
 30
0.0
 40
0.3283595092472739
100
AcDbArc
 50
244.8002768393
 51
329.04420967
  0
ARC
  5
16C
330
1F
100
AcDbEntity
  8
0
  6
SLD-Solid
 62
   142
420
    32960
370
     0
100
AcDbCircle
 10
257.3049811717
 20
-101.037400795
 30
0.0
 40
0.3283601180181108
100
AcDbArc
 50
210.9551840859
 51
295.1996740226
  0
ARC
  5
16D
330
1F
100
AcDbEntity
  8
0
  6
SLD-Solid
 62
   142
420
    32960
370
     0
100
AcDbCircle
 10
256.9422666098
 20
-100.4680325755
 30
0.0
 40
0.487860680535406
100
AcDbArc
 50
162.7218250591
 51
232.1741584569
  0
ARC
  5
16E
330
1F
100
AcDbEntity
  8
0
  6
SLD-Solid
 62
   142
420
    32960
370
     0
100
AcDbCircle
 10
279.2169015775
 20
-100.4680314747
 30
0.0
 40
0.4878748420132588
100
AcDbArc
 50
307.8149560546
 51
17.2775222519
  0
CIRCLE
  5
16F
330
1F
100
AcDbEntity
  8
0
  6
SLD-Solid
 62
   142
420
    32960
370
     0
100
AcDbCircle
 10
168.8064099483
 20
177.2483026955
 30
0.0
 40
98.09941204801848
  0
ARC
  5
170
330
1F
100
AcDbEntity
  8
0
  6
SLD-Solid
 62
   142
420
    32960
370
     0
100
AcDbCircle
 10
367.3264153409
 20
-93.0175415435
 30
0.0
 40
1.498704915935652
100
AcDbArc
 50
182.8711035151
 51
298.8471995542
  0
LINE
  5
171
330
1F
100
AcDbEntity
  8
0
  6
SLD-Solid
 62
   142
420
    32960
370
     0
100
AcDbLine
 10
372.7176561607
 20
-91.9284169615
 30
0.0
 11
368.0495035965
 21
-94.3302714471
 31
0.0
  0
ARC
  5
172
330
1F
100
AcDbEntity
  8
0
  6
SLD-Solid
 62
   142
420
    32960
370
     0
100
AcDbCircle
 10
366.343607896
 20
-90.4210790096
 30
0.0
 40
6.54985182901478
100
AcDbArc
 50
187.4338278411
 51
346.6950897642
  0
LINE
  5
173
330
1F
100
AcDbEntity
  8
0
  6
SLD-Solid
 62
   142
420
    32960
370
     0
100
AcDbLine
 10
365.8295916801
 20
-93.0926105348
 30
0.0
 11
365.8295916801
 21
-91.2685058076
 31
0.0
  0
LINE
  5
174
330
1F
100
AcDbEntity
  8
0
  6
SLD-Solid
 62
     7
370
    15
100
AcDbLine
 10
43.8295916905
 20
28.7483026953
 30
0.0
 11
43.8295916905
 21
590.7483026953
 31
0.0
  0
CIRCLE
  5
175
330
1F
100
AcDbEntity
  8
0
  6
SLD-Solid
 62
     7
370
    15
100
AcDbCircle
 10
1.8295916905
 20
40.7483026953
 30
0.0
 40
7.499999999999952
  0
CIRCLE
  5
176
330
1F
100
AcDbEntity
  8
0
  6
SLD-Solid
 62
     7
370
    15
100
AcDbCircle
 10
1.8295916905
 20
40.7483026953
 30
0.0
 40
4.000000000000004
  0
CIRCLE
  5
177
330
1F
100
AcDbEntity
  8
0
  6
SLD-Solid
 62
     7
370
    15
100
AcDbCircle
 10
1.8295916905
 20
578.7483026953
 30
0.0
 40
7.499999999999952
  0
LINE
  5
178
330
1F
100
AcDbEntity
  8
0
  6
SLD-Solid
 62
     7
370
    15
100
AcDbLine
 10
-34.1704083095
 20
590.7483026953
 30
0.0
 11
-34.1704083095
 21
28.7483026953
 31
0.0
  0
LINE
  5
179
330
1F
100
AcDbEntity
  8
0
  6
SLD-Solid
 62
     7
370
    15
100
AcDbLine
 10
43.8295916905
 20
590.7483026953
 30
0.0
 11
-34.1704083095
 21
590.7483026953
 31
0.0
  0
LINE
  5
17A
330
1F
100
AcDbEntity
  8
0
  6
SLD-Solid
 62
     7
370
    15
100
AcDbLine
 10
-34.1704083095
 20
28.7483026953
 30
0.0
 11
43.8295916905
 21
28.7483026953
 31
0.0
  0
CIRCLE
  5
17B
330
1F
100
AcDbEntity
  8
0
  6
SLD-Solid
 62
     7
370
    15
100
AcDbCircle
 10
1.8295916905
 20
578.7483026953
 30
0.0
 40
4.000000000000004
  0
SPLINE
  5
17C
330
1F
100
AcDbEntity
  8
0
  6
SLD-Solid
 62
   142
420
    32960
370
     0
100
AcDbSpline
210
0.0
220
0.0
230
1.0
 70
     8
 71
     3
 72
    10
 73
     6
 74
     0
 42
0.00000001
 43
0.00000001
 40
0.0
 40
0.0
 40
0.0
 40
0.0
 40
0.5
 40
0.5
 40
1.0
 40
1.0
 40
1.0
 40
1.0
 10
217.3790916657549
 20
-114.8917043335521
 30
0.0
 10
239.7880003157919
 20
-117.5230772399113
 30
0.0
 10
262.2354993353094
 20
-119.8260875351636
 30
0.0
 10
307.178743610864
 20
-123.7728979943917
 30
0.0
 10
329.6768143042221
 20
-125.4170524893012
 30
0.0
 10
352.2013544282737
 20
-126.7316976944673
 30
0.0
  0
SPLINE
  5
17D
330
1F
100
AcDbEntity
  8
0
  6
SLD-Solid
 62
   142
420
    32960
370
     0
100
AcDbSpline
210
0.0
220
0.0
230
1.0
 70
     8
 71
     3
 72
    32
 73
    28
 74
     0
 42
0.00000001
 43
0.00000001
 40
0.0
 40
0.0
 40
0.0
 40
0.0
 40
0.1250000000000134
 40
0.1250000000000134
 40
0.1875000000000181
 40
0.1875000000000181
 40
0.2187500000000195
 40
0.2187500000000195
 40
0.2500000000000209
 40
0.2500000000000209
 40
0.3749999999999966
 40
0.3749999999999966
 40
0.4374999999999882
 40
0.4374999999999882
 40
0.4999999999999797
 40
0.4999999999999797
 40
0.6249999999999875
 40
0.6249999999999875
 40
0.687499999999989
 40
0.687499999999989
 40
0.7499999999999906
 40
0.7499999999999906
 40
0.8124999999999922
 40
0.8124999999999922
 40
0.8749999999999938
 40
0.8749999999999938
 40
1.0
 40
1.0
 40
1.0
 40
1.0
 10
352.2013544282736
 20
-126.7316976944677
 30
0.0
 10
352.6569237608901
 20
-126.7583218273608
 30
0.0
 10
353.1059046296567
 20
-126.7410350062202
 30
0.0
 10
353.7699992712746
 20
-126.6532596891483
 30
0.0
 10
353.9897877399592
 20
-126.6136158808538
 30
0.0
 10
354.3170527915644
 20
-126.5384227384896
 30
0.0
 10
354.4257374206849
 20
-126.5107328154031
 30
0.0
 10
354.6422806262725
 20
-126.4500236218958
 30
0.0
 10
354.750253741392
 20
-126.4168524645898
 30
0.0
 10
355.2852108214219
 20
-126.2414285638225
 30
0.0
 10
355.699075433358
 20
-126.0679097349901
 30
0.0
 10
356.2967635725715
 20
-125.7562825508528
 30
0.0
 10
356.4921486576825
 20
-125.6438362480515
 30
0.0
 10
356.8749318963136
 20
-125.4012739465625
 30
0.0
 10
357.0628646614634
 20
-125.27064626647
 30
0.0
 10
357.6036012591518
 20
-124.8594360249965
 30
0.0
 10
357.9369707847614
 20
-124.5577691880418
 30
0.0
 10
358.3975015133245
 20
-124.0652965667995
 30
0.0
 10
358.5443876090347
 20
-123.8944387042716
 30
0.0
 10
358.8248209898017
 20
-123.5393265533968
 30
0.0
 10
358.9581618251041
 20
-123.3551100145148
 30
0.0
 10
359.2067440084098
 20
-122.981122011669
 30
0.0
 10
359.3229285466946
 20
-122.790787575912
 30
0.0
 10
359.5363568534681
 20
-122.3985947881588
 30
0.0
 10
359.6339097542071
 20
-122.1972812725647
 30
0.0
 10
359.8985971817725
 20
-121.5775115365932
 30
0.0
 10
360.0385141255044
 20
-121.139649279509
 30
0.0
 10
360.1346732671835
 20
-120.6917391944113
 30
0.0
  0
LINE
  5
17E
330
1F
100
AcDbEntity
  8
0
  6
SLD-Solid
 62
   142
420
    32960
370
     0
100
AcDbLine
 10
217.3790916658
 20
-114.8917043336
 30
0.0
 11
217.4553621487
 21
-114.2421451614
 31
0.0
  0
LINE
  5
17F
330
1F
100
AcDbEntity
  8
0
  6
SLD-Solid
 62
   142
420
    32960
370
     0
100
AcDbLine
 10
360.1346732672
 20
-120.6917391944
 30
0.0
 11
359.4911252876
 21
-120.5535953873
 31
0.0
  0
LINE
  5
180
330
1F
100
AcDbEntity
  8
0
  6
SLD-Solid
 62
   142
420
    32960
370
     0
100
AcDbLine
 10
414.0570176305
 20
-100.6359350032
 30
0.0
 11
415.0561941475
 21
-100.6233968016
 31
0.0
  0
ARC
  5
181
330
1F
100
AcDbEntity
  8
0
  6
SLD-Solid
 62
   142
420
    32960
370
     0
100
AcDbCircle
 10
415.0815386173
 20
-101.6136774155
 30
0.0
 40
0.9906048840953408
100
AcDbArc
 50
30.7129434306
 51
91.4660634583
  0
ARC
  5
182
330
1F
100
AcDbEntity
  8
0
  6
SLD-Solid
 62
   142
420
    32960
370
     0
100
AcDbCircle
 10
414.0479698139
 20
-101.6263865516
 30
0.0
 40
0.9904928736047279
100
AcDbArc
 50
89.4766151984
 51
178.4462567176
  0
LINE
  5
183
330
1F
100
AcDbEntity
  8
0
  6
SLD-Solid
 62
   142
420
    32960
370
     0
100
AcDbLine
 10
413.0578411135
 20
-101.5995297212
 30
0.0
 11
411.7002416084
 21
-91.2685058076
 31
0.0
  0
LINE
  5
184
330
1F
100
AcDbEntity
  8
0
  6
SLD-Solid
 62
     7
370
    15
100
AcDbLine
 10
293.8795916843
 20
28.7983026953
 30
0.0
 11
533.7795916843
 21
28.7983026953
 31
0.0
  0
LINE
  5
185
330
1F
100
AcDbEntity
  8
0
  6
SLD-Solid
 62
     7
370
    15
100
AcDbLine
 10
533.7795916843
 20
590.6983026953
 30
0.0
 11
293.8795916843
 21
590.6983026953
 31
0.0
  0
LINE
  5
186
330
1F
100
AcDbEntity
  8
0
  6
SLD-Solid
 62
     7
370
    15
100
AcDbLine
 10
293.8795916843
 20
590.6983026953
 30
0.0
 11
293.8795916843
 21
28.7983026953
 31
0.0
  0
LINE
  5
187
330
1F
100
AcDbEntity
  8
0
  6
SLD-Solid
 62
     7
370
    15
100
AcDbLine
 10
533.7795916843
 20
28.7983026953
 30
0.0
 11
533.7795916843
 21
590.6983026953
 31
0.0
  0
LINE
  5
188
330
1F
100
AcDbEntity
  8
0
  6
SLD-Solid
 62
   142
420
    32960
370
     0
100
AcDbLine
 10
-36.170408322
 20
562.2483026937
 30
0.0
 11
-36.170408322
 21
567.2483026937
 31
0.0
  0
LINE
  5
189
330
1F
100
AcDbEntity
  8
0
  6
SLD-Solid
 62
     7
370
    15
100
AcDbLine
 10
-36.170408322
 20
57.2483026937
 30
0.0
 11
-36.170408322
 21
562.2483026937
 31
0.0
  0
LINE
  5
18A
330
1F
100
AcDbEntity
  8
0
  6
SLD-Solid
 62
   142
420
    32960
370
     0
100
AcDbLine
 10
-36.170408322
 20
52.2483026937
 30
0.0
 11
-36.170408322
 21
57.2483026937
 31
0.0
  0
LINE
  5
18B
330
1F
100
AcDbEntity
  8
0
  6
SLD-Solid
 62
   142
420
    32960
370
     0
100
AcDbLine
 10
-35.370408322
 20
57.2483026937
 30
0.0
 11
-35.370408322
 21
562.2483026937
 31
0.0
  0
LINE
  5
18C
330
1F
100
AcDbEntity
  8
0
  6
SLD-Solid
 62
   142
420
    32960
370
     0
100
AcDbLine
 10
-36.170408322
 20
562.2483026937
 30
0.0
 11
-35.370408322
 21
562.2483026937
 31
0.0
  0
LINE
  5
18D
330
1F
100
AcDbEntity
  8
0
  6
SLD-Solid
 62
   142
420
    32960
370
     0
100
AcDbLine
 10
-36.170408322
 20
57.2483026937
 30
0.0
 11
-35.370408322
 21
57.2483026937
 31
0.0
  0
LINE
  5
18E
330
1F
100
AcDbEntity
  8
0
  6
SLD-Solid
 62
   142
420
    32960
370
     0
100
AcDbLine
 10
-36.170408322
 20
567.2483026937
 30
0.0
 11
-35.370408322
 21
567.2483026937
 31
0.0
  0
LINE
  5
18F
330
1F
100
AcDbEntity
  8
0
  6
SLD-Solid
 62
   142
420
    32960
370
     0
100
AcDbLine
 10
-36.170408322
 20
52.2483026937
 30
0.0
 11
-35.1881161401
 21
52.2483026937
 31
0.0
  0
LINE
  5
190
330
1F
100
AcDbEntity
  8
0
  6
SLD-Solid
 62
   142
420
    32960
370
     0
100
AcDbLine
 10
-35.1881161401
 20
567.2483026937
 30
0.0
 11
-35.3704083095
 21
567.2483026937
 31
0.0
  0
LINE
  5
191
330
1F
100
AcDbEntity
  8
0
  6
SLD-Solid
 62
   142
420
    32960
370
     0
100
AcDbLine
 10
-34.1704083099
 20
568.9983026953
 30
0.0
 11
-35.670408322
 21
568.9983026953
 31
0.0
  0
LINE
  5
192
330
1F
100
AcDbEntity
  8
0
  6
SLD-Solid
 62
   142
420
    32960
370
     0
100
AcDbLine
 10
304.5795916827
 20
-91.2685058076
 30
0.0
 11
304.5795916827
 21
-95.9715655712
 31
0.0
  0
ARC
  5
193
330
1F
100
AcDbEntity
  8
0
  6
SLD-Solid
 62
   142
420
    32960
370
     0
100
AcDbCircle
 10
305.550729986
 20
-95.9408781865
 30
0.0
 40
0.9716230336756199
100
AcDbArc
 50
181.809909826
 51
271.7021999702
  0
LINE
  5
194
330
1F
100
AcDbEntity
  8
0
  6
SLD-Solid
 62
   142
420
    32960
370
     0
100
AcDbLine
 10
325.5795916827
 20
-96.9120724627
 30
0.0
 11
305.5795916827
 21
-96.9120724627
 31
0.0
  0
ARC
  5
195
330
1F
100
AcDbEntity
  8
0
  6
SLD-Solid
 62
   142
420
    32960
370
     0
100
AcDbCircle
 10
325.6084533795
 20
-95.9408781865
 30
0.0
 40
0.9716230336753245
100
AcDbArc
 50
268.2978000298
 51
358.190090174
  0
LINE
  5
196
330
1F
100
AcDbEntity
  8
0
  6
SLD-Solid
 62
   142
420
    32960
370
     0
100
AcDbLine
 10
326.5795916827
 20
-95.9715655712
 30
0.0
 11
326.5795916827
 21
-91.2685058076
 31
0.0
  0
LINE
  5
197
330
1F
100
AcDbEntity
  8
0
  6
SLD-Solid
 62
     7
370
    15
100
AcDbLine
 10
423.8239875589
 20
-91.5837848073
 30
0.0
 11
421.9675528906
 21
-91.2685058076
 31
0.0
  0
LWPOLYLINE
  5
198
330
1F
100
AcDbEntity
  8
0
  6
SLD-Solid
 62
     7
370
    15
100
AcDbPolyline
 90
        3
 70
   128
 43
0.0
 10
405.69163047
 20
-91.2685058076
 10
404.9554704417
 20
-91.3835444726
 10
403.4015740346
 20
-91.6701290424
  0
ARC
  5
199
330
1F
100
AcDbEntity
  8
0
  6
SLD-Solid
 62
   142
420
    32960
370
     0
100
AcDbCircle
 10
403.0426671769
 20
-90.9749364197
 30
0.0
 40
0.9940723582963978
100
AcDbArc
 50
197.176723278
 51
241.7331841254
  0
ARC
  5
19A
330
1F
100
AcDbEntity
  8
0
  6
SLD-Solid
 62
   142
420
    32960
370
     0
100
AcDbCircle
 10
423.4202755065
 20
-90.8992073058
 30
0.0
 40
0.7947513929838748
100
AcDbArc
 50
300.5288898791
 51
332.3110211921
  0
LINE
  5
19B
330
1F
100
AcDbEntity
  8
0
  6
SLD-Solid
 62
   142
420
    32960
370
     0
100
AcDbLine
 10
416.0908988488
 20
-102.3078047878
 30
0.0
 11
414.640224941
 21
-91.2685058076
 31
0.0
  0
LINE
  5
19C
330
1F
100
AcDbEntity
  8
0
  6
SLD-Solid
 62
   142
420
    32960
370
     0
100
AcDbLine
 10
411.6410608651
 20
-91.29368205
 30
0.0
 11
413.0933692977
 21
-102.3454193928
 31
0.0
  0
LINE
  5
19D
330
1F
100
AcDbEntity
  8
0
  6
SLD-Solid
 62
   142
420
    32960
370
     0
100
AcDbLine
 10
411.6399672425
 20
-91.2685058076
 30
0.0
 11
411.6410608651
 21
-91.29368205
 31
0.0
  0
LINE
  5
19E
330
1F
100
AcDbEntity
  8
0
  6
SLD-Solid
 62
     7
370
    15
100
AcDbLine
 10
423.4446045333
 20
-94.393587896
 30
0.0
 11
423.4377760349
 21
-94.5888471276
 31
0.0
  0
ARC
  5
19F
330
1F
100
AcDbEntity
  8
0
  6
SLD-Solid
 62
   142
420
    32960
370
     0
100
AcDbCircle
 10
424.97838599
 20
-100.1357306716
 30
0.0
 40
1.067048900285975
100
AcDbArc
 50
275.8577076344
 51
357.9580211854
  0
ARC
  5
1A0
330
1F
100
AcDbEntity
  8
0
  6
SLD-Solid
 62
   142
420
    32960
370
     0
100
AcDbCircle
 10
423.8990607393
 20
-90.6663770768
 30
0.0
 40
0.920474294244493
100
AcDbArc
 50
265.3218036842
 51
318.6186366286
  0
ARC
  5
1A1
330
1F
100
AcDbEntity
  8
0
  6
SLD-Solid
 62
   142
420
    32960
370
     0
100
AcDbCircle
 10
403.9012712252
 20
-100.4213361529
 30
0.0
 40
1.044646134177739
100
AcDbArc
 50
182.3800095106
 51
266.3735357749
  0
ARC
  5
1A2
330
1F
100
AcDbEntity
  8
0
  6
SLD-Solid
 62
   142
420
    32960
370
     0
100
AcDbCircle
 10
402.4738054378
 20
-90.9959747418
 30
0.0
 40
0.8601043772756598
100
AcDbArc
 50
198.4730239947
 51
276.5485556238
  0
SPLINE
  5
1A3
330
1F
100
AcDbEntity
  8
0
  6
SLD-Solid
 62
   142
420
    32960
370
     0
100
AcDbSpline
210
0.0
220
0.0
230
1.0
 70
     8
 71
     3
 72
    10
 73
     6
 74
     0
 42
0.00000001
 43
0.00000001
 40
0.0
 40
0.0
 40
0.0
 40
0.0
 40
0.5
 40
0.5
 40
1.0
 40
1.0
 40
1.0
 40
1.0
 10
416.1280117959378
 20
-102.0294493714025
 30
0.0
 10
416.1247843867019
 20
-102.1725152640532
 30
0.0
 10
416.1195250206791
 20
-102.274525443223
 30
0.0
 10
416.1064962985423
 20
-102.3724131944679
 30
0.0
 10
416.0987441547893
 20
-102.3675057849958
 30
0.0
 10
416.0908988487594
 20
-102.3078047878304
 30
0.0
  0
ARC
  5
1A4
330
1F
100
AcDbEntity
  8
0
  6
SLD-Solid
 62
   142
420
    32960
370
     0
100
AcDbCircle
 10
425.2284604817
 20
-100.8529783208
 30
0.0
 40
0.3720536301447637
100
AcDbArc
 50
247.700786159
 51
331.0106830002
  0
ARC
  5
1A5
330
1F
100
AcDbEntity
  8
0
  6
SLD-Solid
 62
   142
420
    32960
370
     0
100
AcDbCircle
 10
425.5901129466
 20
-100.3432695408
 30
0.0
 40
0.485219408290301
100
AcDbArc
 50
301.8972679989
 51
20.448406778
  0
SPLINE
  5
1A6
330
1F
100
AcDbEntity
  8
0
  6
SLD-Solid
 62
   142
420
    32960
370
     0
100
AcDbSpline
210
0.0
220
0.0
230
1.0
 70
     8
 71
     3
 72
    12
 73
     8
 74
     0
 42
0.00000001
 43
0.00000001
 40
0.0
 40
0.0
 40
0.0
 40
0.0
 40
0.2500000000000099
 40
0.2500000000000099
 40
0.5000000000000198
 40
0.5000000000000198
 40
1.0
 40
1.0
 40
1.0
 40
1.0
 10
413.0933692977241
 20
-102.3454193928431
 30
0.0
 10
413.0972921985658
 20
-102.3752717773304
 30
0.0
 10
413.1011208566434
 20
-102.391426128083
 30
0.0
 10
413.1085936645227
 20
-102.3969168492791
 30
0.0
 10
413.112166175365
 20
-102.385814213463
 30
0.0
 10
413.12194564455
 20
-102.3128610929926
 30
0.0
 10
413.1272546467064
 20
-102.2101382453751
 30
0.0
 10
413.1304822449026
 20
-102.0670639764151
 30
0.0
  0
ARC
  5
1A7
330
1F
100
AcDbEntity
  8
0
  6
SLD-Solid
 62
   142
420
    32960
370
     0
100
AcDbCircle
 10
403.700490145
 20
-101.2040123891
 30
0.0
 40
0.2927153066048018
100
AcDbArc
 50
213.1525031424
 51
297.3995889023
  0
LINE
  5
1A8
330
1F
100
AcDbEntity
  8
0
  6
SLD-Solid
 62
   142
420
    32960
370
     0
100
AcDbLine
 10
413.1304822449
 20
-102.0670639764
 30
0.0
 11
413.1498238907
 21
-101.2095931136
 31
0.0
  0
ARC
  5
1A9
330
1F
100
AcDbEntity
  8
0
  6
SLD-Solid
 62
   142
420
    32960
370
     0
100
AcDbCircle
 10
403.3263607562
 20
-100.5866262001
 30
0.0
 40
0.4844250353422893
100
AcDbArc
 50
165.4244114315
 51
226.0377259004
  0
CIRCLE
  5
1AA
330
1F
100
AcDbEntity
  8
0
  6
SLD-Solid
 62
   142
420
    32960
370
     0
100
AcDbCircle
 10
168.8101367928
 20
442.2509056174
 30
0.0
 40
14.00000000000003
  0
LINE
  5
1AB
330
1F
100
AcDbEntity
  8
0
  6
SLD-Solid
 62
     7
370
    15
100
AcDbLine
 10
-33.7204083203
 20
23.3483026909
 30
0.0
 11
-33.7204083203
 21
25.7983026909
 31
0.0
  0
LINE
  5
1AC
330
1F
100
AcDbEntity
  8
0
  6
SLD-Solid
 62
     7
370
    15
100
AcDbLine
 10
863.8295916797
 20
-67.9685058076
 30
0.0
 11
863.8295916797
 21
23.3483026909
 31
0.0
  0
LINE
  5
1AD
330
1F
100
AcDbEntity
  8
0
  6
SLD-Solid
 62
   142
420
    32960
370
     0
100
AcDbLine
 10
863.8295916797
 20
-67.9685058076
 30
0.0
 11
861.3795916797
 21
-67.9685058076
 31
0.0
  0
LINE
  5
1AE
330
1F
100
AcDbEntity
  8
0
  6
SLD-Solid
 62
   142
420
    32960
370
     0
100
AcDbLine
 10
861.3795916797
 20
23.3483026909
 30
0.0
 11
863.8295916797
 21
23.3483026909
 31
0.0
  0
LINE
  5
1AF
330
1F
100
AcDbEntity
  8
0
  6
SLD-Solid
 62
     7
370
    15
100
AcDbLine
 10
-36.1704083203
 20
23.3483026909
 30
0.0
 11
-36.1704083203
 21
-67.9685058076
 31
0.0
  0
LINE
  5
1B0
330
1F
100
AcDbEntity
  8
0
  6
SLD-Solid
 62
   142
420
    32960
370
     0
100
AcDbLine
 10
-36.1704083203
 20
23.3483026909
 30
0.0
 11
-33.7204083203
 21
23.3483026909
 31
0.0
  0
LINE
  5
1B1
330
1F
100
AcDbEntity
  8
0
  6
SLD-Solid
 62
   142
420
    32960
370
     0
100
AcDbLine
 10
-33.7204083203
 20
-67.9685058076
 30
0.0
 11
-36.1704083203
 21
-67.9685058076
 31
0.0
  0
LINE
  5
1B2
330
1F
100
AcDbEntity
  8
0
  6
SLD-Solid
 62
     7
370
    15
100
AcDbLine
 10
861.3795916797
 20
25.7983026909
 30
0.0
 11
-33.7204083203
 21
25.7983026909
 31
0.0
  0
LINE
  5
1B3
330
1F
100
AcDbEntity
  8
0
  6
SLD-Solid
 62
   142
420
    32960
370
     0
100
AcDbLine
 10
861.3795916797
 20
25.7983026909
 30
0.0
 11
861.3795916797
 21
23.3483026909
 31
0.0
  0
LINE
  5
1B4
330
1F
100
AcDbEntity
  8
0
  6
SLD-Solid
 62
     7
370
    15
100
AcDbLine
 10
862.6295916797
 20
-91.2685058076
 30
0.0
 11
862.6295916797
 21
-68.4685058076
 31
0.0
  0
LINE
  5
1B5
330
1F
100
AcDbEntity
  8
0
  6
SLD-Solid
 62
     7
370
    15
100
AcDbLine
 10
-34.9704083203
 20
-91.2685058076
 30
0.0
 11
-34.9704083203
 21
-68.4685058076
 31
0.0
  0
LINE
  5
1B6
330
1F
100
AcDbEntity
  8
0
  6
SLD-Solid
 62
   142
420
    32960
370
     0
100
AcDbLine
 10
861.3795916797
 20
-68.4685058076
 30
0.0
 11
862.6295916797
 21
-68.4685058076
 31
0.0
  0
LINE
  5
1B7
330
1F
100
AcDbEntity
  8
0
  6
SLD-Solid
 62
   142
420
    32960
370
     0
100
AcDbLine
 10
861.3795916797
 20
-67.9685058076
 30
0.0
 11
861.3795916797
 21
-68.4685058076
 31
0.0
  0
LINE
  5
1B8
330
1F
100
AcDbEntity
  8
0
  6
SLD-Solid
 62
   142
420
    32960
370
     0
100
AcDbLine
 10
-33.7204083203
 20
-68.4685058076
 30
0.0
 11
-33.7204083203
 21
-67.9685058076
 31
0.0
  0
LINE
  5
1B9
330
1F
100
AcDbEntity
  8
0
  6
SLD-Solid
 62
   142
420
    32960
370
     0
100
AcDbLine
 10
-34.9704083203
 20
-68.4685058076
 30
0.0
 11
-33.7204083203
 21
-68.4685058076
 31
0.0
  0
LINE
  5
1BA
330
1F
100
AcDbEntity
  8
0
  6
SLD-Solid
 62
     7
370
    15
100
AcDbLine
 10
-36.1704083203
 20
-89.9685058076
 30
0.0
 11
-36.1704083203
 21
-68.4685058076
 31
0.0
  0
LINE
  5
1BB
330
1F
100
AcDbEntity
  8
0
  6
SLD-Solid
 62
   142
420
    32960
370
     0
100
AcDbLine
 10
-36.1704083203
 20
-68.4685058076
 30
0.0
 11
-34.9704083203
 21
-68.4685058076
 31
0.0
  0
LINE
  5
1BC
330
1F
100
AcDbEntity
  8
0
  6
SLD-Solid
 62
     7
370
    15
100
AcDbLine
 10
-34.9704083203
 20
24.5883026909
 30
0.0
 11
-34.9704083203
 21
24.5983026909
 31
0.0
  0
LINE
  5
1BD
330
1F
100
AcDbEntity
  8
0
  6
SLD-Solid
 62
     7
370
    15
100
AcDbLine
 10
-34.9704083203
 20
48.8483026909
 30
0.0
 11
-34.9704083203
 21
50.0883026909
 31
0.0
  0
LINE
  5
1BE
330
1F
100
AcDbEntity
  8
0
  6
SLD-Solid
 62
   142
420
    32960
370
     0
100
AcDbLine
 10
-34.9704083203
 20
23.3483026909
 30
0.0
 11
-34.9704083203
 21
24.5883026909
 31
0.0
  0
LINE
  5
1BF
330
1F
100
AcDbEntity
  8
0
  6
SLD-Solid
 62
   142
420
    32960
370
     0
100
AcDbLine
 10
-34.9704083203
 20
-68.4685058076
 30
0.0
 11
-34.9704083203
 21
-67.9685058076
 31
0.0
  0
LINE
  5
1C0
330
1F
100
AcDbEntity
  8
0
  6
SLD-Solid
 62
     7
370
    15
100
AcDbLine
 10
-36.1704083203
 20
48.8483026909
 30
0.0
 11
-36.1704083203
 21
50.0883026909
 31
0.0
  0
LINE
  5
1C1
330
1F
100
AcDbEntity
  8
0
  6
SLD-Solid
 62
     7
370
    15
100
AcDbLine
 10
-36.1704083203
 20
27.0483026909
 30
0.0
 11
-36.1704083203
 21
48.8483026909
 31
0.0
  0
LINE
  5
1C2
330
1F
100
AcDbEntity
  8
0
  6
SLD-Solid
 62
     7
370
    15
100
AcDbLine
 10
-36.1704083203
 20
24.5883026909
 30
0.0
 11
-36.1704083203
 21
27.0483026909
 31
0.0
  0
LINE
  5
1C3
330
1F
100
AcDbEntity
  8
0
  6
SLD-Solid
 62
   142
420
    32960
370
     0
100
AcDbLine
 10
-36.1704083203
 20
-68.4685058076
 30
0.0
 11
-36.1704083203
 21
-67.9685058076
 31
0.0
  0
LINE
  5
1C4
330
1F
100
AcDbEntity
  8
0
  6
SLD-Solid
 62
   142
420
    32960
370
     0
100
AcDbLine
 10
-36.1704083203
 20
23.3483026909
 30
0.0
 11
-36.1704083203
 21
24.5883026909
 31
0.0
  0
LINE
  5
1C5
330
1F
100
AcDbEntity
  8
0
  6
SLD-Solid
 62
     7
370
    15
100
AcDbLine
 10
862.6295916797
 20
24.5883026909
 30
0.0
 11
862.6295916797
 21
24.5983026909
 31
0.0
  0
LINE
  5
1C6
330
1F
100
AcDbEntity
  8
0
  6
SLD-Solid
 62
   142
420
    32960
370
     0
100
AcDbLine
 10
862.6295916797
 20
-68.4685058076
 30
0.0
 11
862.6295916797
 21
-67.9685058076
 31
0.0
  0
LINE
  5
1C7
330
1F
100
AcDbEntity
  8
0
  6
SLD-Solid
 62
   142
420
    32960
370
     0
100
AcDbLine
 10
862.6295916797
 20
23.3483026909
 30
0.0
 11
862.6295916797
 21
24.5883026909
 31
0.0
  0
LINE
  5
1C8
330
1F
100
AcDbEntity
  8
0
  6
SLD-Solid
 62
     7
370
    15
100
AcDbLine
 10
863.8295916797
 20
-89.9685058076
 30
0.0
 11
863.8295916797
 21
-68.4685058076
 31
0.0
  0
LINE
  5
1C9
330
1F
100
AcDbEntity
  8
0
  6
SLD-Solid
 62
     7
370
    15
100
AcDbLine
 10
863.8295916797
 20
24.5883026909
 30
0.0
 11
863.8295916797
 21
27.0483026909
 31
0.0
  0
LINE
  5
1CA
330
1F
100
AcDbEntity
  8
0
  6
SLD-Solid
 62
     7
370
    15
100
AcDbLine
 10
863.8295916797
 20
27.0483026909
 30
0.0
 11
863.8295916797
 21
48.8483026909
 31
0.0
  0
LINE
  5
1CB
330
1F
100
AcDbEntity
  8
0
  6
SLD-Solid
 62
   142
420
    32960
370
     0
100
AcDbLine
 10
863.8295916797
 20
48.8483026909
 30
0.0
 11
863.8295916797
 21
50.0883026909
 31
0.0
  0
LINE
  5
1CC
330
1F
100
AcDbEntity
  8
0
  6
SLD-Solid
 62
   142
420
    32960
370
     0
100
AcDbLine
 10
863.8295916797
 20
23.3483026909
 30
0.0
 11
863.8295916797
 21
24.5883026909
 31
0.0
  0
LINE
  5
1CD
330
1F
100
AcDbEntity
  8
0
  6
SLD-Solid
 62
   142
420
    32960
370
     0
100
AcDbLine
 10
863.8295916797
 20
-68.4685058076
 30
0.0
 11
863.8295916797
 21
-67.9685058076
 31
0.0
  0
LINE
  5
1CE
330
1F
100
AcDbEntity
  8
0
  6
SLD-Solid
 62
   142
420
    32960
370
     0
100
AcDbLine
 10
863.8295916797
 20
-68.4685058076
 30
0.0
 11
862.6295916797
 21
-68.4685058076
 31
0.0
  0
LINE
  5
1CF
330
1F
100
AcDbEntity
  8
0
  6
SLD-Solid
 62
   142
420
    32960
370
     0
100
AcDbLine
 10
-33.7204083203
 20
25.7983026909
 30
0.0
 11
-34.9704083203
 21
25.7983026909
 31
0.0
  0
LINE
  5
1D0
330
1F
100
AcDbEntity
  8
0
  6
SLD-Solid
 62
   142
420
    32960
370
     0
100
AcDbLine
 10
862.6295916797
 20
25.7983026909
 30
0.0
 11
861.3795916797
 21
25.7983026909
 31
0.0
  0
LINE
  5
1D1
330
1F
100
AcDbEntity
  8
0
  6
SLD-Solid
 62
   142
420
    32960
370
     0
100
AcDbLine
 10
-34.9704083203
 20
24.5983026909
 30
0.0
 11
-34.9704083203
 21
25.7983026909
 31
0.0
  0
LINE
  5
1D2
330
1F
100
AcDbEntity
  8
0
  6
SLD-Solid
 62
   142
420
    32960
370
     0
100
AcDbLine
 10
862.6295916797
 20
25.7983026909
 30
0.0
 11
862.6295916797
 21
24.5983026909
 31
0.0
  0
LINE
  5
1D3
330
1F
100
AcDbEntity
  8
0
  6
SLD-Solid
 62
   142
420
    32960
370
     0
100
AcDbLine
 10
863.8295916797
 20
24.5883026909
 30
0.0
 11
862.6295916797
 21
24.5883026909
 31
0.0
  0
LINE
  5
1D4
330
1F
100
AcDbEntity
  8
0
  6
SLD-Solid
 62
   142
420
    32960
370
     0
100
AcDbLine
 10
-36.1704083203
 20
24.5883026909
 30
0.0
 11
-34.9704083203
 21
24.5883026909
 31
0.0
  0
LINE
  5
1D5
330
1F
100
AcDbEntity
  8
0
  6
SLD-Solid
 62
     7
370
    15
100
AcDbLine
 10
-34.9704083203
 20
25.7983026909
 30
0.0
 11
-34.9704083203
 21
27.0483026909
 31
0.0
  0
LINE
  5
1D6
330
1F
100
AcDbEntity
  8
0
  6
SLD-Solid
 62
   142
420
    32960
370
     0
100
AcDbLine
 10
862.6295916797
 20
25.7983026909
 30
0.0
 11
862.6295916797
 21
27.0483026909
 31
0.0
  0
LINE
  5
1D7
330
1F
100
AcDbEntity
  8
0
  6
SLD-Solid
 62
     7
370
    15
100
AcDbLine
 10
862.6295916797
 20
27.0483026909
 30
0.0
 11
862.6295916797
 21
48.8483026909
 31
0.0
  0
LINE
  5
1D8
330
1F
100
AcDbEntity
  8
0
  6
SLD-Solid
 62
     7
370
    15
100
AcDbLine
 10
-34.9704083203
 20
27.0483026909
 30
0.0
 11
-34.9704083203
 21
48.8483026909
 31
0.0
  0
ARC
  5
1D9
330
1F
100
AcDbEntity
  8
0
  6
SLD-Solid
 62
   142
420
    32960
370
     0
100
AcDbCircle
 10
778.8295916797
 20
39.7983026909
 30
0.0
 40
6.500000000000044
100
AcDbArc
 50
270.0
 51
320.2848627688
  0
ARC
  5
1DA
330
1F
100
AcDbEntity
  8
0
  6
SLD-Solid
 62
   142
420
    32960
370
     0
100
AcDbCircle
 10
778.8295916797
 20
39.7983026909
 30
0.0
 40
6.500000000000051
100
AcDbArc
 50
39.7151372315
 51
90.4407410722
  0
ARC
  5
1DB
330
1F
100
AcDbEntity
  8
0
  6
SLD-Solid
 62
   142
420
    32960
370
     0
100
AcDbCircle
 10
48.8295916797
 20
39.7983026909
 30
0.0
 40
6.499999999999909
100
AcDbArc
 50
89.7636033906
 51
140.284862619
  0
ARC
  5
1DC
330
1F
100
AcDbEntity
  8
0
  6
SLD-Solid
 62
   142
420
    32960
370
     0
100
AcDbCircle
 10
48.8295916797
 20
39.7983026909
 30
0.0
 40
6.499999999999909
100
AcDbArc
 50
219.715137381
 51
270.0
  0
ARC
  5
1DD
330
1F
100
AcDbEntity
  8
0
  6
SLD-Solid
 62
   142
420
    32960
370
     0
100
AcDbCircle
 10
824.8295916797
 20
41.7983026909
 30
0.0
 40
4.799999999999996
100
AcDbArc
 50
264.6582460171
 51
2.5473921142
  0
LINE
  5
1DE
330
1F
100
AcDbEntity
  8
0
  6
SLD-Solid
 62
   142
420
    32960
370
     0
100
AcDbLine
 10
2.8295916797
 20
36.9983026909
 30
0.0
 11
3.2764503096
 21
37.0191482296
 31
0.0
  0
ARC
  5
1DF
330
1F
100
AcDbEntity
  8
0
  6
SLD-Solid
 62
   142
420
    32960
370
     0
100
AcDbCircle
 10
2.8295916797
 20
41.7983026909
 30
0.0
 40
4.799999999999932
100
AcDbArc
 50
177.452646212
 51
270.0
  0
LINE
  5
1E0
330
1F
100
AcDbEntity
  8
0
  6
SLD-Solid
 62
   142
420
    32960
370
     0
100
AcDbLine
 10
862.6295916797
 20
48.8483026909
 30
0.0
 11
861.8295916797
 21
48.8483026909
 31
0.0
  0
LINE
  5
1E1
330
1F
100
AcDbEntity
  8
0
  6
SLD-Solid
 62
   142
420
    32960
370
     0
100
AcDbLine
 10
783.8295916797
 20
48.8483026909
 30
0.0
 11
778.7795916843
 21
48.8483026909
 31
0.0
  0
LINE
  5
1E2
330
1F
100
AcDbEntity
  8
0
  6
SLD-Solid
 62
   142
420
    32960
370
     0
100
AcDbLine
 10
538.8795916843
 20
48.8483026909
 30
0.0
 11
533.7795916843
 21
48.8483026909
 31
0.0
  0
LINE
  5
1E3
330
1F
100
AcDbEntity
  8
0
  6
SLD-Solid
 62
   142
420
    32960
370
     0
100
AcDbLine
 10
293.8795916843
 20
48.8483026909
 30
0.0
 11
288.7564099483
 21
48.8483026909
 31
0.0
  0
LINE
  5
1E4
330
1F
100
AcDbEntity
  8
0
  6
SLD-Solid
 62
   142
420
    32960
370
     0
100
AcDbLine
 10
48.8564099483
 20
48.8483026909
 30
0.0
 11
43.8295916905
 21
48.8483026909
 31
0.0
  0
LINE
  5
1E5
330
1F
100
AcDbEntity
  8
0
  6
SLD-Solid
 62
   142
420
    32960
370
     0
100
AcDbLine
 10
-34.1704083095
 20
48.8483026909
 30
0.0
 11
-34.9704083203
 21
48.8483026909
 31
0.0
  0
LINE
  5
1E6
330
1F
100
AcDbEntity
  8
0
  6
SLD-Solid
 62
   142
420
    32960
370
     0
100
AcDbLine
 10
862.6295916797
 20
48.8483026909
 30
0.0
 11
862.6295916797
 21
51.2983026909
 31
0.0
  0
LINE
  5
1E7
330
1F
100
AcDbEntity
  8
0
  6
SLD-Solid
 62
   142
420
    32960
370
     0
100
AcDbLine
 10
-36.1704083203
 20
50.0883026909
 30
0.0
 11
-34.9704083203
 21
50.0883026909
 31
0.0
  0
LINE
  5
1E8
330
1F
100
AcDbEntity
  8
0
  6
SLD-Solid
 62
   142
420
    32960
370
     0
100
AcDbLine
 10
863.8295916797
 20
48.8483026909
 30
0.0
 11
862.6295916797
 21
48.8483026909
 31
0.0
  0
LINE
  5
1E9
330
1F
100
AcDbEntity
  8
0
  6
SLD-Solid
 62
   142
420
    32960
370
     0
100
AcDbLine
 10
863.8295916797
 20
50.0883026909
 30
0.0
 11
862.6295916797
 21
50.0883026909
 31
0.0
  0
LINE
  5
1EA
330
1F
100
AcDbEntity
  8
0
  6
SLD-Solid
 62
   142
420
    32960
370
     0
100
AcDbLine
 10
862.6295916797
 20
50.0883026909
 30
0.0
 11
862.4978063286
 21
50.0883026909
 31
0.0
  0
LINE
  5
1EB
330
1F
100
AcDbEntity
  8
0
  6
SLD-Solid
 62
   142
420
    32960
370
     0
100
AcDbLine
 10
-34.83862296
 20
50.0883026909
 30
0.0
 11
-34.9704083203
 21
50.0883026909
 31
0.0
  0
LINE
  5
1EC
330
1F
100
AcDbEntity
  8
0
  6
SLD-Solid
 62
   142
420
    32960
370
     0
100
AcDbLine
 10
458.3295916801
 20
-91.2685058076
 30
0.0
 11
458.3295916801
 21
-93.1500448968
 31
0.0
  0
ARC
  5
1ED
330
1F
100
AcDbEntity
  8
0
  6
SLD-Solid
 62
   142
420
    32960
370
     0
100
AcDbCircle
 10
460.2718682866
 20
-93.0886701274
 30
0.0
 40
1.943246067350724
100
AcDbArc
 50
181.809909826
 51
271.7021999702
  0
LINE
  5
1EE
330
1F
100
AcDbEntity
  8
0
  6
SLD-Solid
 62
   142
420
    32960
370
     0
100
AcDbLine
 10
460.3295916801
 20
-95.0310586797
 30
0.0
 11
462.3295916801
 21
-95.0310586797
 31
0.0
  0
ARC
  5
1EF
330
1F
100
AcDbEntity
  8
0
  6
SLD-Solid
 62
   142
420
    32960
370
     0
100
AcDbCircle
 10
462.3873150737
 20
-93.0886701274
 30
0.0
 40
1.94324606735096
100
AcDbArc
 50
268.2978000298
 51
358.190090174
  0
LINE
  5
1F0
330
1F
100
AcDbEntity
  8
0
  6
SLD-Solid
 62
   142
420
    32960
370
     0
100
AcDbLine
 10
464.3295916801
 20
-91.2685058076
 30
0.0
 11
464.3295916801
 21
-93.1500448968
 31
0.0
  0
LINE
  5
1F1
330
1F
100
AcDbEntity
  8
0
  6
SLD-Solid
 62
   142
420
    32960
370
     0
100
AcDbLine
 10
472.3295916801
 20
-95.9715655712
 30
0.0
 11
472.3295916801
 21
-91.2685058076
 31
0.0
  0
ARC
  5
1F2
330
1F
100
AcDbEntity
  8
0
  6
SLD-Solid
 62
   142
420
    32960
370
     0
100
AcDbCircle
 10
471.3584533769
 20
-95.9408781865
 30
0.0
 40
0.9716230336755504
100
AcDbArc
 50
268.2978000298
 51
358.190090174
  0
LINE
  5
1F3
330
1F
100
AcDbEntity
  8
0
  6
SLD-Solid
 62
   142
420
    32960
370
     0
100
AcDbLine
 10
471.3295916801
 20
-96.9120724627
 30
0.0
 11
451.3295916801
 21
-96.9120724627
 31
0.0
  0
ARC
  5
1F4
330
1F
100
AcDbEntity
  8
0
  6
SLD-Solid
 62
   142
420
    32960
370
     0
100
AcDbCircle
 10
451.3007299834
 20
-95.9408781865
 30
0.0
 40
0.9716230336754401
100
AcDbArc
 50
181.809909826
 51
271.7021999702
  0
LINE
  5
1F5
330
1F
100
AcDbEntity
  8
0
  6
SLD-Solid
 62
   142
420
    32960
370
     0
100
AcDbLine
 10
450.3295916801
 20
-91.2685058076
 30
0.0
 11
450.3295916801
 21
-95.9715655712
 31
0.0
  0
LINE
  5
1F6
330
1F
100
AcDbEntity
  8
0
  6
SLD-Solid
 62
   142
420
    32960
370
     0
100
AcDbLine
 10
836.8821505738
 20
713.8983026953
 30
0.0
 11
836.6295916905
 21
713.4608578775
 31
0.0
  0
LINE
  5
1F7
330
1F
100
AcDbEntity
  8
0
  6
SLD-Solid
 62
   142
420
    32960
370
     0
100
AcDbLine
 10
836.6295916905
 20
714.335747513
 30
0.0
 11
836.8821505738
 21
713.8983026953
 31
0.0
  0
CIRCLE
  5
1F8
330
1F
100
AcDbEntity
  8
0
  6
SLD-Solid
 62
     7
370
    15
100
AcDbCircle
 10
168.8064099483
 20
442.2483026955
 30
0.0
 40
27.49999999999999
  0
SPLINE
  5
1F9
330
1F
100
AcDbEntity
  8
0
  6
SLD-Solid
 62
   142
420
    32960
370
     0
100
AcDbSpline
210
0.0
220
0.0
230
1.0
 70
     8
 71
     3
 72
    99
 73
    95
 74
     0
 42
0.00000001
 43
0.00000001
 40
-0.0312500000000002
 40
-0.0312500000000002
 40
0.0
 40
0.0
 40
0.031249999999995
 40
0.031249999999995
 40
0.0468749999999924
 40
0.0468749999999924
 40
0.0624999999999899
 40
0.0624999999999899
 40
0.0937499999999855
 40
0.0937499999999855
 40
0.1093749999999833
 40
0.1093749999999833
 40
0.1249999999999811
 40
0.1249999999999811
 40
0.1562499999999774
 40
0.1562499999999774
 40
0.1718749999999746
 40
0.1718749999999746
 40
0.1874999999999719
 40
0.2031249999999692
 40
0.2031249999999692
 40
0.2187499999999665
 40
0.2187499999999665
 40
0.2499999999999629
 40
0.2499999999999629
 40
0.2656249999999611
 40
0.2656249999999611
 40
0.2812499999999593
 40
0.2812499999999593
 40
0.3124999999999576
 40
0.3124999999999576
 40
0.3281249999999577
 40
0.3281249999999577
 40
0.3437499999999578
 40
0.3437499999999578
 40
0.3749999999999596
 40
0.3749999999999596
 40
0.4062499999999614
 40
0.4062499999999614
 40
0.4218749999999628
 40
0.4218749999999628
 40
0.4374999999999642
 40
0.4374999999999642
 40
0.4687499999999669
 40
0.4687499999999669
 40
0.4843749999999682
 40
0.4843749999999682
 40
0.4999999999999695
 40
0.4999999999999695
 40
0.5312499999999722
 40
0.5312499999999722
 40
0.5468749999999736
 40
0.5468749999999736
 40
0.5624999999999749
 40
0.5781249999999764
 40
0.5781249999999764
 40
0.5937499999999777
 40
0.5937499999999777
 40
0.6249999999999811
 40
0.6249999999999811
 40
0.6406249999999827
 40
0.6406249999999827
 40
0.6562499999999843
 40
0.6562499999999843
 40
0.6874999999999873
 40
0.6874999999999873
 40
0.7031249999999881
 40
0.7031249999999881
 40
0.7187499999999888
 40
0.7187499999999888
 40
0.7499999999999919
 40
0.7499999999999919
 40
0.7656249999999925
 40
0.7656249999999925
 40
0.7812499999999931
 40
0.7812499999999931
 40
0.7968749999999937
 40
0.7968749999999937
 40
0.8124999999999942
 40
0.8124999999999942
 40
0.8437499999999954
 40
0.8437499999999954
 40
0.8749999999999967
 40
0.8749999999999967
 40
0.9062499999999979
 40
0.9062499999999979
 40
0.9218749999999983
 40
0.9218749999999983
 40
0.9374999999999988
 40
0.9531249999999993
 40
0.9531249999999993
 40
0.9687499999999998
 40
0.9687499999999998
 40
1.0
 40
1.0
 40
1.031249999999995
 40
1.031249999999995
 10
182.432820415403
 20
438.8926402768479
 30
0.0
 10
182.7562214088273
 20
440.7139674072459
 30
0.0
 10
182.8258624223812
 20
441.6252797508453
 30
0.0
 10
182.7978821249324
 20
442.9931816344074
 30
0.0
 10
182.7663175841561
 20
443.4493056470366
 30
0.0
 10
182.6576981774624
 20
444.3618742600212
 30
0.0
 10
182.5801113036766
 20
444.8196253297291
 30
0.0
 10
182.2835050930038
 20
446.1637591298875
 30
0.0
 10
182.0006945539307
 20
447.0306781001942
 30
0.0
 10
181.4500123966582
 20
448.287693213335
 30
0.0
 10
181.2444360165413
 20
448.7008044618033
 30
0.0
 10
180.7926597318563
 20
449.505706531528
 30
0.0
 10
180.5486769870893
 20
449.8938899280635
 30
0.0
 10
179.7641400942072
 20
451.0169738315844
 30
0.0
 10
179.171495115608
 20
451.7108005911585
 30
0.0
 10
178.1756047317044
 20
452.6672317493858
 30
0.0
 10
177.8257216884427
 20
452.9714088631618
 30
0.0
 10
177.1054215245796
 20
453.5379872628782
 30
0.0
 10
176.3609400525204
 20
454.0664830480172
 30
0.0
 10
175.5688272104293
 20
454.5199652279362
 30
0.0
 10
174.7525743794466
 20
454.935429866149
 30
0.0
 10
174.3300826093132
 20
455.1250033136079
 30
0.0
 10
173.0427522402132
 20
455.6275172850344
 30
0.0
 10
172.1639306315357
 20
455.8738888314624
 30
0.0
 10
170.8156208845739
 20
456.1140378301892
 30
0.0
 10
170.3611353269536
 20
456.1723641808928
 30
0.0
 10
169.4417591662072
 20
456.2442489693452
 30
0.0
 10
168.9796510332772
 20
456.2573589290604
 30
0.0
 10
167.6069067502756
 20
456.2291070488904
 30
0.0
 10
166.7014545760404
 20
456.1215380655577
 30
0.0
 10
165.3579234423622
 20
455.8263418639703
 30
0.0
 10
164.910132989753
 20
455.7045830195431
 30
0.0
 10
164.0356745468704
 20
455.4196555795985
 30
0.0
 10
163.6082867592882
 20
455.2566283233475
 30
0.0
 10
162.3549388132478
 20
454.7073371506282
 30
0.0
 10
161.5575128066518
 20
454.2614515290895
 30
0.0
 10
160.0419145125608
 20
453.2040807655256
 30
0.0
 10
159.3463119549559
 20
452.607920333907
 30
0.0
 10
158.3985515823179
 20
451.6214353252336
 30
0.0
 10
158.0983236844536
 20
451.2768626257539
 30
0.0
 10
157.5299126694185
 20
450.5555659783682
 30
0.0
 10
157.2608428032311
 20
450.1771036481026
 30
0.0
 10
156.5190749187317
 20
449.0164821281521
 30
0.0
 10
156.105722246323
 20
448.2035613266244
 30
0.0
 10
155.6059261171704
 20
446.9261473410283
 30
0.0
 10
155.4592576748814
 20
446.4897052859704
 30
0.0
 10
155.2088727159041
 20
445.6003848846929
 30
0.0
 10
155.1066427188193
 20
445.1531346705141
 30
0.0
 10
154.8665707146355
 20
443.8038699671948
 30
0.0
 10
154.7947200087165
 20
442.8944121032233
 30
0.0
 10
154.8219294465814
 20
441.5149998513197
 30
0.0
 10
154.8540243347097
 20
441.0520971097667
 30
0.0
 10
154.9623664361885
 20
440.1415318986004
 30
0.0
 10
155.1147607539682
 20
439.2410514950412
 30
0.0
 10
155.3537821851349
 20
438.3604025062303
 30
0.0
 10
155.6366314544058
 20
437.4897869584632
 30
0.0
 10
155.8008471858391
 20
437.0575496069793
 30
0.0
 10
156.3556511155001
 20
435.7905621722504
 30
0.0
 10
156.8027023444417
 20
434.9945536068953
 30
0.0
 10
157.5855719681879
 20
433.8713217297165
 30
0.0
 10
157.8653796569127
 20
433.508793457567
 30
0.0
 10
158.4637755703881
 20
432.8081812629583
 30
0.0
 10
158.7815688858905
 20
432.4714618892096
 30
0.0
 10
159.7723187674223
 20
431.5198003189179
 30
0.0
 10
160.4884104394655
 20
430.9553832621561
 30
0.0
 10
161.6461114813602
 20
430.2140152369558
 30
0.0
 10
162.0483892502456
 20
429.9834457553421
 30
0.0
 10
162.8686473271486
 20
429.5658551947195
 30
0.0
 10
163.286259762424
 20
429.3786510627613
 30
0.0
 10
164.5609699537478
 20
428.8801464676344
 30
0.0
 10
165.4397287649473
 20
428.6313426308332
 30
0.0
 10
166.8028318257321
 20
428.3878697549631
 30
0.0
 10
167.2604445608801
 20
428.3294225342415
 30
0.0
 10
168.1724979888141
 20
428.2579554636987
 30
0.0
 10
168.6284409958005
 20
428.2446614813096
 30
0.0
 10
169.5401612123491
 20
428.262519273391
 30
0.0
 10
169.9959384256585
 20
428.2936700430822
 30
0.0
 10
170.9073238674154
 20
428.4012718040622
 30
0.0
 10
171.3651752238925
 20
428.4783645046718
 30
0.0
 10
172.711475653244
 20
428.7741109152481
 30
0.0
 10
173.5787979344997
 20
429.0563837177131
 30
0.0
 10
175.2539728873685
 20
429.7884614898608
 30
0.0
 10
176.0675352778854
 20
430.2440096325383
 30
0.0
 10
177.567026039321
 20
431.2895063140798
 30
0.0
 10
178.2610013453336
 20
431.8814370232653
 30
0.0
 10
179.216902933126
 20
432.8748510938465
 30
0.0
 10
179.5218826377906
 20
433.2248882935184
 30
0.0
 10
180.0898422433247
 20
433.9455635427997
 30
0.0
 10
180.6193193523345
 20
434.6900959776991
 30
0.0
 10
181.0732496515618
 20
435.4814635825229
 30
0.0
 10
181.4890236285583
 20
436.2964861615348
 30
0.0
 10
181.6783171048127
 20
436.7170783528631
 30
0.0
 10
182.1834289642676
 20
438.0072878867931
 30
0.0
 10
182.432820415403
 20
438.8926402768479
 30
0.0
 10
182.7562214088273
 20
440.7139674072459
 30
0.0
  0
CIRCLE
  5
1FA
330
1F
100
AcDbEntity
  8
0
  6
SLD-Solid
 62
     7
370
    15
100
AcDbCircle
 10
168.8064099483
 20
442.2483026955
 30
0.0
 40
91.49999999999993
  0
CIRCLE
  5
1FB
330
1F
100
AcDbEntity
  8
0
  6
SLD-Solid
 62
     7
370
    15
100
AcDbCircle
 10
168.8064099483
 20
442.2483026955
 30
0.0
 40
93.50000000000001
  0
LINE
  5
1FC
330
1F
100
AcDbEntity
  8
0
  6
SLD-Solid
 62
   142
420
    32960
370
     0
100
AcDbLine
 10
459.3295916801
 20
-91.2685058076
 30
0.0
 11
459.3295916801
 21
-93.1500448968
 31
0.0
  0
ARC
  5
1FD
330
1F
100
AcDbEntity
  8
0
  6
SLD-Solid
 62
   142
420
    32960
370
     0
100
AcDbCircle
 10
460.3007299834
 20
-93.1193575121
 30
0.0
 40
0.9716230336753859
100
AcDbArc
 50
181.809909826
 51
271.7021999702
  0
LINE
  5
1FE
330
1F
100
AcDbEntity
  8
0
  6
SLD-Solid
 62
   142
420
    32960
370
     0
100
AcDbLine
 10
460.3295916801
 20
-94.0905517883
 30
0.0
 11
462.3295916801
 21
-94.0905517883
 31
0.0
  0
ARC
  5
1FF
330
1F
100
AcDbEntity
  8
0
  6
SLD-Solid
 62
   142
420
    32960
370
     0
100
AcDbCircle
 10
462.3584533769
 20
-93.1193575121
 30
0.0
 40
0.9716230336755771
100
AcDbArc
 50
268.2978000298
 51
358.190090174
  0
LINE
  5
200
330
1F
100
AcDbEntity
  8
0
  6
SLD-Solid
 62
   142
420
    32960
370
     0
100
AcDbLine
 10
463.3295916801
 20
-91.2685058076
 30
0.0
 11
463.3295916801
 21
-93.1500448968
 31
0.0
  0
LINE
  5
201
330
1F
100
AcDbEntity
  8
0
  6
SLD-Solid
 62
   142
420
    32960
370
     0
100
AcDbLine
 10
806.8295916901
 20
673.7983026953
 30
0.0
 11
817.3295916905
 21
673.7983026953
 31
0.0
  0
LINE
  5
202
330
1F
100
AcDbEntity
  8
0
  6
SLD-Solid
 62
   142
420
    32960
370
     0
100
AcDbLine
 10
842.3295916905
 20
673.7983026953
 30
0.0
 11
846.8295916901
 21
673.7983026953
 31
0.0
  0
LINE
  5
203
330
1F
100
AcDbEntity
  8
0
  6
SLD-Solid
 62
   142
420
    32960
370
     0
100
AcDbLine
 10
786.8295916901
 20
673.7983026953
 30
0.0
 11
806.8295916901
 21
673.7983026953
 31
0.0
  0
LINE
  5
204
330
1F
100
AcDbEntity
  8
0
  6
SLD-Solid
 62
     7
370
    15
100
AcDbLine
 10
40.8295916901
 20
673.7983026953
 30
0.0
 11
786.8295916901
 21
673.7983026953
 31
0.0
  0
LINE
  5
205
330
1F
100
AcDbEntity
  8
0
  6
SLD-Solid
 62
   142
420
    32960
370
     0
100
AcDbLine
 10
20.8295916901
 20
673.7983026953
 30
0.0
 11
40.8295916901
 21
673.7983026953
 31
0.0
  0
LINE
  5
206
330
1F
100
AcDbEntity
  8
0
  6
SLD-Solid
 62
     7
370
    15
100
AcDbLine
 10
-19.1704083099
 20
673.7983026953
 30
0.0
 11
20.8295916901
 21
673.7983026953
 31
0.0
  0
LINE
  5
207
330
1F
100
AcDbEntity
  8
0
  6
SLD-Solid
 62
   142
420
    32960
370
     0
100
AcDbLine
 10
20.8295916901
 20
673.7983026953
 30
0.0
 11
20.8295916901
 21
673.1983026953
 31
0.0
  0
LINE
  5
208
330
1F
100
AcDbEntity
  8
0
  6
SLD-Solid
 62
   142
420
    32960
370
     0
100
AcDbLine
 10
-19.1704083099
 20
673.7983026953
 30
0.0
 11
-19.1704083099
 21
673.1983026953
 31
0.0
  0
LINE
  5
209
330
1F
100
AcDbEntity
  8
0
  6
SLD-Solid
 62
   142
420
    32960
370
     0
100
AcDbLine
 10
786.8295916901
 20
673.7983026953
 30
0.0
 11
786.8295916901
 21
673.1983026953
 31
0.0
  0
LINE
  5
20A
330
1F
100
AcDbEntity
  8
0
  6
SLD-Solid
 62
   142
420
    32960
370
     0
100
AcDbLine
 10
40.8295916901
 20
673.7983026953
 30
0.0
 11
40.8295916901
 21
673.1983026953
 31
0.0
  0
LINE
  5
20B
330
1F
100
AcDbEntity
  8
0
  6
SLD-Solid
 62
   142
420
    32960
370
     0
100
AcDbLine
 10
846.8295916901
 20
673.1983026953
 30
0.0
 11
846.8295916901
 21
673.7983026953
 31
0.0
  0
CIRCLE
  5
20C
330
1F
100
AcDbEntity
  8
0
  6
SLD-Solid
 62
     7
370
    15
100
AcDbCircle
 10
168.8064099483
 20
442.2483026955
 30
0.0
 40
98.09941204801844
  0
LINE
  5
20D
330
1F
100
AcDbEntity
  8
0
  6
SLD-Solid
 62
   142
420
    32960
370
     0
100
AcDbLine
 10
606.52964306
 20
-92.2570432505
 30
0.0
 11
606.52964306
 21
-91.2685058076
 31
0.0
  0
LWPOLYLINE
  5
20E
330
1F
100
AcDbEntity
  8
0
  6
SLD-Solid
 62
   142
420
    32960
370
     0
100
AcDbPolyline
 90
       16
 70
   128
 43
0.0
 10
607.52964306
 20
-92.2570432505
 10
608.4275782141
 20
-92.611486477
 10
609.1134043216
 20
-93.2617003206
 10
609.4830608176
 20
-94.1090276739
 10
609.4804596306
 20
-95.0249033481
 10
609.1059954394
 20
-95.8703613008
 10
608.4164857882
 20
-96.5171199876
 10
607.516550147
 20
-96.8670465532
 10
606.542735973
 20
-96.8670465532
 10
605.6428003317
 20
-96.5171199876
 10
604.9532906805
 20
-95.8703613008
 10
604.5788264893
 20
-95.0249033481
 10
604.5762253023
 20
-94.1090276739
 10
604.9458817984
 20
-93.2617003206
 10
605.6317079059
 20
-92.611486477
 10
606.52964306
 20
-92.2570432505
  0
LINE
  5
20F
330
1F
100
AcDbEntity
  8
0
  6
SLD-Solid
 62
   142
420
    32960
370
     0
100
AcDbLine
 10
607.52964306
 20
-92.2570432505
 30
0.0
 11
607.52964306
 21
-91.2685058076
 31
0.0
  0
CIRCLE
  5
210
330
1F
100
AcDbEntity
  8
0
  6
SLD-Solid
 62
   142
420
    32960
370
     0
100
AcDbCircle
 10
830.8295916901
 20
651.3983026953
 30
0.0
 40
10.5
  0
LINE
  5
211
330
1F
100
AcDbEntity
  8
0
  6
SLD-Solid
 62
   142
420
    32960
370
     0
100
AcDbLine
 10
598.8295916901
 20
637.5278265677
 30
0.0
 11
598.8295916901
 21
665.7880945214
 31
0.0
  0
LINE
  5
212
330
1F
100
AcDbEntity
  8
0
  6
SLD-Solid
 62
   142
420
    32960
370
     0
100
AcDbLine
 10
513.8295916901
 20
665.7880945214
 30
0.0
 11
513.8295916901
 21
637.5278265677
 31
0.0
  0
LWPOLYLINE
  5
213
330
1F
100
AcDbEntity
  8
0
  6
SLD-Solid
 62
   142
420
    32960
370
     0
100
AcDbPolyline
 90
        3
 70
   128
 43
0.0
 10
750.8295916901
 20
640.8983026953
 10
752.7589616272
 20
641.0770851486
 10
753.2696367874
 20
641.1857525767
  0
ARC
  5
214
330
1F
100
AcDbEntity
  8
0
  6
SLD-Solid
 62
   142
420
    32960
370
     0
100
AcDbCircle
 10
750.8295916901
 20
651.3983026953
 30
0.0
 40
10.50000000000009
100
AcDbArc
 50
21.0367780838
 51
270.0
  0
LINE
  5
215
330
1F
100
AcDbEntity
  8
0
  6
SLD-Solid
 62
   142
420
    32960
370
     0
100
AcDbLine
 10
228.8295916901
 20
665.7880945214
 30
0.0
 11
228.8295916901
 21
637.5278265677
 31
0.0
  0
LINE
  5
216
330
1F
100
AcDbEntity
  8
0
  6
SLD-Solid
 62
   142
420
    32960
370
     0
100
AcDbLine
 10
313.8295916901
 20
637.5278265677
 30
0.0
 11
313.8295916901
 21
665.7880945214
 31
0.0
  0
LINE
  5
217
330
1F
100
AcDbEntity
  8
0
  6
SLD-Solid
 62
     7
370
    15
100
AcDbLine
 10
48.8564099483
 20
28.7983026955
 30
0.0
 11
288.7564099483
 21
28.7983026955
 31
0.0
  0
LINE
  5
218
330
1F
100
AcDbEntity
  8
0
  6
SLD-Solid
 62
     7
370
    15
100
AcDbLine
 10
288.7564099483
 20
590.6983026955
 30
0.0
 11
48.8564099483
 21
590.6983026955
 31
0.0
  0
LINE
  5
219
330
1F
100
AcDbEntity
  8
0
  6
SLD-Solid
 62
     7
370
    15
100
AcDbLine
 10
288.7564099483
 20
28.7983026955
 30
0.0
 11
288.7564099483
 21
590.6983026955
 31
0.0
  0
LINE
  5
21A
330
1F
100
AcDbEntity
  8
0
  6
SLD-Solid
 62
     7
370
    15
100
AcDbLine
 10
48.8564099483
 20
590.6983026955
 30
0.0
 11
48.8564099483
 21
28.7983026955
 31
0.0
  0
ARC
  5
21B
330
1F
100
AcDbEntity
  8
0
  6
SLD-Solid
 62
   142
420
    32960
370
     0
100
AcDbCircle
 10
757.7718682866
 20
-93.0546926662
 30
0.0
 40
1.943246067350887
100
AcDbArc
 50
181.809909826
 51
271.7021999702
  0
LINE
  5
21C
330
1F
100
AcDbEntity
  8
0
  6
SLD-Solid
 62
   142
420
    32960
370
     0
100
AcDbLine
 10
757.8295916801
 20
-94.9970812185
 30
0.0
 11
759.8295916801
 21
-94.9970812185
 31
0.0
  0
ARC
  5
21D
330
1F
100
AcDbEntity
  8
0
  6
SLD-Solid
 62
   142
420
    32960
370
     0
100
AcDbCircle
 10
759.8873150737
 20
-93.0546926662
 30
0.0
 40
1.9432460673506
100
AcDbArc
 50
268.2978000298
 51
358.190090174
  0
CIRCLE
  5
21E
330
1F
100
AcDbEntity
  8
0
  6
SLD-Solid
 62
     7
370
    15
100
AcDbCircle
 10
825.8295916798
 20
40.7483026955
 30
0.0
 40
7.499999999999886
  0
CIRCLE
  5
21F
330
1F
100
AcDbEntity
  8
0
  6
SLD-Solid
 62
     7
370
    15
100
AcDbCircle
 10
825.8295916782
 20
578.7483026955
 30
0.0
 40
7.500000000000114
  0
LINE
  5
220
330
1F
100
AcDbEntity
  8
0
  6
SLD-Solid
 62
     7
370
    15
100
AcDbLine
 10
861.8295916798
 20
28.7483026956
 30
0.0
 11
861.8295916782
 21
590.7483026956
 31
0.0
  0
LINE
  5
221
330
1F
100
AcDbEntity
  8
0
  6
SLD-Solid
 62
     7
370
    15
100
AcDbLine
 10
783.8295916798
 20
28.7483026954
 30
0.0
 11
861.8295916798
 21
28.7483026956
 31
0.0
  0
LINE
  5
222
330
1F
100
AcDbEntity
  8
0
  6
SLD-Solid
 62
     7
370
    15
100
AcDbLine
 10
783.8295916782
 20
590.7483026954
 30
0.0
 11
783.8295916798
 21
28.7483026954
 31
0.0
  0
LINE
  5
223
330
1F
100
AcDbEntity
  8
0
  6
SLD-Solid
 62
     7
370
    15
100
AcDbLine
 10
861.8295916782
 20
590.7483026956
 30
0.0
 11
783.8295916782
 21
590.7483026954
 31
0.0
  0
CIRCLE
  5
224
330
1F
100
AcDbEntity
  8
0
  6
SLD-Solid
 62
     7
370
    15
100
AcDbCircle
 10
825.8295916782
 20
578.7483026955
 30
0.0
 40
4.0
  0
CIRCLE
  5
225
330
1F
100
AcDbEntity
  8
0
  6
SLD-Solid
 62
     7
370
    15
100
AcDbCircle
 10
825.8295916798
 20
40.7483026955
 30
0.0
 40
4.0
  0
LINE
  5
226
330
1F
100
AcDbEntity
  8
0
  6
SLD-Solid
 62
     7
370
    15
100
AcDbLine
 10
863.829591678
 20
57.2483026937
 30
0.0
 11
863.829591678
 21
52.2483026937
 31
0.0
  0
LINE
  5
227
330
1F
100
AcDbEntity
  8
0
  6
SLD-Solid
 62
     7
370
    15
100
AcDbLine
 10
863.829591678
 20
562.2483026937
 30
0.0
 11
863.829591678
 21
57.2483026937
 31
0.0
  0
LINE
  5
228
330
1F
100
AcDbEntity
  8
0
  6
SLD-Solid
 62
     7
370
    15
100
AcDbLine
 10
863.829591678
 20
567.2483026937
 30
0.0
 11
863.829591678
 21
562.2483026937
 31
0.0
  0
LINE
  5
229
330
1F
100
AcDbEntity
  8
0
  6
SLD-Solid
 62
   142
420
    32960
370
     0
100
AcDbLine
 10
863.029591678
 20
562.2483026937
 30
0.0
 11
863.029591678
 21
57.2483026937
 31
0.0
  0
LINE
  5
22A
330
1F
100
AcDbEntity
  8
0
  6
SLD-Solid
 62
   142
420
    32960
370
     0
100
AcDbLine
 10
863.829591678
 20
52.2483026937
 30
0.0
 11
863.029591678
 21
52.2483026937
 31
0.0
  0
LINE
  5
22B
330
1F
100
AcDbEntity
  8
0
  6
SLD-Solid
 62
   142
420
    32960
370
     0
100
AcDbLine
 10
863.029591678
 20
57.2483026937
 30
0.0
 11
863.029591678
 21
52.2483026937
 31
0.0
  0
LINE
  5
22C
330
1F
100
AcDbEntity
  8
0
  6
SLD-Solid
 62
     7
370
    15
100
AcDbLine
 10
863.829591678
 20
567.2483026937
 30
0.0
 11
863.029591678
 21
567.2483026937
 31
0.0
  0
LINE
  5
22D
330
1F
100
AcDbEntity
  8
0
  6
SLD-Solid
 62
   142
420
    32960
370
     0
100
AcDbLine
 10
863.029591678
 20
567.2483026937
 30
0.0
 11
863.029591678
 21
562.2483026937
 31
0.0
  0
LINE
  5
22E
330
1F
100
AcDbEntity
  8
0
  6
SLD-Solid
 62
   142
420
    32960
370
     0
100
AcDbLine
 10
863.0295916905
 20
567.2483026937
 30
0.0
 11
862.8472995087
 21
567.2483026937
 31
0.0
  0
LINE
  5
22F
330
1F
100
AcDbEntity
  8
0
  6
SLD-Solid
 62
   142
420
    32960
370
     0
100
AcDbLine
 10
862.8472995087
 20
52.2483026937
 30
0.0
 11
863.0295916905
 21
52.2483026937
 31
0.0
  0
ARC
  5
230
330
1F
100
AcDbEntity
  8
0
  6
SLD-Solid
 62
   142
420
    32960
370
     0
100
AcDbCircle
 10
367.3285329004
 20
-93.0675875377
 30
0.0
 40
0.4995683053119176
100
AcDbArc
 50
182.8711035151
 51
298.8471995542
  0
LINE
  5
231
330
1F
100
AcDbEntity
  8
0
  6
SLD-Solid
 62
   142
420
    32960
370
     0
100
AcDbLine
 10
366.8295916801
 20
-93.0926105348
 30
0.0
 11
366.8295916801
 21
-91.2685058076
 31
0.0
  0
LINE
  5
232
330
1F
100
AcDbEntity
  8
0
  6
SLD-Solid
 62
   142
420
    32960
370
     0
100
AcDbLine
 10
371.9166460175
 20
-91.2685058076
 30
0.0
 11
367.5695623189
 21
-93.5051641722
 31
0.0
  0
LINE
  5
233
330
1F
100
AcDbEntity
  8
0
  6
SLD-Solid
 62
   142
420
    32960
370
     0
100
AcDbLine
 10
180.8295916808
 20
-95.9715655712
 30
0.0
 11
180.8295916808
 21
-91.2685058076
 31
0.0
  0
ARC
  5
234
330
1F
100
AcDbEntity
  8
0
  6
SLD-Solid
 62
   142
420
    32960
370
     0
100
AcDbCircle
 10
179.8584533776
 20
-95.9408781865
 30
0.0
 40
0.9716230336754743
100
AcDbArc
 50
268.2978000298
 51
358.190090174
  0
LINE
  5
235
330
1F
100
AcDbEntity
  8
0
  6
SLD-Solid
 62
   142
420
    32960
370
     0
100
AcDbLine
 10
179.8295916808
 20
-96.9120724627
 30
0.0
 11
159.8295916808
 21
-96.9120724627
 31
0.0
  0
ARC
  5
236
330
1F
100
AcDbEntity
  8
0
  6
SLD-Solid
 62
   142
420
    32960
370
     0
100
AcDbCircle
 10
159.800729984
 20
-95.9408781865
 30
0.0
 40
0.9716230336753864
100
AcDbArc
 50
181.809909826
 51
271.7021999702
  0
LINE
  5
237
330
1F
100
AcDbEntity
  8
0
  6
SLD-Solid
 62
   142
420
    32960
370
     0
100
AcDbLine
 10
158.8295916808
 20
-91.2685058076
 30
0.0
 11
158.8295916808
 21
-95.9715655712
 31
0.0
  0
LWPOLYLINE
  5
238
330
1F
100
AcDbEntity
  8
0
  6
SLD-Solid
 62
   142
420
    32960
370
     0
100
AcDbPolyline
 90
       17
 70
   128
 43
0.0
 10
162.8295916808
 20
-95.9715655712
 10
163.7863002617
 20
-95.7925860106
 10
164.5973586338
 20
-95.2828953443
 10
165.1392905121
 20
-94.520089356
 10
165.3295916808
 20
-93.6202983425
 10
165.1392905121
 20
-92.720507329
 10
164.5973586338
 20
-91.9577013407
 10
163.7863002617
 20
-91.4480106745
 10
162.8295916808
 20
-91.2690311139
 10
161.8728830999
 20
-91.4480106745
 10
161.0618247278
 20
-91.9577013407
 10
160.5198928495
 20
-92.720507329
 10
160.3295916808
 20
-93.6202983425
 10
160.5198928495
 20
-94.520089356
 10
161.0618247278
 20
-95.2828953443
 10
161.8728830999
 20
-95.7925860106
 10
162.8295916808
 20
-95.9715655712
  0
SPLINE
  5
239
330
1F
100
AcDbEntity
  8
0
  6
SLD-Solid
 62
   142
420
    32960
370
     0
100
AcDbSpline
210
0.0
220
0.0
230
1.0
 70
     8
 71
     3
 72
    10
 73
     6
 74
     0
 42
0.00000001
 43
0.00000001
 40
0.0
 40
0.0
 40
0.0
 40
0.0
 40
0.5
 40
0.5
 40
1.0
 40
1.0
 40
1.0
 40
1.0
 10
475.5517566657967
 20
-126.7316976944854
 30
0.0
 10
498.0762964580894
 20
-125.4170525086824
 30
0.0
 10
520.581604766229
 20
-123.7723335701866
 30
0.0
 10
565.524836671232
 20
-119.8253819003716
 30
0.0
 10
587.965110529382
 20
-117.5230772691556
 30
0.0
 10
610.3740194283155
 20
-114.8917043335695
 30
0.0
  0
SPLINE
  5
23A
330
1F
100
AcDbEntity
  8
0
  6
SLD-Solid
 62
   142
420
    32960
370
     0
100
AcDbSpline
210
0.0
220
0.0
230
1.0
 70
     8
 71
     3
 72
    11
 73
     7
 74
     0
 42
0.00000001
 43
0.00000001
 40
0.0
 40
0.0
 40
0.0
 40
0.0
 40
0.2808699700139545
 40
0.560328235004034
 40
0.8485035459063304
 40
1.0
 40
1.0
 40
1.0
 40
1.0
 10
610.3740194283155
 20
-114.8917043335695
 30
0.0
 10
611.20327868041
 20
-114.7022062325394
 30
0.0
 10
612.8576291724321
 20
-114.3241624833923
 30
0.0
 10
614.9338785886715
 20
-112.7512963187702
 30
0.0
 10
616.2946888495779
 20
-111.0136228025636
 30
0.0
 10
616.6840870900214
 20
-109.7460940375681
 30
0.0
 10
616.8182609382285
 20
-109.3093452430207
 30
0.0
  0
LINE
  5
23B
330
1F
100
AcDbEntity
  8
0
  6
SLD-Solid
 62
   142
420
    32960
370
     0
100
AcDbLine
 10
475.5133439328
 20
-126.0725868982
 30
0.0
 11
475.5517566658
 21
-126.7316976945
 31
0.0
  0
LINE
  5
23C
330
1F
100
AcDbEntity
  8
0
  6
SLD-Solid
 62
     7
370
    15
100
AcDbLine
 10
124.1825306758
 20
-101.7663600762
 30
0.0
 11
123.4764390479
 21
-91.2685058076
 31
0.0
  0
LINE
  5
23D
330
1F
100
AcDbEntity
  8
0
  6
SLD-Solid
 62
     7
370
    15
100
AcDbLine
 10
120.4757911148
 20
-91.2685058076
 30
0.0
 11
121.183178469
 21
-101.7856243534
 31
0.0
  0
LINE
  5
23E
330
1F
100
AcDbEntity
  8
0
  6
SLD-Solid
 62
   142
420
    32960
370
     0
100
AcDbLine
 10
121.183178469
 20
-101.3100960952
 30
0.0
 11
121.183178469
 21
-101.7856243534
 31
0.0
  0
ARC
  5
23F
330
1F
100
AcDbEntity
  8
0
  6
SLD-Solid
 62
     7
370
    15
100
AcDbCircle
 10
122.309878413
 20
-45.7376666738
 30
0.0
 40
56.62621917398132
100
AcDbArc
 50
263.8307972237
 51
279.4779608697
  0
ARC
  5
240
330
1F
100
AcDbEntity
  8
0
  6
SLD-Solid
 62
   142
420
    32960
370
     0
100
AcDbCircle
 10
120.1451914607
 20
-131.8923553149
 30
0.0
 40
41.05778899547344
100
AcDbArc
 50
98.3375352898
 51
102.3357789541
  0
ARC
  5
241
330
1F
100
AcDbEntity
  8
0
  6
SLD-Solid
 62
   142
420
    32960
370
     0
100
AcDbCircle
 10
124.2206825895
 20
-133.6370631665
 30
0.0
 40
42.82660436184993
100
AcDbArc
 50
78.6642404363
 51
81.6126711227
  0
LWPOLYLINE
  5
242
330
1F
100
AcDbEntity
  8
0
  6
SLD-Solid
 62
   142
420
    32960
370
     0
100
AcDbPolyline
 90
        9
 70
   128
 43
0.0
 10
121.183178469
 20
-101.7856243534
 10
121.3092628553
 20
-101.962236374
 10
121.6444641289
 20
-102.1104944097
 10
122.1377509345
 20
-102.2078275184
 10
122.7140248276
 20
-102.2394176168
 10
123.2855533319
 20
-102.2004553987
 10
123.7653264135
 20
-102.0968725086
 10
124.08030297
 20
-101.9444385026
 10
124.1825306758
 20
-101.7663600762
  0
ARC
  5
243
330
1F
100
AcDbEntity
  8
0
  6
SLD-Solid
 62
   142
420
    32960
370
     0
100
AcDbCircle
 10
123.2034758245
 20
-101.3361027748
 30
0.0
 40
0.990123064581487
100
AcDbArc
 50
20.6260143297
 51
91.1996321525
  0
ARC
  5
244
330
1F
100
AcDbEntity
  8
0
  6
SLD-Solid
 62
   142
420
    32960
370
     0
100
AcDbCircle
 10
122.166545408
 20
-101.3361943494
 30
0.0
 40
0.9837131979217315
100
AcDbArc
 50
89.0437498203
 51
178.479744616
  0
LWPOLYLINE
  5
245
330
1F
100
AcDbEntity
  8
0
  6
SLD-Solid
 62
   142
420
    32960
370
     0
100
AcDbPolyline
 90
        9
 70
   128
 43
0.0
 10
122.1829625379
 20
-100.3526181532
 10
122.2249906667
 20
-100.4114888268
 10
122.3367244245
 20
-100.460908172
 10
122.5011533597
 20
-100.4933525416
 10
122.6932446574
 20
-100.5038825744
 10
122.8837541589
 20
-100.4908951683
 10
123.0436785194
 20
-100.4563675383
 10
123.1486707049
 20
-100.405556203
 10
123.1827466069
 20
-100.3461967275
  0
LINE
  5
246
330
1F
100
AcDbEntity
  8
0
  6
SLD-Solid
 62
     7
370
    15
100
AcDbLine
 10
131.9882251276
 20
-94.8221088501
 30
0.0
 11
131.9810323817
 21
-95.024347971
 31
0.0
  0
ARC
  5
247
330
1F
100
AcDbEntity
  8
0
  6
SLD-Solid
 62
   142
420
    32960
370
     0
100
AcDbCircle
 10
132.7208932291
 20
-90.7472548875
 30
0.0
 40
0.902417983622376
100
AcDbArc
 50
264.7678079873
 51
324.7169724726
  0
ARC
  5
248
330
1F
100
AcDbEntity
  8
0
  6
SLD-Solid
 62
   142
420
    32960
370
     0
100
AcDbCircle
 10
133.1876120731
 20
-100.2080029847
 30
0.0
 40
1.061709549447806
100
AcDbArc
 50
275.2953648406
 51
357.8625501149
  0
ARC
  5
249
330
1F
100
AcDbEntity
  8
0
  6
SLD-Solid
 62
   142
420
    32960
370
     0
100
AcDbCircle
 10
111.2765658225
 20
-90.9207687043
 30
0.0
 40
0.867169754479791
100
AcDbArc
 50
203.6408547397
 51
276.4237872689
  0
ARC
  5
24A
330
1F
100
AcDbEntity
  8
0
  6
SLD-Solid
 62
   142
420
    32960
370
     0
100
AcDbCircle
 10
112.0966467748
 20
-100.3542724928
 30
0.0
 40
1.050248067626645
100
AcDbArc
 50
182.3108329096
 51
265.8467700463
  0
ARC
  5
24B
330
1F
100
AcDbEntity
  8
0
  6
SLD-Solid
 62
   142
420
    32960
370
     0
100
AcDbCircle
 10
133.4276688654
 20
-100.9482907086
 30
0.0
 40
0.347280871756418
100
AcDbArc
 50
245.8518742169
 51
330.4251583824
  0
ARC
  5
24C
330
1F
100
AcDbEntity
  8
0
  6
SLD-Solid
 62
   142
420
    32960
370
     0
100
AcDbCircle
 10
111.8832779436
 20
-101.123950474
 30
0.0
 40
0.3098908923391606
100
AcDbArc
 50
212.1604343531
 51
296.3003838297
  0
ARC
  5
24D
330
1F
100
AcDbEntity
  8
0
  6
SLD-Solid
 62
   142
420
    32960
370
     0
100
AcDbCircle
 10
133.7882817305
 20
-100.4051544482
 30
0.0
 40
0.4865183761404847
100
AcDbArc
 50
304.7108767556
 51
18.8951737499
  0
ARC
  5
24E
330
1F
100
AcDbEntity
  8
0
  6
SLD-Solid
 62
   142
420
    32960
370
     0
100
AcDbCircle
 10
111.5182550765
 20
-100.5287970903
 30
0.0
 40
0.4891974525256533
100
AcDbArc
 50
164.3242332387
 51
228.9027576801
  0
LINE
  5
24F
330
1F
100
AcDbEntity
  8
0
  6
SLD-Solid
 62
     7
370
    15
100
AcDbLine
 10
863.8295916801
 20
-102.1789110549
 30
0.0
 11
863.8295916799
 21
-89.9685058076
 31
0.0
  0
LINE
  5
250
330
1F
100
AcDbEntity
  8
0
  6
SLD-Solid
 62
     7
370
    15
100
AcDbLine
 10
-36.1704083199
 20
-102.1789110549
 30
0.0
 11
-36.1704083201
 21
-89.9685058076
 31
0.0
  0
LINE
  5
251
330
1F
100
AcDbEntity
  8
0
  6
SLD-Solid
 62
   142
420
    32960
370
     0
100
AcDbLine
 10
181.8295916808
 20
-95.9715655712
 30
0.0
 11
181.8295916808
 21
-91.2685058076
 31
0.0
  0
ARC
  5
252
330
1F
100
AcDbEntity
  8
0
  6
SLD-Solid
 62
   142
420
    32960
370
     0
100
AcDbCircle
 10
179.8873150744
 20
-95.9101908018
 30
0.0
 40
1.943246067350832
100
AcDbArc
 50
268.2978000298
 51
358.190090174
  0
LINE
  5
253
330
1F
100
AcDbEntity
  8
0
  6
SLD-Solid
 62
   142
420
    32960
370
     0
100
AcDbLine
 10
179.8295916808
 20
-97.8525793541
 30
0.0
 11
159.8295916808
 21
-97.8525793541
 31
0.0
  0
ARC
  5
254
330
1F
100
AcDbEntity
  8
0
  6
SLD-Solid
 62
   142
420
    32960
370
     0
100
AcDbCircle
 10
159.7718682873
 20
-95.9101908018
 30
0.0
 40
1.943246067350736
100
AcDbArc
 50
181.809909826
 51
271.7021999702
  0
LINE
  5
255
330
1F
100
AcDbEntity
  8
0
  6
SLD-Solid
 62
   142
420
    32960
370
     0
100
AcDbLine
 10
157.8295916808
 20
-91.2685058076
 30
0.0
 11
157.8295916808
 21
-95.9715655712
 31
0.0
  0
LINE
  5
256
330
1F
100
AcDbEntity
  8
0
  6
SLD-Solid
 62
   142
420
    32960
370
     0
100
AcDbLine
 10
327.5795916827
 20
-95.9715655712
 30
0.0
 11
327.5795916827
 21
-91.2685058076
 31
0.0
  0
ARC
  5
257
330
1F
100
AcDbEntity
  8
0
  6
SLD-Solid
 62
   142
420
    32960
370
     0
100
AcDbCircle
 10
325.6373150763
 20
-95.9101908018
 30
0.0
 40
1.943246067350738
100
AcDbArc
 50
268.2978000298
 51
358.190090174
  0
LINE
  5
258
330
1F
100
AcDbEntity
  8
0
  6
SLD-Solid
 62
   142
420
    32960
370
     0
100
AcDbLine
 10
325.5795916827
 20
-97.8525793541
 30
0.0
 11
305.5795916827
 21
-97.8525793541
 31
0.0
  0
ARC
  5
259
330
1F
100
AcDbEntity
  8
0
  6
SLD-Solid
 62
   142
420
    32960
370
     0
100
AcDbCircle
 10
305.5218682892
 20
-95.9101908018
 30
0.0
 40
1.943246067350863
100
AcDbArc
 50
181.809909826
 51
271.7021999702
  0
LINE
  5
25A
330
1F
100
AcDbEntity
  8
0
  6
SLD-Solid
 62
   142
420
    32960
370
     0
100
AcDbLine
 10
303.5795916827
 20
-91.2685058076
 30
0.0
 11
303.5795916827
 21
-95.9715655712
 31
0.0
  0
ARC
  5
25B
330
1F
100
AcDbEntity
  8
0
  6
SLD-Solid
 62
   142
420
    32960
370
     0
100
AcDbCircle
 10
366.5588702308
 20
-90.5684081017
 30
0.0
 40
7.287778772598076
100
AcDbArc
 50
268.1971377392
 51
354.4874016254
  0
ARC
  5
25C
330
1F
100
AcDbEntity
  8
0
  6
SLD-Solid
 62
   142
420
    32960
370
     0
100
AcDbCircle
 10
366.16021682
 20
-90.5003225307
 30
0.0
 40
7.354207516107903
100
AcDbArc
 50
185.9957640202
 51
271.3196966152
  0
LINE
  5
25D
330
1F
100
AcDbEntity
  8
0
  6
SLD-Solid
 62
   142
420
    32960
370
     0
100
AcDbLine
 10
764.8295916801
 20
-95.9715655712
 30
0.0
 11
764.8295916801
 21
-91.2685058076
 31
0.0
  0
ARC
  5
25E
330
1F
100
AcDbEntity
  8
0
  6
SLD-Solid
 62
   142
420
    32960
370
     0
100
AcDbCircle
 10
762.8873150737
 20
-95.9101908018
 30
0.0
 40
1.94324606735092
100
AcDbArc
 50
268.2978000298
 51
358.190090174
  0
LINE
  5
25F
330
1F
100
AcDbEntity
  8
0
  6
SLD-Solid
 62
   142
420
    32960
370
     0
100
AcDbLine
 10
762.8295916801
 20
-97.8525793541
 30
0.0
 11
742.8295916801
 21
-97.8525793541
 31
0.0
  0
ARC
  5
260
330
1F
100
AcDbEntity
  8
0
  6
SLD-Solid
 62
   142
420
    32960
370
     0
100
AcDbCircle
 10
742.7718682866
 20
-95.9101908018
 30
0.0
 40
1.943246067350916
100
AcDbArc
 50
181.809909826
 51
271.7021999702
  0
LINE
  5
261
330
1F
100
AcDbEntity
  8
0
  6
SLD-Solid
 62
   142
420
    32960
370
     0
100
AcDbLine
 10
740.8295916801
 20
-91.2685058076
 30
0.0
 11
740.8295916801
 21
-95.9715655712
 31
0.0
  0
LINE
  5
262
330
1F
100
AcDbEntity
  8
0
  6
SLD-Solid
 62
   142
420
    32960
370
     0
100
AcDbLine
 10
473.3295916801
 20
-95.9715655712
 30
0.0
 11
473.3295916801
 21
-91.2685058076
 31
0.0
  0
ARC
  5
263
330
1F
100
AcDbEntity
  8
0
  6
SLD-Solid
 62
   142
420
    32960
370
     0
100
AcDbCircle
 10
471.3873150737
 20
-95.9101908018
 30
0.0
 40
1.943246067350848
100
AcDbArc
 50
268.2978000298
 51
358.190090174
  0
LINE
  5
264
330
1F
100
AcDbEntity
  8
0
  6
SLD-Solid
 62
   142
420
    32960
370
     0
100
AcDbLine
 10
471.3295916801
 20
-97.8525793541
 30
0.0
 11
451.3295916801
 21
-97.8525793541
 31
0.0
  0
ARC
  5
265
330
1F
100
AcDbEntity
  8
0
  6
SLD-Solid
 62
   142
420
    32960
370
     0
100
AcDbCircle
 10
451.2718682866
 20
-95.9101908018
 30
0.0
 40
1.943246067350822
100
AcDbArc
 50
181.809909826
 51
271.7021999702
  0
LINE
  5
266
330
1F
100
AcDbEntity
  8
0
  6
SLD-Solid
 62
   142
420
    32960
370
     0
100
AcDbLine
 10
449.3295916801
 20
-91.2685058076
 30
0.0
 11
449.3295916801
 21
-95.9715655712
 31
0.0
  0
LINE
  5
267
330
1F
100
AcDbEntity
  8
0
  6
SLD-Solid
 62
   142
420
    32960
370
     0
100
AcDbLine
 10
605.52964306
 20
-91.586661302
 30
0.0
 11
605.52964306
 21
-91.2685058076
 31
0.0
  0
LINE
  5
268
330
1F
100
AcDbEntity
  8
0
  6
SLD-Solid
 62
   142
420
    32960
370
     0
100
AcDbLine
 10
608.52964306
 20
-91.586661302
 30
0.0
 11
608.52964306
 21
-91.2685058076
 31
0.0
  0
LWPOLYLINE
  5
269
330
1F
100
AcDbEntity
  8
0
  6
SLD-Solid
 62
   142
420
    32960
370
     0
100
AcDbPolyline
 90
       17
 70
   128
 43
0.0
 10
608.52964306
 20
-91.586661302
 10
609.4917336594
 20
-92.2212085859
 10
610.1762973727
 20
-93.119475236
 10
610.5061701689
 20
-94.1802086231
 10
610.4441687818
 20
-95.2838428655
 10
609.9972820087
 20
-96.3059762962
 10
609.2158829327
 20
-97.1313940209
 10
608.1880508683
 20
-97.6670549424
 10
607.02964306
 20
-97.8525793543
 10
605.8712352516
 20
-97.6670549424
 10
604.8434031872
 20
-97.1313940209
 10
604.0620041112
 20
-96.3059762962
 10
603.6151173381
 20
-95.2838428655
 10
603.553115951
 20
-94.1802086231
 10
603.8829887472
 20
-93.119475236
 10
604.5675524606
 20
-92.2212085859
 10
605.52964306
 20
-91.586661302
  0
LINE
  5
26A
330
1F
100
AcDbEntity
  8
0
  6
SLD-Solid
 62
     7
370
    15
100
AcDbLine
 10
-36.1704083199
 20
-109.309345243
 30
0.0
 11
-36.1704083199
 21
-102.1789110549
 31
0.0
  0
LINE
  5
26B
330
1F
100
AcDbEntity
  8
0
  6
SLD-Solid
 62
     7
370
    15
100
AcDbLine
 10
863.8295916801
 20
-109.309345243
 30
0.0
 11
863.8295916801
 21
-102.1789110549
 31
0.0
  0
SPLINE
  5
26C
330
1F
100
AcDbEntity
  8
0
  6
SLD-Solid
 62
   142
420
    32960
370
     0
100
AcDbSpline
210
0.0
220
0.0
230
1.0
 70
     8
 71
     3
 72
    10
 73
     6
 74
     0
 42
0.00000001
 43
0.00000001
 40
0.0
 40
0.0
 40
0.0
 40
0.0
 40
0.3555120302292719
 40
0.7110240604585307
 40
1.0
 40
1.0
 40
1.0
 40
1.0
 10
861.7795916905494
 20
674.0275920171393
 30
0.0
 10
862.0463340224418
 20
673.9293179069825
 30
0.0
 10
862.5798186862268
 20
673.732769686669
 30
0.0
 10
863.2416539920048
 20
673.4563399127076
 30
0.0
 10
863.4824206225356
 20
673.2781842489031
 30
0.0
 10
863.5903757226016
 20
673.1983026952555
 30
0.0
  0
LINE
  5
26D
330
1F
100
AcDbEntity
  8
0
  6
SLD-Solid
 62
     7
370
    15
100
AcDbLine
 10
863.8295916905
 20
568.9983026953
 30
0.0
 11
863.8295916905
 21
567.2483026937
 31
0.0
  0
LINE
  5
26E
330
1F
100
AcDbEntity
  8
0
  6
SLD-Solid
 62
     7
370
    15
100
AcDbLine
 10
863.8295916905
 20
52.2483026937
 30
0.0
 11
863.8295916851
 21
50.0883026909
 31
0.0
  0
LINE
  5
26F
330
1F
100
AcDbEntity
  8
0
  6
SLD-Solid
 62
   142
420
    32960
370
     0
100
AcDbLine
 10
861.7795916905
 20
674.0275920171
 30
0.0
 11
853.8295916905
 21
674.0275920171
 31
0.0
  0
LINE
  5
270
330
1F
100
AcDbEntity
  8
0
  6
SLD-Solid
 62
   142
420
    32960
370
     0
100
AcDbLine
 10
853.8295916905
 20
674.0275920171
 30
0.0
 11
853.8295916905
 21
673.1983026953
 31
0.0
  0
SPLINE
  5
271
330
1F
100
AcDbEntity
  8
0
  6
SLD-Solid
 62
     7
370
    15
100
AcDbSpline
210
0.0
220
0.0
230
1.0
 70
     8
 71
     3
 72
    12
 73
     8
 74
     0
 42
0.00000001
 43
0.00000001
 40
0.0
 40
0.0
 40
0.0
 40
0.0
 40
0.1323352531143529
 40
0.3896476337365886
 40
0.6469603792327897
 40
0.9042729168867623
 40
0.9999999999999999
 40
0.9999999999999999
 40
0.9999999999999999
 40
0.9999999999999999
 10
863.766025675398
 20
673.1983026952555
 30
0.0
 10
863.7499797862893
 20
673.3237763099
 30
0.0
 10
863.7027343050188
 20
673.693220550131
 30
0.0
 10
863.3476880939169
 20
674.2264928118022
 30
0.0
 10
862.7727922228513
 20
674.6925357134206
 30
0.0
 10
862.2057834425349
 20
674.88087996023
 30
0.0
 10
861.870503277598
 20
674.8945862261231
 30
0.0
 10
861.7795916905488
 20
674.8983026952588
 30
0.0
  0
LINE
  5
272
330
1F
100
AcDbEntity
  8
0
  6
SLD-Solid
 62
   142
420
    32960
370
     0
100
AcDbLine
 10
861.7795916905
 20
674.0983026953
 30
0.0
 11
861.7795916905
 21
674.8983026953
 31
0.0
  0
SPLINE
  5
273
330
1F
100
AcDbEntity
  8
0
  6
SLD-Solid
 62
   142
420
    32960
370
     0
100
AcDbSpline
210
0.0
220
0.0
230
1.0
 70
     8
 71
     3
 72
    10
 73
     6
 74
     0
 42
0.00000001
 43
0.00000001
 40
0.0
 40
0.0
 40
0.0
 40
0.0
 40
0.066448464075165
 40
0.5361486489744822
 40
1.0
 40
1.0
 40
1.0
 40
1.0
 10
862.6999431471833
 20
673.6767791106403
 30
0.0
 10
862.6874747383413
 20
673.6962432242124
 30
0.0
 10
862.5868716521977
 20
673.8532921242944
 30
0.0
 10
862.2593826270244
 20
674.0367766674295
 30
0.0
 10
861.9388526139179
 20
674.0778798584389
 30
0.0
 10
861.7795916905491
 20
674.0983026952588
 30
0.0
  0
LINE
  5
274
330
1F
100
AcDbEntity
  8
0
  6
SLD-Solid
 62
   142
420
    32960
370
     0
100
AcDbLine
 10
861.7795916905
 20
674.0983026953
 30
0.0
 11
853.8295916906
 21
674.0983026953
 31
0.0
  0
LINE
  5
275
330
1F
100
AcDbEntity
  8
0
  6
SLD-Solid
 62
   142
420
    32960
370
     0
100
AcDbLine
 10
842.3295916905
 20
674.0983026953
 30
0.0
 11
853.8295916906
 21
674.0983026953
 31
0.0
  0
LINE
  5
276
330
1F
100
AcDbEntity
  8
0
  6
SLD-Solid
 62
   142
420
    32960
370
     0
100
AcDbLine
 10
861.7795916905
 20
674.8983026953
 30
0.0
 11
853.8295916906
 21
674.8983026953
 31
0.0
  0
LINE
  5
277
330
1F
100
AcDbEntity
  8
0
  6
SLD-Solid
 62
   142
420
    32960
370
     0
100
AcDbLine
 10
842.3295916905
 20
674.8983026953
 30
0.0
 11
853.8295916906
 21
674.8983026953
 31
0.0
  0
LINE
  5
278
330
1F
100
AcDbEntity
  8
0
  6
SLD-Solid
 62
   142
420
    32960
370
     0
100
AcDbLine
 10
853.8295916905
 20
674.0275920171
 30
0.0
 11
847.8295916906
 21
674.0275920171
 31
0.0
  0
LINE
  5
279
330
1F
100
AcDbEntity
  8
0
  6
SLD-Solid
 62
   142
420
    32960
370
     0
100
AcDbLine
 10
847.8295916906
 20
673.1983026953
 30
0.0
 11
847.8295916906
 21
674.0275920171
 31
0.0
  0
SPLINE
  5
27A
330
1F
100
AcDbEntity
  8
0
  6
SLD-Solid
 62
   142
420
    32960
370
     0
100
AcDbSpline
210
0.0
220
0.0
230
1.0
 70
     8
 71
     3
 72
    11
 73
     7
 74
     0
 42
0.00000001
 43
0.00000001
 40
0.0
 40
0.0
 40
0.0
 40
0.0
 40
0.3252917696602058
 40
0.6506886915175906
 40
0.9760860747943545
 40
1.0
 40
1.0
 40
1.0
 40
1.0
 10
-34.12040830945973
 20
674.0275920171572
 30
0.0
 10
-34.36730186495829
 20
673.9376718856097
 30
0.0
 10
-34.86116878553591
 20
673.757802555381
 30
0.0
 10
-35.48300006232085
 20
673.4879831685186
 30
0.0
 10
-35.85985290160798
 20
673.3014736361374
 30
0.0
 10
-35.93790412130338
 20
673.2049132401517
 30
0.0
 10
-35.94324752412103
 20
673.1983026952555
 30
0.0
  0
LINE
  5
27B
330
1F
100
AcDbEntity
  8
0
  6
SLD-Solid
 62
     7
370
    15
100
AcDbLine
 10
-36.1704083095
 20
50.0883026909
 30
0.0
 11
-36.1704083095
 21
52.2483026937
 31
0.0
  0
LINE
  5
27C
330
1F
100
AcDbEntity
  8
0
  6
SLD-Solid
 62
     7
370
    15
100
AcDbLine
 10
-36.1704083095
 20
567.2483026937
 30
0.0
 11
-36.1704083095
 21
568.9983026953
 31
0.0
  0
LINE
  5
27D
330
1F
100
AcDbEntity
  8
0
  6
SLD-Solid
 62
     7
370
    15
100
AcDbLine
 10
-34.1204083095
 20
674.0275920172
 30
0.0
 11
-26.1704083095
 21
674.0275920172
 31
0.0
  0
LINE
  5
27E
330
1F
100
AcDbEntity
  8
0
  6
SLD-Solid
 62
   142
420
    32960
370
     0
100
AcDbLine
 10
-26.1704083095
 20
673.1983026953
 30
0.0
 11
-26.1704083095
 21
674.0275920172
 31
0.0
  0
LINE
  5
27F
330
1F
100
AcDbEntity
  8
0
  6
SLD-Solid
 62
     7
370
    15
100
AcDbLine
 10
-26.1704083095
 20
674.8983026953
 30
0.0
 11
7.8295916905
 21
674.8983026953
 31
0.0
  0
LINE
  5
280
330
1F
100
AcDbEntity
  8
0
  6
SLD-Solid
 62
   142
420
    32960
370
     0
100
AcDbLine
 10
-34.1204083095
 20
674.8983026953
 30
0.0
 11
-26.1704083095
 21
674.8983026953
 31
0.0
  0
SPLINE
  5
281
330
1F
100
AcDbEntity
  8
0
  6
SLD-Solid
 62
     7
370
    15
100
AcDbSpline
210
0.0
220
0.0
230
1.0
 70
     8
 71
     3
 72
    11
 73
     7
 74
     0
 42
0.00000001
 43
0.00000001
 40
0.0
 40
0.0
 40
0.0
 40
0.0
 40
0.1558466249354312
 40
0.437231083290319
 40
0.7186155416451465
 40
1.0
 40
1.0
 40
1.0
 40
1.0
 10
-36.10078898088054
 20
673.1983026952555
 30
0.0
 10
-36.08052586975907
 20
673.3460087026401
 30
0.0
 10
-36.02367727242706
 20
673.7604011069931
 30
0.0
 10
-35.59857639268926
 20
674.3300072885016
 30
0.0
 10
-34.92761784317422
 20
674.8063061094427
 30
0.0
 10
-34.38947815403048
 20
674.8676371666654
 30
0.0
 10
-34.12040830945862
 20
674.8983026952767
 30
0.0
  0
SPLINE
  5
282
330
1F
100
AcDbEntity
  8
0
  6
SLD-Solid
 62
   142
420
    32960
370
     0
100
AcDbSpline
210
0.0
220
0.0
230
1.0
 70
     8
 71
     3
 72
    10
 73
     6
 74
     0
 42
0.00000001
 43
0.00000001
 40
0.0
 40
0.0
 40
0.0
 40
0.0
 40
0.0711257316880282
 40
0.5355628658439984
 40
1.0
 40
1.0
 40
1.0
 40
1.0
 10
-35.04578857693441
 20
673.670081835229
 30
0.0
 10
-35.03239868448349
 20
673.6911277637001
 30
0.0
 10
-34.93157540992209
 20
673.8495994939564
 30
0.0
 10
-34.6028223924345
 20
674.0360898111122
 30
0.0
 10
-34.28121300378417
 20
674.0775650672219
 30
0.0
 10
-34.12040830945884
 20
674.0983026952767
 30
0.0
  0
LINE
  5
283
330
1F
100
AcDbEntity
  8
0
  6
SLD-Solid
 62
   142
420
    32960
370
     0
100
AcDbLine
 10
-34.1204083095
 20
674.0983026953
 30
0.0
 11
-34.1204083095
 21
674.8983026953
 31
0.0
  0
LINE
  5
284
330
1F
100
AcDbEntity
  8
0
  6
SLD-Solid
 62
     7
370
    15
100
AcDbLine
 10
-26.1704083095
 20
674.0983026953
 30
0.0
 11
7.8295916905
 21
674.0983026953
 31
0.0
  0
LINE
  5
285
330
1F
100
AcDbEntity
  8
0
  6
SLD-Solid
 62
   142
420
    32960
370
     0
100
AcDbLine
 10
-34.1204083095
 20
674.0983026953
 30
0.0
 11
-26.1704083095
 21
674.0983026953
 31
0.0
  0
LINE
  5
286
330
1F
100
AcDbEntity
  8
0
  6
SLD-Solid
 62
     7
370
    15
100
AcDbLine
 10
7.8295916905
 20
674.8983026953
 30
0.0
 11
7.8295916905
 21
674.0983026953
 31
0.0
  0
LINE
  5
287
330
1F
100
AcDbEntity
  8
0
  6
SLD-Solid
 62
   142
420
    32960
370
     0
100
AcDbLine
 10
-26.1704083095
 20
674.8983026953
 30
0.0
 11
-26.1704083095
 21
674.0983026953
 31
0.0
  0
LINE
  5
288
330
1F
100
AcDbEntity
  8
0
  6
SLD-Solid
 62
   142
420
    32960
370
     0
100
AcDbLine
 10
-20.1704083095
 20
674.0275920172
 30
0.0
 11
-20.1704083095
 21
673.1983026953
 31
0.0
  0
LINE
  5
289
330
1F
100
AcDbEntity
  8
0
  6
SLD-Solid
 62
   142
420
    32960
370
     0
100
AcDbLine
 10
-26.1704083095
 20
674.0275920172
 30
0.0
 11
-20.1704083095
 21
674.0275920172
 31
0.0
  0
LINE
  5
28A
330
1F
100
AcDbEntity
  8
0
  6
SLD-Solid
 62
     7
370
    15
100
AcDbLine
 10
706.8295916802
 20
-101.7771265613
 30
0.0
 11
706.8295916802
 21
-91.2685058076
 31
0.0
  0
LINE
  5
28B
330
1F
100
AcDbEntity
  8
0
  6
SLD-Solid
 62
     7
370
    15
100
AcDbLine
 10
703.8295916802
 20
-91.2685058076
 30
0.0
 11
703.8295916802
 21
-101.7771265613
 31
0.0
  0
ARC
  5
28C
330
1F
100
AcDbEntity
  8
0
  6
SLD-Solid
 62
   142
420
    32960
370
     0
100
AcDbCircle
 10
715.5029022371
 20
-90.911062918
 30
0.0
 40
0.9253878294488966
100
AcDbArc
 50
299.9141579741
 51
337.2778414741
  0
ARC
  5
28D
330
1F
100
AcDbEntity
  8
0
  6
SLD-Solid
 62
   142
420
    32960
370
     0
100
AcDbCircle
 10
695.1562811233
 20
-90.911062918
 30
0.0
 40
0.9253878294828962
100
AcDbArc
 50
202.7221585228
 51
240.0858420259
  0
LWPOLYLINE
  5
28E
330
1F
100
AcDbEntity
  8
0
  6
SLD-Solid
 62
   142
420
    32960
370
     0
100
AcDbPolyline
 90
        9
 70
   128
 43
0.0
 10
703.8295916802
 20
-101.7771265613
 10
703.9437723814
 20
-101.9545100874
 10
704.2689315084
 20
-102.1048885797
 10
704.7555665317
 20
-102.2053682758
 10
705.3295916802
 20
-102.2406520529
 10
705.9036168287
 20
-102.2053682758
 10
706.390251852
 20
-102.1048885796
 10
706.715410979
 20
-101.9545100874
 10
706.8295916802
 20
-101.7771265613
  0
LINE
  5
28F
330
1F
100
AcDbEntity
  8
0
  6
SLD-Solid
 62
     7
370
    15
100
AcDbLine
 10
715.0037557164
 20
-95.2763437308
 30
0.0
 11
714.996406192
 21
-95.4815391975
 31
0.0
  0
ARC
  5
290
330
1F
100
AcDbEntity
  8
0
  6
SLD-Solid
 62
   142
420
    32960
370
     0
100
AcDbCircle
 10
716.0525750572
 20
-90.8303739048
 30
0.0
 40
0.8871838347951241
100
AcDbArc
 50
264.295765733
 51
330.40633817
  0
ARC
  5
291
330
1F
100
AcDbEntity
  8
0
  6
SLD-Solid
 62
   142
420
    32960
370
     0
100
AcDbCircle
 10
715.8775355225
 20
-100.2820633062
 30
0.0
 40
1.056025610321938
100
AcDbArc
 50
274.7179789946
 51
357.7711853922
  0
ARC
  5
292
330
1F
100
AcDbEntity
  8
0
  6
SLD-Solid
 62
   142
420
    32960
370
     0
100
AcDbCircle
 10
694.6066083031
 20
-90.8303739049
 30
0.0
 40
0.8871838347927556
100
AcDbArc
 50
209.5936618254
 51
275.7042342674
  0
ARC
  5
293
330
1F
100
AcDbEntity
  8
0
  6
SLD-Solid
 62
   142
420
    32960
370
     0
100
AcDbCircle
 10
694.7816478379
 20
-100.2820633063
 30
0.0
 40
1.056025610321989
100
AcDbArc
 50
182.2288146082
 51
265.2820210057
  0
ARC
  5
294
330
1F
100
AcDbEntity
  8
0
  6
SLD-Solid
 62
   142
420
    32960
370
     0
100
AcDbCircle
 10
716.1042021939
 20
-101.0374000021
 30
0.0
 40
0.3283608364955851
100
AcDbArc
 50
244.800383971
 51
329.0455313951
  0
ARC
  5
295
330
1F
100
AcDbEntity
  8
0
  6
SLD-Solid
 62
   142
420
    32960
370
     0
100
AcDbCircle
 10
694.5549811693
 20
-101.0374004237
 30
0.0
 40
0.328360453888414
100
AcDbArc
 50
210.9548496139
 51
295.1996469121
  0
ARC
  5
296
330
1F
100
AcDbEntity
  8
0
  6
SLD-Solid
 62
   142
420
    32960
370
     0
100
AcDbCircle
 10
716.4669049287
 20
-100.4680317166
 30
0.0
 40
0.4878717142748034
100
AcDbArc
 50
307.8173599279
 51
17.2776663997
  0
ARC
  5
297
330
1F
100
AcDbEntity
  8
0
  6
SLD-Solid
 62
   142
420
    32960
370
     0
100
AcDbCircle
 10
694.1922654017
 20
-100.4680326619
 30
0.0
 40
0.4878595530561852
100
AcDbArc
 50
162.7217730913
 51
232.1732916375
  0
LWPOLYLINE
  5
298
330
1F
100
AcDbEntity
  8
0
  6
SLD-Solid
 62
   142
420
    32960
370
     0
100
AcDbPolyline
 90
        9
 70
   128
 43
0.0
 10
706.8295916802
 20
-101.3015983032
 10
706.715410979
 20
-101.4789818293
 10
706.390251852
 20
-101.6293603215
 10
705.9036168287
 20
-101.7298400176
 10
705.3295916802
 20
-101.7651237947
 10
704.7555665317
 20
-101.7298400176
 10
704.2689315084
 20
-101.6293603215
 10
703.9437723814
 20
-101.4789818293
 10
703.8295916802
 20
-101.3015983032
  0
LINE
  5
299
330
1F
100
AcDbEntity
  8
0
  6
SLD-Solid
 62
   142
420
    32960
370
     0
100
AcDbLine
 10
760.8295916801
 20
-91.2685058076
 30
0.0
 11
760.8295916801
 21
-93.1500448968
 31
0.0
  0
ARC
  5
29A
330
1F
100
AcDbEntity
  8
0
  6
SLD-Solid
 62
   142
420
    32960
370
     0
100
AcDbCircle
 10
759.8584533769
 20
-93.1193575121
 30
0.0
 40
0.9716230336754293
100
AcDbArc
 50
268.2978000298
 51
358.190090174
  0
LINE
  5
29B
330
1F
100
AcDbEntity
  8
0
  6
SLD-Solid
 62
   142
420
    32960
370
     0
100
AcDbLine
 10
757.8295916801
 20
-94.0905517883
 30
0.0
 11
759.8295916801
 21
-94.0905517883
 31
0.0
  0
ARC
  5
29C
330
1F
100
AcDbEntity
  8
0
  6
SLD-Solid
 62
   142
420
    32960
370
     0
100
AcDbCircle
 10
757.8007299834
 20
-93.1193575121
 30
0.0
 40
0.9716230336755044
100
AcDbArc
 50
181.809909826
 51
271.7021999702
  0
LINE
  5
29D
330
1F
100
AcDbEntity
  8
0
  6
SLD-Solid
 62
   142
420
    32960
370
     0
100
AcDbLine
 10
756.8295916801
 20
-91.2685058076
 30
0.0
 11
756.8295916801
 21
-93.1500448968
 31
0.0
  0
ARC
  5
29E
330
1F
100
AcDbEntity
  8
0
  6
SLD-Solid
 62
   142
420
    32960
370
     0
100
AcDbCircle
 10
159.7718682873
 20
-95.8762133406
 30
0.0
 40
1.94324606735095
100
AcDbArc
 50
181.809909826
 51
271.7021999702
  0
LINE
  5
29F
330
1F
100
AcDbEntity
  8
0
  6
SLD-Solid
 62
   142
420
    32960
370
     0
100
AcDbLine
 10
179.8295916808
 20
-97.8186018929
 30
0.0
 11
159.8295916808
 21
-97.8186018929
 31
0.0
  0
ARC
  5
2A0
330
1F
100
AcDbEntity
  8
0
  6
SLD-Solid
 62
   142
420
    32960
370
     0
100
AcDbCircle
 10
179.8873150744
 20
-95.8762133406
 30
0.0
 40
1.943246067350832
100
AcDbArc
 50
268.2978000298
 51
358.190090174
  0
LINE
  5
2A1
330
1F
100
AcDbEntity
  8
0
  6
SLD-Solid
 62
     7
370
    15
100
AcDbLine
 10
558.0795916802
 20
-91.2685058076
 30
0.0
 11
558.0795916802
 21
-101.7771265617
 31
0.0
  0
ARC
  5
2A2
330
1F
100
AcDbEntity
  8
0
  6
SLD-Solid
 62
   142
420
    32960
370
     0
100
AcDbCircle
 10
569.7529022369
 20
-90.9110629182
 30
0.0
 40
0.9253878296761074
100
AcDbArc
 50
299.9141579764
 51
337.2778414962
  0
ARC
  5
2A3
330
1F
100
AcDbEntity
  8
0
  6
SLD-Solid
 62
   142
420
    32960
370
     0
100
AcDbCircle
 10
549.4062811234
 20
-90.9110629183
 30
0.0
 40
0.9253878297071922
100
AcDbArc
 50
202.7221585007
 51
240.0858420236
  0
LINE
  5
2A4
330
1F
100
AcDbEntity
  8
0
  6
SLD-Solid
 62
   142
420
    32960
370
     0
100
AcDbLine
 10
561.0795916802
 20
-101.7771265617
 30
0.0
 11
561.0795916802
 21
-91.2685058076
 31
0.0
  0
LWPOLYLINE
  5
2A5
330
1F
100
AcDbEntity
  8
0
  6
SLD-Solid
 62
   142
420
    32960
370
     0
100
AcDbPolyline
 90
        9
 70
   128
 43
0.0
 10
558.0795916802
 20
-101.7771265617
 10
558.1937723814
 20
-101.9545100878
 10
558.5189315084
 20
-102.1048885801
 10
559.0055665317
 20
-102.2053682762
 10
559.5795916802
 20
-102.2406520533
 10
560.1536168287
 20
-102.2053682762
 10
560.640251852
 20
-102.1048885801
 10
560.965410979
 20
-101.9545100878
 10
561.0795916802
 20
-101.7771265617
  0
ARC
  5
2A6
330
1F
100
AcDbEntity
  8
0
  6
SLD-Solid
 62
   142
420
    32960
370
     0
100
AcDbCircle
 10
560.1034645559
 20
-101.3266997306
 30
0.0
 40
0.9764498166444991
100
AcDbArc
 50
1.4730549927
 51
91.4009438085
  0
ARC
  5
2A7
330
1F
100
AcDbEntity
  8
0
  6
SLD-Solid
 62
   142
420
    32960
370
     0
100
AcDbCircle
 10
559.0557188045
 20
-101.3266997306
 30
0.0
 40
0.9764498166444355
100
AcDbArc
 50
88.5990561919
 51
178.5269450076
  0
LWPOLYLINE
  5
2A8
330
1F
100
AcDbEntity
  8
0
  6
SLD-Solid
 62
   142
420
    32960
370
     0
100
AcDbPolyline
 90
        9
 70
   128
 43
0.0
 10
559.0795916802
 20
-100.3505417873
 10
559.1176519139
 20
-100.4096696293
 10
559.2260382896
 20
-100.4597957934
 10
559.388249964
 20
-100.4932890254
 10
559.5795916802
 20
-100.5050502845
 10
559.7709333964
 20
-100.4932890254
 10
559.9331450708
 20
-100.4597957934
 10
560.0415314464
 20
-100.4096696293
 10
560.0795916802
 20
-100.3505417873
  0
LINE
  5
2A9
330
1F
100
AcDbEntity
  8
0
  6
SLD-Solid
 62
     7
370
    15
100
AcDbLine
 10
569.2537557164
 20
-95.2763437312
 30
0.0
 11
569.246406192
 21
-95.4815391979
 31
0.0
  0
ARC
  5
2AA
330
1F
100
AcDbEntity
  8
0
  6
SLD-Solid
 62
   142
420
    32960
370
     0
100
AcDbCircle
 10
570.3025750572
 20
-90.8303739053
 30
0.0
 40
0.8871838347790117
100
AcDbArc
 50
264.2957657327
 51
330.4063382017
  0
ARC
  5
2AB
330
1F
100
AcDbEntity
  8
0
  6
SLD-Solid
 62
   142
420
    32960
370
     0
100
AcDbCircle
 10
570.1275355225
 20
-100.2820633066
 30
0.0
 40
1.056025610321749
100
AcDbArc
 50
274.7179789946
 51
357.7711853922
  0
ARC
  5
2AC
330
1F
100
AcDbEntity
  8
0
  6
SLD-Solid
 62
   142
420
    32960
370
     0
100
AcDbCircle
 10
548.8566083031
 20
-90.8303739053
 30
0.0
 40
0.8871838347757846
100
AcDbArc
 50
209.5936617936
 51
275.7042342676
  0
ARC
  5
2AD
330
1F
100
AcDbEntity
  8
0
  6
SLD-Solid
 62
   142
420
    32960
370
     0
100
AcDbCircle
 10
549.0316478379
 20
-100.2820633067
 30
0.0
 40
1.056025610321885
100
AcDbArc
 50
182.2288146082
 51
265.2820210057
  0
ARC
  5
2AE
330
1F
100
AcDbEntity
  8
0
  6
SLD-Solid
 62
   142
420
    32960
370
     0
100
AcDbCircle
 10
570.354202193
 20
-101.037400133
 30
0.0
 40
0.3283607180814315
100
AcDbArc
 50
244.800374413
 51
329.0454134761
  0
ARC
  5
2AF
330
1F
100
AcDbEntity
  8
0
  6
SLD-Solid
 62
   142
420
    32960
370
     0
100
AcDbCircle
 10
548.8049811674
 20
-101.0374001401
 30
0.0
 40
0.3283607116348007
100
AcDbArc
 50
210.9545929435
 51
295.1996261077
  0
ARC
  5
2B0
330
1F
100
AcDbEntity
  8
0
  6
SLD-Solid
 62
   142
420
    32960
370
     0
100
AcDbCircle
 10
570.7169195785
 20
-100.4680327798
 30
0.0
 40
0.4878580412533274
100
AcDbArc
 50
307.827870692
 51
17.2782965919
  0
ARC
  5
2B1
330
1F
100
AcDbEntity
  8
0
  6
SLD-Solid
 62
   142
420
    32960
370
     0
100
AcDbCircle
 10
548.4422780201
 20
-100.4680317469
 30
0.0
 40
0.4878713301589324
100
AcDbArc
 50
162.7223158977
 51
232.1823448413
  0
ARC
  5
2B2
330
1F
100
AcDbEntity
  8
0
  6
SLD-Solid
 62
   142
420
    32960
370
     0
100
AcDbCircle
 10
451.2718682866
 20
-95.8762133406
 30
0.0
 40
1.943246067351001
100
AcDbArc
 50
181.809909826
 51
271.7021999702
  0
LINE
  5
2B3
330
1F
100
AcDbEntity
  8
0
  6
SLD-Solid
 62
   142
420
    32960
370
     0
100
AcDbLine
 10
471.3295916801
 20
-97.8186018929
 30
0.0
 11
451.3295916801
 21
-97.8186018929
 31
0.0
  0
ARC
  5
2B4
330
1F
100
AcDbEntity
  8
0
  6
SLD-Solid
 62
   142
420
    32960
370
     0
100
AcDbCircle
 10
471.3873150737
 20
-95.8762133406
 30
0.0
 40
1.943246067350793
100
AcDbArc
 50
268.2978000298
 51
358.190090174
  0
LWPOLYLINE
  5
2B5
330
1F
100
AcDbEntity
  8
0
  6
SLD-Solid
 62
   142
420
    32960
370
     0
100
AcDbPolyline
 90
       17
 70
   128
 43
0.0
 10
162.8295916808
 20
-94.9970812185
 10
163.4036168294
 20
-94.8896934821
 10
163.8902518526
 20
-94.5838790824
 10
164.2154109796
 20
-94.1261954894
 10
164.3295916808
 20
-93.5863208813
 10
164.2154109796
 20
-93.0464462732
 10
163.8902518526
 20
-92.5887626802
 10
163.4036168294
 20
-92.2829482805
 10
162.8295916808
 20
-92.1755605441
 10
162.2555665323
 20
-92.2829482805
 10
161.768931509
 20
-92.5887626802
 10
161.443772382
 20
-93.0464462732
 10
161.3295916808
 20
-93.5863208813
 10
161.443772382
 20
-94.1261954894
 10
161.768931509
 20
-94.5838790824
 10
162.2555665323
 20
-94.8896934821
 10
162.8295916808
 20
-94.9970812185
  0
ARC
  5
2B6
330
1F
100
AcDbEntity
  8
0
  6
SLD-Solid
 62
   142
420
    32960
370
     0
100
AcDbCircle
 10
162.9013953806
 20
-93.5086747196
 30
0.0
 40
2.429974491497982
100
AcDbArc
 50
268.3067114893
 51
357.7680766005
  0
ARC
  5
2B7
330
1F
100
AcDbEntity
  8
0
  6
SLD-Solid
 62
   142
420
    32960
370
     0
100
AcDbCircle
 10
162.7577879807
 20
-93.5086747204
 30
0.0
 40
2.429974490707239
100
AcDbArc
 50
182.2319230362
 51
271.6932885184
  0
ARC
  5
2B8
330
1F
100
AcDbEntity
  8
0
  6
SLD-Solid
 62
   142
420
    32960
370
     0
100
AcDbCircle
 10
607.0296430599
 20
-94.3781920173
 30
0.0
 40
3.503870029457908
100
AcDbArc
 50
182.7093245926
 51
357.2906754513
  0
ARC
  5
2B9
330
1F
100
AcDbEntity
  8
0
  6
SLD-Solid
 62
   142
420
    32960
370
     0
100
AcDbCircle
 10
607.1481197341
 20
-94.5739573113
 30
0.0
 40
2.38164879788435
100
AcDbArc
 50
0.7251222296
 51
80.7819046066
  0
ARC
  5
2BA
330
1F
100
AcDbEntity
  8
0
  6
SLD-Solid
 62
   142
420
    32960
370
     0
100
AcDbCircle
 10
606.911166386
 20
-94.5739573115
 30
0.0
 40
2.381648798065317
100
AcDbArc
 50
99.2180953952
 51
179.2748776753
  0
ARC
  5
2BB
330
1F
100
AcDbEntity
  8
0
  6
SLD-Solid
 62
     7
370
    15
100
AcDbCircle
 10
454.8295916905
 20
713.8983026953
 30
0.0
 40
4.0
100
AcDbArc
 50
36.8698976458
 51
143.1301023542
  0
ARC
  5
2BC
330
1F
100
AcDbEntity
  8
0
  6
SLD-Solid
 62
     7
370
    15
100
AcDbCircle
 10
454.8295916905
 20
713.8983026953
 30
0.0
 40
3.999999999999932
100
AcDbArc
 50
216.8698976458
 51
323.1301023542
  0
ARC
  5
2BD
330
1F
100
AcDbEntity
  8
0
  6
SLD-Solid
 62
   142
420
    32960
370
     0
100
AcDbCircle
 10
762.8873150737
 20
-95.8762133406
 30
0.0
 40
1.94324606735092
100
AcDbArc
 50
268.2978000298
 51
358.190090174
  0
LINE
  5
2BE
330
1F
100
AcDbEntity
  8
0
  6
SLD-Solid
 62
   142
420
    32960
370
     0
100
AcDbLine
 10
762.8295916801
 20
-97.8186018929
 30
0.0
 11
742.8295916801
 21
-97.8186018929
 31
0.0
  0
ARC
  5
2BF
330
1F
100
AcDbEntity
  8
0
  6
SLD-Solid
 62
   142
420
    32960
370
     0
100
AcDbCircle
 10
742.7718682866
 20
-95.8762133406
 30
0.0
 40
1.943246067350845
100
AcDbArc
 50
181.809909826
 51
271.7021999702
  0
ARC
  5
2C0
330
1F
100
AcDbEntity
  8
0
  6
SLD-Solid
 62
   142
420
    32960
370
     0
100
AcDbCircle
 10
839.8295916905
 20
713.8983026953
 30
0.0
 40
4.000000000000068
100
AcDbArc
 50
36.8698976458
 51
143.1301023542
  0
ARC
  5
2C1
330
1F
100
AcDbEntity
  8
0
  6
SLD-Solid
 62
   142
420
    32960
370
     0
100
AcDbCircle
 10
839.8295916905
 20
713.8983026953
 30
0.0
 40
4.000000000000068
100
AcDbArc
 50
216.8698976458
 51
323.1301023542
  0
SPLINE
  5
2C2
330
1F
100
AcDbEntity
  8
0
  6
SLD-Solid
 62
     7
370
    15
100
AcDbSpline
210
0.0
220
0.0
230
1.0
 70
     8
 71
     3
 72
    14
 73
    10
 74
     0
 42
0.00000001
 43
0.00000001
 40
0.0
 40
0.0
 40
0.0
 40
0.0
 40
0.25
 40
0.25
 40
0.5
 40
0.5
 40
0.75
 40
0.75
 40
1.0
 40
1.0
 40
1.0
 40
1.0
 10
849.7795916905484
 20
745.448302695255
 30
0.0
 10
850.0479360630424
 20
745.4477134396041
 30
0.0
 10
850.3161748534849
 20
745.4471241839531
 30
0.0
 10
850.8120106003087
 20
745.445945672651
 30
0.0
 10
851.039412466497
 20
745.4453564170002
 30
0.0
 10
851.4189087174647
 20
745.4441779056982
 30
0.0
 10
851.5708537866745
 20
745.4435886500471
 30
0.0
 10
851.7762356777183
 20
745.4424101387451
 30
0.0
 10
851.8295916905482
 20
745.4418208830942
 30
0.0
 10
851.8295916905482
 20
745.4412316274432
 30
0.0
  0
LINE
  5
2C3
330
1F
100
AcDbEntity
  8
0
  6
SLD-Solid
 62
     7
370
    15
100
AcDbLine
 10
851.8295916905
 20
682.4983026953
 30
0.0
 11
851.8295916905
 21
745.4412316274
 31
0.0
  0
LINE
  5
2C4
330
1F
100
AcDbEntity
  8
0
  6
SLD-Solid
 62
   142
420
    32960
370
     0
100
AcDbLine
 10
851.8295916905
 20
682.4983026953
 30
0.0
 11
849.7795916905
 21
682.4983026953
 31
0.0
  0
SPLINE
  5
2C5
330
1F
100
AcDbEntity
  8
0
  6
SLD-Solid
 62
   142
420
    32960
370
     0
100
AcDbSpline
210
0.0
220
0.0
230
1.0
 70
    24
 71
     3
 72
     8
 73
     4
 74
     0
 42
0.00000001
 43
0.00000001
 40
0.0
 40
0.0
 40
0.0
 40
0.0
 40
1.0
 40
1.0
 40
1.0
 40
1.0
 10
444.8795916905484
 20
682.4983121721153
 30
0.0
 10
444.8795916905484
 20
682.4568858218129
 30
0.0
 10
444.8795916905484
 20
682.4154929392687
 30
0.0
 10
444.8795916905484
 20
682.3742096012585
 30
0.0
  0
SPLINE
  5
2C6
330
1F
100
AcDbEntity
  8
0
  6
SLD-Solid
 62
   142
420
    32960
370
     0
100
AcDbSpline
210
0.0
220
0.0
230
1.0
 70
    24
 71
     3
 72
     8
 73
     4
 74
     0
 42
0.00000001
 43
0.00000001
 40
0.0
 40
0.0
 40
0.0
 40
0.0
 40
1.0
 40
1.0
 40
1.0
 40
1.0
 10
849.7795916905483
 20
682.3742096012581
 30
0.0
 10
849.7795916905483
 20
682.4154929392691
 30
0.0
 10
849.7795916905483
 20
682.456885821814
 30
0.0
 10
849.7795916905483
 20
682.498312172117
 30
0.0
  0
LINE
  5
2C7
330
1F
100
AcDbEntity
  8
0
  6
SLD-Solid
 62
     7
370
    15
100
AcDbLine
 10
442.8295916905
 20
745.4412316274
 30
0.0
 11
442.8295916905
 21
682.4983026953
 31
0.0
  0
SPLINE
  5
2C8
330
1F
100
AcDbEntity
  8
0
  6
SLD-Solid
 62
   142
420
    32960
370
     0
100
AcDbSpline
210
0.0
220
0.0
230
1.0
 70
     8
 71
     3
 72
    14
 73
    10
 74
     0
 42
0.00000001
 43
0.00000001
 40
0.0
 40
0.0
 40
0.0
 40
0.0
 40
0.25
 40
0.25
 40
0.5
 40
0.5
 40
0.75
 40
0.75
 40
1.0
 40
1.0
 40
1.0
 40
1.0
 10
442.8295916905483
 20
745.4412316274436
 30
0.0
 10
442.8295916905483
 20
745.4418208830946
 30
0.0
 10
442.8829477033782
 20
745.4424101387456
 30
0.0
 10
443.0883295944222
 20
745.4435886500476
 30
0.0
 10
443.240274663632
 20
745.4441779056987
 30
0.0
 10
443.6197709145998
 20
745.4453564170005
 30
0.0
 10
443.847172780788
 20
745.4459456726515
 30
0.0
 10
444.3430085276119
 20
745.4471241839535
 30
0.0
 10
444.6112473180542
 20
745.4477134396045
 30
0.0
 10
444.8795916905484
 20
745.4483026952554
 30
0.0
  0
LINE
  5
2C9
330
1F
100
AcDbEntity
  8
0
  6
SLD-Solid
 62
   142
420
    32960
370
     0
100
AcDbLine
 10
444.8795916905
 20
682.4983026953
 30
0.0
 11
442.8295916905
 21
682.4983026953
 31
0.0
  0
ARC
  5
2CA
330
1F
100
AcDbEntity
  8
0
  6
SLD-Solid
 62
     7
370
    15
100
AcDbCircle
 10
839.8295916905
 20
717.5483026953
 30
0.0
 40
3.200000000000045
100
AcDbArc
 50
0.0
 51
180.0
  0
LINE
  5
2CB
330
1F
100
AcDbEntity
  8
0
  6
SLD-Solid
 62
     7
370
    15
100
AcDbLine
 10
836.6295916905
 20
711.2483026953
 30
0.0
 11
836.6295916905
 21
717.5483026953
 31
0.0
  0
ARC
  5
2CC
330
1F
100
AcDbEntity
  8
0
  6
SLD-Solid
 62
   142
420
    32960
370
     0
100
AcDbCircle
 10
839.8295916905
 20
711.2483026953
 30
0.0
 40
3.200000000000045
100
AcDbArc
 50
180.0
 51
0.0
  0
LINE
  5
2CD
330
1F
100
AcDbEntity
  8
0
  6
SLD-Solid
 62
   142
420
    32960
370
     0
100
AcDbLine
 10
843.0295916905
 20
717.5483026953
 30
0.0
 11
843.0295916905
 21
711.2483026953
 31
0.0
  0
ARC
  5
2CE
330
1F
100
AcDbEntity
  8
0
  6
SLD-Solid
 62
   142
420
    32960
370
     0
100
AcDbCircle
 10
454.8295916905
 20
711.2483026953
 30
0.0
 40
3.199999999999989
100
AcDbArc
 50
180.0
 51
0.0
  0
LINE
  5
2CF
330
1F
100
AcDbEntity
  8
0
  6
SLD-Solid
 62
   142
420
    32960
370
     0
100
AcDbLine
 10
451.6295916905
 20
711.2483026953
 30
0.0
 11
451.6295916905
 21
717.5483026953
 31
0.0
  0
ARC
  5
2D0
330
1F
100
AcDbEntity
  8
0
  6
SLD-Solid
 62
   142
420
    32960
370
     0
100
AcDbCircle
 10
454.8295916905
 20
717.5483026953
 30
0.0
 40
3.199999999999989
100
AcDbArc
 50
0.0
 51
180.0
  0
LINE
  5
2D1
330
1F
100
AcDbEntity
  8
0
  6
SLD-Solid
 62
   142
420
    32960
370
     0
100
AcDbLine
 10
458.0295916905
 20
717.5483026953
 30
0.0
 11
458.0295916905
 21
711.2483026953
 31
0.0
  0
LINE
  5
2D2
330
1F
100
AcDbEntity
  8
0
  6
SLD-Solid
 62
   142
420
    32960
370
     0
100
AcDbLine
 10
849.7795916905
 20
682.3742096013
 30
0.0
 11
849.7795916905
 21
677.4476046106
 31
0.0
  0
LINE
  5
2D3
330
1F
100
AcDbEntity
  8
0
  6
SLD-Solid
 62
   142
420
    32960
370
     0
100
AcDbLine
 10
444.8795916905
 20
677.4476046106
 30
0.0
 11
444.8795916905
 21
682.3742096013
 31
0.0
  0
LINE
  5
2D4
330
1F
100
AcDbEntity
  8
0
  6
SLD-Solid
 62
   142
420
    32960
370
     0
100
AcDbLine
 10
849.7795916905
 20
677.4476046106
 30
0.0
 11
444.8795916905
 21
677.4476046106
 31
0.0
  0
LINE
  5
2D5
330
1F
100
AcDbEntity
  8
0
  6
SLD-Solid
 62
     7
370
    15
100
AcDbLine
 10
444.8795916905
 20
747.4983026953
 30
0.0
 11
849.7795916905
 21
747.4983026953
 31
0.0
  0
LINE
  5
2D6
330
1F
100
AcDbEntity
  8
0
  6
SLD-Solid
 62
   142
420
    32960
370
     0
100
AcDbLine
 10
443.6295916905
 20
747.4983026953
 30
0.0
 11
444.8795916905
 21
747.4983026953
 31
0.0
  0
LINE
  5
2D7
330
1F
100
AcDbEntity
  8
0
  6
SLD-Solid
 62
   142
420
    32960
370
     0
100
AcDbLine
 10
443.6295916905
 20
745.4483026953
 30
0.0
 11
443.6295916905
 21
747.4983026953
 31
0.0
  0
LINE
  5
2D8
330
1F
100
AcDbEntity
  8
0
  6
SLD-Solid
 62
   142
420
    32960
370
     0
100
AcDbLine
 10
443.6295916905
 20
745.4483026953
 30
0.0
 11
444.8795916905
 21
745.4483026953
 31
0.0
  0
LINE
  5
2D9
330
1F
100
AcDbEntity
  8
0
  6
SLD-Solid
 62
   142
420
    32960
370
     0
100
AcDbLine
 10
851.0295916905
 20
745.4483026953
 30
0.0
 11
849.7795916905
 21
745.4483026953
 31
0.0
  0
LINE
  5
2DA
330
1F
100
AcDbEntity
  8
0
  6
SLD-Solid
 62
   142
420
    32960
370
     0
100
AcDbLine
 10
851.0295916905
 20
747.4983026953
 30
0.0
 11
851.0295916905
 21
745.4483026953
 31
0.0
  0
LINE
  5
2DB
330
1F
100
AcDbEntity
  8
0
  6
SLD-Solid
 62
   142
420
    32960
370
     0
100
AcDbLine
 10
851.0295916905
 20
747.4983026953
 30
0.0
 11
849.7795916905
 21
747.4983026953
 31
0.0
  0
SPLINE
  5
2DC
330
1F
100
AcDbEntity
  8
0
  6
SLD-Solid
 62
   142
420
    32960
370
     0
100
AcDbSpline
210
0.0
220
0.0
230
1.0
 70
     8
 71
     3
 72
    10
 73
     6
 74
     0
 42
0.00000001
 43
0.00000001
 40
0.0
 40
0.0
 40
0.0
 40
0.0
 40
0.4347688117987741
 40
0.8695376235975657
 40
0.9999999999999999
 40
0.9999999999999999
 40
0.9999999999999999
 40
0.9999999999999999
 10
851.8295916905482
 20
745.448302695255
 30
0.0
 10
851.7963349802469
 20
745.7129893659974
 30
0.0
 10
851.7298215596443
 20
746.2423627074818
 30
0.0
 10
851.3944470772988
 20
746.8071886846941
 30
0.0
 10
851.09801247697
 20
746.9892071513013
 30
0.0
 10
851.0295916905484
 20
747.0312192734176
 30
0.0
  0
SPLINE
  5
2DD
330
1F
100
AcDbEntity
  8
0
  6
SLD-Solid
 62
   142
420
    32960
370
     0
100
AcDbSpline
210
0.0
220
0.0
230
1.0
 70
     8
 71
     3
 72
    10
 73
     6
 74
     0
 42
0.00000001
 43
0.00000001
 40
0.0
 40
0.0
 40
0.0
 40
0.0
 40
0.130462376402463
 40
0.5652311882012278
 40
1.0
 40
1.0
 40
1.0
 40
1.0
 10
443.6295916905484
 20
747.0312192734181
 30
0.0
 10
443.5611709041266
 20
746.9892071513018
 30
0.0
 10
443.2647363037977
 20
746.8071886846947
 30
0.0
 10
442.9293618214526
 20
746.2423627074821
 30
0.0
 10
442.8628484008498
 20
745.7129893659977
 30
0.0
 10
442.8295916905484
 20
745.4483026952554
 30
0.0
  0
LINE
  5
2DE
330
1F
100
AcDbEntity
  8
0
  6
SLD-Solid
 62
   142
420
    32960
370
     0
100
AcDbLine
 10
851.8295916905
 20
745.4412316274
 30
0.0
 11
851.8295916905
 21
745.4483026953
 31
0.0
  0
LINE
  5
2DF
330
1F
100
AcDbEntity
  8
0
  6
SLD-Solid
 62
   142
420
    32960
370
     0
100
AcDbLine
 10
442.8295916905
 20
745.4483026953
 30
0.0
 11
442.8295916905
 21
745.4412316274
 31
0.0
  0
LINE
  5
2E0
330
1F
100
AcDbEntity
  8
0
  6
SLD-Solid
 62
     7
370
    15
100
AcDbLine
 10
862.82959168
 20
-68.4685058076
 30
0.0
 11
862.82959168
 21
-67.9685058076
 31
0.0
  0
LINE
  5
2E1
330
1F
100
AcDbEntity
  8
0
  6
SLD-Solid
 62
     7
370
    15
100
AcDbLine
 10
-35.17040832
 20
-68.4685058076
 30
0.0
 11
-35.17040832
 21
-67.9685058076
 31
0.0
  0
ENDSEC
  0
SECTION
  2
OBJECTS
  0
DICTIONARY
  5
C
330
0
100
AcDbDictionary
281
     1
  3
ACAD_GROUP
350
D
  3
ACAD_LAYOUT
350
1A
  3
ACAD_MATERIAL
350
3B
  3
ACAD_MLEADERSTYLE
350
2E3
  3
ACAD_MLINESTYLE
350
17
  3
ACAD_PLOTSETTINGS
350
19
  3
ACAD_PLOTSTYLENAME
350
E
  3
ACAD_TABLESTYLE
350
2E2
  3
ACAD_VISUALSTYLE
350
2A
  0
DICTIONARY
  5
D
102
{ACAD_REACTORS
330
C
102
}
330
C
100
AcDbDictionary
281
     1
  0
DICTIONARY
  5
1A
102
{ACAD_REACTORS
330
C
102
}
330
C
100
AcDbDictionary
281
     1
  3
Layout1
350
1E
  3
Layout2
350
26
  3
Model
350
22
  0
DICTIONARY
  5
3B
102
{ACAD_REACTORS
330
C
102
}
330
C
100
AcDbDictionary
281
     1
  3
ByBlock
350
3D
  3
ByLayer
350
3C
  3
Global
350
3E
  0
DICTIONARY
  5
2E3
102
{ACAD_REACTORS
330
C
102
}
330
C
100
AcDbDictionary
281
     1
  0
DICTIONARY
  5
17
102
{ACAD_REACTORS
330
C
102
}
330
C
100
AcDbDictionary
281
     1
  3
Standard
350
18
  0
DICTIONARY
  5
19
102
{ACAD_REACTORS
330
C
102
}
330
C
100
AcDbDictionary
281
     1
  0
ACDBDICTIONARYWDFLT
  5
E
102
{ACAD_REACTORS
330
C
102
}
330
C
100
AcDbDictionary
281
     1
  3
Normal
350
F
100
AcDbDictionaryWithDefault
340
F
  0
DICTIONARY
  5
2E2
102
{ACAD_REACTORS
330
C
102
}
330
C
100
AcDbDictionary
281
     1
  0
DICTIONARY
  5
2A
102
{ACAD_REACTORS
330
C
102
}
330
C
100
AcDbDictionary
281
     1
  3
2dWireframe
350
2F
  3
3D Hidden
350
31
  3
3dWireframe
350
30
  3
Basic
350
32
  3
Brighten
350
36
  3
ColorChange
350
3A
  3
Conceptual
350
34
  3
Dim
350
35
  3
Facepattern
350
39
  3
Flat
350
2B
  3
FlatWithEdges
350
2C
  3
Gouraud
350
2D
  3
GouraudWithEdges
350
2E
  3
Linepattern
350
38
  3
Realistic
350
33
  3
Thicken
350
37
  0
LAYOUT
  5
1E
102
{ACAD_REACTORS
330
1A
102
}
330
1A
100
AcDbPlotSettings
  1

  2
none_device
  4

  6

 40
0.0
 41
0.0
 42
0.0
 43
0.0
 44
0.0
 45
0.0
 46
0.0
 47
0.0
 48
0.0
 49
0.0
140
0.0
141
0.0
142
1.0
143
1.0
 70
   688
 72
     0
 73
     0
 74
     5
  7

 75
    16
 76
     0
 77
     2
 78
   300
147
1.0
148
0.0
149
0.0
100
AcDbLayout
  1
Layout1
 70
     1
 71
     1
 10
0.0
 20
0.0
 11
420.0
 21
297.0
 12
0.0
 22
0.0
 32
0.0
 14
1.0000000000E+20
 24
1.0000000000E+20
 34
1.0000000000E+20
 15
-1.0000000000E+20
 25
-1.0000000000E+20
 35
-1.0000000000E+20
146
0.0
 13
0.0
 23
0.0
 33
0.0
 16
1.0
 26
0.0
 36
0.0
 17
0.0
 27
1.0
 37
0.0
 76
     0
330
1B
  0
LAYOUT
  5
26
102
{ACAD_REACTORS
330
1A
102
}
330
1A
100
AcDbPlotSettings
  1

  2
none_device
  4

  6

 40
0.0
 41
0.0
 42
0.0
 43
0.0
 44
0.0
 45
0.0
 46
0.0
 47
0.0
 48
0.0
 49
0.0
140
0.0
141
0.0
142
1.0
143
1.0
 70
   688
 72
     0
 73
     0
 74
     5
  7

 75
    16
 76
     0
 77
     2
 78
   300
147
1.0
148
0.0
149
0.0
100
AcDbLayout
  1
Layout2
 70
     1
 71
     2
 10
0.0
 20
0.0
 11
0.0
 21
0.0
 12
0.0
 22
0.0
 32
0.0
 14
0.0
 24
0.0
 34
0.0
 15
0.0
 25
0.0
 35
0.0
146
0.0
 13
0.0
 23
0.0
 33
0.0
 16
1.0
 26
0.0
 36
0.0
 17
0.0
 27
1.0
 37
0.0
 76
     0
330
23
  0
LAYOUT
  5
22
102
{ACAD_REACTORS
330
1A
102
}
330
1A
100
AcDbPlotSettings
  1

  2
none_device
  4

  6

 40
0.0
 41
0.0
 42
0.0
 43
0.0
 44
0.0
 45
0.0
 46
0.0
 47
0.0
 48
0.0
 49
0.0
140
0.0
141
0.0
142
1.0
143
1.0
 70
  1712
 72
     0
 73
     0
 74
     0
  7

 75
     0
 76
     0
 77
     2
 78
   300
147
1.0
148
0.0
149
0.0
100
AcDbLayout
  1
Model
 70
     1
 71
     0
 10
0.0
 20
0.0
 11
841.0
 21
594.0
 12
0.0
 22
0.0
 32
0.0
 14
0.0
 24
0.0
 34
0.0
 15
841.0
 25
594.0
 35
0.0
146
0.0
 13
0.0
 23
0.0
 33
0.0
 16
1.0
 26
0.0
 36
0.0
 17
0.0
 27
1.0
 37
0.0
 76
     0
330
1F
331
29
  0
MATERIAL
  5
3D
102
{ACAD_REACTORS
330
3B
102
}
330
3B
100
AcDbMaterial
  1
ByBlock
 72
     1
 94
      127
  0
MATERIAL
  5
3C
102
{ACAD_REACTORS
330
3B
102
}
330
3B
100
AcDbMaterial
  1
ByLayer
 72
     1
 94
      127
  0
MATERIAL
  5
3E
102
{ACAD_REACTORS
330
3B
102
}
330
3B
100
AcDbMaterial
  1
Global
 72
     1
 94
      127
  0
MLINESTYLE
  5
18
102
{ACAD_REACTORS
330
17
102
}
330
17
100
AcDbMlineStyle
  2
Standard
 70
     0
  3

 62
   256
 51
90.0
 52
90.0
 71
     2
 49
0.5
 62
   256
  6
BYLAYER
 49
-0.5
 62
   256
  6
BYLAYER
  0
ACDBPLACEHOLDER
  5
F
102
{ACAD_REACTORS
330
E
102
}
330
E
  0
VISUALSTYLE
  5
2F
102
{ACAD_REACTORS
330
2A
102
}
330
2A
100
AcDbVisualStyle
  2
2dWireframe
 70
     4
 71
     0
 72
     2
 73
     0
 90
        0
 40
-0.6
 41
-30.0
 62
     5
 63
     7
421
 16777215
 74
     1
 91
        4
 64
     7
 65
   257
 75
     1
175
     1
 42
1.0
 92
        0
 66
   257
 43
1.0
 76
     1
 77
     6
 78
     2
 67
     7
 79
     5
170
     0
171
     0
290
     0
174
     0
 93
        1
 44
0.0
173
     0
291
     0
 45
0.0
  0
VISUALSTYLE
  5
31
102
{ACAD_REACTORS
330
2A
102
}
330
2A
100
AcDbVisualStyle
  2
3D Hidden
 70
     6
 71
     1
 72
     2
 73
     2
 90
        0
 40
-0.6
 41
-30.0
 62
     5
 63
     7
421
 16777215
 74
     2
 91
        2
 64
     7
 65
   257
 75
     2
175
     1
 42
40.0
 92
        0
 66
   257
 43
1.0
 76
     1
 77
     6
 78
     2
 67
     7
 79
     3
170
     0
171
     0
290
     0
174
     0
 93
        1
 44
0.0
173
     0
291
     0
 45
0.0
  0
VISUALSTYLE
  5
30
102
{ACAD_REACTORS
330
2A
102
}
330
2A
100
AcDbVisualStyle
  2
3dWireframe
 70
     5
 71
     0
 72
     2
 73
     0
 90
        0
 40
-0.6
 41
-30.0
 62
     5
 63
     7
421
 16777215
 74
     1
 91
        4
 64
     7
 65
   257
 75
     1
175
     1
 42
1.0
 92
        0
 66
   257
 43
1.0
 76
     1
 77
     6
 78
     2
 67
     7
 79
     5
170
     0
171
     0
290
     0
174
     0
 93
        1
 44
0.0
173
     0
291
     0
 45
0.0
  0
VISUALSTYLE
  5
32
102
{ACAD_REACTORS
330
2A
102
}
330
2A
100
AcDbVisualStyle
  2
Basic
 70
     7
 71
     1
 72
     0
 73
     1
 90
        0
 40
-0.6
 41
-30.0
 62
     5
 63
     7
421
 16777215
 74
     0
 91
        4
 64
     7
 65
   257
 75
     1
175
     1
 42
1.0
 92
        8
 66
     7
 43
1.0
 76
     1
 77
     6
 78
     2
 67
     7
 79
     5
170
     0
171
     0
290
     0
174
     0
 93
        1
 44
0.0
173
     0
291
     1
 45
0.0
  0
VISUALSTYLE
  5
36
102
{ACAD_REACTORS
330
2A
102
}
330
2A
100
AcDbVisualStyle
  2
Brighten
 70
    12
 71
     2
 72
     2
 73
     0
 90
        0
 40
-0.6
 41
-30.0
 62
     5
 63
     7
421
 16777215
 74
     1
 91
        4
 64
     7
 65
   257
 75
     1
175
     1
 42
1.0
 92
        8
 66
     7
 43
1.0
 76
     1
 77
     6
 78
     2
 67
     7
 79
     5
170
     0
171
     0
290
     0
174
     0
 93
        1
 44
50.0
173
     0
291
     1
 45
0.0
  0
VISUALSTYLE
  5
3A
102
{ACAD_REACTORS
330
2A
102
}
330
2A
100
AcDbVisualStyle
  2
ColorChange
 70
    16
 71
     2
 72
     2
 73
     3
 90
        0
 40
-0.6
 41
-30.0
 62
     5
 63
     8
421
  8421504
 74
     1
 91
        4
 64
     7
 65
   257
 75
     1
175
     1
 42
1.0
 92
        8
 66
     8
424
  8421504
 43
1.0
 76
     1
 77
     6
 78
     2
 67
     7
 79
     5
170
     0
171
     0
290
     0
174
     0
 93
        1
 44
0.0
173
     0
291
     1
 45
0.0
  0
VISUALSTYLE
  5
34
102
{ACAD_REACTORS
330
2A
102
}
330
2A
100
AcDbVisualStyle
  2
Conceptual
 70
     9
 71
     3
 72
     2
 73
     0
 90
        0
 40
-0.6
 41
-30.0
 62
     5
 63
     7
421
 16777215
 74
     2
 91
        2
 64
     7
 65
   257
 75
     1
175
     1
 42
40.0
 92
        8
 66
     7
 43
1.0
 76
     1
 77
     6
 78
     2
 67
     7
 79
     3
170
     0
171
     0
290
     0
174
     0
 93
        1
 44
0.0
173
     0
291
     0
 45
0.0
  0
VISUALSTYLE
  5
35
102
{ACAD_REACTORS
330
2A
102
}
330
2A
100
AcDbVisualStyle
  2
Dim
 70
    11
 71
     2
 72
     2
 73
     0
 90
        0
 40
-0.6
 41
-30.0
 62
     5
 63
     7
421
 16777215
 74
     1
 91
        4
 64
     7
 65
   257
 75
     1
175
     1
 42
1.0
 92
        8
 66
     7
 43
1.0
 76
     1
 77
     6
 78
     2
 67
     7
 79
     5
170
     0
171
     0
290
     0
174
     0
 93
        1
 44
-50.0
173
     0
291
     1
 45
0.0
  0
VISUALSTYLE
  5
39
102
{ACAD_REACTORS
330
2A
102
}
330
2A
100
AcDbVisualStyle
  2
Facepattern
 70
    15
 71
     2
 72
     2
 73
     0
 90
        0
 40
-0.6
 41
-30.0
 62
     5
 63
     7
421
 16777215
 74
     1
 91
        4
 64
     7
 65
   257
 75
     1
175
     1
 42
1.0
 92
        8
 66
     7
 43
1.0
 76
     1
 77
     6
 78
     2
 67
     7
 79
     5
170
     0
171
     0
290
     0
174
     0
 93
        1
 44
0.0
173
     0
291
     1
 45
0.0
  0
VISUALSTYLE
  5
2B
102
{ACAD_REACTORS
330
2A
102
}
330
2A
100
AcDbVisualStyle
  2
Flat
 70
     0
 71
     2
 72
     1
 73
     1
 90
        2
 40
-0.6
 41
30.0
 62
     5
 63
     7
421
 16777215
 74
     0
 91
        4
 64
     7
 65
   257
 75
     1
175
     1
 42
1.0
 92
        8
 66
     7
 43
1.0
 76
     1
 77
     6
 78
     2
 67
     7
 79
     5
170
     0
171
     0
290
     0
174
     0
 93
       13
 44
0.0
173
     0
291
     1
 45
0.0
  0
VISUALSTYLE
  5
2C
102
{ACAD_REACTORS
330
2A
102
}
330
2A
100
AcDbVisualStyle
  2
FlatWithEdges
 70
     1
 71
     2
 72
     1
 73
     1
 90
        2
 40
-0.6
 41
30.0
 62
     5
 63
     7
421
 16777215
 74
     1
 91
        4
 64
     7
 65
   257
 75
     1
175
     1
 42
1.0
 92
        0
 66
   257
 43
1.0
 76
     1
 77
     6
 78
     2
 67
     7
 79
     5
170
     0
171
     0
290
     0
174
     0
 93
       13
 44
0.0
173
     0
291
     1
 45
0.0
  0
VISUALSTYLE
  5
2D
102
{ACAD_REACTORS
330
2A
102
}
330
2A
100
AcDbVisualStyle
  2
Gouraud
 70
     2
 71
     2
 72
     2
 73
     1
 90
        2
 40
-0.6
 41
30.0
 62
     5
 63
     7
421
 16777215
 74
     0
 91
        4
 64
     7
 65
   257
 75
     1
175
     1
 42
1.0
 92
        0
 66
     7
 43
1.0
 76
     1
 77
     6
 78
     2
 67
     7
 79
     5
170
     0
171
     0
290
     0
174
     0
 93
       13
 44
0.0
173
     0
291
     1
 45
0.0
  0
VISUALSTYLE
  5
2E
102
{ACAD_REACTORS
330
2A
102
}
330
2A
100
AcDbVisualStyle
  2
GouraudWithEdges
 70
     3
 71
     2
 72
     2
 73
     1
 90
        2
 40
-0.6
 41
30.0
 62
     5
 63
     7
421
 16777215
 74
     1
 91
        4
 64
     7
 65
   257
 75
     1
175
     1
 42
1.0
 92
        0
 66
   257
 43
1.0
 76
     1
 77
     6
 78
     2
 67
     7
 79
     5
170
     0
171
     0
290
     0
174
     0
 93
       13
 44
0.0
173
     0
291
     1
 45
0.0
  0
VISUALSTYLE
  5
38
102
{ACAD_REACTORS
330
2A
102
}
330
2A
100
AcDbVisualStyle
  2
Linepattern
 70
    14
 71
     2
 72
     2
 73
     0
 90
        0
 40
-0.6
 41
-30.0
 62
     5
 63
     7
421
 16777215
 74
     1
 91
        4
 64
     7
 65
   257
 75
     7
175
     7
 42
1.0
 92
        8
 66
     7
 43
1.0
 76
     1
 77
     6
 78
     2
 67
     7
 79
     5
170
     0
171
     0
290
     0
174
     0
 93
        1
 44
0.0
173
     0
291
     1
 45
0.0
  0
VISUALSTYLE
  5
33
102
{ACAD_REACTORS
330
2A
102
}
330
2A
100
AcDbVisualStyle
  2
Realistic
 70
     8
 71
     2
 72
     2
 73
     0
 90
        0
 40
-0.6
 41
-30.0
 62
     5
 63
     7
421
 16777215
 74
     1
 91
        0
 64
     7
 65
   257
 75
     1
175
     1
 42
1.0
 92
        8
 66
     8
424
  7895160
 43
1.0
 76
     1
 77
     6
 78
     2
 67
     7
 79
     5
170
     0
171
     0
290
     0
174
     0
 93
       13
 44
0.0
173
     0
291
     0
 45
0.0
  0
VISUALSTYLE
  5
37
102
{ACAD_REACTORS
330
2A
102
}
330
2A
100
AcDbVisualStyle
  2
Thicken
 70
    13
 71
     2
 72
     2
 73
     0
 90
        0
 40
-0.6
 41
-30.0
 62
     5
 63
     7
421
 16777215
 74
     1
 91
        4
 64
     7
 65
   257
 75
     1
175
     1
 42
1.0
 92
       12
 66
     7
 43
1.0
 76
     1
 77
     6
 78
     2
 67
     7
 79
     5
170
     0
171
     0
290
     0
174
     0
 93
        1
 44
0.0
173
     0
291
     1
 45
0.0
  0
ENDSEC
  0
EOF
