  0
SECTION
  2
HEADER
  9
$LIMMIN
 10
0.000000
 20
0.000000
  9
$LIMMAX
 10
3500.000000
 20
2500.000000
  9
$EXTMIN
 10
0.000000
 20
0.000000
  9
$EXTMAX
 10
3500.000000
 20
2500.000000
  9
$ANGBASE
 50
0.0
  9
$ANGDIR
 70
0
  9
$DIMRND
 40
0.100000
  9
$DIMSE1
 70
0
  9
$DIMSE2
 70
0
  9
$DIMTXT
 40
3.500000
  9
$LTSCALE
 40
1.000000
  9
$LUPREC
 70
5
  9
$AUPREC
 70
5
  9
$PDMODE
 70
2
  9
$PDSIZE
 40
17.500000
  0
ENDSEC
  0
SECTION
  2
TABLES
  0
TABLE
  2
VPORT
  70
1
  0
VPORT
  2
*ACTIVE
 70
0
  10
0.0
 20
0.0
 11
1.0
 21
1.0
 12
594.0
 22
420.0
 13
0.0
 23
0.0
 14
10.0
 24
10.0
 15
10.0
 25
10.0
 16
0.0
 26
0.0
 36
1.0
 17
594.0
 27
420.0
 37
100.0
 40
1000.0
 41
1.0
 42
50.0
 43
0.0
 44
0.0
 50
0.0
 51
0.0
 71
0
 72
2000
 73
1
 74
3
 75
0
 76
0
 77
0
 78
1
  0
ENDTAB
  0
TABLE
  2
LTYPE
 70
4
  0
LTYPE
  2
CONTINUOUS
 70
0
  3
Solid line
 72
65
 73
0
 40
0.0
  0
LTYPE
  2
DASHED
 70
0
  3
Dashed line
 72
65
 73
2
 40
6.000000
 49
3.000000
 49
-3.000000
  0
LTYPE
  2
CENTER
 70
0
  3
Chain line
 72
65
 73
4
 40
24.000000
 49
15.000000
 49
-3.000000
 49
3.000000
 49
-3.000000
  0
LTYPE
  2
RANDOM
 70
0
  3
Random line
 72
65
 73
4
 40
22.500000
 49
6.000000
 49
-3.000000
 49
4.500000
 49
-9.000000
  0
ENDTAB
  0
TABLE
  2
STYLE
 70
9
  0
STYLE
  2
STANDARD
 40
0
 41
1.0
 50
0.0
 71
0
 42
0
  3
simplex
  4

 70
0
  0
ENDTAB
  0
TABLE
  2
LAYER
 70
4
  0
LAYER
  2
0
 70
0
 62
7
  6
CONTINUOUS
  0
LAYER
  2
0
 62
1
  6
CONTINUOUS
 70
0
  0
LAYER
  2
73CONTINUOUS
 62
1
  6
CONTINUOUS
 70
0
  0
LAYER
  2
73ADSDOT
 62
1
  6
CONTINUOUS
 70
0
  0
ENDTAB
  0
ENDSEC
  0
SECTION
  2
BLOCKS
  0
ENDSEC
  0
SECTION
  2
ENTITIES
  0
LINE
  8
0
  6
CENTER
 62
4
 10
1599.415403
 20
1522.917153
 11
1599.415403
 21
1464.917153
  0
LINE
  8
0
  6
CONTINUOUS
 62
1
 10
1049.915403
 20
732.917153
 11
1371.615403
 21
732.917153
  0
ARC
  8
0
  6
CONTINUOUS
 62
1
 10
1371.615403
 20
712.917153
 40
20.000000
 50
26.257000
 51
89.999000
  0
LINE
  8
0
  6
CONTINUOUS
 62
1
 10
1389.555403
 20
721.767153
 11
1397.375403
 21
705.927153
  0
ARC
  8
0
  6
CONTINUOUS
 62
1
 10
1442.415403
 20
728.147153
 40
50.230000
 50
206.257000
 51
270.000000
  0
ARC
  8
0
  6
CONTINUOUS
 62
1
 10
1442.415403
 20
728.147153
 40
50.230000
 50
270.000000
 51
333.744000
  0
LINE
  8
0
  6
CONTINUOUS
 62
1
 10
1487.455403
 20
705.927153
 11
1495.275403
 21
721.767153
  0
ARC
  8
0
  6
CONTINUOUS
 62
1
 10
1513.215403
 20
712.917153
 40
20.000000
 50
90.001000
 51
153.743000
  0
LINE
  8
0
  6
CONTINUOUS
 62
1
 10
1513.215403
 20
732.917153
 11
1834.915403
 21
732.917153
  0
LINE
  8
0
  6
CONTINUOUS
 62
1
 10
1034.915403
 20
767.917153
 11
1034.915403
 21
687.917153
  0
ARC
  8
0
  6
CONTINUOUS
 62
1
 10
1087.415403
 20
687.917153
 40
52.500000
 50
180.000000
 51
270.000000
  0
LINE
  8
0
  6
CONTINUOUS
 62
1
 10
1087.415403
 20
635.417153
 11
1797.415403
 21
635.417153
  0
ARC
  8
0
  6
CONTINUOUS
 62
1
 10
1797.415403
 20
687.917153
 40
52.500000
 50
270.000000
 51
0.000000
  0
LINE
  8
0
  6
CONTINUOUS
 62
1
 10
1849.915403
 20
687.917153
 11
1849.915403
 21
767.917153
  0
LINE
  8
0
  6
CONTINUOUS
 62
1
 10
1049.915403
 20
767.917153
 11
1049.915403
 21
687.917153
  0
ARC
  8
0
  6
CONTINUOUS
 62
1
 10
1087.415403
 20
687.917153
 40
37.500000
 50
180.000000
 51
270.000000
  0
LINE
  8
0
  6
CONTINUOUS
 62
1
 10
1087.415403
 20
650.417153
 11
1797.415403
 21
650.417153
  0
ARC
  8
0
  6
CONTINUOUS
 62
1
 10
1797.415403
 20
687.917153
 40
37.500000
 50
270.000000
 51
0.000000
  0
LINE
  8
0
  6
CONTINUOUS
 62
1
 10
1834.915403
 20
687.917153
 11
1834.915403
 21
767.917153
  0
LINE
  8
0
  6
CONTINUOUS
 62
1
 10
1849.915403
 20
732.917153
 11
1892.415403
 21
732.917153
  0
LINE
  8
0
  6
CONTINUOUS
 62
1
 10
1892.415403
 20
732.917153
 11
1892.415403
 21
1502.917153
  0
LINE
  8
0
  6
CONTINUOUS
 62
1
 10
1892.415403
 20
1502.917153
 11
992.415403
 21
1502.917153
  0
LINE
  8
0
  6
CONTINUOUS
 62
1
 10
992.415403
 20
1502.917153
 11
992.415403
 21
732.917153
  0
LINE
  8
0
  6
CONTINUOUS
 62
1
 10
992.415403
 20
732.917153
 11
1034.915403
 21
732.917153
  0
LINE
  8
0
  6
CONTINUOUS
 62
1
 10
1017.415403
 20
1352.917153
 11
1017.415403
 21
767.917153
  0
LINE
  8
0
  6
CONTINUOUS
 62
1
 10
1017.415403
 20
767.917153
 11
1867.415403
 21
767.917153
  0
LINE
  8
0
  6
CONTINUOUS
 62
1
 10
1867.415403
 20
767.917153
 11
1867.415403
 21
1352.917153
  0
LINE
  8
0
  6
CONTINUOUS
 62
1
 10
992.415403
 20
1352.917153
 11
1892.415403
 21
1352.917153
  0
LINE
  8
0
  6
CONTINUOUS
 62
1
 10
1892.415403
 20
1412.917153
 11
992.415403
 21
1412.917153
  0
LINE
  8
0
  6
CONTINUOUS
 62
1
 10
992.415403
 20
1464.917153
 11
1892.415403
 21
1464.917153
  0
LINE
  8
0
  6
CONTINUOUS
 62
1
 10
1032.415403
 20
1412.917153
 11
1032.415403
 21
1352.917153
  0
LINE
  8
0
  6
CONTINUOUS
 62
1
 10
1032.415403
 20
1399.847153
 11
1127.415403
 21
1399.847153
  0
LINE
  8
0
  6
CONTINUOUS
 62
1
 10
1127.415403
 20
1399.847153
 11
1127.415403
 21
1365.507153
  0
LINE
  8
0
  6
CONTINUOUS
 62
1
 10
1127.415403
 20
1365.507153
 11
1050.535403
 21
1365.507153
  0
LINE
  8
0
  6
CONTINUOUS
 62
1
 10
1050.535403
 20
1381.537153
 11
1050.535403
 21
1352.917153
  0
LINE
  8
0
  6
CONTINUOUS
 62
1
 10
1852.415403
 20
1412.917153
 11
1852.415403
 21
1352.917153
  0
LINE
  8
0
  6
CONTINUOUS
 62
1
 10
1852.415403
 20
1399.847153
 11
1757.415403
 21
1399.847153
  0
LINE
  8
0
  6
CONTINUOUS
 62
1
 10
1757.415403
 20
1399.847153
 11
1757.415403
 21
1365.507153
  0
LINE
  8
0
  6
CONTINUOUS
 62
1
 10
1757.415403
 20
1365.507153
 11
1834.295403
 21
1365.507153
  0
LINE
  8
0
  6
CONTINUOUS
 62
1
 10
1834.295403
 20
1381.537153
 11
1834.295403
 21
1352.917153
  0
ARC
  8
0
  6
CONTINUOUS
 62
1
 10
1513.755403
 20
747.917153
 40
20.000000
 50
90.003000
 51
153.742000
  0
LINE
  8
0
  6
CONTINUOUS
 62
1
 10
1495.815403
 20
756.767153
 11
1474.005403
 21
712.557153
  0
ARC
  8
0
  6
CONTINUOUS
 62
1
 10
1442.415403
 20
728.147153
 40
35.230000
 50
269.999000
 51
333.742000
  0
ARC
  8
0
  6
CONTINUOUS
 62
1
 10
1442.415403
 20
728.147153
 40
35.230000
 50
206.257000
 51
270.001000
  0
LINE
  8
0
  6
CONTINUOUS
 62
1
 10
1410.825403
 20
712.557153
 11
1389.015403
 21
756.767153
  0
ARC
  8
0
  6
CONTINUOUS
 62
1
 10
1371.075403
 20
747.917153
 40
20.000000
 50
26.259000
 51
89.998000
  0
LINE
  8
0
  6
CONTINUOUS
 62
1
 10
1401.285403
 20
767.917153
 11
1413.335403
 21
738.837153
  0
LINE
  8
0
  6
CONTINUOUS
 62
1
 10
1413.335403
 20
738.837153
 11
1442.415403
 21
726.787153
  0
LINE
  8
0
  6
CONTINUOUS
 62
1
 10
1442.415403
 20
726.787153
 11
1471.495403
 21
738.837153
  0
LINE
  8
0
  6
CONTINUOUS
 62
1
 10
1471.495403
 20
738.837153
 11
1483.545403
 21
767.917153
  0
LINE
  8
0
  6
CONTINUOUS
 62
1
 10
1834.915403
 20
725.917153
 11
1739.915403
 21
725.917153
  0
LINE
  8
0
  6
CONTINUOUS
 62
1
 10
1739.915403
 20
725.917153
 11
1739.915403
 21
692.917153
  0
LINE
  8
0
  6
CONTINUOUS
 62
1
 10
1739.915403
 20
692.917153
 11
1834.915403
 21
692.917153
  0
LINE
  8
0
  6
CONTINUOUS
 62
1
 10
1849.915403
 20
692.917153
 11
1884.915403
 21
692.917153
  0
LINE
  8
0
  6
CONTINUOUS
 62
1
 10
1884.915403
 20
692.917153
 11
1884.915403
 21
725.917153
  0
LINE
  8
0
  6
CONTINUOUS
 62
1
 10
1884.915403
 20
725.917153
 11
1849.915403
 21
725.917153
  0
LINE
  8
0
  6
CONTINUOUS
 62
1
 10
1792.415403
 20
732.917153
 11
1792.415403
 21
725.917153
  0
LINE
  8
0
  6
CONTINUOUS
 62
1
 10
1832.415403
 20
725.917153
 11
1832.415403
 21
732.917153
  0
LINE
  8
0
  6
CONTINUOUS
 62
1
 10
1632.815403
 20
1480.917153
 11
1632.815403
 21
1470.917153
  0
LINE
  8
0
  6
CONTINUOUS
 62
1
 10
1619.215403
 20
1470.917153
 11
1619.215403
 21
1480.917153
  0
LINE
  8
0
  6
CONTINUOUS
 62
1
 10
1605.615403
 20
1480.917153
 11
1605.615403
 21
1470.917153
  0
LINE
  8
0
  6
CONTINUOUS
 62
1
 10
1592.015403
 20
1470.917153
 11
1592.015403
 21
1480.917153
  0
LINE
  8
0
  6
CONTINUOUS
 62
1
 10
1578.415403
 20
1480.917153
 11
1578.415403
 21
1470.917153
  0
LINE
  8
0
  6
CONTINUOUS
 62
1
 10
1564.815403
 20
1470.917153
 11
1564.815403
 21
1480.917153
  0
LINE
  8
0
  6
CONTINUOUS
 62
1
 10
1551.215403
 20
1480.917153
 11
1551.215403
 21
1470.917153
  0
LINE
  8
0
  6
CONTINUOUS
 62
1
 10
1537.615403
 20
1470.917153
 11
1537.615403
 21
1480.917153
  0
LINE
  8
0
  6
CONTINUOUS
 62
1
 10
1524.015403
 20
1480.917153
 11
1524.015403
 21
1470.917153
  0
LINE
  8
0
  6
CONTINUOUS
 62
1
 10
1510.415403
 20
1470.917153
 11
1510.415403
 21
1480.917153
  0
LINE
  8
0
  6
CONTINUOUS
 62
1
 10
1496.815403
 20
1480.917153
 11
1496.815403
 21
1470.917153
  0
LINE
  8
0
  6
CONTINUOUS
 62
1
 10
1483.215403
 20
1470.917153
 11
1483.215403
 21
1480.917153
  0
LINE
  8
0
  6
CONTINUOUS
 62
1
 10
1469.615403
 20
1480.917153
 11
1469.615403
 21
1470.917153
  0
LINE
  8
0
  6
CONTINUOUS
 62
1
 10
1456.015403
 20
1470.917153
 11
1456.015403
 21
1480.917153
  0
LINE
  8
0
  6
CONTINUOUS
 62
1
 10
1442.415403
 20
1480.917153
 11
1442.415403
 21
1470.917153
  0
LINE
  8
0
  6
CONTINUOUS
 62
1
 10
1428.815403
 20
1470.917153
 11
1428.815403
 21
1480.917153
  0
LINE
  8
0
  6
CONTINUOUS
 62
1
 10
1415.215403
 20
1480.917153
 11
1415.215403
 21
1470.917153
  0
LINE
  8
0
  6
CONTINUOUS
 62
1
 10
1401.615403
 20
1470.917153
 11
1401.615403
 21
1480.917153
  0
LINE
  8
0
  6
CONTINUOUS
 62
1
 10
1388.015403
 20
1480.917153
 11
1388.015403
 21
1470.917153
  0
LINE
  8
0
  6
CONTINUOUS
 62
1
 10
1374.415403
 20
1470.917153
 11
1374.415403
 21
1480.917153
  0
LINE
  8
0
  6
CONTINUOUS
 62
1
 10
1360.815403
 20
1480.917153
 11
1360.815403
 21
1470.917153
  0
LINE
  8
0
  6
CONTINUOUS
 62
1
 10
1347.215403
 20
1470.917153
 11
1347.215403
 21
1480.917153
  0
LINE
  8
0
  6
CONTINUOUS
 62
1
 10
1333.615403
 20
1480.917153
 11
1333.615403
 21
1470.917153
  0
LINE
  8
0
  6
CONTINUOUS
 62
1
 10
1320.015403
 20
1470.917153
 11
1320.015403
 21
1480.917153
  0
LINE
  8
0
  6
CONTINUOUS
 62
1
 10
1306.415403
 20
1480.917153
 11
1306.415403
 21
1470.917153
  0
LINE
  8
0
  6
CONTINUOUS
 62
1
 10
1292.815403
 20
1470.917153
 11
1292.815403
 21
1480.917153
  0
LINE
  8
0
  6
CONTINUOUS
 62
1
 10
1279.215403
 20
1480.917153
 11
1279.215403
 21
1470.917153
  0
LINE
  8
0
  6
CONTINUOUS
 62
1
 10
1265.615403
 20
1470.917153
 11
1265.615403
 21
1480.917153
  0
LINE
  8
0
  6
CONTINUOUS
 62
1
 10
1252.015403
 20
1480.917153
 11
1252.015403
 21
1470.917153
  0
LINE
  8
0
  6
CONTINUOUS
 62
1
 10
1632.815403
 20
1496.917153
 11
1632.815403
 21
1486.917153
  0
LINE
  8
0
  6
CONTINUOUS
 62
1
 10
1619.215403
 20
1486.917153
 11
1619.215403
 21
1496.917153
  0
LINE
  8
0
  6
CONTINUOUS
 62
1
 10
1605.615403
 20
1496.917153
 11
1605.615403
 21
1486.917153
  0
LINE
  8
0
  6
CONTINUOUS
 62
1
 10
1592.015403
 20
1486.917153
 11
1592.015403
 21
1496.917153
  0
LINE
  8
0
  6
CONTINUOUS
 62
1
 10
1578.415403
 20
1496.917153
 11
1578.415403
 21
1486.917153
  0
LINE
  8
0
  6
CONTINUOUS
 62
1
 10
1564.815403
 20
1486.917153
 11
1564.815403
 21
1496.917153
  0
LINE
  8
0
  6
CONTINUOUS
 62
1
 10
1551.215403
 20
1496.917153
 11
1551.215403
 21
1486.917153
  0
LINE
  8
0
  6
CONTINUOUS
 62
1
 10
1537.615403
 20
1486.917153
 11
1537.615403
 21
1496.917153
  0
LINE
  8
0
  6
CONTINUOUS
 62
1
 10
1524.015403
 20
1496.917153
 11
1524.015403
 21
1486.917153
  0
LINE
  8
0
  6
CONTINUOUS
 62
1
 10
1510.415403
 20
1486.917153
 11
1510.415403
 21
1496.917153
  0
LINE
  8
0
  6
CONTINUOUS
 62
1
 10
1496.815403
 20
1496.917153
 11
1496.815403
 21
1486.917153
  0
LINE
  8
0
  6
CONTINUOUS
 62
1
 10
1483.215403
 20
1486.917153
 11
1483.215403
 21
1496.917153
  0
LINE
  8
0
  6
CONTINUOUS
 62
1
 10
1469.615403
 20
1496.917153
 11
1469.615403
 21
1486.917153
  0
LINE
  8
0
  6
CONTINUOUS
 62
1
 10
1456.015403
 20
1486.917153
 11
1456.015403
 21
1496.917153
  0
LINE
  8
0
  6
CONTINUOUS
 62
1
 10
1442.415403
 20
1496.917153
 11
1442.415403
 21
1486.917153
  0
LINE
  8
0
  6
CONTINUOUS
 62
1
 10
1428.815403
 20
1486.917153
 11
1428.815403
 21
1496.917153
  0
LINE
  8
0
  6
CONTINUOUS
 62
1
 10
1415.215403
 20
1496.917153
 11
1415.215403
 21
1486.917153
  0
LINE
  8
0
  6
CONTINUOUS
 62
1
 10
1401.615403
 20
1486.917153
 11
1401.615403
 21
1496.917153
  0
LINE
  8
0
  6
CONTINUOUS
 62
1
 10
1388.015403
 20
1496.917153
 11
1388.015403
 21
1486.917153
  0
LINE
  8
0
  6
CONTINUOUS
 62
1
 10
1374.415403
 20
1486.917153
 11
1374.415403
 21
1496.917153
  0
LINE
  8
0
  6
CONTINUOUS
 62
1
 10
1360.815403
 20
1496.917153
 11
1360.815403
 21
1486.917153
  0
LINE
  8
0
  6
CONTINUOUS
 62
1
 10
1347.215403
 20
1486.917153
 11
1347.215403
 21
1496.917153
  0
LINE
  8
0
  6
CONTINUOUS
 62
1
 10
1333.615403
 20
1496.917153
 11
1333.615403
 21
1486.917153
  0
LINE
  8
0
  6
CONTINUOUS
 62
1
 10
1320.015403
 20
1486.917153
 11
1320.015403
 21
1496.917153
  0
LINE
  8
0
  6
CONTINUOUS
 62
1
 10
1306.415403
 20
1496.917153
 11
1306.415403
 21
1486.917153
  0
LINE
  8
0
  6
CONTINUOUS
 62
1
 10
1292.815403
 20
1486.917153
 11
1292.815403
 21
1496.917153
  0
LINE
  8
0
  6
CONTINUOUS
 62
1
 10
1279.215403
 20
1496.917153
 11
1279.215403
 21
1486.917153
  0
LINE
  8
0
  6
CONTINUOUS
 62
1
 10
1265.615403
 20
1486.917153
 11
1265.615403
 21
1496.917153
  0
LINE
  8
0
  6
CONTINUOUS
 62
1
 10
1252.015403
 20
1496.917153
 11
1252.015403
 21
1486.917153
  0
LINE
  8
0
  6
CONTINUOUS
 62
1
 10
1132.415403
 20
1502.917153
 11
1132.415403
 21
1512.917153
  0
LINE
  8
0
  6
CONTINUOUS
 62
1
 10
1132.415403
 20
1512.917153
 11
1112.415403
 21
1512.917153
  0
LINE
  8
0
  6
CONTINUOUS
 62
1
 10
1112.415403
 20
1512.917153
 11
1112.415403
 21
1502.917153
  0
ENDSEC
  0
EOF
