  0
SECTION
  2
HEADER
  9
$LIMMIN
 10
0.000000
 20
0.000000
  9
$LIMMAX
 10
3500.000000
 20
2500.000000
  9
$EXTMIN
 10
0.000000
 20
0.000000
  9
$EXTMAX
 10
3500.000000
 20
2500.000000
  9
$ANGBASE
 50
0.0
  9
$ANGDIR
 70
0
  9
$DIMRND
 40
0.100000
  9
$DIMSE1
 70
0
  9
$DIMSE2
 70
0
  9
$DIMTXT
 40
3.500000
  9
$LTSCALE
 40
1.000000
  9
$LUPREC
 70
5
  9
$AUPREC
 70
5
  9
$PDMODE
 70
2
  9
$PDSIZE
 40
17.500000
  0
ENDSEC
  0
SECTION
  2
TABLES
  0
TABLE
  2
VPORT
  70
1
  0
VPORT
  2
*ACTIVE
 70
0
  10
0.0
 20
0.0
 11
1.0
 21
1.0
 12
594.0
 22
420.0
 13
0.0
 23
0.0
 14
10.0
 24
10.0
 15
10.0
 25
10.0
 16
0.0
 26
0.0
 36
1.0
 17
594.0
 27
420.0
 37
100.0
 40
1000.0
 41
1.0
 42
50.0
 43
0.0
 44
0.0
 50
0.0
 51
0.0
 71
0
 72
2000
 73
1
 74
3
 75
0
 76
0
 77
0
 78
1
  0
ENDTAB
  0
TABLE
  2
LTYPE
 70
4
  0
LTYPE
  2
CONTINUOUS
 70
0
  3
Solid line
 72
65
 73
0
 40
0.0
  0
LTYPE
  2
DASHED
 70
0
  3
Dashed line
 72
65
 73
2
 40
6.000000
 49
3.000000
 49
-3.000000
  0
LTYPE
  2
CENTER
 70
0
  3
Chain line
 72
65
 73
4
 40
24.000000
 49
15.000000
 49
-3.000000
 49
3.000000
 49
-3.000000
  0
LTYPE
  2
RANDOM
 70
0
  3
Random line
 72
65
 73
4
 40
22.500000
 49
6.000000
 49
-3.000000
 49
4.500000
 49
-9.000000
  0
ENDTAB
  0
TABLE
  2
STYLE
 70
9
  0
STYLE
  2
STANDARD
 40
0
 41
1.0
 50
0.0
 71
0
 42
0
  3
simplex
  4

 70
0
  0
ENDTAB
  0
TABLE
  2
LAYER
 70
4
  0
LAYER
  2
0
 70
0
 62
7
  6
CONTINUOUS
  0
LAYER
  2
0
 62
1
  6
CONTINUOUS
 70
0
  0
LAYER
  2
73CONTINUOUS
 62
1
  6
CONTINUOUS
 70
0
  0
LAYER
  2
73ADSDOT
 62
1
  6
CONTINUOUS
 70
0
  0
ENDTAB
  0
ENDSEC
  0
SECTION
  2
BLOCKS
  0
ENDSEC
  0
SECTION
  2
ENTITIES
  0
LINE
  8
0
  6
CONTINUOUS
 62
1
 10
1017.323800
 20
1447.621504
 11
1028.083800
 21
1410.621504
  0
LINE
  8
0
  6
CONTINUOUS
 62
1
 10
1028.083800
 20
1410.621504
 11
1624.223800
 21
1410.621504
  0
LINE
  8
0
  6
CONTINUOUS
 62
1
 10
1624.223800
 20
1410.621504
 11
1624.223800
 21
1447.621504
  0
LINE
  8
0
  6
CONTINUOUS
 62
1
 10
1624.223800
 20
1447.621504
 11
1017.323800
 21
1447.621504
  0
LINE
  8
0
  6
CONTINUOUS
 62
1
 10
1606.953800
 20
1447.621504
 11
1589.223800
 21
1492.621504
  0
LINE
  8
0
  6
CONTINUOUS
 62
1
 10
1589.223800
 20
1492.621504
 11
1004.223800
 21
1492.621504
  0
LINE
  8
0
  6
CONTINUOUS
 62
1
 10
1004.223800
 20
1492.621504
 11
1017.323800
 21
1447.621504
  0
LINE
  8
0
  6
CONTINUOUS
 62
1
 10
1028.083800
 20
1410.621504
 11
1028.083800
 21
1262.621504
  0
LINE
  8
0
  6
CONTINUOUS
 62
1
 10
1564.223800
 20
1410.621504
 11
1564.223800
 21
727.621504
  0
LINE
  8
0
  6
CONTINUOUS
 62
1
 10
1564.223800
 20
727.621504
 11
854.223800
 21
727.621504
  0
LINE
  8
0
  6
CONTINUOUS
 62
1
 10
854.223800
 20
727.621504
 11
854.223800
 21
1472.621504
  0
LINE
  8
0
  6
CONTINUOUS
 62
1
 10
854.223800
 20
1472.621504
 11
892.223800
 21
1472.621504
  0
LINE
  8
0
  6
CONTINUOUS
 62
1
 10
892.223800
 20
1472.621504
 11
892.223800
 21
1447.621504
  0
LINE
  8
0
  6
CONTINUOUS
 62
1
 10
892.223800
 20
1447.621504
 11
969.223800
 21
1447.621504
  0
ARC
  8
0
  6
CONTINUOUS
 62
1
 10
969.223800
 20
1407.621504
 40
40.000000
 50
0.000000
 51
90.000000
  0
LINE
  8
0
  6
CONTINUOUS
 62
1
 10
1009.223800
 20
1407.621504
 11
1009.223800
 21
1262.621504
  0
LINE
  8
0
  6
CONTINUOUS
 62
1
 10
854.223800
 20
1262.621504
 11
1599.223800
 21
1262.621504
  0
ARC
  8
0
  6
CONTINUOUS
 62
1
 10
1599.223800
 20
1287.621504
 40
25.000000
 50
270.000000
 51
0.000000
  0
LINE
  8
0
  6
CONTINUOUS
 62
1
 10
1624.223800
 20
1287.621504
 11
1624.223800
 21
1410.621504
  0
LINE
  8
0
  6
CONTINUOUS
 62
1
 10
944.223800
 20
1447.621504
 11
955.573800
 21
1382.621504
  0
LINE
  8
0
  6
CONTINUOUS
 62
1
 10
955.573800
 20
1382.621504
 11
1009.223800
 21
1382.621504
  0
LINE
  8
0
  6
CONTINUOUS
 62
1
 10
1004.223800
 20
1492.621504
 11
957.923800
 21
1447.621504
  0
LINE
  8
0
  6
CONTINUOUS
 62
1
 10
1013.793800
 20
1459.741504
 11
993.153800
 21
1439.671504
  0
LINE
  8
0
  6
CONTINUOUS
 62
1
 10
1572.223800
 20
727.621504
 11
1609.223800
 21
727.621504
  0
LINE
  8
0
  6
CONTINUOUS
 62
1
 10
1609.223800
 20
727.621504
 11
1609.223800
 21
857.621504
  0
LINE
  8
0
  6
CONTINUOUS
 62
1
 10
1609.223800
 20
857.621504
 11
1572.223800
 21
857.621504
  0
LINE
  8
0
  6
CONTINUOUS
 62
1
 10
1572.223800
 20
857.621504
 11
1572.223800
 21
727.621504
  0
LINE
  8
0
  6
CONTINUOUS
 62
1
 10
1572.223800
 20
902.621504
 11
1609.223800
 21
902.621504
  0
LINE
  8
0
  6
CONTINUOUS
 62
1
 10
1609.223800
 20
902.621504
 11
1609.223800
 21
1209.621504
  0
LINE
  8
0
  6
CONTINUOUS
 62
1
 10
1609.223800
 20
1209.621504
 11
1572.223800
 21
1209.621504
  0
LINE
  8
0
  6
CONTINUOUS
 62
1
 10
1572.223800
 20
1209.621504
 11
1572.223800
 21
902.621504
  0
LINE
  8
0
  6
CONTINUOUS
 62
1
 10
1631.223800
 20
1070.121504
 11
1664.223800
 21
1070.121504
  0
LINE
  8
0
  6
CONTINUOUS
 62
1
 10
1664.223800
 20
1070.121504
 11
1664.223800
 21
1215.121504
  0
LINE
  8
0
  6
CONTINUOUS
 62
1
 10
1664.223800
 20
1215.121504
 11
1631.223800
 21
1215.121504
  0
LINE
  8
0
  6
CONTINUOUS
 62
1
 10
1631.223800
 20
1215.121504
 11
1631.223800
 21
1070.121504
  0
LINE
  8
0
  6
CONTINUOUS
 62
1
 10
1622.433800
 20
1122.621504
 11
1631.223800
 21
1122.621504
  0
LINE
  8
0
  6
CONTINUOUS
 62
1
 10
1631.223800
 20
1162.621504
 11
1622.433800
 21
1162.621504
  0
LINE
  8
0
  6
CONTINUOUS
 62
1
 10
1609.223800
 20
1119.621504
 11
1622.433800
 21
1119.621504
  0
LINE
  8
0
  6
CONTINUOUS
 62
1
 10
1622.433800
 20
1119.621504
 11
1622.433800
 21
1169.621504
  0
LINE
  8
0
  6
CONTINUOUS
 62
1
 10
1622.433800
 20
1169.621504
 11
1609.223800
 21
1169.621504
  0
LINE
  8
0
  6
CONTINUOUS
 62
1
 10
1609.223800
 20
1169.621504
 11
1609.223800
 21
1119.621504
  0
LINE
  8
0
  6
CONTINUOUS
 62
1
 10
1600.053800
 20
1465.121504
 11
1611.723800
 21
1465.121504
  0
ARC
  8
0
  6
CONTINUOUS
 62
1
 10
1611.723800
 20
1430.121504
 40
35.000000
 50
61.927000
 51
89.999000
  0
LINE
  8
0
  6
CONTINUOUS
 62
1
 10
1628.193800
 20
1461.001504
 11
1710.693800
 21
1417.001504
  0
ARC
  8
0
  6
CONTINUOUS
 62
1
 10
1714.223800
 20
1423.621504
 40
7.500000
 50
241.926000
 51
61.926000
  0
LINE
  8
0
  6
CONTINUOUS
 62
1
 10
1717.753800
 20
1430.241504
 11
1635.253800
 21
1474.241504
  0
ARC
  8
0
  6
CONTINUOUS
 62
1
 10
1611.723800
 20
1430.121504
 40
50.000000
 50
61.926000
 51
89.999000
  0
LINE
  8
0
  6
CONTINUOUS
 62
1
 10
1611.723800
 20
1480.121504
 11
1594.143800
 21
1480.121504
  0
ARC
  8
0
  6
CONTINUOUS
 62
1
 10
1610.063800
 20
1379.361504
 40
69.710000
 50
352.796000
 51
78.278000
  0
LINE
  8
0
  6
CONTINUOUS
 62
1
 10
1679.223800
 20
1370.621504
 11
1672.773800
 21
1370.621504
  0
ARC
  8
0
  6
CONTINUOUS
 62
1
 10
1654.483800
 20
1366.971504
 40
18.650000
 50
11.286000
 51
168.714000
  0
LINE
  8
0
  6
CONTINUOUS
 62
1
 10
1636.193800
 20
1370.621504
 11
1636.193800
 21
1355.621504
  0
LINE
  8
0
  6
CONTINUOUS
 62
1
 10
1636.193800
 20
1355.621504
 11
1625.103800
 21
1355.621504
  0
LINE
  8
0
  6
CONTINUOUS
 62
1
 10
854.223800
 20
787.621504
 11
844.223800
 21
787.621504
  0
LINE
  8
0
  6
CONTINUOUS
 62
1
 10
844.223800
 20
787.621504
 11
844.223800
 21
767.621504
  0
LINE
  8
0
  6
CONTINUOUS
 62
1
 10
844.223800
 20
767.621504
 11
854.223800
 21
767.621504
  0
LINE
  8
0
  6
CONTINUOUS
 62
1
 10
1553.223800
 20
717.621504
 11
1479.223800
 21
717.621504
  0
LINE
  8
0
  6
CONTINUOUS
 62
1
 10
1479.223800
 20
727.621504
 11
1479.223800
 21
717.621504
  0
LINE
  8
0
  6
CONTINUOUS
 62
1
 10
1493.785651
 20
711.684004
 11
1494.755706
 21
618.558996
  0
ARC
  8
0
  6
CONTINUOUS
 62
1
 10
1487.785979
 20
711.621504
 40
6.000000
 50
0.596809
 51
90.000000
  0
ARC
  8
0
  6
CONTINUOUS
 62
1
 10
1544.661635
 20
711.621504
 40
6.000000
 50
90.000000
 51
179.403198
  0
LINE
  8
0
  6
CONTINUOUS
 62
1
 10
1499.723800
 20
578.621504
 11
1500.223800
 21
578.621504
  0
LINE
  8
0
  6
CONTINUOUS
 62
1
 10
1500.223800
 20
578.621504
 11
1499.723800
 21
578.621504
  0
LINE
  8
0
  6
CONTINUOUS
 62
1
 10
1542.223800
 20
578.621504
 11
1531.223800
 21
582.621488
  0
LINE
  8
0
  6
CONTINUOUS
 62
1
 10
1490.223800
 20
578.621504
 11
1501.223800
 21
582.621488
  0
ARC
  8
0
  6
CONTINUOUS
 62
1
 10
1531.692229
 20
618.621496
 40
5.999996
 50
269.999969
 51
359.403160
  0
ARC
  8
0
  6
CONTINUOUS
 62
1
 10
1500.755385
 20
618.621496
 40
6.000000
 50
180.596802
 51
270.000000
  0
LINE
  8
0
  6
CONTINUOUS
 62
1
 10
1537.723800
 20
621.621496
 11
1494.723800
 21
621.621496
  0
LINE
  8
0
  6
CONTINUOUS
 62
1
 10
1538.661956
 20
711.684004
 11
1537.691909
 21
618.558996
  0
LINE
  8
0
  6
CONTINUOUS
 62
1
 10
1501.223800
 20
612.621496
 11
1501.223800
 21
582.621488
  0
LINE
  8
0
  6
CONTINUOUS
 62
1
 10
1531.223800
 20
612.621496
 11
1531.223800
 21
582.621488
  0
LINE
  8
0
  6
CONTINUOUS
 62
1
 10
1542.223800
 20
578.621504
 11
1532.223800
 21
578.621504
  0
LINE
  8
0
  6
CONTINUOUS
 62
1
 10
1490.223800
 20
578.621504
 11
1490.223800
 21
577.621504
  0
LINE
  8
0
  6
CONTINUOUS
 62
1
 10
1532.723800
 20
578.621504
 11
1490.223800
 21
578.621504
  0
LINE
  8
0
  6
CONTINUOUS
 62
1
 10
1531.223800
 20
582.621488
 11
1501.254745
 21
582.621488
  0
LINE
  8
0
  6
CONTINUOUS
 62
1
 10
1531.692229
 20
612.621496
 11
1500.755385
 21
612.621496
  0
LINE
  8
0
  6
CONTINUOUS
 62
1
 10
1542.223800
 20
577.621504
 11
1490.223800
 21
577.621504
  0
LINE
  8
0
  6
CONTINUOUS
 62
1
 10
1542.223800
 20
578.621504
 11
1542.223800
 21
577.621504
  0
LINE
  8
0
  6
CONTINUOUS
 62
1
 10
1553.223800
 20
717.621504
 11
1553.223800
 21
727.621504
  0
LINE
  8
0
  6
CONTINUOUS
 62
1
 10
961.223800
 20
717.621504
 11
887.223800
 21
717.621504
  0
LINE
  8
0
  6
CONTINUOUS
 62
1
 10
887.223800
 20
727.621504
 11
887.223800
 21
717.621504
  0
LINE
  8
0
  6
CONTINUOUS
 62
1
 10
901.785651
 20
711.684004
 11
902.755706
 21
618.558996
  0
ARC
  8
0
  6
CONTINUOUS
 62
1
 10
895.785979
 20
711.621504
 40
6.000000
 50
0.596809
 51
90.000000
  0
ARC
  8
0
  6
CONTINUOUS
 62
1
 10
952.661635
 20
711.621504
 40
6.000000
 50
90.000000
 51
179.403198
  0
LINE
  8
0
  6
CONTINUOUS
 62
1
 10
907.723800
 20
578.621504
 11
908.223800
 21
578.621504
  0
LINE
  8
0
  6
CONTINUOUS
 62
1
 10
908.223800
 20
578.621504
 11
907.723800
 21
578.621504
  0
LINE
  8
0
  6
CONTINUOUS
 62
1
 10
950.223800
 20
578.621504
 11
939.223800
 21
582.621488
  0
LINE
  8
0
  6
CONTINUOUS
 62
1
 10
898.223800
 20
578.621504
 11
909.223800
 21
582.621488
  0
ARC
  8
0
  6
CONTINUOUS
 62
1
 10
939.692229
 20
618.621496
 40
5.999996
 50
269.999969
 51
359.403160
  0
ARC
  8
0
  6
CONTINUOUS
 62
1
 10
908.755385
 20
618.621496
 40
6.000000
 50
180.596802
 51
270.000000
  0
LINE
  8
0
  6
CONTINUOUS
 62
1
 10
945.723800
 20
621.621496
 11
902.723800
 21
621.621496
  0
LINE
  8
0
  6
CONTINUOUS
 62
1
 10
946.661956
 20
711.684004
 11
945.691909
 21
618.558996
  0
LINE
  8
0
  6
CONTINUOUS
 62
1
 10
909.223800
 20
612.621496
 11
909.223800
 21
582.621488
  0
LINE
  8
0
  6
CONTINUOUS
 62
1
 10
939.223800
 20
612.621496
 11
939.223800
 21
582.621488
  0
LINE
  8
0
  6
CONTINUOUS
 62
1
 10
950.223800
 20
578.621504
 11
940.223800
 21
578.621504
  0
LINE
  8
0
  6
CONTINUOUS
 62
1
 10
898.223800
 20
578.621504
 11
898.223800
 21
577.621504
  0
LINE
  8
0
  6
CONTINUOUS
 62
1
 10
940.723800
 20
578.621504
 11
898.223800
 21
578.621504
  0
LINE
  8
0
  6
CONTINUOUS
 62
1
 10
939.223800
 20
582.621488
 11
909.254745
 21
582.621488
  0
LINE
  8
0
  6
CONTINUOUS
 62
1
 10
939.692229
 20
612.621496
 11
908.755385
 21
612.621496
  0
LINE
  8
0
  6
CONTINUOUS
 62
1
 10
950.223800
 20
577.621504
 11
898.223800
 21
577.621504
  0
LINE
  8
0
  6
CONTINUOUS
 62
1
 10
950.223800
 20
578.621504
 11
950.223800
 21
577.621504
  0
LINE
  8
0
  6
CONTINUOUS
 62
1
 10
961.223800
 20
717.621504
 11
961.223800
 21
727.621504
  0
LINE
  8
0
  6
CENTER
 62
4
 10
834.223800
 20
777.621504
 11
923.723800
 21
777.621504
  0
LINE
  8
0
  6
CENTER
 62
4
 10
834.223800
 20
777.621504
 11
923.723800
 21
777.621504
  0
LINE
  8
0
  6
CONTINUOUS
 62
1
 10
854.223800
 20
787.621504
 11
844.223800
 21
787.621504
  0
ENDSEC
  0
EOF
