  0
SECTION
  2
HEADER
  9
$LIMMIN
 10
0.000000
 20
0.000000
  9
$LIMMAX
 10
900.000000
 20
908.000000
  9
$EXTMIN
 10
0.000000
 20
0.000000
  9
$EXTMAX
 10
900.000000
 20
908.000000
  9
$ANGBASE
 50
0.0
  9
$ANGDIR
 70
0
  9
$DIMRND
 40
0.100000
  9
$DIMSE1
 70
0
  9
$DIMSE2
 70
0
  9
$DIMTXT
 40
3.500000
  9
$LTSCALE
 40
1.000000
  9
$LUPREC
 70
5
  9
$AUPREC
 70
5
  9
$PDMODE
 70
2
  9
$PDSIZE
 40
4.540000
  0
ENDSEC
  0
SECTION
  2
TABLES
  0
TABLE
  2
VPORT
  70
1
  0
VPORT
  2
*ACTIVE
 70
0
  10
0.0
 20
0.0
 11
1.0
 21
1.0
 12
594.0
 22
420.0
 13
0.0
 23
0.0
 14
10.0
 24
10.0
 15
10.0
 25
10.0
 16
0.0
 26
0.0
 36
1.0
 17
594.0
 27
420.0
 37
100.0
 40
1000.0
 41
1.0
 42
50.0
 43
0.0
 44
0.0
 50
0.0
 51
0.0
 71
0
 72
2000
 73
1
 74
3
 75
0
 76
0
 77
0
 78
1
  0
ENDTAB
  0
TABLE
  2
LTYPE
 70
4
  0
LTYPE
  2
CONTINUOUS
 70
0
  3
Solid line
 72
65
 73
0
 40
0.0
  0
LTYPE
  2
DASHED
 70
0
  3
Dashed line
 72
65
 73
2
 40
6.000000
 49
3.000000
 49
-3.000000
  0
LTYPE
  2
CENTER
 70
0
  3
Chain line
 72
65
 73
4
 40
24.000000
 49
15.000000
 49
-3.000000
 49
3.000000
 49
-3.000000
  0
LTYPE
  2
RANDOM
 70
0
  3
Random line
 72
65
 73
4
 40
22.500000
 49
6.000000
 49
-3.000000
 49
4.500000
 49
-9.000000
  0
ENDTAB
  0
TABLE
  2
STYLE
 70
9
  0
STYLE
  2
STANDARD
 40
0
 41
1.0
 50
0.0
 71
0
 42
0
  3
simplex
  4

 70
0
  0
ENDTAB
  0
TABLE
  2
LAYER
 70
4
  0
LAYER
  2
0
 70
0
 62
7
  6
CONTINUOUS
  0
LAYER
  2
0
 62
1
  6
CONTINUOUS
 70
0
  0
LAYER
  2
MODEL
 62
1
  6
CONTINUOUS
 70
0
  0
LAYER
  2
MODEL-73CONTINUOUS
 62
1
  6
CONTINUOUS
 70
0
  0
ENDTAB
  0
ENDSEC
  0
SECTION
  2
BLOCKS
  0
ENDSEC
  0
SECTION
  2
ENTITIES
  0
LINE
  8
MODEL-73CONTINUOUS
  6
CONTINUOUS
 62
1
 10
0.000000
 20
870.000000
 11
900.000000
 21
870.000000
  0
LINE
  8
MODEL-73CONTINUOUS
  6
CONTINUOUS
 62
1
 10
0.000000
 20
832.000000
 11
900.000000
 21
832.000000
  0
LINE
  8
MODEL-73CONTINUOUS
  6
CONTINUOUS
 62
1
 10
0.000000
 20
750.000000
 11
900.000000
 21
750.000000
  0
LINE
  8
MODEL-73CONTINUOUS
  6
CONTINUOUS
 62
1
 10
0.000000
 20
740.000000
 11
900.000000
 21
740.000000
  0
LINE
  8
MODEL-73CONTINUOUS
  6
CONTINUOUS
 62
1
 10
0.000000
 20
705.000000
 11
900.000000
 21
705.000000
  0
LINE
  8
MODEL-73CONTINUOUS
  6
CONTINUOUS
 62
1
 10
0.000000
 20
665.000000
 11
900.000000
 21
665.000000
  0
LINE
  8
MODEL-73CONTINUOUS
  6
CONTINUOUS
 62
1
 10
0.000000
 20
165.000000
 11
900.000000
 21
165.000000
  0
LINE
  8
MODEL-73CONTINUOUS
  6
CONTINUOUS
 62
1
 10
0.000000
 20
60.000000
 11
900.000000
 21
60.000000
  0
LINE
  8
MODEL-73CONTINUOUS
  6
CONTINUOUS
 62
1
 10
0.000000
 20
75.000000
 11
900.000000
 21
75.000000
  0
LINE
  8
MODEL-73CONTINUOUS
  6
CONTINUOUS
 62
1
 10
885.000000
 20
0.000000
 11
15.000000
 21
0.000000
  0
LINE
  8
MODEL-73CONTINUOUS
  6
CONTINUOUS
 62
1
 10
15.000000
 20
0.000000
 11
15.000000
 21
15.000000
  0
LINE
  8
MODEL-73CONTINUOUS
  6
CONTINUOUS
 62
1
 10
15.000000
 20
15.000000
 11
15.000000
 21
0.000000
  0
LINE
  8
MODEL-73CONTINUOUS
  6
CONTINUOUS
 62
1
 10
15.000000
 20
0.000000
 11
15.000000
 21
15.000000
  0
LINE
  8
MODEL-73CONTINUOUS
  6
CONTINUOUS
 62
1
 10
15.000000
 20
15.000000
 11
0.000000
 21
15.000000
  0
LINE
  8
MODEL-73CONTINUOUS
  6
CONTINUOUS
 62
1
 10
0.000000
 20
15.000000
 11
0.000000
 21
165.000000
  0
LINE
  8
MODEL-73CONTINUOUS
  6
CONTINUOUS
 62
1
 10
0.000000
 20
165.000000
 11
0.000000
 21
690.000000
  0
LINE
  8
MODEL-73CONTINUOUS
  6
CONTINUOUS
 62
1
 10
0.000000
 20
690.000000
 11
0.000000
 21
908.000000
  0
LINE
  8
MODEL-73CONTINUOUS
  6
CONTINUOUS
 62
1
 10
0.000000
 20
908.000000
 11
900.000000
 21
908.000000
  0
LINE
  8
MODEL-73CONTINUOUS
  6
CONTINUOUS
 62
1
 10
900.000000
 20
908.000000
 11
900.000000
 21
15.000000
  0
LINE
  8
MODEL-73CONTINUOUS
  6
CONTINUOUS
 62
1
 10
900.000000
 20
15.000000
 11
885.000000
 21
15.000000
  0
LINE
  8
MODEL-73CONTINUOUS
  6
CONTINUOUS
 62
1
 10
885.000000
 20
15.000000
 11
885.000000
 21
0.000000
  0
LINE
  8
MODEL-73CONTINUOUS
  6
CONTINUOUS
 62
1
 10
885.000000
 20
0.000000
 11
885.000000
 21
15.000000
  0
LINE
  8
MODEL-73CONTINUOUS
  6
CONTINUOUS
 62
1
 10
885.000000
 20
15.000000
 11
885.000000
 21
0.000000
  0
LINE
  8
MODEL-73CONTINUOUS
  6
CONTINUOUS
 62
1
 10
790.000000
 20
655.000000
 11
410.000000
 21
655.000000
  0
LINE
  8
MODEL-73CONTINUOUS
  6
CONTINUOUS
 62
1
 10
410.000000
 20
655.000000
 11
410.000000
 21
175.000000
  0
LINE
  8
MODEL-73CONTINUOUS
  6
CONTINUOUS
 62
1
 10
410.000000
 20
175.000000
 11
790.000000
 21
175.000000
  0
LINE
  8
MODEL-73CONTINUOUS
  6
CONTINUOUS
 62
1
 10
790.000000
 20
175.000000
 11
790.000000
 21
655.000000
  0
LINE
  8
MODEL-73CONTINUOUS
  6
CONTINUOUS
 62
1
 10
390.000000
 20
655.000000
 11
10.000000
 21
655.000000
  0
LINE
  8
MODEL-73CONTINUOUS
  6
CONTINUOUS
 62
1
 10
10.000000
 20
655.000000
 11
10.000000
 21
175.000000
  0
LINE
  8
MODEL-73CONTINUOUS
  6
CONTINUOUS
 62
1
 10
10.000000
 20
175.000000
 11
390.000000
 21
175.000000
  0
LINE
  8
MODEL-73CONTINUOUS
  6
CONTINUOUS
 62
1
 10
390.000000
 20
175.000000
 11
390.000000
 21
655.000000
  0
LINE
  8
MODEL-73CONTINUOUS
  6
CONTINUOUS
 62
1
 10
295.000000
 20
605.000000
 11
95.000000
 21
605.000000
  0
ARC
  8
MODEL-73CONTINUOUS
  6
CONTINUOUS
 62
1
 10
95.000000
 20
570.000000
 40
35.000000
 50
90.000000
 51
180.000000
  0
LINE
  8
MODEL-73CONTINUOUS
  6
CONTINUOUS
 62
1
 10
60.000000
 20
570.000000
 11
60.000000
 21
260.000000
  0
ARC
  8
MODEL-73CONTINUOUS
  6
CONTINUOUS
 62
1
 10
95.000000
 20
260.000000
 40
35.000000
 50
180.000000
 51
270.000000
  0
LINE
  8
MODEL-73CONTINUOUS
  6
CONTINUOUS
 62
1
 10
95.000000
 20
225.000000
 11
295.000000
 21
225.000000
  0
ARC
  8
MODEL-73CONTINUOUS
  6
CONTINUOUS
 62
1
 10
295.000000
 20
260.000000
 40
35.000000
 50
270.000000
 51
0.000000
  0
LINE
  8
MODEL-73CONTINUOUS
  6
CONTINUOUS
 62
1
 10
330.000000
 20
260.000000
 11
330.000000
 21
570.000000
  0
ARC
  8
MODEL-73CONTINUOUS
  6
CONTINUOUS
 62
1
 10
295.000000
 20
570.000000
 40
35.000000
 50
0.000000
 51
90.000000
  0
LINE
  8
MODEL-73CONTINUOUS
  6
CONTINUOUS
 62
1
 10
60.000000
 20
564.500000
 11
330.000000
 21
564.500000
  0
LINE
  8
MODEL-73CONTINUOUS
  6
CONTINUOUS
 62
1
 10
60.000000
 20
508.500000
 11
330.000000
 21
508.500000
  0
LINE
  8
MODEL-73CONTINUOUS
  6
CONTINUOUS
 62
1
 10
60.000000
 20
468.000000
 11
330.000000
 21
468.000000
  0
LINE
  8
MODEL-73CONTINUOUS
  6
CONTINUOUS
 62
1
 10
60.000000
 20
427.500000
 11
330.000000
 21
427.500000
  0
LINE
  8
MODEL-73CONTINUOUS
  6
CONTINUOUS
 62
1
 10
60.000000
 20
387.000000
 11
330.000000
 21
387.000000
  0
LINE
  8
MODEL-73CONTINUOUS
  6
CONTINUOUS
 62
1
 10
60.000000
 20
346.500000
 11
330.000000
 21
346.500000
  0
LINE
  8
MODEL-73CONTINUOUS
  6
CONTINUOUS
 62
1
 10
60.000000
 20
306.000000
 11
330.000000
 21
306.000000
  0
LINE
  8
MODEL-73CONTINUOUS
  6
CONTINUOUS
 62
1
 10
60.000000
 20
265.500000
 11
330.000000
 21
265.500000
  0
LINE
  8
MODEL-73CONTINUOUS
  6
CONTINUOUS
 62
1
 10
340.000000
 20
225.000000
 11
365.000000
 21
225.000000
  0
LINE
  8
MODEL-73CONTINUOUS
  6
CONTINUOUS
 62
1
 10
365.000000
 20
225.000000
 11
365.000000
 21
605.000000
  0
LINE
  8
MODEL-73CONTINUOUS
  6
CONTINUOUS
 62
1
 10
365.000000
 20
605.000000
 11
340.000000
 21
605.000000
  0
LINE
  8
MODEL-73CONTINUOUS
  6
CONTINUOUS
 62
1
 10
340.000000
 20
605.000000
 11
340.000000
 21
225.000000
  0
LINE
  8
MODEL-73CONTINUOUS
  6
CONTINUOUS
 62
1
 10
365.000000
 20
225.000000
 11
380.000000
 21
225.000000
  0
LINE
  8
MODEL-73CONTINUOUS
  6
CONTINUOUS
 62
1
 10
380.000000
 20
225.000000
 11
380.000000
 21
255.000000
  0
LINE
  8
MODEL-73CONTINUOUS
  6
CONTINUOUS
 62
1
 10
380.000000
 20
255.000000
 11
365.000000
 21
255.000000
  0
LINE
  8
MODEL-73CONTINUOUS
  6
CONTINUOUS
 62
1
 10
365.000000
 20
575.000000
 11
380.000000
 21
575.000000
  0
LINE
  8
MODEL-73CONTINUOUS
  6
CONTINUOUS
 62
1
 10
380.000000
 20
575.000000
 11
380.000000
 21
605.000000
  0
LINE
  8
MODEL-73CONTINUOUS
  6
CONTINUOUS
 62
1
 10
380.000000
 20
605.000000
 11
365.000000
 21
605.000000
  0
ARC
  8
MODEL-73CONTINUOUS
  6
CONTINUOUS
 62
1
 10
505.000000
 20
570.000000
 40
35.000000
 50
90.001000
 51
180.001000
  0
LINE
  8
MODEL-73CONTINUOUS
  6
CONTINUOUS
 62
1
 10
470.000000
 20
570.000000
 11
470.000000
 21
260.000000
  0
ARC
  8
MODEL-73CONTINUOUS
  6
CONTINUOUS
 62
1
 10
505.000000
 20
260.000000
 40
35.000000
 50
180.000000
 51
270.000000
  0
LINE
  8
MODEL-73CONTINUOUS
  6
CONTINUOUS
 62
1
 10
505.000000
 20
225.000000
 11
705.000000
 21
225.000000
  0
ARC
  8
MODEL-73CONTINUOUS
  6
CONTINUOUS
 62
1
 10
705.000000
 20
260.000000
 40
35.000000
 50
270.000000
 51
0.000000
  0
LINE
  8
MODEL-73CONTINUOUS
  6
CONTINUOUS
 62
1
 10
740.000000
 20
260.000000
 11
740.000000
 21
570.000000
  0
ARC
  8
MODEL-73CONTINUOUS
  6
CONTINUOUS
 62
1
 10
705.000000
 20
570.000000
 40
35.000000
 50
0.000000
 51
90.000000
  0
LINE
  8
MODEL-73CONTINUOUS
  6
CONTINUOUS
 62
1
 10
705.000000
 20
605.000000
 11
505.000000
 21
605.000000
  0
LINE
  8
MODEL-73CONTINUOUS
  6
CONTINUOUS
 62
1
 10
740.000000
 20
564.500000
 11
470.000000
 21
564.500000
  0
LINE
  8
MODEL-73CONTINUOUS
  6
CONTINUOUS
 62
1
 10
740.000000
 20
524.000000
 11
470.000000
 21
524.000000
  0
LINE
  8
MODEL-73CONTINUOUS
  6
CONTINUOUS
 62
1
 10
740.000000
 20
508.500000
 11
470.000000
 21
508.500000
  0
LINE
  8
MODEL-73CONTINUOUS
  6
CONTINUOUS
 62
1
 10
740.000000
 20
468.000000
 11
470.000000
 21
468.000000
  0
LINE
  8
MODEL-73CONTINUOUS
  6
CONTINUOUS
 62
1
 10
740.000000
 20
427.500000
 11
470.000000
 21
427.500000
  0
LINE
  8
MODEL-73CONTINUOUS
  6
CONTINUOUS
 62
1
 10
740.000000
 20
387.000000
 11
470.000000
 21
387.000000
  0
LINE
  8
MODEL-73CONTINUOUS
  6
CONTINUOUS
 62
1
 10
740.000000
 20
346.500000
 11
470.000000
 21
346.500000
  0
LINE
  8
MODEL-73CONTINUOUS
  6
CONTINUOUS
 62
1
 10
740.000000
 20
306.000000
 11
470.000000
 21
306.000000
  0
LINE
  8
MODEL-73CONTINUOUS
  6
CONTINUOUS
 62
1
 10
740.000000
 20
265.500000
 11
470.000000
 21
265.500000
  0
LINE
  8
MODEL-73CONTINUOUS
  6
CONTINUOUS
 62
1
 10
460.000000
 20
225.000000
 11
460.000000
 21
605.000000
  0
LINE
  8
MODEL-73CONTINUOUS
  6
CONTINUOUS
 62
1
 10
460.000000
 20
605.000000
 11
435.000000
 21
605.000000
  0
LINE
  8
MODEL-73CONTINUOUS
  6
CONTINUOUS
 62
1
 10
435.000000
 20
605.000000
 11
435.000000
 21
225.000000
  0
LINE
  8
MODEL-73CONTINUOUS
  6
CONTINUOUS
 62
1
 10
435.000000
 20
225.000000
 11
460.000000
 21
225.000000
  0
LINE
  8
MODEL-73CONTINUOUS
  6
CONTINUOUS
 62
1
 10
435.000000
 20
255.000000
 11
420.000000
 21
255.000000
  0
LINE
  8
MODEL-73CONTINUOUS
  6
CONTINUOUS
 62
1
 10
420.000000
 20
255.000000
 11
420.000000
 21
225.000000
  0
LINE
  8
MODEL-73CONTINUOUS
  6
CONTINUOUS
 62
1
 10
420.000000
 20
225.000000
 11
435.000000
 21
225.000000
  0
LINE
  8
MODEL-73CONTINUOUS
  6
CONTINUOUS
 62
1
 10
435.000000
 20
605.000000
 11
420.000000
 21
605.000000
  0
LINE
  8
MODEL-73CONTINUOUS
  6
CONTINUOUS
 62
1
 10
420.000000
 20
605.000000
 11
420.000000
 21
575.000000
  0
LINE
  8
MODEL-73CONTINUOUS
  6
CONTINUOUS
 62
1
 10
420.000000
 20
575.000000
 11
435.000000
 21
575.000000
  0
LINE
  8
MODEL-73CONTINUOUS
  6
CONTINUOUS
 62
1
 10
800.000000
 20
665.000000
 11
800.000000
 21
165.000000
  0
LINE
  8
MODEL-73CONTINUOUS
  6
CONTINUOUS
 62
1
 10
870.000000
 20
150.000000
 11
870.000000
 21
94.000000
  0
LINE
  8
MODEL-73CONTINUOUS
  6
CONTINUOUS
 62
1
 10
850.000000
 20
94.000000
 11
850.000000
 21
150.000000
  0
LINE
  8
MODEL-73CONTINUOUS
  6
CONTINUOUS
 62
1
 10
830.000000
 20
150.000000
 11
830.000000
 21
94.000000
  0
LINE
  8
MODEL-73CONTINUOUS
  6
CONTINUOUS
 62
1
 10
810.000000
 20
94.000000
 11
810.000000
 21
150.000000
  0
LINE
  8
MODEL-73CONTINUOUS
  6
CONTINUOUS
 62
1
 10
790.000000
 20
150.000000
 11
790.000000
 21
94.000000
  0
LINE
  8
MODEL-73CONTINUOUS
  6
CONTINUOUS
 62
1
 10
770.000000
 20
94.000000
 11
770.000000
 21
150.000000
  0
LINE
  8
MODEL-73CONTINUOUS
  6
CONTINUOUS
 62
1
 10
750.000000
 20
150.000000
 11
750.000000
 21
94.000000
  0
LINE
  8
MODEL-73CONTINUOUS
  6
CONTINUOUS
 62
1
 10
730.000000
 20
94.000000
 11
730.000000
 21
150.000000
  0
LINE
  8
MODEL-73CONTINUOUS
  6
CONTINUOUS
 62
1
 10
710.000000
 20
150.000000
 11
710.000000
 21
94.000000
  0
LINE
  8
MODEL-73CONTINUOUS
  6
CONTINUOUS
 62
1
 10
690.000000
 20
94.000000
 11
690.000000
 21
150.000000
  0
LINE
  8
MODEL-73CONTINUOUS
  6
CONTINUOUS
 62
1
 10
670.000000
 20
150.000000
 11
670.000000
 21
94.000000
  0
LINE
  8
MODEL-73CONTINUOUS
  6
CONTINUOUS
 62
1
 10
650.000000
 20
94.000000
 11
650.000000
 21
150.000000
  0
LINE
  8
MODEL-73CONTINUOUS
  6
CONTINUOUS
 62
1
 10
630.000000
 20
150.000000
 11
630.000000
 21
94.000000
  0
LINE
  8
MODEL-73CONTINUOUS
  6
CONTINUOUS
 62
1
 10
610.000000
 20
94.000000
 11
610.000000
 21
150.000000
  0
LINE
  8
MODEL-73CONTINUOUS
  6
CONTINUOUS
 62
1
 10
590.000000
 20
150.000000
 11
590.000000
 21
94.000000
  0
LINE
  8
MODEL-73CONTINUOUS
  6
CONTINUOUS
 62
1
 10
570.000000
 20
94.000000
 11
570.000000
 21
150.000000
  0
LINE
  8
MODEL-73CONTINUOUS
  6
CONTINUOUS
 62
1
 10
550.000000
 20
150.000000
 11
550.000000
 21
94.000000
  0
LINE
  8
MODEL-73CONTINUOUS
  6
CONTINUOUS
 62
1
 10
530.000000
 20
94.000000
 11
530.000000
 21
150.000000
  0
LINE
  8
MODEL-73CONTINUOUS
  6
CONTINUOUS
 62
1
 10
510.000000
 20
150.000000
 11
510.000000
 21
94.000000
  0
LINE
  8
MODEL-73CONTINUOUS
  6
CONTINUOUS
 62
1
 10
490.000000
 20
94.000000
 11
490.000000
 21
150.000000
  0
LINE
  8
MODEL-73CONTINUOUS
  6
CONTINUOUS
 62
1
 10
470.000000
 20
150.000000
 11
470.000000
 21
94.000000
  0
LINE
  8
MODEL-73CONTINUOUS
  6
CONTINUOUS
 62
1
 10
450.000000
 20
94.000000
 11
450.000000
 21
150.000000
  0
LINE
  8
MODEL-73CONTINUOUS
  6
CONTINUOUS
 62
1
 10
430.000000
 20
150.000000
 11
430.000000
 21
94.000000
  0
LINE
  8
MODEL-73CONTINUOUS
  6
CONTINUOUS
 62
1
 10
410.000000
 20
94.000000
 11
410.000000
 21
150.000000
  0
LINE
  8
MODEL-73CONTINUOUS
  6
CONTINUOUS
 62
1
 10
390.000000
 20
150.000000
 11
390.000000
 21
94.000000
  0
LINE
  8
MODEL-73CONTINUOUS
  6
CONTINUOUS
 62
1
 10
370.000000
 20
94.000000
 11
370.000000
 21
150.000000
  0
LINE
  8
MODEL-73CONTINUOUS
  6
CONTINUOUS
 62
1
 10
350.000000
 20
150.000000
 11
350.000000
 21
94.000000
  0
LINE
  8
MODEL-73CONTINUOUS
  6
CONTINUOUS
 62
1
 10
330.000000
 20
94.000000
 11
330.000000
 21
150.000000
  0
LINE
  8
MODEL-73CONTINUOUS
  6
CONTINUOUS
 62
1
 10
310.000000
 20
150.000000
 11
310.000000
 21
94.000000
  0
LINE
  8
MODEL-73CONTINUOUS
  6
CONTINUOUS
 62
1
 10
290.000000
 20
94.000000
 11
290.000000
 21
150.000000
  0
LINE
  8
MODEL-73CONTINUOUS
  6
CONTINUOUS
 62
1
 10
270.000000
 20
150.000000
 11
270.000000
 21
94.000000
  0
LINE
  8
MODEL-73CONTINUOUS
  6
CONTINUOUS
 62
1
 10
250.000000
 20
94.000000
 11
250.000000
 21
150.000000
  0
LINE
  8
MODEL-73CONTINUOUS
  6
CONTINUOUS
 62
1
 10
230.000000
 20
150.000000
 11
230.000000
 21
94.000000
  0
LINE
  8
MODEL-73CONTINUOUS
  6
CONTINUOUS
 62
1
 10
210.000000
 20
94.000000
 11
210.000000
 21
150.000000
  0
LINE
  8
MODEL-73CONTINUOUS
  6
CONTINUOUS
 62
1
 10
190.000000
 20
150.000000
 11
190.000000
 21
94.000000
  0
LINE
  8
MODEL-73CONTINUOUS
  6
CONTINUOUS
 62
1
 10
170.000000
 20
94.000000
 11
170.000000
 21
150.000000
  0
LINE
  8
MODEL-73CONTINUOUS
  6
CONTINUOUS
 62
1
 10
150.000000
 20
150.000000
 11
150.000000
 21
94.000000
  0
LINE
  8
MODEL-73CONTINUOUS
  6
CONTINUOUS
 62
1
 10
130.000000
 20
94.000000
 11
130.000000
 21
150.000000
  0
LINE
  8
MODEL-73CONTINUOUS
  6
CONTINUOUS
 62
1
 10
110.000000
 20
150.000000
 11
110.000000
 21
94.000000
  0
LINE
  8
MODEL-73CONTINUOUS
  6
CONTINUOUS
 62
1
 10
90.000000
 20
94.000000
 11
90.000000
 21
150.000000
  0
LINE
  8
MODEL-73CONTINUOUS
  6
CONTINUOUS
 62
1
 10
70.000000
 20
150.000000
 11
70.000000
 21
94.000000
  0
LINE
  8
MODEL-73CONTINUOUS
  6
CONTINUOUS
 62
1
 10
50.000000
 20
94.000000
 11
50.000000
 21
150.000000
  0
LINE
  8
MODEL-73CONTINUOUS
  6
CONTINUOUS
 62
1
 10
30.000000
 20
150.000000
 11
30.000000
 21
94.000000
  0
LINE
  8
MODEL-73CONTINUOUS
  6
CONTINUOUS
 62
1
 10
900.000000
 20
720.000000
 11
0.000000
 21
720.000000
  0
LINE
  8
MODEL-73CONTINUOUS
  6
CONTINUOUS
 62
1
 10
15.000000
 20
15.000000
 11
885.000000
 21
15.000000
  0
ARC
  8
MODEL-73CONTINUOUS
  6
CONTINUOUS
 62
1
 10
750.000000
 20
785.000000
 40
17.500000
 50
180.000000
 51
0.000000
  0
ARC
  8
MODEL-73CONTINUOUS
  6
CONTINUOUS
 62
1
 10
750.000000
 20
785.000000
 40
17.500000
 50
0.000000
 51
180.000000
  0
ARC
  8
MODEL-73CONTINUOUS
  6
CONTINUOUS
 62
1
 10
450.000000
 20
785.000000
 40
17.500000
 50
180.000000
 51
0.000000
  0
ARC
  8
MODEL-73CONTINUOUS
  6
CONTINUOUS
 62
1
 10
450.000000
 20
785.000000
 40
17.500000
 50
0.000000
 51
180.000000
  0
ARC
  8
MODEL-73CONTINUOUS
  6
CONTINUOUS
 62
1
 10
300.000000
 20
785.000000
 40
17.500000
 50
180.000000
 51
0.000000
  0
ARC
  8
MODEL-73CONTINUOUS
  6
CONTINUOUS
 62
1
 10
300.000000
 20
785.000000
 40
17.500000
 50
0.000000
 51
180.000000
  0
ARC
  8
MODEL-73CONTINUOUS
  6
CONTINUOUS
 62
1
 10
150.000000
 20
785.000000
 40
17.500000
 50
180.000000
 51
0.000000
  0
ARC
  8
MODEL-73CONTINUOUS
  6
CONTINUOUS
 62
1
 10
150.000000
 20
785.000000
 40
17.500000
 50
0.000000
 51
180.000000
  0
ARC
  8
MODEL-73CONTINUOUS
  6
CONTINUOUS
 62
1
 10
750.000000
 20
785.000000
 40
25.000000
 50
180.000000
 51
0.000000
  0
ARC
  8
MODEL-73CONTINUOUS
  6
CONTINUOUS
 62
1
 10
750.000000
 20
785.000000
 40
25.000000
 50
0.000000
 51
180.000000
  0
ARC
  8
MODEL-73CONTINUOUS
  6
CONTINUOUS
 62
1
 10
450.000000
 20
785.000000
 40
25.000000
 50
180.000000
 51
0.000000
  0
ARC
  8
MODEL-73CONTINUOUS
  6
CONTINUOUS
 62
1
 10
450.000000
 20
785.000000
 40
25.000000
 50
0.000000
 51
180.000000
  0
ARC
  8
MODEL-73CONTINUOUS
  6
CONTINUOUS
 62
1
 10
300.000000
 20
785.000000
 40
25.000000
 50
180.000000
 51
0.000000
  0
ARC
  8
MODEL-73CONTINUOUS
  6
CONTINUOUS
 62
1
 10
300.000000
 20
785.000000
 40
25.000000
 50
0.000000
 51
180.000000
  0
ARC
  8
MODEL-73CONTINUOUS
  6
CONTINUOUS
 62
1
 10
150.000000
 20
785.000000
 40
25.000000
 50
180.000000
 51
0.000000
  0
ARC
  8
MODEL-73CONTINUOUS
  6
CONTINUOUS
 62
1
 10
150.000000
 20
785.000000
 40
25.000000
 50
0.000000
 51
180.000000
  0
ARC
  8
MODEL-73CONTINUOUS
  6
CONTINUOUS
 62
1
 10
405.000000
 20
785.000000
 40
6.000000
 50
180.000000
 51
0.000000
  0
ARC
  8
MODEL-73CONTINUOUS
  6
CONTINUOUS
 62
1
 10
405.000000
 20
785.000000
 40
6.000000
 50
0.000000
 51
180.000000
  0
ARC
  8
MODEL-73CONTINUOUS
  6
CONTINUOUS
 62
1
 10
705.000000
 20
785.000000
 40
6.000000
 50
180.000000
 51
0.000000
  0
ARC
  8
MODEL-73CONTINUOUS
  6
CONTINUOUS
 62
1
 10
705.000000
 20
785.000000
 40
6.000000
 50
0.000000
 51
180.000000
  0
ARC
  8
MODEL-73CONTINUOUS
  6
CONTINUOUS
 62
1
 10
795.000000
 20
785.000000
 40
6.000000
 50
180.000000
 51
0.000000
  0
ARC
  8
MODEL-73CONTINUOUS
  6
CONTINUOUS
 62
1
 10
795.000000
 20
785.000000
 40
6.000000
 50
0.000000
 51
180.000000
  0
ARC
  8
MODEL-73CONTINUOUS
  6
CONTINUOUS
 62
1
 10
105.000000
 20
802.500000
 40
6.000000
 50
180.000000
 51
0.000000
  0
ARC
  8
MODEL-73CONTINUOUS
  6
CONTINUOUS
 62
1
 10
105.000000
 20
802.500000
 40
6.000000
 50
0.000000
 51
180.000000
  0
ARC
  8
MODEL-73CONTINUOUS
  6
CONTINUOUS
 62
1
 10
105.000000
 20
767.500000
 40
6.000000
 50
180.000000
 51
0.000000
  0
ARC
  8
MODEL-73CONTINUOUS
  6
CONTINUOUS
 62
1
 10
105.000000
 20
767.500000
 40
6.000000
 50
0.000000
 51
180.000000
  0
ARC
  8
MODEL-73CONTINUOUS
  6
CONTINUOUS
 62
1
 10
255.000000
 20
802.500000
 40
6.000000
 50
180.000000
 51
0.000000
  0
ARC
  8
MODEL-73CONTINUOUS
  6
CONTINUOUS
 62
1
 10
255.000000
 20
802.500000
 40
6.000000
 50
0.000000
 51
180.000000
  0
ARC
  8
MODEL-73CONTINUOUS
  6
CONTINUOUS
 62
1
 10
255.000000
 20
767.500000
 40
6.000000
 50
180.000000
 51
0.000000
  0
ARC
  8
MODEL-73CONTINUOUS
  6
CONTINUOUS
 62
1
 10
255.000000
 20
767.500000
 40
6.000000
 50
0.000000
 51
180.000000
  0
LINE
  8
MODEL-73CONTINUOUS
  6
CONTINUOUS
 62
1
 10
55.000000
 20
750.000000
 11
55.000000
 21
740.000000
  0
LINE
  8
MODEL-73CONTINUOUS
  6
CONTINUOUS
 62
1
 10
845.000000
 20
740.000000
 11
845.000000
 21
750.000000
  0
ARC
  8
MODEL-73CONTINUOUS
  6
CONTINUOUS
 62
1
 10
830.000000
 20
610.000000
 40
6.000000
 50
180.000000
 51
0.000000
  0
ARC
  8
MODEL-73CONTINUOUS
  6
CONTINUOUS
 62
1
 10
830.000000
 20
610.000000
 40
6.000000
 50
0.000000
 51
180.000000
  0
ARC
  8
MODEL-73CONTINUOUS
  6
CONTINUOUS
 62
1
 10
870.000000
 20
610.000000
 40
6.000000
 50
180.000000
 51
0.000000
  0
ARC
  8
MODEL-73CONTINUOUS
  6
CONTINUOUS
 62
1
 10
870.000000
 20
610.000000
 40
6.000000
 50
0.000000
 51
180.000000
  0
ARC
  8
MODEL-73CONTINUOUS
  6
CONTINUOUS
 62
1
 10
850.000000
 20
560.000000
 40
17.500000
 50
180.000000
 51
0.000000
  0
ARC
  8
MODEL-73CONTINUOUS
  6
CONTINUOUS
 62
1
 10
850.000000
 20
560.000000
 40
17.500000
 50
0.000000
 51
180.000000
  0
ARC
  8
MODEL-73CONTINUOUS
  6
CONTINUOUS
 62
1
 10
850.000000
 20
560.000000
 40
25.000000
 50
180.000000
 51
0.000000
  0
ARC
  8
MODEL-73CONTINUOUS
  6
CONTINUOUS
 62
1
 10
850.000000
 20
560.000000
 40
25.000000
 50
0.000000
 51
180.000000
  0
ARC
  8
MODEL-73CONTINUOUS
  6
CONTINUOUS
 62
1
 10
850.000000
 20
500.000000
 40
6.000000
 50
180.000000
 51
0.000000
  0
ARC
  8
MODEL-73CONTINUOUS
  6
CONTINUOUS
 62
1
 10
850.000000
 20
500.000000
 40
6.000000
 50
0.000000
 51
180.000000
  0
ARC
  8
MODEL-73CONTINUOUS
  6
CONTINUOUS
 62
1
 10
850.000000
 20
440.000000
 40
16.500000
 50
180.000000
 51
0.000000
  0
ARC
  8
MODEL-73CONTINUOUS
  6
CONTINUOUS
 62
1
 10
850.000000
 20
440.000000
 40
16.500000
 50
0.000000
 51
180.000000
  0
ARC
  8
MODEL-73CONTINUOUS
  6
CONTINUOUS
 62
1
 10
850.000000
 20
440.000000
 40
22.500000
 50
180.000000
 51
0.000000
  0
ARC
  8
MODEL-73CONTINUOUS
  6
CONTINUOUS
 62
1
 10
850.000000
 20
440.000000
 40
22.500000
 50
0.000000
 51
180.000000
  0
LINE
  8
MODEL-73CONTINUOUS
  6
CONTINUOUS
 62
1
 10
842.500000
 20
365.000000
 11
857.500000
 21
365.000000
  0
LINE
  8
MODEL-73CONTINUOUS
  6
CONTINUOUS
 62
1
 10
857.500000
 20
365.000000
 11
857.500000
 21
395.000000
  0
LINE
  8
MODEL-73CONTINUOUS
  6
CONTINUOUS
 62
1
 10
857.500000
 20
395.000000
 11
842.500000
 21
395.000000
  0
LINE
  8
MODEL-73CONTINUOUS
  6
CONTINUOUS
 62
1
 10
842.500000
 20
395.000000
 11
842.500000
 21
365.000000
  0
ENDSEC
  0
EOF
