  0
SECTION
  2
HEADER
  9
$LIMMIN
 10
0.000000
 20
0.000000
  9
$LIMMAX
 10
894.000000
 20
908.000000
  9
$EXTMIN
 10
0.000000
 20
0.000000
  9
$EXTMAX
 10
1000.000000
 20
1000.000000
  9
$ANGBASE
 50
0.0
  9
$ANGDIR
 70
0
  9
$DIMRND
 40
0.100000
  9
$DIMSE1
 70
0
  9
$DIMSE2
 70
0
  9
$DIMTXT
 40
3.500000
  9
$LTSCALE
 40
1.000000
  9
$LUPREC
 70
5
  9
$AUPREC
 70
5
  9
$PDMODE
 70
2
  9
$PDSIZE
 40
5.000000
  0
ENDSEC
  0
SECTION
  2
TABLES
  0
TABLE
  2
VPORT
  70
1
  0
VPORT
  2
*ACTIVE
 70
0
  10
0.0
 20
0.0
 11
1.0
 21
1.0
 12
594.0
 22
420.0
 13
0.0
 23
0.0
 14
10.0
 24
10.0
 15
10.0
 25
10.0
 16
0.0
 26
0.0
 36
1.0
 17
594.0
 27
420.0
 37
100.0
 40
1000.0
 41
1.0
 42
50.0
 43
0.0
 44
0.0
 50
0.0
 51
0.0
 71
0
 72
2000
 73
1
 74
3
 75
0
 76
0
 77
0
 78
1
  0
ENDTAB
  0
TABLE
  2
LTYPE
 70
4
  0
LTYPE
  2
CONTINUOUS
 70
0
  3
Solid line
 72
65
 73
0
 40
0.0
  0
LTYPE
  2
DASHED
 70
0
  3
Dashed line
 72
65
 73
2
 40
6.000000
 49
3.000000
 49
-3.000000
  0
LTYPE
  2
CENTER
 70
0
  3
Chain line
 72
65
 73
4
 40
24.000000
 49
15.000000
 49
-3.000000
 49
3.000000
 49
-3.000000
  0
LTYPE
  2
RANDOM
 70
0
  3
Random line
 72
65
 73
4
 40
22.500000
 49
6.000000
 49
-3.000000
 49
4.500000
 49
-9.000000
  0
ENDTAB
  0
TABLE
  2
STYLE
 70
9
  0
STYLE
  2
STANDARD
 40
0
 41
1.0
 50
0.0
 71
0
 42
0
  3
simplex
  4

 70
0
  0
ENDTAB
  0
TABLE
  2
LAYER
 70
4
  0
LAYER
  2
0
 70
0
 62
7
  6
CONTINUOUS
  0
LAYER
  2
0
 62
1
  6
CONTINUOUS
 70
0
  0
LAYER
  2
MODEL
 62
1
  6
CONTINUOUS
 70
0
  0
LAYER
  2
MODEL-73CONTINUOUS
 62
1
  6
CONTINUOUS
 70
0
  0
ENDTAB
  0
ENDSEC
  0
SECTION
  2
BLOCKS
  0
ENDSEC
  0
SECTION
  2
ENTITIES
  0
LINE
  8
0
  6
CONTINUOUS
 62
1
 10
909.000000
 20
225.000000
 11
909.000000
 21
630.000000
  0
LINE
  8
0
  6
CONTINUOUS
 62
1
 10
845.000000
 20
663.000000
 11
790.000000
 21
663.000000
  0
LINE
  8
0
  6
CONTINUOUS
 62
1
 10
805.000000
 20
663.000000
 11
805.000000
 21
165.000000
  0
LINE
  8
0
  6
CONTINUOUS
 62
1
 10
862.000000
 20
658.000000
 11
805.000000
 21
658.000000
  0
LINE
  8
0
  6
CONTINUOUS
 62
1
 10
790.000000
 20
663.000000
 11
862.000000
 21
663.000000
  0
LINE
  8
0
  6
CONTINUOUS
 62
1
 10
862.000000
 20
663.000000
 11
862.000000
 21
697.570000
  0
LINE
  8
0
  6
CONTINUOUS
 62
1
 10
862.000000
 20
697.570000
 11
830.000000
 21
705.000000
  0
LINE
  8
0
  6
CONTINUOUS
 62
1
 10
790.000000
 20
60.000000
 11
845.000000
 21
75.000000
  0
LINE
  8
0
  6
CONTINUOUS
 62
1
 10
845.000000
 20
75.000000
 11
845.000000
 21
165.000000
  0
LINE
  8
0
  6
CONTINUOUS
 62
1
 10
790.000000
 20
165.000000
 11
845.000000
 21
165.000000
  0
LINE
  8
0
  6
CONTINUOUS
 62
1
 10
805.000000
 20
175.000000
 11
862.000000
 21
175.000000
  0
LINE
  8
0
  6
CONTINUOUS
 62
1
 10
862.000000
 20
175.000000
 11
862.000000
 21
658.000000
  0
LINE
  8
0
  6
CONTINUOUS
 62
1
 10
862.000000
 20
255.000000
 11
889.000000
 21
255.000000
  0
LINE
  8
0
  6
CONTINUOUS
 62
1
 10
889.000000
 20
255.000000
 11
889.000000
 21
600.000000
  0
LINE
  8
0
  6
CONTINUOUS
 62
1
 10
889.000000
 20
600.000000
 11
862.000000
 21
600.000000
  0
LINE
  8
0
  6
CONTINUOUS
 62
1
 10
862.000000
 20
225.000000
 11
909.000000
 21
225.000000
  0
LINE
  8
0
  6
CONTINUOUS
 62
1
 10
909.000000
 20
630.000000
 11
862.000000
 21
630.000000
  0
LINE
  8
0
  6
CONTINUOUS
 62
1
 10
862.000000
 20
663.000000
 11
862.000000
 21
680.000000
  0
LINE
  8
MODEL-73CONTINUOUS
  6
CONTINUOUS
 62
1
 10
755.000000
 20
870.000000
 11
755.000000
 21
850.000000
  0
LINE
  8
MODEL-73CONTINUOUS
  6
CONTINUOUS
 62
1
 10
747.000000
 20
870.000000
 11
153.000000
 21
870.000000
  0
LINE
  8
MODEL-73CONTINUOUS
  6
CONTINUOUS
 62
1
 10
188.000000
 20
860.000000
 11
188.000000
 21
832.000000
  0
LINE
  8
MODEL-73CONTINUOUS
  6
CONTINUOUS
 62
1
 10
188.000000
 20
832.000000
 11
712.000000
 21
832.000000
  0
LINE
  8
MODEL-73CONTINUOUS
  6
CONTINUOUS
 62
1
 10
712.000000
 20
832.000000
 11
712.000000
 21
860.000000
  0
LINE
  8
MODEL-73CONTINUOUS
  6
CONTINUOUS
 62
1
 10
75.000000
 20
832.000000
 11
178.000000
 21
832.000000
  0
LINE
  8
MODEL-73CONTINUOUS
  6
CONTINUOUS
 62
1
 10
178.000000
 20
832.000000
 11
178.000000
 21
850.000000
  0
LINE
  8
MODEL-73CONTINUOUS
  6
CONTINUOUS
 62
1
 10
178.000000
 20
850.000000
 11
145.000000
 21
850.000000
  0
LINE
  8
MODEL-73CONTINUOUS
  6
CONTINUOUS
 62
1
 10
145.000000
 20
850.000000
 11
145.000000
 21
870.000000
  0
LINE
  8
MODEL-73CONTINUOUS
  6
CONTINUOUS
 62
1
 10
145.000000
 20
870.000000
 11
113.000000
 21
870.000000
  0
LINE
  8
MODEL-73CONTINUOUS
  6
CONTINUOUS
 62
1
 10
113.000000
 20
870.000000
 11
113.000000
 21
908.000000
  0
LINE
  8
MODEL-73CONTINUOUS
  6
CONTINUOUS
 62
1
 10
113.000000
 20
908.000000
 11
75.000000
 21
908.000000
  0
LINE
  8
MODEL-73CONTINUOUS
  6
CONTINUOUS
 62
1
 10
75.000000
 20
908.000000
 11
75.000000
 21
832.000000
  0
LINE
  8
MODEL-73CONTINUOUS
  6
CONTINUOUS
 62
1
 10
75.000000
 20
832.000000
 11
75.000000
 21
0.000000
  0
LINE
  8
MODEL-73CONTINUOUS
  6
CONTINUOUS
 62
1
 10
75.000000
 20
0.000000
 11
790.000000
 21
0.000000
  0
LINE
  8
MODEL-73CONTINUOUS
  6
CONTINUOUS
 62
1
 10
790.000000
 20
0.000000
 11
790.000000
 21
705.000000
  0
LINE
  8
MODEL-73CONTINUOUS
  6
CONTINUOUS
 62
1
 10
153.000000
 20
870.000000
 11
153.000000
 21
860.000000
  0
LINE
  8
MODEL-73CONTINUOUS
  6
CONTINUOUS
 62
1
 10
153.000000
 20
860.000000
 11
747.000000
 21
860.000000
  0
LINE
  8
MODEL-73CONTINUOUS
  6
CONTINUOUS
 62
1
 10
747.000000
 20
860.000000
 11
747.000000
 21
870.000000
  0
LINE
  8
MODEL-73CONTINUOUS
  6
CONTINUOUS
 62
1
 10
75.000000
 20
15.000000
 11
790.000000
 21
15.000000
  0
LINE
  8
MODEL-73CONTINUOUS
  6
CONTINUOUS
 62
1
 10
75.000000
 20
525.000000
 11
10.000000
 21
525.000000
  0
LINE
  8
MODEL-73CONTINUOUS
  6
CONTINUOUS
 62
1
 10
10.000000
 20
525.000000
 11
10.000000
 21
325.000000
  0
LINE
  8
MODEL-73CONTINUOUS
  6
CONTINUOUS
 62
1
 10
10.000000
 20
325.000000
 11
75.000000
 21
325.000000
  0
LINE
  8
MODEL-73CONTINUOUS
  6
CONTINUOUS
 62
1
 10
755.000000
 20
850.000000
 11
722.000000
 21
850.000000
  0
LINE
  8
MODEL-73CONTINUOUS
  6
CONTINUOUS
 62
1
 10
722.000000
 20
850.000000
 11
722.000000
 21
832.000000
  0
LINE
  8
MODEL-73CONTINUOUS
  6
CONTINUOUS
 62
1
 10
722.000000
 20
832.000000
 11
775.000000
 21
832.000000
  0
LINE
  8
MODEL-73CONTINUOUS
  6
CONTINUOUS
 62
1
 10
775.000000
 20
832.000000
 11
835.000000
 21
832.000000
  0
LINE
  8
MODEL-73CONTINUOUS
  6
CONTINUOUS
 62
1
 10
835.000000
 20
832.000000
 11
845.000000
 21
832.000000
  0
LINE
  8
MODEL-73CONTINUOUS
  6
CONTINUOUS
 62
1
 10
845.000000
 20
832.000000
 11
845.000000
 21
870.000000
  0
LINE
  8
MODEL-73CONTINUOUS
  6
CONTINUOUS
 62
1
 10
845.000000
 20
870.000000
 11
755.000000
 21
870.000000
  0
LINE
  8
MODEL-73CONTINUOUS
  6
CONTINUOUS
 62
1
 10
835.000000
 20
832.000000
 11
835.000000
 21
705.000000
  0
LINE
  8
MODEL-73CONTINUOUS
  6
CONTINUOUS
 62
1
 10
835.000000
 20
705.000000
 11
75.000000
 21
705.000000
  0
LINE
  8
MODEL-73CONTINUOUS
  6
CONTINUOUS
 62
1
 10
0.000000
 20
682.000000
 11
63.000000
 21
682.000000
  0
LINE
  8
MODEL-73CONTINUOUS
  6
CONTINUOUS
 62
1
 10
63.000000
 20
682.000000
 11
63.000000
 21
832.000000
  0
LINE
  8
MODEL-73CONTINUOUS
  6
CONTINUOUS
 62
1
 10
63.000000
 20
832.000000
 11
0.000000
 21
832.000000
  0
LINE
  8
MODEL-73CONTINUOUS
  6
CONTINUOUS
 62
1
 10
0.000000
 20
832.000000
 11
0.000000
 21
682.000000
  0
LINE
  8
MODEL-73CONTINUOUS
  6
CONTINUOUS
 62
1
 10
75.000000
 20
820.000000
 11
63.000000
 21
820.000000
  0
LINE
  8
MODEL-73CONTINUOUS
  6
CONTINUOUS
 62
1
 10
63.000000
 20
762.000000
 11
75.000000
 21
762.000000
  0
LINE
  8
MODEL-73CONTINUOUS
  6
CONTINUOUS
 62
1
 10
75.000000
 20
752.000000
 11
63.000000
 21
752.000000
  0
LINE
  8
MODEL-73CONTINUOUS
  6
CONTINUOUS
 62
1
 10
63.000000
 20
694.000000
 11
75.000000
 21
694.000000
  0
LINE
  8
MODEL-73CONTINUOUS
  6
CONTINUOUS
 62
1
 10
21.500000
 20
682.000000
 11
21.500000
 21
672.000000
  0
LINE
  8
MODEL-73CONTINUOUS
  6
CONTINUOUS
 62
1
 10
21.500000
 20
672.000000
 11
41.500000
 21
672.000000
  0
LINE
  8
MODEL-73CONTINUOUS
  6
CONTINUOUS
 62
1
 10
41.500000
 20
672.000000
 11
41.500000
 21
682.000000
  0
ENDSEC
  0
EOF
