  0
SECTION
  2
HEADER
  9
$LIMMIN
 10
0.000000
 20
0.000000
  9
$LIMMAX
 10
7000.000000
 20
3500.000000
  9
$EXTMIN
 10
0.000000
 20
0.000000
  9
$EXTMAX
 10
7000.000000
 20
3500.000000
  9
$ANGBASE
 50
0.0
  9
$ANGDIR
 70
0
  9
$DIMRND
 40
0.100000
  9
$DIMSE1
 70
0
  9
$DIMSE2
 70
0
  9
$DIMTXT
 40
3.500000
  9
$LTSCALE
 40
1.000000
  9
$LUPREC
 70
5
  9
$AUPREC
 70
5
  9
$PDMODE
 70
2
  9
$PDSIZE
 40
35.000000
  0
ENDSEC
  0
SECTION
  2
TABLES
  0
TABLE
  2
VPORT
  70
1
  0
VPORT
  2
*ACTIVE
 70
0
  10
0.0
 20
0.0
 11
1.0
 21
1.0
 12
594.0
 22
420.0
 13
0.0
 23
0.0
 14
10.0
 24
10.0
 15
10.0
 25
10.0
 16
0.0
 26
0.0
 36
1.0
 17
594.0
 27
420.0
 37
100.0
 40
1000.0
 41
1.0
 42
50.0
 43
0.0
 44
0.0
 50
0.0
 51
0.0
 71
0
 72
2000
 73
1
 74
3
 75
0
 76
0
 77
0
 78
1
  0
ENDTAB
  0
TABLE
  2
LTYPE
 70
4
  0
LTYPE
  2
CONTINUOUS
 70
0
  3
Solid line
 72
65
 73
0
 40
0.0
  0
LTYPE
  2
DASHED
 70
0
  3
Dashed line
 72
65
 73
2
 40
6.000000
 49
3.000000
 49
-3.000000
  0
LTYPE
  2
CENTER
 70
0
  3
Chain line
 72
65
 73
4
 40
24.000000
 49
15.000000
 49
-3.000000
 49
3.000000
 49
-3.000000
  0
LTYPE
  2
RANDOM
 70
0
  3
Random line
 72
65
 73
4
 40
22.500000
 49
6.000000
 49
-3.000000
 49
4.500000
 49
-9.000000
  0
ENDTAB
  0
TABLE
  2
STYLE
 70
9
  0
STYLE
  2
STANDARD
 40
0
 41
1.0
 50
0.0
 71
0
 42
0
  3
simplex
  4

 70
0
  0
ENDTAB
  0
TABLE
  2
LAYER
 70
3
  0
LAYER
  2
0
 70
0
 62
7
  6
CONTINUOUS
  0
LAYER
  2
0
 62
1
  6
CONTINUOUS
 70
0
  0
LAYER
  2
73CONTINUOUS
 62
1
  6
CONTINUOUS
 70
0
  0
ENDTAB
  0
ENDSEC
  0
SECTION
  2
BLOCKS
  0
ENDSEC
  0
SECTION
  2
ENTITIES
  0
LINE
  8
0
  6
CONTINUOUS
 62
1
 10
2059.546328
 20
1872.819827
 11
2059.546328
 21
1022.819827
  0
LINE
  8
0
  6
CONTINUOUS
 62
1
 10
2059.546328
 20
1022.819827
 11
2359.546328
 21
1022.819827
  0
LINE
  8
0
  6
CONTINUOUS
 62
1
 10
2359.546328
 20
1022.819827
 11
2359.546328
 21
1872.819827
  0
LINE
  8
0
  6
CONTINUOUS
 62
1
 10
2359.546328
 20
1872.819827
 11
2059.546328
 21
1872.819827
  0
LINE
  8
0
  6
CONTINUOUS
 62
1
 10
2359.546328
 20
1022.819827
 11
2359.546328
 21
972.819827
  0
LINE
  8
0
  6
CONTINUOUS
 62
1
 10
2359.546328
 20
972.819827
 11
2059.546328
 21
972.819827
  0
LINE
  8
0
  6
CONTINUOUS
 62
1
 10
2059.546328
 20
972.819827
 11
2059.546328
 21
1022.819827
  0
LINE
  8
0
  6
CONTINUOUS
 62
1
 10
2344.546328
 20
1792.819827
 11
2344.546328
 21
1096.409827
  0
LINE
  8
0
  6
CONTINUOUS
 62
1
 10
2344.546328
 20
1096.409827
 11
2074.546328
 21
1096.409827
  0
LINE
  8
0
  6
CONTINUOUS
 62
1
 10
2359.546328
 20
1792.819827
 11
2059.546328
 21
1792.819827
  0
LINE
  8
0
  6
CONTINUOUS
 62
1
 10
2108.906328
 20
1610.819827
 11
2313.906328
 21
1610.819827
  0
LINE
  8
0
  6
CONTINUOUS
 62
1
 10
2313.906328
 20
1610.819827
 11
2313.906328
 21
1310.819827
  0
LINE
  8
0
  6
CONTINUOUS
 62
1
 10
2313.906328
 20
1310.819827
 11
2108.906328
 21
1310.819827
  0
LINE
  8
0
  6
CONTINUOUS
 62
1
 10
2108.906328
 20
1310.819827
 11
2108.906328
 21
1610.819827
  0
LINE
  8
0
  6
CONTINUOUS
 62
1
 10
2179.546328
 20
1610.819827
 11
2189.546328
 21
1650.819827
  0
LINE
  8
0
  6
CONTINUOUS
 62
1
 10
2189.546328
 20
1650.819827
 11
2229.546328
 21
1650.819827
  0
LINE
  8
0
  6
CONTINUOUS
 62
1
 10
2229.546328
 20
1650.819827
 11
2239.546328
 21
1610.819827
  0
LINE
  8
0
  6
CONTINUOUS
 62
1
 10
2108.906328
 20
1345.599827
 11
2313.906328
 21
1345.599827
  0
LINE
  8
0
  6
CONTINUOUS
 62
1
 10
2108.906328
 20
1375.599827
 11
2313.906328
 21
1375.599827
  0
LINE
  8
0
  6
CONTINUOUS
 62
1
 10
2108.906328
 20
1405.599827
 11
2313.906328
 21
1405.599827
  0
LINE
  8
0
  6
CONTINUOUS
 62
1
 10
2108.906328
 20
1435.599827
 11
2313.906328
 21
1435.599827
  0
LINE
  8
0
  6
CONTINUOUS
 62
1
 10
2108.906328
 20
1465.599827
 11
2313.906328
 21
1465.599827
  0
LINE
  8
0
  6
CONTINUOUS
 62
1
 10
2108.906328
 20
1495.599827
 11
2313.906328
 21
1495.599827
  0
LINE
  8
0
  6
CONTINUOUS
 62
1
 10
2108.906328
 20
1525.599827
 11
2313.906328
 21
1525.599827
  0
LINE
  8
0
  6
CONTINUOUS
 62
1
 10
2108.906328
 20
1555.599827
 11
2313.906328
 21
1555.599827
  0
LINE
  8
0
  6
CONTINUOUS
 62
1
 10
2108.906328
 20
1585.599827
 11
2313.906328
 21
1585.599827
  0
LINE
  8
0
  6
CONTINUOUS
 62
1
 10
2121.406328
 20
1310.819827
 11
2121.406328
 21
1610.819827
  0
LINE
  8
0
  6
CONTINUOUS
 62
1
 10
2151.406328
 20
1310.819827
 11
2151.406328
 21
1610.819827
  0
LINE
  8
0
  6
CONTINUOUS
 62
1
 10
2181.406328
 20
1310.819827
 11
2181.406328
 21
1610.819827
  0
LINE
  8
0
  6
CONTINUOUS
 62
1
 10
2211.406328
 20
1310.819827
 11
2211.406328
 21
1610.819827
  0
LINE
  8
0
  6
CONTINUOUS
 62
1
 10
2241.406328
 20
1310.819827
 11
2241.406328
 21
1610.819827
  0
LINE
  8
0
  6
CONTINUOUS
 62
1
 10
2271.406328
 20
1310.819827
 11
2271.406328
 21
1610.819827
  0
LINE
  8
0
  6
CONTINUOUS
 62
1
 10
2301.406328
 20
1310.819827
 11
2301.406328
 21
1610.819827
  0
LINE
  8
0
  6
CONTINUOUS
 62
1
 10
2319.546328
 20
1727.819827
 11
2319.546328
 21
1225.809827
  0
LINE
  8
0
  6
CONTINUOUS
 62
1
 10
2319.546328
 20
1225.809827
 11
2221.716328
 21
1225.809827
  0
LINE
  8
0
  6
CONTINUOUS
 62
1
 10
2304.546328
 20
1727.819827
 11
2304.546328
 21
1682.819827
  0
LINE
  8
0
  6
CONTINUOUS
 62
1
 10
2304.546328
 20
1682.819827
 11
2114.546328
 21
1682.819827
  0
LINE
  8
0
  6
CONTINUOUS
 62
1
 10
2114.546328
 20
1682.819827
 11
2114.546328
 21
1727.819827
  0
LINE
  8
0
  6
CONTINUOUS
 62
1
 10
2119.546328
 20
1727.819827
 11
2084.546328
 21
1727.819827
  0
LINE
  8
0
  6
CONTINUOUS
 62
1
 10
2084.546328
 20
1727.819827
 11
2084.546328
 21
1787.819827
  0
LINE
  8
0
  6
CONTINUOUS
 62
1
 10
2084.546328
 20
1787.819827
 11
2119.546328
 21
1787.819827
  0
LINE
  8
0
  6
CONTINUOUS
 62
1
 10
2299.546328
 20
1787.819827
 11
2299.546328
 21
1727.819827
  0
LINE
  8
0
  6
CONTINUOUS
 62
1
 10
2284.546328
 20
1682.819827
 11
2284.546328
 21
1787.819827
  0
LINE
  8
0
  6
CONTINUOUS
 62
1
 10
2134.546328
 20
1787.819827
 11
2134.546328
 21
1682.819827
  0
LINE
  8
0
  6
CONTINUOUS
 62
1
 10
2119.546328
 20
1727.819827
 11
2119.546328
 21
1787.819827
  0
LINE
  8
0
  6
CONTINUOUS
 62
1
 10
2284.546328
 20
1702.819827
 11
2134.546328
 21
1702.819827
  0
LINE
  8
0
  6
CONTINUOUS
 62
1
 10
2134.546328
 20
1712.819827
 11
2284.546328
 21
1712.819827
  0
LINE
  8
0
  6
CONTINUOUS
 62
1
 10
2259.546328
 20
1702.819827
 11
2259.546328
 21
1712.819827
  0
LINE
  8
0
  6
CONTINUOUS
 62
1
 10
2249.546328
 20
1712.819827
 11
2249.546328
 21
1702.819827
  0
LINE
  8
0
  6
CONTINUOUS
 62
1
 10
2229.546328
 20
1702.819827
 11
2229.546328
 21
1712.819827
  0
LINE
  8
0
  6
CONTINUOUS
 62
1
 10
2219.546328
 20
1712.819827
 11
2219.546328
 21
1702.819827
  0
LINE
  8
0
  6
CONTINUOUS
 62
1
 10
2199.546328
 20
1702.819827
 11
2199.546328
 21
1712.819827
  0
LINE
  8
0
  6
CONTINUOUS
 62
1
 10
2189.546328
 20
1712.819827
 11
2189.546328
 21
1702.819827
  0
LINE
  8
0
  6
CONTINUOUS
 62
1
 10
2169.546328
 20
1702.819827
 11
2169.546328
 21
1712.819827
  0
LINE
  8
0
  6
CONTINUOUS
 62
1
 10
2159.546328
 20
1712.819827
 11
2159.546328
 21
1702.819827
  0
LINE
  8
0
  6
CONTINUOUS
 62
1
 10
2197.376328
 20
1225.809827
 11
2099.546328
 21
1225.809827
  0
LINE
  8
0
  6
CONTINUOUS
 62
1
 10
2099.546328
 20
1225.809827
 11
2099.546328
 21
1727.819827
  0
LINE
  8
0
  6
CONTINUOUS
 62
1
 10
2299.546328
 20
1769.819827
 11
2284.546328
 21
1769.819827
  0
LINE
  8
0
  6
CONTINUOUS
 62
1
 10
2134.546328
 20
1769.819827
 11
2119.546328
 21
1769.819827
  0
LINE
  8
0
  6
CONTINUOUS
 62
1
 10
2119.546328
 20
1745.819827
 11
2134.546328
 21
1745.819827
  0
LINE
  8
0
  6
CONTINUOUS
 62
1
 10
2284.546328
 20
1745.819827
 11
2299.546328
 21
1745.819827
  0
LINE
  8
0
  6
CONTINUOUS
 62
1
 10
2299.546328
 20
1787.819827
 11
2334.546328
 21
1787.819827
  0
LINE
  8
0
  6
CONTINUOUS
 62
1
 10
2334.546328
 20
1787.819827
 11
2334.546328
 21
1727.819827
  0
LINE
  8
0
  6
CONTINUOUS
 62
1
 10
2334.546328
 20
1727.819827
 11
2299.546328
 21
1727.819827
  0
LINE
  8
0
  6
CONTINUOUS
 62
1
 10
2134.546328
 20
1787.819827
 11
2284.546328
 21
1787.819827
  0
LINE
  8
0
  6
CONTINUOUS
 62
1
 10
2221.406328
 20
1310.819827
 11
2221.406328
 21
1116.409827
  0
LINE
  8
0
  6
CONTINUOUS
 62
1
 10
2221.406328
 20
1116.409827
 11
2201.406328
 21
1116.409827
  0
LINE
  8
0
  6
CONTINUOUS
 62
1
 10
2201.406328
 20
1116.409827
 11
2201.406328
 21
1310.819827
  0
LINE
  8
0
  6
CONTINUOUS
 62
1
 10
2201.406328
 20
1310.819827
 11
2221.406328
 21
1310.819827
  0
LINE
  8
0
  6
CONTINUOUS
 62
1
 10
2344.546328
 20
1110.409827
 11
2074.546328
 21
1110.409827
  0
LINE
  8
0
  6
CENTER
 62
4
 10
2325.546328
 20
1927.059827
 11
2325.546328
 21
1837.399827
  0
LINE
  8
0
  6
CONTINUOUS
 62
1
 10
2066.546328
 20
972.819827
 11
2066.546328
 21
956.976915
  0
LINE
  8
0
  6
CONTINUOUS
 62
1
 10
2091.546328
 20
952.819827
 11
2091.546328
 21
972.819827
  0
LINE
  8
0
  6
CONTINUOUS
 62
1
 10
2066.546328
 20
972.819827
 11
2091.546328
 21
972.819827
  0
LINE
  8
0
  6
CONTINUOUS
 62
1
 10
2091.546328
 20
952.819827
 11
2069.389320
 21
953.981026
  0
ARC
  8
0
  6
CONTINUOUS
 62
1
 10
2069.546328
 20
956.976915
 40
3.000000
 50
180.000000
 51
267.000000
  0
LINE
  8
0
  6
CONTINUOUS
 62
1
 10
2091.546328
 20
952.819827
 11
2229.467824
 21
952.819827
  0
LINE
  8
0
  6
CONTINUOUS
 62
1
 10
2254.467824
 20
972.819827
 11
2254.467824
 21
956.976915
  0
LINE
  8
0
  6
CONTINUOUS
 62
1
 10
2229.467824
 20
952.819827
 11
2229.467824
 21
972.819827
  0
LINE
  8
0
  6
CONTINUOUS
 62
1
 10
2254.467824
 20
972.819827
 11
2229.467824
 21
972.819827
  0
LINE
  8
0
  6
CONTINUOUS
 62
1
 10
2229.467824
 20
952.819827
 11
2251.624832
 21
953.981026
  0
ARC
  8
0
  6
CONTINUOUS
 62
1
 10
2251.467824
 20
956.976915
 40
3.000000
 50
273.000000
 51
0.000000
  0
ENDSEC
  0
EOF
