  0
SECTION
  2
HEADER
  9
$ACADVER
  1
AC1015
  9
$ACADMAINTVER
 70
     6
  9
$DWGCODEPAGE
  3
ANSI_1252
  9
$INSBASE
 10
0.0
 20
0.0
 30
0.0
  9
$EXTMIN
 10
0.0
 20
0.0
 30
0.0
  9
$EXTMAX
 10
420.0
 20
297.0
 30
0.0
  9
$LIMMIN
 10
0.0
 20
0.0
  9
$LIMMAX
 10
420.0
 20
297.0
  9
$ORTHOMODE
 70
     0
  9
$REGENMODE
 70
     1
  9
$FILLMODE
 70
     1
  9
$QTEXTMODE
 70
     0
  9
$MIRRTEXT
 70
     1
  9
$LTSCALE
 40
1.0
  9
$ATTMODE
 70
     1
  9
$TEXTSIZE
 40
3.5
  9
$TRACEWID
 40
1.0
  9
$TEXTSTYLE
  7
Standard
  9
$CLAYER
  8
0
  9
$CELTYPE
  6
ByLayer
  9
$CECOLOR
 62
   256
  9
$CELTSCALE
 40
1.0
  9
$DISPSILH
 70
     0
  9
$DIMSCALE
 40
1.0
  9
$DIMASZ
 40
3.302
  9
$DIMEXO
 40
1.0
  9
$DIMDLI
 40
3.75
  9
$DIMRND
 40
0.0
  9
$DIMDLE
 40
0.0
  9
$DIMEXE
 40
1.0
  9
$DIMTP
 40
0.0
  9
$DIMTM
 40
0.0
  9
$DIMTXT
 40
3.5
  9
$DIMCEN
 40
2.5
  9
$DIMTSZ
 40
0.0
  9
$DIMTOL
 70
     0
  9
$DIMLIM
 70
     0
  9
$DIMTIH
 70
     1
  9
$DIMTOH
 70
     1
  9
$DIMSE1
 70
     0
  9
$DIMSE2
 70
     0
  9
$DIMTAD
 70
     1
  9
$DIMZIN
 70
     0
  9
$DIMBLK
  1

  9
$DIMASO
 70
     1
  9
$DIMSHO
 70
     1
  9
$DIMPOST
  1

  9
$DIMAPOST
  1

  9
$DIMALT
 70
     0
  9
$DIMALTD
 70
     3
  9
$DIMALTF
 40
0.0393700787
  9
$DIMLFAC
 40
10.0
  9
$DIMTOFL
 70
     1
  9
$DIMTVP
 40
0.0
  9
$DIMTIX
 70
     0
  9
$DIMSOXD
 70
     0
  9
$DIMSAH
 70
     0
  9
$DIMBLK1
  1

  9
$DIMBLK2
  1

  9
$DIMSTYLE
  2
ISO-25
  9
$DIMCLRD
 70
     0
  9
$DIMCLRE
 70
     0
  9
$DIMCLRT
 70
     0
  9
$DIMTFAC
 40
1.0
  9
$DIMGAP
 40
1.524
  9
$DIMJUST
 70
     0
  9
$DIMSD1
 70
     0
  9
$DIMSD2
 70
     0
  9
$DIMTOLJ
 70
     0
  9
$DIMTZIN
 70
     0
  9
$DIMALTZ
 70
     0
  9
$DIMALTTZ
 70
     0
  9
$DIMUPT
 70
     0
  9
$DIMDEC
 70
     3
  9
$DIMTDEC
 70
     3
  9
$DIMALTU
 70
     2
  9
$DIMALTTD
 70
     3
  9
$DIMTXSTY
  7
Standard
  9
$DIMAUNIT
 70
     0
  9
$DIMADEC
 70
     2
  9
$DIMALTRND
 40
0.0
  9
$DIMAZIN
 70
     0
  9
$DIMDSEP
 70
    44
  9
$DIMATFIT
 70
     3
  9
$DIMFRAC
 70
     0
  9
$DIMLDRBLK
  1

  9
$DIMLUNIT
 70
     2
  9
$DIMLWD
 70
    -2
  9
$DIMLWE
 70
    -2
  9
$DIMTMOVE
 70
     0
  9
$LUNITS
 70
     2
  9
$LUPREC
 70
     8
  9
$SKETCHINC
 40
1.0
  9
$FILLETRAD
 40
10.0
  9
$AUNITS
 70
     0
  9
$AUPREC
 70
     8
  9
$MENU
  1
.
  9
$ELEVATION
 40
0.0
  9
$PELEVATION
 40
0.0
  9
$THICKNESS
 40
0.0
  9
$LIMCHECK
 70
     0
  9
$CHAMFERA
 40
10.0
  9
$CHAMFERB
 40
10.0
  9
$CHAMFERC
 40
20.0
  9
$CHAMFERD
 40
0.0
  9
$SKPOLY
 70
     0
  9
$TDCREATE
 40
2455855.526361157
  9
$TDUCREATE
 40
2455855.484694491
  9
$TDUPDATE
 40
2455855.526361169
  9
$TDUUPDATE
 40
2455855.484694502
  9
$TDINDWG
 40
0.0000000116
  9
$TDUSRTIMER
 40
0.0000000116
  9
$USRTIMER
 70
     1
  9
$ANGBASE
 50
0.0
  9
$ANGDIR
 70
     0
  9
$PDMODE
 70
     0
  9
$PDSIZE
 40
-1.0
  9
$PLINEWID
 40
0.0
  9
$SPLFRAME
 70
     0
  9
$SPLINETYPE
 70
     6
  9
$SPLINESEGS
 70
     8
  9
$HANDSEED
  5
104
  9
$SURFTAB1
 70
     6
  9
$SURFTAB2
 70
     6
  9
$SURFTYPE
 70
     6
  9
$SURFU
 70
     6
  9
$SURFV
 70
     6
  9
$UCSBASE
  2

  9
$UCSNAME
  2

  9
$UCSORG
 10
0.0
 20
0.0
 30
0.0
  9
$UCSXDIR
 10
1.0
 20
0.0
 30
0.0
  9
$UCSYDIR
 10
0.0
 20
1.0
 30
0.0
  9
$UCSORTHOREF
  2

  9
$UCSORTHOVIEW
 70
     0
  9
$UCSORGTOP
 10
0.0
 20
0.0
 30
0.0
  9
$UCSORGBOTTOM
 10
0.0
 20
0.0
 30
0.0
  9
$UCSORGLEFT
 10
0.0
 20
0.0
 30
0.0
  9
$UCSORGRIGHT
 10
0.0
 20
0.0
 30
0.0
  9
$UCSORGFRONT
 10
0.0
 20
0.0
 30
0.0
  9
$UCSORGBACK
 10
0.0
 20
0.0
 30
0.0
  9
$PUCSBASE
  2

  9
$PUCSNAME
  2

  9
$PUCSORG
 10
0.0
 20
0.0
 30
0.0
  9
$PUCSXDIR
 10
1.0
 20
0.0
 30
0.0
  9
$PUCSYDIR
 10
0.0
 20
1.0
 30
0.0
  9
$PUCSORTHOREF
  2

  9
$PUCSORTHOVIEW
 70
     0
  9
$PUCSORGTOP
 10
0.0
 20
0.0
 30
0.0
  9
$PUCSORGBOTTOM
 10
0.0
 20
0.0
 30
0.0
  9
$PUCSORGLEFT
 10
0.0
 20
0.0
 30
0.0
  9
$PUCSORGRIGHT
 10
0.0
 20
0.0
 30
0.0
  9
$PUCSORGFRONT
 10
0.0
 20
0.0
 30
0.0
  9
$PUCSORGBACK
 10
0.0
 20
0.0
 30
0.0
  9
$USERI1
 70
     0
  9
$USERI2
 70
     0
  9
$USERI3
 70
     0
  9
$USERI4
 70
     0
  9
$USERI5
 70
     0
  9
$USERR1
 40
0.0
  9
$USERR2
 40
0.0
  9
$USERR3
 40
0.0
  9
$USERR4
 40
0.0
  9
$USERR5
 40
0.0
  9
$WORLDVIEW
 70
     1
  9
$SHADEDGE
 70
     3
  9
$SHADEDIF
 70
    70
  9
$TILEMODE
 70
     1
  9
$MAXACTVP
 70
    64
  9
$PINSBASE
 10
0.0
 20
0.0
 30
0.0
  9
$PLIMCHECK
 70
     0
  9
$PEXTMIN
 10
1.0000000000E+20
 20
1.0000000000E+20
 30
1.0000000000E+20
  9
$PEXTMAX
 10
-1.0000000000E+20
 20
-1.0000000000E+20
 30
-1.0000000000E+20
  9
$PLIMMIN
 10
0.0
 20
0.0
  9
$PLIMMAX
 10
420.0
 20
297.0
  9
$UNITMODE
 70
     0
  9
$VISRETAIN
 70
     1
  9
$PLINEGEN
 70
     0
  9
$PSLTSCALE
 70
     1
  9
$TREEDEPTH
 70
  3020
  9
$CMLSTYLE
  2
Standard
  9
$CMLJUST
 70
     0
  9
$CMLSCALE
 40
20.0
  9
$PROXYGRAPHICS
 70
     1
  9
$MEASUREMENT
 70
     1
  9
$CELWEIGHT
370
    -1
  9
$ENDCAPS
280
     0
  9
$JOINSTYLE
280
     0
  9
$LWDISPLAY
290
     1
  9
$INSUNITS
 70
     4
  9
$HYPERLINKBASE
  1

  9
$STYLESHEET
  1

  9
$XEDIT
290
     1
  9
$CEPSNTYPE
380
     0
  9
$PSTYLEMODE
290
     1
  9
$FINGERPRINTGUID
  2
{CAEB19B2-EACE-4092-A5F0-EF34797E7AEF}
  9
$VERSIONGUID
  2
{FAEB1C32-E019-11D5-929B-00C0DF256EC4}
  9
$EXTNAMES
290
     1
  9
$PSVPSCALE
 40
0.0
  9
$OLESTARTUP
290
     0
  0
ENDSEC
  0
SECTION
  2
CLASSES
  0
CLASS
  1
ACDBDICTIONARYWDFLT
  2
AcDbDictionaryWithDefault
  3
ObjectDBX Classes
 90
        0
280
     0
281
     0
  0
CLASS
  1
VISUALSTYLE
  2
AcDbVisualStyle
  3
ObjectDBX Classes
 90
     4095
280
     0
281
     0
  0
CLASS
  1
MATERIAL
  2
AcDbMaterial
  3
ObjectDBX Classes
 90
     1153
280
     0
281
     0
  0
CLASS
  1
ACDBPLACEHOLDER
  2
AcDbPlaceHolder
  3
ObjectDBX Classes
 90
        0
280
     0
281
     0
  0
CLASS
  1
LAYOUT
  2
AcDbLayout
  3
ObjectDBX Classes
 90
        0
280
     0
281
     0
  0
ENDSEC
  0
SECTION
  2
TABLES
  0
TABLE
  2
VPORT
  5
8
330
0
100
AcDbSymbolTable
 70
     1
  0
VPORT
  5
29
330
8
100
AcDbSymbolTableRecord
100
AcDbViewportTableRecord
  2
*Active
 70
     0
 10
0.0
 20
0.0
 11
1.0
 21
1.0
 12
210.0
 22
148.5
 13
0.0
 23
0.0
 14
10.0
 24
10.0
 15
10.0
 25
10.0
 16
0.0
 26
0.0
 36
1.0
 17
0.0
 27
0.0
 37
0.0
 40
297.0
 41
1.4141414141
 42
50.0
 43
0.0
 44
0.0
 50
0.0
 51
0.0
 71
     0
 72
  2000
 73
     1
 74
     3
 75
     0
 76
     0
 77
     0
 78
     0
281
     0
 65
     1
110
0.0
120
0.0
130
0.0
111
1.0
121
0.0
131
0.0
112
0.0
122
1.0
132
0.0
 79
     0
146
0.0
  0
ENDTAB
  0
TABLE
  2
LTYPE
  5
5
330
0
100
AcDbSymbolTable
 70
     6
  0
LTYPE
  5
14
330
5
100
AcDbSymbolTableRecord
100
AcDbLinetypeTableRecord
  2
ByBlock
 70
     0
  3

 72
    65
 73
     0
 40
0.0
  0
LTYPE
  5
15
330
5
100
AcDbSymbolTableRecord
100
AcDbLinetypeTableRecord
  2
ByLayer
 70
     0
  3

 72
    65
 73
     0
 40
0.0
  0
LTYPE
  5
16
330
5
100
AcDbSymbolTableRecord
100
AcDbLinetypeTableRecord
  2
Continuous
 70
     0
  3
Solid line
 72
    65
 73
     0
 40
0.0
  0
LTYPE
  5
3F
330
5
100
AcDbSymbolTableRecord
100
AcDbLinetypeTableRecord
  2
HIDDEN
 70
     0
  3
Hidden __ __ __ __ __ __ __ __ __ __ __ __ __ __
 72
    65
 73
     2
 40
1.905
 49
1.27
 74
     0
 49
-0.635
 74
     0
  0
LTYPE
  5
40
330
5
100
AcDbSymbolTableRecord
100
AcDbLinetypeTableRecord
  2
PHANTOM
 70
     0
  3
Phantom ______  __  __  ______  __  __  ______
 72
    65
 73
     6
 40
12.7
 49
6.35
 74
     0
 49
-1.27
 74
     0
 49
1.27
 74
     0
 49
-1.27
 74
     0
 49
1.27
 74
     0
 49
-1.27
 74
     0
  0
LTYPE
  5
41
330
5
100
AcDbSymbolTableRecord
100
AcDbLinetypeTableRecord
  2
CENTER
 70
     0
  3
Center ____ _ ____ _ ____ _ ____ _ ____ _ ____
 72
    65
 73
     4
 40
10.16
 49
6.35
 74
     0
 49
-1.27
 74
     0
 49
1.27
 74
     0
 49
-1.27
 74
     0
  0
LTYPE
  5
42
330
5
100
AcDbSymbolTableRecord
100
AcDbLinetypeTableRecord
  2
CENTERX2
 70
     0
  3
Center (2x) ________  __  ________  __  _____
 72
    65
 73
     4
 40
20.32
 49
12.7
 74
     0
 49
-2.54
 74
     0
 49
2.54
 74
     0
 49
-2.54
 74
     0
  0
LTYPE
  5
43
330
5
100
AcDbSymbolTableRecord
100
AcDbLinetypeTableRecord
  2
DOT2
 70
     0
  3
Dot (.5x) ........................................
 72
    65
 73
     2
 40
0.635
 49
0.0
 74
     0
 49
-0.635
 74
     0
  0
ENDTAB
  0
TABLE
  2
LAYER
  5
2
330
0
100
AcDbSymbolTable
 70
     4
  0
LAYER
  5
10
330
2
100
AcDbSymbolTableRecord
100
AcDbLayerTableRecord
  2
0
 70
     0
 62
     7
  6
Continuous
370
    -3
390
F
  0
LAYER
  5
44
330
2
100
AcDbSymbolTableRecord
100
AcDbLayerTableRecord
  2
FORMAT
 70
     0
 62
     7
  6
Continuous
370
    -3
390
F
  0
LAYER
  5
45
330
2
100
AcDbSymbolTableRecord
100
AcDbLayerTableRecord
  2
SLD-0
 70
     0
 62
     1
  6
Continuous
370
    -3
390
F
  0
LAYER
  5
46
330
2
100
AcDbSymbolTableRecord
100
AcDbLayerTableRecord
  2
WATERMARK
 70
     0
 62
    20
  6
Continuous
370
    -3
390
F
  0
ENDTAB
  0
TABLE
  2
STYLE
  5
3
330
0
100
AcDbSymbolTable
 70
     1
  0
STYLE
  5
11
330
3
100
AcDbSymbolTableRecord
100
AcDbTextStyleTableRecord
  2
Standard
 70
     0
 40
0.0
 41
1.0
 50
0.0
 71
     0
 42
2.5
  3
txt
  4

  0
ENDTAB
  0
TABLE
  2
VIEW
  5
6
330
0
100
AcDbSymbolTable
 70
     0
  0
ENDTAB
  0
TABLE
  2
UCS
  5
7
330
0
100
AcDbSymbolTable
 70
     0
  0
ENDTAB
  0
TABLE
  2
APPID
  5
9
330
0
100
AcDbSymbolTable
 70
     1
  0
APPID
  5
12
330
9
100
AcDbSymbolTableRecord
100
AcDbRegAppTableRecord
  2
ACAD
 70
     0
  0
ENDTAB
  0
TABLE
  2
DIMSTYLE
  5
A
330
0
100
AcDbSymbolTable
 70
     1
100
AcDbDimStyleTable
  0
DIMSTYLE
105
27
330
A
100
AcDbSymbolTableRecord
100
AcDbDimStyleTableRecord
  2
ISO-25
 70
     0
 41
2.5
 42
0.625
 43
3.75
 44
1.25
 73
     0
 74
     0
 77
     1
 78
     8
140
2.5
141
2.5
143
0.0393700787
147
0.625
171
     3
172
     1
178
     0
271
     2
272
     2
274
     3
278
    44
283
     0
284
     8
340
11
  0
ENDTAB
  0
TABLE
  2
BLOCK_RECORD
  5
1
330
0
100
AcDbSymbolTable
 70
     1
  0
BLOCK_RECORD
  5
1F
330
1
100
AcDbSymbolTableRecord
100
AcDbBlockTableRecord
  2
*Model_Space
340
22
  0
BLOCK_RECORD
  5
1B
330
1
100
AcDbSymbolTableRecord
100
AcDbBlockTableRecord
  2
*Paper_Space
340
1E
  0
BLOCK_RECORD
  5
23
330
1
100
AcDbSymbolTableRecord
100
AcDbBlockTableRecord
  2
*Paper_Space0
340
26
  0
ENDTAB
  0
ENDSEC
  0
SECTION
  2
BLOCKS
  0
BLOCK
  5
20
330
1F
100
AcDbEntity
  8
0
100
AcDbBlockBegin
  2
*Model_Space
 70
     0
 10
0.0
 20
0.0
 30
0.0
  3
*Model_Space
  1

  0
ENDBLK
  5
21
330
1F
100
AcDbEntity
  8
0
100
AcDbBlockEnd
  0
BLOCK
  5
1C
330
1B
100
AcDbEntity
 67
     1
  8
0
100
AcDbBlockBegin
  2
*Paper_Space
 70
     0
 10
0.0
 20
0.0
 30
0.0
  3
*Paper_Space
  1

  0
ENDBLK
  5
1D
330
1B
100
AcDbEntity
 67
     1
  8
0
100
AcDbBlockEnd
  0
BLOCK
  5
24
330
23
100
AcDbEntity
  8
0
100
AcDbBlockBegin
  2
*Paper_Space0
 70
     0
 10
0.0
 20
0.0
 30
0.0
  3
*Paper_Space0
  1

  0
ENDBLK
  5
25
330
23
100
AcDbEntity
  8
0
100
AcDbBlockEnd
  0
ENDSEC
  0
SECTION
  2
ENTITIES
  0
LINE
  5
47
330
1F
100
AcDbEntity
  8
0
  6
Continuous
 62
     7
370
    15
100
AcDbLine
 10
125.3809
 20
114.639809733
 30
0.0
 11
215.1409
 21
114.639809733
 31
0.0
  0
LINE
  5
48
330
1F
100
AcDbEntity
  8
0
  6
Continuous
 62
     7
370
    15
100
AcDbLine
 10
125.2599
 20
114.759809733
 30
0.0
 11
125.3799
 21
114.759809733
 31
0.0
  0
LINE
  5
49
330
1F
100
AcDbEntity
  8
0
  6
Continuous
 62
     7
370
    15
100
AcDbLine
 10
215.1419
 20
114.759809733
 30
0.0
 11
215.2619
 21
114.759809733
 31
0.0
  0
SPLINE
  5
4A
330
1F
100
AcDbEntity
  8
0
  6
Continuous
 62
     7
370
    15
100
AcDbSpline
210
0.0
220
0.0
230
1.0
 70
     8
 71
     3
 72
    13
 73
     9
 74
     0
 42
0.00000001
 43
0.00000001
 40
0.0
 40
0.0
 40
0.0
 40
0.0
 40
0.0634888169746848
 40
0.2470479163584492
 40
0.4311284030854705
 40
0.6187780680155618
 40
0.8315552682281706
 40
1.0
 40
1.0
 40
1.0
 40
1.0
 10
208.0738156561294
 20
192.4371793780143
 30
0.0
 10
208.0738628893126
 20
192.4361567717988
 30
0.0
 10
208.0740466832477
 20
192.4321776027607
 30
0.0
 10
208.0727121815535
 20
192.4254216584115
 30
0.0
 10
208.0701173870426
 20
192.4184117070544
 30
0.0
 10
208.0669205756762
 20
192.4137648907157
 30
0.0
 10
208.0646190472605
 20
192.4121622281623
 30
0.0
 10
208.0646932963377
 20
192.4122322859472
 30
0.0
 10
208.0647261036471
 20
192.4122632413141
 30
0.0
  0
ARC
  5
4B
330
1F
100
AcDbEntity
  8
0
  6
Continuous
 62
     7
370
    15
100
AcDbCircle
 10
208.0989951824
 20
192.947190267
 30
0.0
 40
0.0250000000000057
100
AcDbArc
 50
90.0
 51
180.0
  0
LINE
  5
4C
330
1F
100
AcDbEntity
  8
0
  6
Continuous
 62
     7
370
    15
100
AcDbLine
 10
208.0739951824
 20
192.947190267
 30
0.0
 11
208.0739951824
 21
192.437190267
 31
0.0
  0
ARC
  5
4D
330
1F
100
AcDbEntity
  8
0
  6
Continuous
 62
     7
370
    15
100
AcDbCircle
 10
208.6046645996
 20
192.947190267
 30
0.0
 40
0.0250000000000057
100
AcDbArc
 50
0.0
 51
90.0
  0
LINE
  5
4E
330
1F
100
AcDbEntity
  8
0
  6
Continuous
 62
     7
370
    15
100
AcDbLine
 10
208.6296645996
 20
192.437190267
 30
0.0
 11
208.6296645996
 21
192.947190267
 31
0.0
  0
ARC
  5
4F
330
1F
100
AcDbEntity
  8
0
  6
Continuous
 62
     7
370
    15
100
AcDbCircle
 10
208.6079
 20
192.387190267
 30
0.0
 40
0.0250000000000067
100
AcDbArc
 50
0.0
 51
52.7089330725
  0
ARC
  5
50
330
1F
100
AcDbEntity
  8
0
  6
Continuous
 62
     7
370
    15
100
AcDbCircle
 10
208.6079
 20
192.317190267
 30
0.0
 40
0.0250000000000057
100
AcDbArc
 50
270.0
 51
0.0
  0
LINE
  5
51
330
1F
100
AcDbEntity
  8
0
  6
Continuous
 62
     7
370
    15
100
AcDbLine
 10
208.6329
 20
192.317190267
 30
0.0
 11
208.6329
 21
192.387190267
 31
0.0
  0
LINE
  5
52
330
1F
100
AcDbEntity
  8
0
  6
Continuous
 62
     7
370
    15
100
AcDbLine
 10
206.8961354004
 20
192.947190267
 30
0.0
 11
206.8961354004
 21
192.5194907632
 31
0.0
  0
ARC
  5
53
330
1F
100
AcDbEntity
  8
0
  6
Continuous
 62
     7
370
    15
100
AcDbCircle
 10
206.9211354004
 20
192.947190267
 30
0.0
 40
0.0250000000000057
100
AcDbArc
 50
90.0
 51
180.0
  0
ARC
  5
54
330
1F
100
AcDbEntity
  8
0
  6
Continuous
 62
     7
370
    15
100
AcDbCircle
 10
208.6079
 20
192.507190267
 30
0.0
 40
0.0250000000000123
100
AcDbArc
 50
0.0
 51
29.4734267883
  0
LINE
  5
55
330
1F
100
AcDbEntity
  8
0
  6
Continuous
 62
     7
370
    15
100
AcDbLine
 10
208.6329
 20
192.437190267
 30
0.0
 11
208.6329
 21
192.507190267
 31
0.0
  0
SPLINE
  5
56
330
1F
100
AcDbEntity
  8
0
  6
Continuous
 62
     7
370
    15
100
AcDbSpline
210
0.0
220
0.0
230
1.0
 70
     8
 71
     3
 72
    13
 73
     9
 74
     0
 42
0.00000001
 43
0.00000001
 40
0.0
 40
0.0
 40
0.0
 40
0.0
 40
0.0546880530941905
 40
0.2134688124239497
 40
0.374577115233131
 40
0.5445034158387605
 40
0.7475374221155016
 40
1.0
 40
1.0
 40
1.0
 40
1.0
 10
207.3674725089129
 20
192.3871994735547
 30
0.0
 10
207.3674231131242
 20
192.3881578462963
 30
0.0
 10
207.367230302085
 20
192.3918987490976
 30
0.0
 10
207.3686337368968
 20
192.3982833223645
 30
0.0
 10
207.3713978113266
 20
192.4050224242623
 30
0.0
 10
207.3750884088839
 20
192.4097820258329
 30
0.0
 10
207.3785660991588
 20
192.4120694750805
 30
0.0
 10
207.3797491164075
 20
192.4121148690843
 30
0.0
 10
207.3804048130575
 20
192.4121400290693
 30
0.0
  0
LINE
  5
57
330
1F
100
AcDbEntity
  8
0
  6
Continuous
 62
     7
370
    15
100
AcDbLine
 10
207.367285025
 20
191.877190267
 30
0.0
 11
207.367285025
 21
192.387190267
 31
0.0
  0
ARC
  5
58
330
1F
100
AcDbEntity
  8
0
  6
Continuous
 62
     7
370
    15
100
AcDbCircle
 10
207.342285025
 20
191.877190267
 30
0.0
 40
0.0250000000000057
100
AcDbArc
 50
270.0
 51
0.0
  0
ARC
  5
59
330
1F
100
AcDbEntity
  8
0
  6
Continuous
 62
     7
370
    15
100
AcDbCircle
 10
206.8722879851
 20
191.877190267
 30
0.0
 40
0.0250000000000057
100
AcDbArc
 50
180.0
 51
270.0
  0
LINE
  5
5A
330
1F
100
AcDbEntity
  8
0
  6
Continuous
 62
     7
370
    15
100
AcDbLine
 10
206.8472879851
 20
192.387190267
 30
0.0
 11
206.8472879851
 21
191.877190267
 31
0.0
  0
ARC
  5
5B
330
1F
100
AcDbEntity
  8
0
  6
Continuous
 62
     7
370
    15
100
AcDbCircle
 10
206.9179
 20
192.507190267
 30
0.0
 40
0.0250000000000057
100
AcDbArc
 50
90.0
 51
180.0
  0
LINE
  5
5C
330
1F
100
AcDbEntity
  8
0
  6
Continuous
 62
     7
370
    15
100
AcDbLine
 10
208.6785120149
 20
191.877190267
 30
0.0
 11
208.6785120149
 21
192.387190267
 31
0.0
  0
ARC
  5
5D
330
1F
100
AcDbEntity
  8
0
  6
Continuous
 62
     7
370
    15
100
AcDbCircle
 10
208.6535120149
 20
191.877190267
 30
0.0
 40
0.0250000000000057
100
AcDbArc
 50
270.0
 51
0.0
  0
LINE
  5
5E
330
1F
100
AcDbEntity
  8
0
  6
Continuous
 62
     7
370
    15
100
AcDbLine
 10
208.3090691404
 20
193.0255345014
 30
0.0
 11
208.2629
 21
193.052190267
 31
0.0
  0
LINE
  5
5F
330
1F
100
AcDbEntity
  8
0
  6
Continuous
 62
     7
370
    15
100
AcDbLine
 10
207.2167308596
 20
192.5588460327
 30
0.0
 11
207.2629
 21
192.532190267
 31
0.0
  0
LINE
  5
60
330
1F
100
AcDbEntity
  8
0
  6
Continuous
 62
     7
370
    15
100
AcDbLine
 10
207.2629
 20
193.052190267
 30
0.0
 11
207.2167308596
 21
193.0255345014
 31
0.0
  0
LINE
  5
61
330
1F
100
AcDbEntity
  8
0
  6
Continuous
 62
     7
370
    15
100
AcDbLine
 10
207.2629
 20
191.747190267
 30
0.0
 11
207.253974885
 21
191.7420373495
 31
0.0
  0
LINE
  5
62
330
1F
100
AcDbEntity
  8
0
  6
Continuous
 62
     7
370
    15
100
AcDbLine
 10
207.2381618947
 20
191.7864728188
 30
0.0
 11
207.2629
 21
191.772190267
 31
0.0
  0
LINE
  5
63
330
1F
100
AcDbEntity
  8
0
  6
Continuous
 62
     7
370
    15
100
AcDbLine
 10
208.2629
 20
191.772190267
 30
0.0
 11
208.2876381053
 21
191.7864728188
 31
0.0
  0
LINE
  5
64
330
1F
100
AcDbEntity
  8
0
  6
Continuous
 62
     7
370
    15
100
AcDbLine
 10
208.2876381053
 20
192.2779077153
 30
0.0
 11
208.2629
 21
192.292190267
 31
0.0
  0
LINE
  5
65
330
1F
100
AcDbEntity
  8
0
  6
Continuous
 62
     7
370
    15
100
AcDbLine
 10
208.0629
 20
191.747190267
 30
0.0
 11
208.0629
 21
191.772190267
 31
0.0
  0
LINE
  5
66
330
1F
100
AcDbEntity
  8
0
  6
Continuous
 62
     7
370
    15
100
AcDbLine
 10
207.4629
 20
191.772190267
 30
0.0
 11
207.4629
 21
191.747190267
 31
0.0
  0
LINE
  5
67
330
1F
100
AcDbEntity
  8
0
  6
Continuous
 62
     7
370
    15
100
AcDbLine
 10
125.4659
 20
191.417190267
 30
0.0
 11
125.3409
 21
191.417190267
 31
0.0
  0
LINE
  5
68
330
1F
100
AcDbEntity
  8
0
  6
Continuous
 62
     7
370
    15
100
AcDbLine
 10
215.0559
 20
191.417190267
 30
0.0
 11
125.4659
 21
191.417190267
 31
0.0
  0
LINE
  5
69
330
1F
100
AcDbEntity
  8
0
  6
Continuous
 62
     7
370
    15
100
AcDbLine
 10
215.1809
 20
191.417190267
 30
0.0
 11
215.0559
 21
191.417190267
 31
0.0
  0
LINE
  5
6A
330
1F
100
AcDbEntity
  8
0
  6
Continuous
 62
     7
370
    15
100
AcDbLine
 10
215.1809
 20
191.417190267
 30
0.0
 11
215.1809
 21
191.1591323628
 31
0.0
  0
LINE
  5
6B
330
1F
100
AcDbEntity
  8
0
  6
Continuous
 62
     7
370
    15
100
AcDbLine
 10
125.3409
 20
191.417190267
 30
0.0
 11
125.3409
 21
191.1591323628
 31
0.0
  0
LINE
  5
6C
330
1F
100
AcDbEntity
  8
0
  6
Continuous
 62
     7
370
    15
100
AcDbLine
 10
215.1809
 20
191.1591323628
 30
0.0
 11
215.1809
 21
187.8294371307
 31
0.0
  0
LINE
  5
6D
330
1F
100
AcDbEntity
  8
0
  6
Continuous
 62
     7
370
    15
100
AcDbLine
 10
125.3409
 20
191.1591323628
 30
0.0
 11
125.3409
 21
187.8294371307
 31
0.0
  0
LINE
  5
6E
330
1F
100
AcDbEntity
  8
0
  6
Continuous
 62
     7
370
    15
100
AcDbLine
 10
215.2609
 20
191.1698378864
 30
0.0
 11
215.1809
 21
191.1698378864
 31
0.0
  0
LINE
  5
6F
330
1F
100
AcDbEntity
  8
0
  6
Continuous
 62
     7
370
    15
100
AcDbLine
 10
215.2609
 20
191.1698378864
 30
0.0
 11
215.2609
 21
187.8527308447
 31
0.0
  0
LINE
  5
70
330
1F
100
AcDbEntity
  8
0
  6
Continuous
 62
     7
370
    15
100
AcDbLine
 10
125.2609
 20
191.1698378864
 30
0.0
 11
125.2609
 21
187.8527308447
 31
0.0
  0
LINE
  5
71
330
1F
100
AcDbEntity
  8
0
  6
Continuous
 62
     7
370
    15
100
AcDbLine
 10
125.2609
 20
191.1698378864
 30
0.0
 11
125.3409
 21
191.1698378864
 31
0.0
  0
LINE
  5
72
330
1F
100
AcDbEntity
  8
0
  6
Continuous
 62
     7
370
    15
100
AcDbLine
 10
125.2609
 20
191.212190267
 30
0.0
 11
125.2609
 21
191.1698378864
 31
0.0
  0
ARC
  5
73
330
1F
100
AcDbEntity
  8
0
  6
Continuous
 62
     7
370
    15
100
AcDbCircle
 10
215.0559
 20
191.212190267
 30
0.0
 40
0.2050000000000123
100
AcDbArc
 50
0.0
 51
52.4281306803
  0
ARC
  5
74
330
1F
100
AcDbEntity
  8
0
  6
Continuous
 62
     7
370
    15
100
AcDbCircle
 10
125.4659
 20
191.212190267
 30
0.0
 40
0.2050000000000209
100
AcDbArc
 50
127.5718693197
 51
180.0
  0
LINE
  5
75
330
1F
100
AcDbEntity
  8
0
  6
Continuous
 62
     7
370
    15
100
AcDbLine
 10
215.2609
 20
191.212190267
 30
0.0
 11
215.2609
 21
191.1698378864
 31
0.0
  0
LINE
  5
76
330
1F
100
AcDbEntity
  8
0
  6
Continuous
 62
     7
370
    15
100
AcDbLine
 10
215.1809
 20
185.917190267
 30
0.0
 11
125.3409
 21
185.917190267
 31
0.0
  0
LINE
  5
77
330
1F
100
AcDbEntity
  8
0
  6
Continuous
 62
     7
370
    15
100
AcDbLine
 10
215.1809
 20
187.8294371307
 30
0.0
 11
215.1809
 21
185.917190267
 31
0.0
  0
LINE
  5
78
330
1F
100
AcDbEntity
  8
0
  6
Continuous
 62
     7
370
    15
100
AcDbLine
 10
125.3409
 20
187.8294371307
 30
0.0
 11
125.3409
 21
185.917190267
 31
0.0
  0
LINE
  5
79
330
1F
100
AcDbEntity
  8
0
  6
Continuous
 62
     7
370
    15
100
AcDbLine
 10
125.2609
 20
186.007190267
 30
0.0
 11
125.3409
 21
186.007190267
 31
0.0
  0
LINE
  5
7A
330
1F
100
AcDbEntity
  8
0
  6
Continuous
 62
     7
370
    15
100
AcDbLine
 10
125.2609
 20
187.8527308447
 30
0.0
 11
125.2609
 21
186.007190267
 31
0.0
  0
LINE
  5
7B
330
1F
100
AcDbEntity
  8
0
  6
Continuous
 62
     7
370
    15
100
AcDbLine
 10
215.2609
 20
186.007190267
 30
0.0
 11
215.1809
 21
186.007190267
 31
0.0
  0
LINE
  5
7C
330
1F
100
AcDbEntity
  8
0
  6
Continuous
 62
     7
370
    15
100
AcDbLine
 10
215.2609
 20
187.8527308447
 30
0.0
 11
215.2609
 21
186.007190267
 31
0.0
  0
LINE
  5
7D
330
1F
100
AcDbEntity
  8
0
  6
Continuous
 62
     7
370
    15
100
AcDbLine
 10
215.0209
 20
185.872190267
 30
0.0
 11
215.0169
 21
185.872190267
 31
0.0
  0
LINE
  5
7E
330
1F
100
AcDbEntity
  8
0
  6
Continuous
 62
     7
370
    15
100
AcDbLine
 10
125.5009
 20
185.872190267
 30
0.0
 11
125.5049
 21
185.872190267
 31
0.0
  0
LINE
  5
7F
330
1F
100
AcDbEntity
  8
0
  6
Continuous
 62
     7
370
    15
100
AcDbLine
 10
215.0209
 20
185.917190267
 30
0.0
 11
215.0209
 21
185.872190267
 31
0.0
  0
LINE
  5
80
330
1F
100
AcDbEntity
  8
0
  6
Continuous
 62
     7
370
    15
100
AcDbLine
 10
125.5009
 20
185.872190267
 30
0.0
 11
125.5009
 21
185.917190267
 31
0.0
  0
LINE
  5
81
330
1F
100
AcDbEntity
  8
0
  6
Continuous
 62
     7
370
    15
100
AcDbLine
 10
214.9569
 20
117.0489684938
 30
0.0
 11
215.0169
 21
117.0489684938
 31
0.0
  0
LINE
  5
82
330
1F
100
AcDbEntity
  8
0
  6
Continuous
 62
     7
370
    15
100
AcDbLine
 10
214.9569
 20
116.9889684938
 30
0.0
 11
214.9569
 21
117.0489684938
 31
0.0
  0
LINE
  5
83
330
1F
100
AcDbEntity
  8
0
  6
Continuous
 62
     7
370
    15
100
AcDbLine
 10
215.1409
 20
116.9889684938
 30
0.0
 11
214.9569
 21
116.9889684938
 31
0.0
  0
LINE
  5
84
330
1F
100
AcDbEntity
  8
0
  6
Continuous
 62
     7
370
    15
100
AcDbLine
 10
215.1409
 20
116.969809733
 30
0.0
 11
215.1409
 21
116.9889684938
 31
0.0
  0
LINE
  5
85
330
1F
100
AcDbEntity
  8
0
  6
Continuous
 62
     7
370
    15
100
AcDbLine
 10
125.3809
 20
116.969809733
 30
0.0
 11
125.3809
 21
116.9889684938
 31
0.0
  0
LINE
  5
86
330
1F
100
AcDbEntity
  8
0
  6
Continuous
 62
     7
370
    15
100
AcDbLine
 10
125.5649
 20
116.9889684938
 30
0.0
 11
125.3809
 21
116.9889684938
 31
0.0
  0
LINE
  5
87
330
1F
100
AcDbEntity
  8
0
  6
Continuous
 62
     7
370
    15
100
AcDbLine
 10
125.5649
 20
117.0489684938
 30
0.0
 11
125.5649
 21
116.9889684938
 31
0.0
  0
LINE
  5
88
330
1F
100
AcDbEntity
  8
0
  6
Continuous
 62
     7
370
    15
100
AcDbLine
 10
125.5049
 20
117.0489684938
 30
0.0
 11
125.5649
 21
117.0489684938
 31
0.0
  0
LINE
  5
89
330
1F
100
AcDbEntity
  8
0
  6
Continuous
 62
     7
370
    15
100
AcDbLine
 10
215.0209
 20
185.872190267
 30
0.0
 11
215.2619
 21
185.872190267
 31
0.0
  0
LINE
  5
8A
330
1F
100
AcDbEntity
  8
0
  6
Continuous
 62
     7
370
    15
100
AcDbLine
 10
215.2619
 20
185.872190267
 30
0.0
 11
215.2619
 21
116.2370921885
 31
0.0
  0
SPLINE
  5
8B
330
1F
100
AcDbEntity
  8
0
  6
Continuous
 62
     7
370
    15
100
AcDbSpline
210
0.0
220
0.0
230
1.0
 70
     8
 71
     3
 72
    11
 73
     7
 74
     0
 42
0.00000001
 43
0.00000001
 40
0.0
 40
0.0
 40
0.0
 40
0.0
 40
0.2708332923929823
 40
0.5189845831281455
 40
0.7564221509576624
 40
1.0
 40
1.0
 40
1.0
 40
1.0
 10
215.2618999999987
 20
116.2370921884666
 30
0.0
 10
215.2575915461836
 20
116.3104047413327
 30
0.0
 10
215.2493354670013
 20
116.4508899983375
 30
0.0
 10
215.1895555879211
 20
116.6555851766641
 30
0.0
 10
215.1099476306317
 20
116.8528849988046
 30
0.0
 10
215.0481787087505
 20
116.983053451278
 30
0.0
 10
215.0168999999987
 20
117.0489684938203
 30
0.0
  0
SPLINE
  5
8C
330
1F
100
AcDbEntity
  8
0
  6
Continuous
 62
     7
370
    15
100
AcDbSpline
210
0.0
220
0.0
230
1.0
 70
     8
 71
     3
 72
    11
 73
     7
 74
     0
 42
0.00000001
 43
0.00000001
 40
0.0
 40
0.0
 40
0.0
 40
0.0
 40
0.2708332923930094
 40
0.5189845831281469
 40
0.7564221509576284
 40
1.0
 40
1.0
 40
1.0
 40
1.0
 10
125.5048999999987
 20
117.0489684938203
 30
0.0
 10
125.470114491151
 20
116.9756559409542
 30
0.0
 10
125.4034567230135
 20
116.8351706839494
 30
0.0
 10
125.323562893371
 20
116.6304755056228
 30
0.0
 10
125.2702779702494
 20
116.4331756834823
 30
0.0
 10
125.263388638094
 20
116.3030072310089
 30
0.0
 10
125.2598999999987
 20
116.2370921884666
 30
0.0
  0
LINE
  5
8D
330
1F
100
AcDbEntity
  8
0
  6
Continuous
 62
     7
370
    15
100
AcDbLine
 10
125.2599
 20
116.2370921885
 30
0.0
 11
125.2599
 21
185.872190267
 31
0.0
  0
LINE
  5
8E
330
1F
100
AcDbEntity
  8
0
  6
Continuous
 62
     7
370
    15
100
AcDbLine
 10
125.2599
 20
185.872190267
 30
0.0
 11
125.5009
 21
185.872190267
 31
0.0
  0
LINE
  5
8F
330
1F
100
AcDbEntity
  8
0
  6
Continuous
 62
     7
370
    15
100
AcDbLine
 10
215.1409
 20
114.639809733
 30
0.0
 11
215.1409
 21
116.969809733
 31
0.0
  0
LINE
  5
90
330
1F
100
AcDbEntity
  8
0
  6
Continuous
 62
     7
370
    15
100
AcDbLine
 10
125.3809
 20
114.639809733
 30
0.0
 11
125.3809
 21
116.969809733
 31
0.0
  0
LINE
  5
91
330
1F
100
AcDbEntity
  8
0
  6
Continuous
 62
     7
370
    15
100
AcDbLine
 10
125.5049
 20
117.0489684938
 30
0.0
 11
125.4908969887
 21
116.9889684938
 31
0.0
  0
LINE
  5
92
330
1F
100
AcDbEntity
  8
0
  6
Continuous
 62
     7
370
    15
100
AcDbLine
 10
125.3809
 20
116.2627084269
 30
0.0
 11
125.3799
 21
116.2370921885
 31
0.0
  0
LINE
  5
93
330
1F
100
AcDbEntity
  8
0
  6
Continuous
 62
     7
370
    15
100
AcDbLine
 10
125.3799
 20
116.2370921885
 30
0.0
 11
125.2599
 21
116.2370921885
 31
0.0
  0
LINE
  5
94
330
1F
100
AcDbEntity
  8
0
  6
Continuous
 62
     7
370
    15
100
AcDbLine
 10
215.1419
 20
116.2370921885
 30
0.0
 11
215.2619
 21
116.2370921885
 31
0.0
  0
LINE
  5
95
330
1F
100
AcDbEntity
  8
0
  6
Continuous
 62
     7
370
    15
100
AcDbLine
 10
215.1419
 20
116.2370921885
 30
0.0
 11
215.1409
 21
116.2553663242
 31
0.0
  0
LINE
  5
96
330
1F
100
AcDbEntity
  8
0
  6
Continuous
 62
     7
370
    15
100
AcDbLine
 10
215.0311556956
 20
116.9889684938
 30
0.0
 11
215.0169
 21
117.0489684938
 31
0.0
  0
LINE
  5
97
330
1F
100
AcDbEntity
  8
0
  6
Continuous
 62
     7
370
    15
100
AcDbLine
 10
215.2619
 20
191.047190267
 30
0.0
 11
215.2609
 21
191.0693036114
 31
0.0
  0
LINE
  5
98
330
1F
100
AcDbEntity
  8
0
  6
Continuous
 62
     7
370
    15
100
AcDbLine
 10
215.1809
 20
185.922190267
 30
0.0
 11
215.2619
 21
185.922190267
 31
0.0
  0
LINE
  5
99
330
1F
100
AcDbEntity
  8
0
  6
Continuous
 62
     7
370
    15
100
AcDbLine
 10
215.2619
 20
191.047190267
 30
0.0
 11
215.2619
 21
185.922190267
 31
0.0
  0
LINE
  5
9A
330
1F
100
AcDbEntity
  8
0
  6
Continuous
 62
     7
370
    15
100
AcDbLine
 10
125.2599
 20
191.047190267
 30
0.0
 11
125.2599
 21
185.922190267
 31
0.0
  0
LINE
  5
9B
330
1F
100
AcDbEntity
  8
0
  6
Continuous
 62
     7
370
    15
100
AcDbLine
 10
125.3409
 20
185.922190267
 30
0.0
 11
125.2599
 21
185.922190267
 31
0.0
  0
LINE
  5
9C
330
1F
100
AcDbEntity
  8
0
  6
Continuous
 62
     7
370
    15
100
AcDbLine
 10
125.2609
 20
191.0693036114
 30
0.0
 11
125.2599
 21
191.047190267
 31
0.0
  0
LINE
  5
9D
330
1F
100
AcDbEntity
  8
0
  6
Continuous
 62
     7
370
    15
100
AcDbLine
 10
125.2599
 20
185.922190267
 30
0.0
 11
125.2599
 21
185.872190267
 31
0.0
  0
LINE
  5
9E
330
1F
100
AcDbEntity
  8
0
  6
Continuous
 62
     7
370
    15
100
AcDbLine
 10
125.3799
 20
185.917190267
 30
0.0
 11
125.3799
 21
185.872190267
 31
0.0
  0
LINE
  5
9F
330
1F
100
AcDbEntity
  8
0
  6
Continuous
 62
     7
370
    15
100
AcDbLine
 10
215.1419
 20
185.917190267
 30
0.0
 11
215.1419
 21
185.872190267
 31
0.0
  0
LINE
  5
A0
330
1F
100
AcDbEntity
  8
0
  6
Continuous
 62
     7
370
    15
100
AcDbLine
 10
215.2619
 20
185.922190267
 30
0.0
 11
215.2619
 21
185.872190267
 31
0.0
  0
LINE
  5
A1
330
1F
100
AcDbEntity
  8
0
  6
Continuous
 62
     7
370
    15
100
AcDbLine
 10
125.2599
 20
116.2370921885
 30
0.0
 11
125.2599
 21
114.759809733
 31
0.0
  0
LINE
  5
A2
330
1F
100
AcDbEntity
  8
0
  6
Continuous
 62
     7
370
    15
100
AcDbLine
 10
125.3799
 20
116.2370921885
 30
0.0
 11
125.3799
 21
114.759809733
 31
0.0
  0
LINE
  5
A3
330
1F
100
AcDbEntity
  8
0
  6
Continuous
 62
     7
370
    15
100
AcDbLine
 10
215.1419
 20
116.2370921885
 30
0.0
 11
215.1419
 21
114.759809733
 31
0.0
  0
LINE
  5
A4
330
1F
100
AcDbEntity
  8
0
  6
Continuous
 62
     7
370
    15
100
AcDbLine
 10
215.2619
 20
116.2370921885
 30
0.0
 11
215.2619
 21
114.759809733
 31
0.0
  0
SPLINE
  5
A5
330
1F
100
AcDbEntity
  8
0
  6
Continuous
 62
     7
370
    15
100
AcDbSpline
210
0.0
220
0.0
230
1.0
 70
     8
 71
     3
 72
    13
 73
     9
 74
     0
 42
0.00000001
 43
0.00000001
 40
0.0
 40
0.0
 40
0.0
 40
0.0
 40
0.1695411050601642
 40
0.3386458383076573
 40
0.5184804584268475
 40
0.7277236211490069
 40
0.9924537768857262
 40
1.0
 40
1.0
 40
1.0
 40
1.0
 10
208.0360005254627
 20
192.3871902670457
 30
0.0
 10
208.0360708058023
 20
192.3896513817743
 30
0.0
 10
208.036211185591
 20
192.3945672767142
 30
0.0
 10
208.0372749781601
 20
192.4011808560522
 30
0.0
 10
208.0388742445931
 20
192.4067480163627
 30
0.0
 10
208.0411618691009
 20
192.4110198942899
 30
0.0
 10
208.0430083290196
 20
192.4121784602512
 30
0.0
 10
208.0440375632835
 20
192.4121899486414
 30
0.0
 10
208.0440660888259
 20
192.4121902670457
 30
0.0
  0
LINE
  5
A6
330
1F
100
AcDbEntity
  8
0
  6
Continuous
 62
     7
370
    15
100
AcDbLine
 10
207.40181406
 20
192.412190267
 30
0.0
 11
208.0440660888
 21
192.412190267
 31
0.0
  0
SPLINE
  5
A7
330
1F
100
AcDbEntity
  8
0
  6
Continuous
 62
     7
370
    15
100
AcDbSpline
210
0.0
220
0.0
230
1.0
 70
     8
 71
     3
 72
    13
 73
     9
 74
     0
 42
0.00000001
 43
0.00000001
 40
0.0
 40
0.0
 40
0.0
 40
0.0
 40
0.0075462231142749
 40
0.2722763788514706
 40
0.4815195415733021
 40
0.6613541616925178
 40
0.8304588949398116
 40
1.0
 40
1.0
 40
1.0
 40
1.0
 10
208.0440660888259
 20
192.2921902670457
 30
0.0
 10
208.0440375632835
 20
192.2921905854499
 30
0.0
 10
208.0430083290195
 20
192.2922020738402
 30
0.0
 10
208.0411618691009
 20
192.2933606398015
 30
0.0
 10
208.0388742445931
 20
192.2976325177287
 30
0.0
 10
208.0372749781601
 20
192.3031996780391
 30
0.0
 10
208.036211185591
 20
192.3098132573772
 30
0.0
 10
208.0360708058023
 20
192.314729152317
 30
0.0
 10
208.0360005254627
 20
192.3171902670457
 30
0.0
  0
LINE
  5
A8
330
1F
100
AcDbEntity
  8
0
  6
Continuous
 62
     7
370
    15
100
AcDbLine
 10
208.0440660888
 20
192.292190267
 30
0.0
 11
207.367285025
 21
192.292190267
 31
0.0
  0
LINE
  5
A9
330
1F
100
AcDbEntity
  8
0
  6
Continuous
 62
     7
370
    15
100
AcDbLine
 10
208.0360005255
 20
192.387190267
 30
0.0
 11
208.0360005255
 21
192.317190267
 31
0.0
  0
SPLINE
  5
AA
330
1F
100
AcDbEntity
  8
0
  6
Continuous
 62
     7
370
    15
100
AcDbSpline
210
0.0
220
0.0
230
1.0
 70
     8
 71
     3
 72
    12
 73
     8
 74
     0
 42
0.00000001
 43
0.00000001
 40
0.0
 40
0.0
 40
0.0
 40
0.0
 40
0.2289440738516916
 40
0.4594214300241397
 40
0.6825355698158138
 40
0.8947175231628265
 40
1.0
 40
1.0
 40
1.0
 40
1.0
 10
208.5228127368784
 20
192.2921902670457
 30
0.0
 10
208.5349938283149
 20
192.2939237155034
 30
0.0
 10
208.5594375902905
 20
192.2974022216553
 30
0.0
 10
208.5914315664298
 20
192.3247892062366
 30
0.0
 10
208.6143762154793
 20
192.3644928596848
 30
0.0
 10
208.6246508364164
 20
192.4045804586202
 30
0.0
 10
208.6255246697419
 20
192.4290689979289
 30
0.0
 10
208.6258144638987
 20
192.4371902670457
 30
0.0
  0
LINE
  5
AB
330
1F
100
AcDbEntity
  8
0
  6
Continuous
 62
     7
370
    15
100
AcDbLine
 10
208.5228127369
 20
192.292190267
 30
0.0
 11
208.0647412145
 21
192.292190267
 31
0.0
  0
LINE
  5
AC
330
1F
100
AcDbEntity
  8
0
  6
Continuous
 62
     7
370
    15
100
AcDbLine
 10
208.1465930772
 20
192.972190267
 30
0.0
 11
208.6046645996
 21
192.972190267
 31
0.0
  0
LINE
  5
AD
330
1F
100
AcDbEntity
  8
0
  6
Continuous
 62
     7
370
    15
100
AcDbLine
 10
208.0989951824
 20
192.972190267
 30
0.0
 11
208.1465930772
 21
192.972190267
 31
0.0
  0
LINE
  5
AE
330
1F
100
AcDbEntity
  8
0
  6
Continuous
 62
     7
370
    15
100
AcDbLine
 10
208.0647412145
 20
192.292190267
 30
0.0
 11
208.0440660888
 21
192.292190267
 31
0.0
  0
LINE
  5
AF
330
1F
100
AcDbEntity
  8
0
  6
Continuous
 62
     7
370
    15
100
AcDbLine
 10
208.0440660888
 20
192.412190267
 30
0.0
 11
208.0647412145
 21
192.412190267
 31
0.0
  0
LINE
  5
B0
330
1F
100
AcDbEntity
  8
0
  6
Continuous
 62
     7
370
    15
100
AcDbLine
 10
208.6258144639
 20
192.437190267
 30
0.0
 11
208.6296645996
 21
192.437190267
 31
0.0
  0
LINE
  5
B1
330
1F
100
AcDbEntity
  8
0
  6
Continuous
 62
     7
370
    15
100
AcDbLine
 10
208.6079
 20
192.292190267
 30
0.0
 11
208.5228127369
 21
192.292190267
 31
0.0
  0
ARC
  5
B2
330
1F
100
AcDbEntity
  8
0
  6
Continuous
 62
     7
370
    15
100
AcDbCircle
 10
206.9668196436
 20
192.9488332491
 30
0.0
 40
0.0234352800129804
100
AcDbArc
 50
355.9798550466
 51
85.316190911
  0
LINE
  5
B3
330
1F
100
AcDbEntity
  8
0
  6
Continuous
 62
     7
370
    15
100
AcDbLine
 10
206.9687332952
 20
192.972190267
 30
0.0
 11
207.1899211964
 21
192.972190267
 31
0.0
  0
LINE
  5
B4
330
1F
100
AcDbEntity
  8
0
  6
Continuous
 62
     7
370
    15
100
AcDbLine
 10
206.9211354004
 20
192.972190267
 30
0.0
 11
206.9687332952
 21
192.972190267
 31
0.0
  0
SPLINE
  5
B5
330
1F
100
AcDbEntity
  8
0
  6
Continuous
 62
     7
370
    15
100
AcDbSpline
210
0.0
220
0.0
230
1.0
 70
     8
 71
     3
 72
    13
 73
     9
 74
     0
 42
0.00000001
 43
0.00000001
 40
0.0
 40
0.0
 40
0.0
 40
0.0
 40
0.0075462231143686
 40
0.2722763788516728
 40
0.4815195415733538
 40
0.661354161692667
 40
0.830458894939752
 40
1.0
 40
1.0
 40
1.0
 40
1.0
 10
207.4034336533176
 20
192.4121902670457
 30
0.0
 10
207.4034515109132
 20
192.4121905854499
 30
0.0
 10
207.4040958334318
 20
192.4122020738402
 30
0.0
 10
207.4052573292751
 20
192.4133606398015
 30
0.0
 10
207.4067070807529
 20
192.4176325177287
 30
0.0
 10
207.4077256499141
 20
192.4231996780391
 30
0.0
 10
207.4084055641268
 20
192.4298132573772
 30
0.0
 10
207.4084954465534
 20
192.434729152317
 30
0.0
 10
207.4085404456771
 20
192.4371902670457
 30
0.0
  0
LINE
  5
B6
330
1F
100
AcDbEntity
  8
0
  6
Continuous
 62
     7
370
    15
100
AcDbLine
 10
208.0452241467
 20
192.412190267
 30
0.0
 11
207.4034336533
 21
192.412190267
 31
0.0
  0
SPLINE
  5
B7
330
1F
100
AcDbEntity
  8
0
  6
Continuous
 62
     7
370
    15
100
AcDbSpline
210
0.0
220
0.0
230
1.0
 70
     8
 71
     3
 72
    13
 73
     9
 74
     0
 42
0.00000001
 43
0.00000001
 40
0.0
 40
0.0
 40
0.0
 40
0.0
 40
0.1695411050601153
 40
0.338645838307597
 40
0.5184804584268385
 40
0.7277236211484359
 40
0.9924537768856344
 40
1.0
 40
1.0
 40
1.0
 40
1.0
 10
207.4085404456771
 20
192.5071902670457
 30
0.0
 10
207.4084954465534
 20
192.5096513817743
 30
0.0
 10
207.4084055641268
 20
192.5145672767142
 30
0.0
 10
207.4077256499141
 20
192.5211808560522
 30
0.0
 10
207.4067070807529
 20
192.5267480163627
 30
0.0
 10
207.4052573292752
 20
192.5310198942899
 30
0.0
 10
207.4040958334317
 20
192.5321784602511
 30
0.0
 10
207.4034515109132
 20
192.5321899486414
 30
0.0
 10
207.4034336533176
 20
192.5321902670457
 30
0.0
  0
LINE
  5
B8
330
1F
100
AcDbEntity
  8
0
  6
Continuous
 62
     7
370
    15
100
AcDbLine
 10
207.4034336533
 20
192.532190267
 30
0.0
 11
208.0629
 21
192.532190267
 31
0.0
  0
LINE
  5
B9
330
1F
100
AcDbEntity
  8
0
  6
Continuous
 62
     7
370
    15
100
AcDbLine
 10
207.4085404457
 20
192.437190267
 30
0.0
 11
207.4085404457
 21
192.507190267
 31
0.0
  0
SPLINE
  5
BA
330
1F
100
AcDbEntity
  8
0
  6
Continuous
 62
     7
370
    15
100
AcDbSpline
210
0.0
220
0.0
230
1.0
 70
     8
 71
     3
 72
    12
 73
     8
 74
     0
 42
0.00000001
 43
0.00000001
 40
0.0
 40
0.0
 40
0.0
 40
0.0
 40
0.2289440738516288
 40
0.4594214300241489
 40
0.6825355698157503
 40
0.8947175231628894
 40
0.9999999999999999
 40
0.9999999999999999
 40
0.9999999999999999
 40
0.9999999999999999
 10
206.9634078053094
 20
192.5321902670456
 30
0.0
 10
206.9499986036474
 20
192.5304568185879
 30
0.0
 10
206.9230903963312
 20
192.526978312436
 30
0.0
 10
206.887829690787
 20
192.4995913278548
 30
0.0
 10
206.8625287339204
 20
192.4598876744065
 30
0.0
 10
206.8511944494337
 20
192.4198000754712
 30
0.0
 10
206.8502304839757
 20
192.3953115361625
 30
0.0
 10
206.8499107988036
 20
192.3871902670457
 30
0.0
  0
LINE
  5
BB
330
1F
100
AcDbEntity
  8
0
  6
Continuous
 62
     7
370
    15
100
AcDbLine
 10
206.9634078053
 20
192.532190267
 30
0.0
 11
207.3804175158
 21
192.532190267
 31
0.0
  0
LINE
  5
BC
330
1F
100
AcDbEntity
  8
0
  6
Continuous
 62
     7
370
    15
100
AcDbLine
 10
207.2892976956
 20
191.852190267
 30
0.0
 11
206.8722879851
 21
191.852190267
 31
0.0
  0
LINE
  5
BD
330
1F
100
AcDbEntity
  8
0
  6
Continuous
 62
     7
370
    15
100
AcDbLine
 10
207.342285025
 20
191.852190267
 30
0.0
 11
207.2892976956
 21
191.852190267
 31
0.0
  0
LINE
  5
BE
330
1F
100
AcDbEntity
  8
0
  6
Continuous
 62
     7
370
    15
100
AcDbLine
 10
207.3804175158
 20
192.532190267
 30
0.0
 11
207.4034336533
 21
192.532190267
 31
0.0
  0
LINE
  5
BF
330
1F
100
AcDbEntity
  8
0
  6
Continuous
 62
     7
370
    15
100
AcDbLine
 10
207.4034336533
 20
192.412190267
 30
0.0
 11
207.3804175158
 21
192.412190267
 31
0.0
  0
LINE
  5
C0
330
1F
100
AcDbEntity
  8
0
  6
Continuous
 62
     7
370
    15
100
AcDbLine
 10
206.8499107988
 20
192.387190267
 30
0.0
 11
206.8472879851
 21
192.387190267
 31
0.0
  0
LINE
  5
C1
330
1F
100
AcDbEntity
  8
0
  6
Continuous
 62
     7
370
    15
100
AcDbLine
 10
206.9179
 20
192.532190267
 30
0.0
 11
206.9634078053
 21
192.532190267
 31
0.0
  0
SPLINE
  5
C2
330
1F
100
AcDbEntity
  8
0
  6
Continuous
 62
     7
370
    15
100
AcDbSpline
210
0.0
220
0.0
230
1.0
 70
     8
 71
     3
 72
    11
 73
     7
 74
     0
 42
0.00000001
 43
0.00000001
 40
0.0
 40
0.0
 40
0.0
 40
0.0
 40
0.0449088511993481
 40
0.4391056468599892
 40
0.8139875175675518
 40
1.0
 40
1.0
 40
1.0
 40
1.0
 10
208.6329000000007
 20
192.4999076895157
 30
0.0
 10
208.634198020938
 20
192.4989682388016
 30
0.0
 10
208.6468896910225
 20
192.4897825637616
 30
0.0
 10
208.6628039125958
 20
192.4588838158656
 30
0.0
 10
208.6746558645067
 20
192.4199081480092
 30
0.0
 10
208.6755820463981
 20
192.3953384509531
 30
0.0
 10
208.6758892011979
 20
192.3871902670457
 30
0.0
  0
ARC
  5
C3
330
1F
100
AcDbEntity
  8
0
  6
Continuous
 62
     7
370
    15
100
AcDbCircle
 10
208.6017670167
 20
191.8760652861
 30
0.0
 40
0.0239073194568797
100
AcDbArc
 50
177.3028984186
 51
267.0213133888
  0
LINE
  5
C4
330
1F
100
AcDbEntity
  8
0
  6
Continuous
 62
     7
370
    15
100
AcDbLine
 10
208.6535120149
 20
191.852190267
 30
0.0
 11
208.6005246854
 21
191.852190267
 31
0.0
  0
LINE
  5
C5
330
1F
100
AcDbEntity
  8
0
  6
Continuous
 62
     7
370
    15
100
AcDbLine
 10
208.6005246854
 20
191.852190267
 30
0.0
 11
208.3269185257
 21
191.852190267
 31
0.0
  0
LINE
  5
C6
330
1F
100
AcDbEntity
  8
0
  6
Continuous
 62
     7
370
    15
100
AcDbLine
 10
207.9879771235
 20
192.5768484658
 30
0.0
 11
207.7014877216
 21
192.532190267
 31
0.0
  0
SPLINE
  5
C7
330
1F
100
AcDbEntity
  8
0
  6
Continuous
 62
     7
370
    15
100
AcDbSpline
210
0.0
220
0.0
230
1.0
 70
     8
 71
     3
 72
     9
 73
     5
 74
     0
 42
0.00000001
 43
0.00000001
 40
0.0
 40
0.0
 40
0.0
 40
0.0
 40
0.070200576703604
 40
0.9999999999999999
 40
0.9999999999999999
 40
0.9999999999999999
 40
0.9999999999999999
 10
207.7014877216382
 20
192.5321902670457
 30
0.0
 10
207.694696227675
 20
192.5322348786724
 30
0.0
 10
207.5979520941922
 20
192.5328703667104
 30
0.0
 10
207.503147539809
 20
192.5556593149
 30
0.0
 10
207.4149983198178
 20
192.5768484657842
 30
0.0
  0
LINE
  5
C8
330
1F
100
AcDbEntity
  8
0
  6
Continuous
 62
     7
370
    15
100
AcDbLine
 10
207.4149983198
 20
192.5768484658
 30
0.0
 11
207.4149983198
 21
193.0075320683
 31
0.0
  0
SPLINE
  5
C9
330
1F
100
AcDbEntity
  8
0
  6
Continuous
 62
     7
370
    15
100
AcDbSpline
210
0.0
220
0.0
230
1.0
 70
     8
 71
     3
 72
     9
 73
     5
 74
     0
 42
0.00000001
 43
0.00000001
 40
0.0
 40
0.0
 40
0.0
 40
0.0
 40
0.0702005767034982
 40
1.0
 40
1.0
 40
1.0
 40
1.0
 10
207.7014877216382
 20
193.0521902670457
 30
0.0
 10
207.694696227675
 20
193.0521456554189
 30
0.0
 10
207.5979520941922
 20
193.0515101673809
 30
0.0
 10
207.5031475398091
 20
193.0287212191913
 30
0.0
 10
207.4149983198178
 20
193.0075320683071
 30
0.0
  0
LINE
  5
CA
330
1F
100
AcDbEntity
  8
0
  6
Continuous
 62
     7
370
    15
100
AcDbLine
 10
207.9879771235
 20
193.0075320683
 30
0.0
 11
207.7014877216
 21
193.052190267
 31
0.0
  0
LINE
  5
CB
330
1F
100
AcDbEntity
  8
0
  6
Continuous
 62
     7
370
    15
100
AcDbLine
 10
207.9879771235
 20
192.5768484658
 30
0.0
 11
207.9879771235
 21
193.0075320683
 31
0.0
  0
LINE
  5
CC
330
1F
100
AcDbEntity
  8
0
  6
Continuous
 62
     7
370
    15
100
AcDbLine
 10
208.0739951824
 20
192.5489144414
 30
0.0
 11
207.9879771235
 21
192.5768484658
 31
0.0
  0
SPLINE
  5
CD
330
1F
100
AcDbEntity
  8
0
  6
Continuous
 62
     7
370
    15
100
AcDbSpline
210
0.0
220
0.0
230
1.0
 70
     8
 71
     3
 72
     9
 73
     5
 74
     0
 42
0.00000001
 43
0.00000001
 40
0.0
 40
0.0
 40
0.0
 40
0.0
 40
0.2686336050554209
 40
1.0
 40
1.0
 40
1.0
 40
1.0
 10
208.1619279635501
 20
193.0521902670457
 30
0.0
 10
208.1461109647213
 20
193.0515273717872
 30
0.0
 10
208.0872315150505
 20
193.0490597160436
 30
0.0
 10
208.0299043127427
 20
193.0250742396836
 30
0.0
 10
207.9879771234586
 20
193.0075320683072
 30
0.0
  0
LINE
  5
CE
330
1F
100
AcDbEntity
  8
0
  6
Continuous
 62
     7
370
    15
100
AcDbLine
 10
207.7014877216
 20
193.052190267
 30
0.0
 11
208.1619279636
 21
193.052190267
 31
0.0
  0
LINE
  5
CF
330
1F
100
AcDbEntity
  8
0
  6
Continuous
 62
     7
370
    15
100
AcDbLine
 10
207.4149983198
 20
192.5768484658
 30
0.0
 11
207.3024597581
 21
192.532190267
 31
0.0
  0
LINE
  5
D0
330
1F
100
AcDbEntity
  8
0
  6
Continuous
 62
     7
370
    15
100
AcDbLine
 10
207.4149983198
 20
193.0075320683
 30
0.0
 11
207.3024597581
 21
193.052190267
 31
0.0
  0
LINE
  5
D1
330
1F
100
AcDbEntity
  8
0
  6
Continuous
 62
     7
370
    15
100
AcDbLine
 10
207.3024597581
 20
193.052190267
 30
0.0
 11
207.7014877216
 21
193.052190267
 31
0.0
  0
SPLINE
  5
D2
330
1F
100
AcDbEntity
  8
0
  6
Continuous
 62
     7
370
    15
100
AcDbSpline
210
0.0
220
0.0
230
1.0
 70
     8
 71
     3
 72
     9
 73
     5
 74
     0
 42
0.00000001
 43
0.00000001
 40
0.0
 40
0.0
 40
0.0
 40
0.0
 40
0.2575513451038758
 40
1.0
 40
1.0
 40
1.0
 40
1.0
 10
208.3358788036417
 20
193.0075320683071
 30
0.0
 10
208.3212753283891
 20
193.0142735905847
 30
0.0
 10
208.2645741092719
 20
193.040449040279
 30
0.0
 10
208.2056649727339
 20
193.0471873890583
 30
0.0
 10
208.1619279635501
 20
193.0521902670457
 30
0.0
  0
LINE
  5
D3
330
1F
100
AcDbEntity
  8
0
  6
Continuous
 62
     7
370
    15
100
AcDbLine
 10
208.3358788036
 20
192.972190267
 30
0.0
 11
208.3358788036
 21
193.0075320683
 31
0.0
  0
LINE
  5
D4
330
1F
100
AcDbEntity
  8
0
  6
Continuous
 62
     7
370
    15
100
AcDbLine
 10
207.2197962828
 20
192.5641555014
 30
0.0
 11
207.1899211964
 21
192.5768484658
 31
0.0
  0
LINE
  5
D5
330
1F
100
AcDbEntity
  8
0
  6
Continuous
 62
     7
370
    15
100
AcDbLine
 10
207.1899211964
 20
192.5768484658
 30
0.0
 11
207.1899211964
 21
193.0075320683
 31
0.0
  0
SPLINE
  5
D6
330
1F
100
AcDbEntity
  8
0
  6
Continuous
 62
     7
370
    15
100
AcDbSpline
210
0.0
220
0.0
230
1.0
 70
     8
 71
     3
 72
     9
 73
     5
 74
     0
 42
0.00000001
 43
0.00000001
 40
0.0
 40
0.0
 40
0.0
 40
0.0
 40
0.070200576703563
 40
1.0
 40
1.0
 40
1.0
 40
1.0
 10
207.3024597580888
 20
193.0521902670457
 30
0.0
 10
207.2997919282921
 20
193.0521456554189
 30
0.0
 10
207.2617889670353
 20
193.0515101673809
 30
0.0
 10
207.224547909852
 20
193.0287212191913
 30
0.0
 10
207.1899211963599
 20
193.0075320683072
 30
0.0
  0
LINE
  5
D7
330
1F
100
AcDbEntity
  8
0
  6
Continuous
 62
     7
370
    15
100
AcDbLine
 10
208.3060037172
 20
193.0202250327
 30
0.0
 11
208.3358788036
 21
193.0075320683
 31
0.0
  0
LINE
  5
D8
330
1F
100
AcDbEntity
  8
0
  6
Continuous
 62
     7
370
    15
100
AcDbLine
 10
208.1619279636
 20
193.052190267
 30
0.0
 11
208.2629
 21
193.052190267
 31
0.0
  0
LINE
  5
D9
330
1F
100
AcDbEntity
  8
0
  6
Continuous
 62
     7
370
    15
100
AcDbLine
 10
207.2629
 20
193.052190267
 30
0.0
 11
207.3024597581
 21
193.052190267
 31
0.0
  0
LINE
  5
DA
330
1F
100
AcDbEntity
  8
0
  6
Continuous
 62
     7
370
    15
100
AcDbLine
 10
207.3254945642
 20
191.417190267
 30
0.0
 11
207.3254945642
 21
191.7025320683
 31
0.0
  0
SPLINE
  5
DB
330
1F
100
AcDbEntity
  8
0
  6
Continuous
 62
     7
370
    15
100
AcDbSpline
210
0.0
220
0.0
230
1.0
 70
     8
 71
     3
 72
     9
 73
     5
 74
     0
 42
0.00000001
 43
0.00000001
 40
0.0
 40
0.0
 40
0.0
 40
0.0
 40
0.0702005767035596
 40
1.0
 40
1.0
 40
1.0
 40
1.0
 10
207.5980232526892
 20
191.7471902670457
 30
0.0
 10
207.591562710236
 20
191.7471456554189
 30
0.0
 10
207.4995329469975
 20
191.7465101673809
 30
0.0
 10
207.4093482465954
 20
191.7237212191913
 30
0.0
 10
207.3254945641713
 20
191.7025320683072
 30
0.0
  0
LINE
  5
DC
330
1F
100
AcDbEntity
  8
0
  6
Continuous
 62
     7
370
    15
100
AcDbLine
 10
207.8705519412
 20
191.7025320683
 30
0.0
 11
207.5980232527
 21
191.747190267
 31
0.0
  0
LINE
  5
DD
330
1F
100
AcDbEntity
  8
0
  6
Continuous
 62
     7
370
    15
100
AcDbLine
 10
207.8705519412
 20
191.417190267
 30
0.0
 11
207.8705519412
 21
191.7025320683
 31
0.0
  0
SPLINE
  5
DE
330
1F
100
AcDbEntity
  8
0
  6
Continuous
 62
     7
370
    15
100
AcDbSpline
210
0.0
220
0.0
230
1.0
 70
     8
 71
     3
 72
     9
 73
     5
 74
     0
 42
0.00000001
 43
0.00000001
 40
0.0
 40
0.0
 40
0.0
 40
0.0
 40
0.0702005767035036
 40
1.0
 40
1.0
 40
1.0
 40
1.0
 10
208.089254659122
 20
191.7471902670457
 30
0.0
 10
208.084070110657
 20
191.7471456554189
 30
0.0
 10
208.0102167506355
 20
191.7465101673809
 30
0.0
 10
207.9378440430151
 20
191.7237212191913
 30
0.0
 10
207.8705519412072
 20
191.7025320683072
 30
0.0
  0
LINE
  5
DF
330
1F
100
AcDbEntity
  8
0
  6
Continuous
 62
     7
370
    15
100
AcDbLine
 10
207.5980232527
 20
191.747190267
 30
0.0
 11
208.0892546591
 21
191.747190267
 31
0.0
  0
LINE
  5
E0
330
1F
100
AcDbEntity
  8
0
  6
Continuous
 62
     7
370
    15
100
AcDbLine
 10
208.307957377
 20
191.7025320683
 30
0.0
 11
208.0892546591
 21
191.747190267
 31
0.0
  0
LINE
  5
E1
330
1F
100
AcDbEntity
  8
0
  6
Continuous
 62
     7
370
    15
100
AcDbLine
 10
208.307957377
 20
191.417190267
 30
0.0
 11
208.307957377
 21
191.7025320683
 31
0.0
  0
SPLINE
  5
E2
330
1F
100
AcDbEntity
  8
0
  6
Continuous
 62
     7
370
    15
100
AcDbSpline
210
0.0
220
0.0
230
1.0
 70
     8
 71
     3
 72
     9
 73
     5
 74
     0
 42
0.00000001
 43
0.00000001
 40
0.0
 40
0.0
 40
0.0
 40
0.0
 40
0.2686336050556525
 40
1.0
 40
1.0
 40
1.0
 40
1.0
 10
207.2716685935681
 20
191.7471902670457
 30
0.0
 10
207.2765628804456
 20
191.7465273717872
 30
0.0
 10
207.2947820711403
 20
191.7440597160436
 30
0.0
 10
207.3125209467016
 20
191.7200742396836
 30
0.0
 10
207.3254945641713
 20
191.7025320683072
 30
0.0
  0
LINE
  5
E3
330
1F
100
AcDbEntity
  8
0
  6
Continuous
 62
     7
370
    15
100
AcDbLine
 10
207.2716685936
 20
191.747190267
 30
0.0
 11
207.5980232527
 21
191.747190267
 31
0.0
  0
SPLINE
  5
E4
330
1F
100
AcDbEntity
  8
0
  6
Continuous
 62
     7
370
    15
100
AcDbSpline
210
0.0
220
0.0
230
1.0
 70
     8
 71
     3
 72
     9
 73
     5
 74
     0
 42
0.00000001
 43
0.00000001
 40
0.0
 40
0.0
 40
0.0
 40
0.0
 40
0.2686336050554212
 40
1.0
 40
1.0
 40
1.0
 40
1.0
 10
208.2541314064336
 20
191.7471902670457
 30
0.0
 10
208.2590256933111
 20
191.7465273717872
 30
0.0
 10
208.2772448840059
 20
191.7440597160436
 30
0.0
 10
208.2949837595671
 20
191.7200742396836
 30
0.0
 10
208.3079573770367
 20
191.7025320683071
 30
0.0
  0
LINE
  5
E5
330
1F
100
AcDbEntity
  8
0
  6
Continuous
 62
     7
370
    15
100
AcDbLine
 10
208.0892546591
 20
191.747190267
 30
0.0
 11
208.2620977213
 21
191.747190267
 31
0.0
  0
LINE
  5
E6
330
1F
100
AcDbEntity
  8
0
  6
Continuous
 62
     7
370
    15
100
AcDbLine
 10
207.217842623
 20
191.417190267
 30
0.0
 11
207.217842623
 21
191.7025320683
 31
0.0
  0
SPLINE
  5
E7
330
1F
100
AcDbEntity
  8
0
  6
Continuous
 62
     7
370
    15
100
AcDbSpline
210
0.0
220
0.0
230
1.0
 70
     8
 71
     3
 72
     9
 73
     5
 74
     0
 42
0.00000001
 43
0.00000001
 40
0.0
 40
0.0
 40
0.0
 40
0.0
 40
0.2575513451038488
 40
1.0
 40
1.0
 40
1.0
 40
1.0
 10
207.2178426229649
 20
191.7025320683072
 30
0.0
 10
207.2223614067158
 20
191.7092735905846
 30
0.0
 10
207.2399065829953
 20
191.7354490402791
 30
0.0
 10
207.258134959759
 20
191.7421873890583
 30
0.0
 10
207.2716685935681
 20
191.7471902670457
 30
0.0
  0
LINE
  5
E8
330
1F
100
AcDbEntity
  8
0
  6
Continuous
 62
     7
370
    15
100
AcDbLine
 10
207.217842623
 20
191.7025320683
 30
0.0
 11
207.4365453409
 21
191.747190267
 31
0.0
  0
LINE
  5
E9
330
1F
100
AcDbEntity
  8
0
  6
Continuous
 62
     7
370
    15
100
AcDbLine
 10
208.1517377561
 20
191.8168484658
 30
0.0
 11
207.8697284932
 21
191.772190267
 31
0.0
  0
SPLINE
  5
EA
330
1F
100
AcDbEntity
  8
0
  6
Continuous
 62
     7
370
    15
100
AcDbSpline
210
0.0
220
0.0
230
1.0
 70
     8
 71
     3
 72
     9
 73
     5
 74
     0
 42
0.00000001
 43
0.00000001
 40
0.0
 40
0.0
 40
0.0
 40
0.0
 40
0.0702005767036089
 40
0.9999999999999999
 40
0.9999999999999999
 40
0.9999999999999999
 40
0.9999999999999999
 10
207.8697284932222
 20
191.7721902670457
 30
0.0
 10
207.8630432050608
 20
191.7722348786725
 30
0.0
 10
207.7678119623088
 20
191.7728703667104
 30
0.0
 10
207.6744899673988
 20
191.7956593149
 30
0.0
 10
207.5877192303507
 20
191.8168484657842
 30
0.0
  0
LINE
  5
EB
330
1F
100
AcDbEntity
  8
0
  6
Continuous
 62
     7
370
    15
100
AcDbLine
 10
207.5877192304
 20
191.8168484658
 30
0.0
 11
207.5877192304
 21
192.2475320683
 31
0.0
  0
SPLINE
  5
EC
330
1F
100
AcDbEntity
  8
0
  6
Continuous
 62
     7
370
    15
100
AcDbSpline
210
0.0
220
0.0
230
1.0
 70
     8
 71
     3
 72
     9
 73
     5
 74
     0
 42
0.00000001
 43
0.00000001
 40
0.0
 40
0.0
 40
0.0
 40
0.0
 40
0.0702005767035062
 40
0.9999999999999999
 40
0.9999999999999999
 40
0.9999999999999999
 40
0.9999999999999999
 10
207.8697284932222
 20
192.2921902670457
 30
0.0
 10
207.8630432050608
 20
192.2921456554189
 30
0.0
 10
207.7678119623088
 20
192.2915101673808
 30
0.0
 10
207.6744899673988
 20
192.2687212191913
 30
0.0
 10
207.5877192303507
 20
192.2475320683072
 30
0.0
  0
LINE
  5
ED
330
1F
100
AcDbEntity
  8
0
  6
Continuous
 62
     7
370
    15
100
AcDbLine
 10
208.1517377561
 20
192.2475320683
 30
0.0
 11
207.8697284932
 21
192.292190267
 31
0.0
  0
LINE
  5
EE
330
1F
100
AcDbEntity
  8
0
  6
Continuous
 62
     7
370
    15
100
AcDbLine
 10
208.1517377561
 20
191.8168484658
 30
0.0
 11
208.1517377561
 21
192.2475320683
 31
0.0
  0
LINE
  5
EF
330
1F
100
AcDbEntity
  8
0
  6
Continuous
 62
     7
370
    15
100
AcDbLine
 10
207.5877192304
 20
191.8168484658
 30
0.0
 11
207.3933003523
 21
191.772190267
 31
0.0
  0
LINE
  5
F0
330
1F
100
AcDbEntity
  8
0
  6
Continuous
 62
     7
370
    15
100
AcDbLine
 10
207.8697284932
 20
191.772190267
 30
0.0
 11
207.3933003523
 21
191.772190267
 31
0.0
  0
LINE
  5
F1
330
1F
100
AcDbEntity
  8
0
  6
Continuous
 62
     7
370
    15
100
AcDbLine
 10
207.5877192304
 20
192.2475320683
 30
0.0
 11
207.3933003523
 21
192.292190267
 31
0.0
  0
SPLINE
  5
F2
330
1F
100
AcDbEntity
  8
0
  6
Continuous
 62
     7
370
    15
100
AcDbSpline
210
0.0
220
0.0
230
1.0
 70
     8
 71
     3
 72
     9
 73
     5
 74
     0
 42
0.00000001
 43
0.00000001
 40
0.0
 40
0.0
 40
0.0
 40
0.0
 40
0.2686336050554681
 40
1.0
 40
1.0
 40
1.0
 40
1.0
 10
208.2393281409188
 20
191.7721902670457
 30
0.0
 10
208.2313637239981
 20
191.7728531623041
 30
0.0
 10
208.2017158438715
 20
191.7753208180478
 30
0.0
 10
208.1728495750542
 20
191.7993062944078
 30
0.0
 10
208.1517377560937
 20
191.8168484657842
 30
0.0
  0
LINE
  5
F3
330
1F
100
AcDbEntity
  8
0
  6
Continuous
 62
     7
370
    15
100
AcDbLine
 10
208.2393281409
 20
191.772190267
 30
0.0
 11
207.8697284932
 21
191.772190267
 31
0.0
  0
SPLINE
  5
F4
330
1F
100
AcDbEntity
  8
0
  6
Continuous
 62
     7
370
    15
100
AcDbSpline
210
0.0
220
0.0
230
1.0
 70
     8
 71
     3
 72
     9
 73
     5
 74
     0
 42
0.00000001
 43
0.00000001
 40
0.0
 40
0.0
 40
0.0
 40
0.0
 40
0.268633605055417
 40
1.0
 40
1.0
 40
1.0
 40
1.0
 10
208.2393281409188
 20
192.2921902670457
 30
0.0
 10
208.2313637239981
 20
192.2915273717872
 30
0.0
 10
208.2017158438716
 20
192.2890597160436
 30
0.0
 10
208.1728495750542
 20
192.2650742396836
 30
0.0
 10
208.1517377560937
 20
192.2475320683072
 30
0.0
  0
SPLINE
  5
F5
330
1F
100
AcDbEntity
  8
0
  6
Continuous
 62
     7
370
    15
100
AcDbSpline
210
0.0
220
0.0
230
1.0
 70
     8
 71
     3
 72
     9
 73
     5
 74
     0
 42
0.00000001
 43
0.00000001
 40
0.0
 40
0.0
 40
0.0
 40
0.0
 40
0.0702005767035078
 40
1.0
 40
1.0
 40
1.0
 40
1.0
 10
207.3933003523042
 20
191.7721902670457
 30
0.0
 10
207.38869147453
 20
191.7722348786724
 30
0.0
 10
207.3230384843329
 20
191.7728703667105
 30
0.0
 10
207.2587017410546
 20
191.7956593149001
 30
0.0
 10
207.1988814742577
 20
191.8168484657842
 30
0.0
  0
LINE
  5
F6
330
1F
100
AcDbEntity
  8
0
  6
Continuous
 62
     7
370
    15
100
AcDbLine
 10
207.1988814743
 20
191.8168484658
 30
0.0
 11
207.1988814743
 21
191.852190267
 31
0.0
  0
SPLINE
  5
F7
330
1F
100
AcDbEntity
  8
0
  6
Continuous
 62
     7
370
    15
100
AcDbSpline
210
0.0
220
0.0
230
1.0
 70
     8
 71
     3
 72
     9
 73
     5
 74
     0
 42
0.00000001
 43
0.00000001
 40
0.0
 40
0.0
 40
0.0
 40
0.0
 40
0.5278771639349207
 40
0.9999999999999999
 40
0.9999999999999999
 40
0.9999999999999999
 40
0.9999999999999999
 10
207.3933003523042
 20
192.2921902670457
 30
0.0
 10
207.3886773778939
 20
192.2923829127769
 30
0.0
 10
207.379919707121
 20
192.2927478570184
 30
0.0
 10
207.3713370795194
 20
192.2901666884426
 30
0.0
 10
207.3672850250352
 20
192.2889480598143
 30
0.0
  0
SPLINE
  5
F8
330
1F
100
AcDbEntity
  8
0
  6
Continuous
 62
     7
370
    15
100
AcDbSpline
210
0.0
220
0.0
230
1.0
 70
     8
 71
     3
 72
     9
 73
     5
 74
     0
 42
0.00000001
 43
0.00000001
 40
0.0
 40
0.0
 40
0.0
 40
0.0
 40
0.2575513451039393
 40
0.9999999999999999
 40
0.9999999999999999
 40
0.9999999999999999
 40
0.9999999999999999
 10
208.3269185257439
 20
191.8168484657842
 30
0.0
 10
208.3195651607559
 20
191.8101069435067
 30
0.0
 10
208.2910140965592
 20
191.7839314938123
 30
0.0
 10
208.2613512680476
 20
191.7771931450331
 30
0.0
 10
208.2393281409188
 20
191.7721902670457
 30
0.0
  0
SPLINE
  5
F9
330
1F
100
AcDbEntity
  8
0
  6
Continuous
 62
     7
370
    15
100
AcDbSpline
210
0.0
220
0.0
230
1.0
 70
     8
 71
     3
 72
     9
 73
     5
 74
     0
 42
0.00000001
 43
0.00000001
 40
0.0
 40
0.0
 40
0.0
 40
0.0
 40
0.5569342110495471
 40
1.0
 40
1.0
 40
1.0
 40
1.0
 10
208.3269185257439
 20
192.2475320683072
 30
0.0
 10
208.3195937354928
 20
192.2547731659316
 30
0.0
 10
208.3064417507415
 20
192.2677748768712
 30
0.0
 10
208.2927756363335
 20
192.2717880010328
 30
0.0
 10
208.2867206485714
 20
192.2735660790557
 30
0.0
  0
LINE
  5
FA
330
1F
100
AcDbEntity
  8
0
  6
Continuous
 62
     7
370
    15
100
AcDbLine
 10
208.3269185257
 20
191.8168484658
 30
0.0
 11
208.3269185257
 21
192.2475320683
 31
0.0
  0
LINE
  5
FB
330
1F
100
AcDbEntity
  8
0
  6
Continuous
 62
     7
370
    15
100
AcDbLine
 10
207.2392738126
 20
191.7907981519
 30
0.0
 11
207.1988814743
 21
191.8168484658
 31
0.0
  0
LINE
  5
FC
330
1F
100
AcDbEntity
  8
0
  6
Continuous
 62
     7
370
    15
100
AcDbLine
 10
207.2629
 20
191.772190267
 30
0.0
 11
207.3933003523
 21
191.772190267
 31
0.0
  0
LINE
  5
FD
330
1F
100
AcDbEntity
  8
0
  6
Continuous
 62
     7
370
    15
100
AcDbLine
 10
208.2629
 20
191.772190267
 30
0.0
 11
208.2393281409
 21
191.772190267
 31
0.0
  0
LINE
  5
FE
330
1F
100
AcDbEntity
  8
0
  6
Continuous
 62
     7
370
    15
100
AcDbLine
 10
215.2629
 20
190.872190267
 30
0.0
 11
215.2629
 21
120.697190267
 31
0.0
  0
LINE
  5
FF
330
1F
100
AcDbEntity
  8
0
  6
Continuous
 62
     7
370
    15
100
AcDbLine
 10
215.2619
 20
190.872190267
 30
0.0
 11
215.2629
 21
190.872190267
 31
0.0
  0
LINE
  5
100
330
1F
100
AcDbEntity
  8
0
  6
Continuous
 62
     7
370
    15
100
AcDbLine
 10
215.2619
 20
120.6769665186
 30
0.0
 11
215.2629
 21
120.697190267
 31
0.0
  0
LINE
  5
101
330
1F
100
AcDbEntity
  8
0
  6
Continuous
 62
     7
370
    15
100
AcDbLine
 10
215.2619
 20
120.697190267
 30
0.0
 11
215.2629
 21
120.697190267
 31
0.0
  0
LINE
  5
102
330
1F
100
AcDbEntity
  8
0
  6
Continuous
 62
     7
370
    15
100
AcDbLine
 10
215.2629
 20
191.047190267
 30
0.0
 11
215.2629
 21
190.872190267
 31
0.0
  0
LINE
  5
103
330
1F
100
AcDbEntity
  8
0
  6
Continuous
 62
     7
370
    15
100
AcDbLine
 10
215.2629
 20
191.047190267
 30
0.0
 11
215.2609
 21
191.0757559808
 31
0.0
  0
ENDSEC
  0
SECTION
  2
OBJECTS
  0
DICTIONARY
  5
C
330
0
100
AcDbDictionary
281
     1
  3
ACAD_GROUP
350
D
  3
ACAD_LAYOUT
350
1A
  3
ACAD_MLINESTYLE
350
17
  3
ACAD_PLOTSETTINGS
350
19
  3
ACAD_PLOTSTYLENAME
350
E
  0
DICTIONARY
  5
D
102
{ACAD_REACTORS
330
C
102
}
330
C
100
AcDbDictionary
281
     1
  0
DICTIONARY
  5
1A
102
{ACAD_REACTORS
330
C
102
}
330
C
100
AcDbDictionary
281
     1
  3
Layout1
350
1E
  3
Layout2
350
26
  3
Model
350
22
  0
DICTIONARY
  5
17
102
{ACAD_REACTORS
330
C
102
}
330
C
100
AcDbDictionary
281
     1
  3
Standard
350
18
  0
DICTIONARY
  5
19
102
{ACAD_REACTORS
330
C
102
}
330
C
100
AcDbDictionary
281
     1
  0
ACDBDICTIONARYWDFLT
  5
E
102
{ACAD_REACTORS
330
C
102
}
330
C
100
AcDbDictionary
281
     1
  3
Normal
350
F
100
AcDbDictionaryWithDefault
340
F
  0
LAYOUT
  5
1E
102
{ACAD_REACTORS
330
1A
102
}
330
1A
100
AcDbPlotSettings
  1

  2
none_device
  4

  6

 40
0.0
 41
0.0
 42
0.0
 43
0.0
 44
0.0
 45
0.0
 46
0.0
 47
0.0
 48
0.0
 49
0.0
140
0.0
141
0.0
142
1.0
143
1.0
 70
   688
 72
     0
 73
     0
 74
     5
  7

 75
    16
147
1.0
148
0.0
149
0.0
100
AcDbLayout
  1
Layout1
 70
     1
 71
     1
 10
0.0
 20
0.0
 11
420.0
 21
297.0
 12
0.0
 22
0.0
 32
0.0
 14
1.0000000000E+20
 24
1.0000000000E+20
 34
1.0000000000E+20
 15
-1.0000000000E+20
 25
-1.0000000000E+20
 35
-1.0000000000E+20
146
0.0
 13
0.0
 23
0.0
 33
0.0
 16
1.0
 26
0.0
 36
0.0
 17
0.0
 27
1.0
 37
0.0
 76
     0
330
1B
  0
LAYOUT
  5
26
102
{ACAD_REACTORS
330
1A
102
}
330
1A
100
AcDbPlotSettings
  1

  2
none_device
  4

  6

 40
0.0
 41
0.0
 42
0.0
 43
0.0
 44
0.0
 45
0.0
 46
0.0
 47
0.0
 48
0.0
 49
0.0
140
0.0
141
0.0
142
1.0
143
1.0
 70
   688
 72
     0
 73
     0
 74
     5
  7

 75
    16
147
1.0
148
0.0
149
0.0
100
AcDbLayout
  1
Layout2
 70
     1
 71
     2
 10
0.0
 20
0.0
 11
0.0
 21
0.0
 12
0.0
 22
0.0
 32
0.0
 14
0.0
 24
0.0
 34
0.0
 15
0.0
 25
0.0
 35
0.0
146
0.0
 13
0.0
 23
0.0
 33
0.0
 16
1.0
 26
0.0
 36
0.0
 17
0.0
 27
1.0
 37
0.0
 76
     0
330
23
  0
LAYOUT
  5
22
102
{ACAD_REACTORS
330
1A
102
}
330
1A
100
AcDbPlotSettings
  1

  2
none_device
  4

  6

 40
0.0
 41
0.0
 42
0.0
 43
0.0
 44
0.0
 45
0.0
 46
0.0
 47
0.0
 48
0.0
 49
0.0
140
0.0
141
0.0
142
1.0
143
1.0
 70
  1712
 72
     0
 73
     0
 74
     0
  7

 75
     0
147
1.0
148
0.0
149
0.0
100
AcDbLayout
  1
Model
 70
     1
 71
     0
 10
0.0
 20
0.0
 11
420.0
 21
297.0
 12
0.0
 22
0.0
 32
0.0
 14
0.0
 24
0.0
 34
0.0
 15
420.0
 25
297.0
 35
0.0
146
0.0
 13
0.0
 23
0.0
 33
0.0
 16
1.0
 26
0.0
 36
0.0
 17
0.0
 27
1.0
 37
0.0
 76
     0
330
1F
331
29
  0
MLINESTYLE
  5
18
102
{ACAD_REACTORS
330
17
102
}
330
17
100
AcDbMlineStyle
  2
Standard
 70
     0
  3

 62
   256
 51
90.0
 52
90.0
 71
     2
 49
0.5
 62
   256
  6
BYLAYER
 49
-0.5
 62
   256
  6
BYLAYER
  0
ACDBPLACEHOLDER
  5
F
102
{ACAD_REACTORS
330
E
102
}
330
E
  0
ENDSEC
  0
EOF
