  0
SECTION
  2
HEADER
  9
$ACADVER
  1
AC1015
  9
$ACADMAINTVER
 70
     6
  9
$DWGCODEPAGE
  3
ANSI_1252
  9
$INSBASE
 10
0.0
 20
0.0
 30
0.0
  9
$EXTMIN
 10
0.0
 20
0.0
 30
0.0
  9
$EXTMAX
 10
420.0
 20
297.0
 30
0.0
  9
$LIMMIN
 10
0.0
 20
0.0
  9
$LIMMAX
 10
420.0
 20
297.0
  9
$ORTHOMODE
 70
     0
  9
$REGENMODE
 70
     1
  9
$FILLMODE
 70
     1
  9
$QTEXTMODE
 70
     0
  9
$MIRRTEXT
 70
     1
  9
$LTSCALE
 40
1.0
  9
$ATTMODE
 70
     1
  9
$TEXTSIZE
 40
3.5
  9
$TRACEWID
 40
1.0
  9
$TEXTSTYLE
  7
Standard
  9
$CLAYER
  8
0
  9
$CELTYPE
  6
ByLayer
  9
$CECOLOR
 62
   256
  9
$CELTSCALE
 40
1.0
  9
$DISPSILH
 70
     0
  9
$DIMSCALE
 40
1.0
  9
$DIMASZ
 40
3.302
  9
$DIMEXO
 40
1.0
  9
$DIMDLI
 40
3.75
  9
$DIMRND
 40
0.0
  9
$DIMDLE
 40
0.0
  9
$DIMEXE
 40
1.0
  9
$DIMTP
 40
0.0
  9
$DIMTM
 40
0.0
  9
$DIMTXT
 40
3.5
  9
$DIMCEN
 40
2.5
  9
$DIMTSZ
 40
0.0
  9
$DIMTOL
 70
     0
  9
$DIMLIM
 70
     0
  9
$DIMTIH
 70
     1
  9
$DIMTOH
 70
     1
  9
$DIMSE1
 70
     0
  9
$DIMSE2
 70
     0
  9
$DIMTAD
 70
     1
  9
$DIMZIN
 70
     0
  9
$DIMBLK
  1

  9
$DIMASO
 70
     1
  9
$DIMSHO
 70
     1
  9
$DIMPOST
  1

  9
$DIMAPOST
  1

  9
$DIMALT
 70
     0
  9
$DIMALTD
 70
     3
  9
$DIMALTF
 40
0.0393700787
  9
$DIMLFAC
 40
10.0
  9
$DIMTOFL
 70
     1
  9
$DIMTVP
 40
0.0
  9
$DIMTIX
 70
     0
  9
$DIMSOXD
 70
     0
  9
$DIMSAH
 70
     0
  9
$DIMBLK1
  1

  9
$DIMBLK2
  1

  9
$DIMSTYLE
  2
ISO-25
  9
$DIMCLRD
 70
     0
  9
$DIMCLRE
 70
     0
  9
$DIMCLRT
 70
     0
  9
$DIMTFAC
 40
1.0
  9
$DIMGAP
 40
1.524
  9
$DIMJUST
 70
     0
  9
$DIMSD1
 70
     0
  9
$DIMSD2
 70
     0
  9
$DIMTOLJ
 70
     0
  9
$DIMTZIN
 70
     0
  9
$DIMALTZ
 70
     0
  9
$DIMALTTZ
 70
     0
  9
$DIMUPT
 70
     0
  9
$DIMDEC
 70
     3
  9
$DIMTDEC
 70
     3
  9
$DIMALTU
 70
     2
  9
$DIMALTTD
 70
     3
  9
$DIMTXSTY
  7
Standard
  9
$DIMAUNIT
 70
     0
  9
$DIMADEC
 70
     2
  9
$DIMALTRND
 40
0.0
  9
$DIMAZIN
 70
     0
  9
$DIMDSEP
 70
    44
  9
$DIMATFIT
 70
     3
  9
$DIMFRAC
 70
     0
  9
$DIMLDRBLK
  1

  9
$DIMLUNIT
 70
     2
  9
$DIMLWD
 70
    -2
  9
$DIMLWE
 70
    -2
  9
$DIMTMOVE
 70
     0
  9
$LUNITS
 70
     2
  9
$LUPREC
 70
     8
  9
$SKETCHINC
 40
1.0
  9
$FILLETRAD
 40
10.0
  9
$AUNITS
 70
     0
  9
$AUPREC
 70
     8
  9
$MENU
  1
.
  9
$ELEVATION
 40
0.0
  9
$PELEVATION
 40
0.0
  9
$THICKNESS
 40
0.0
  9
$LIMCHECK
 70
     0
  9
$CHAMFERA
 40
10.0
  9
$CHAMFERB
 40
10.0
  9
$CHAMFERC
 40
20.0
  9
$CHAMFERD
 40
0.0
  9
$SKPOLY
 70
     0
  9
$TDCREATE
 40
2455855.523030104
  9
$TDUCREATE
 40
2455855.481363438
  9
$TDUPDATE
 40
2455855.523030116
  9
$TDUUPDATE
 40
2455855.481363449
  9
$TDINDWG
 40
0.0000000116
  9
$TDUSRTIMER
 40
0.0000000116
  9
$USRTIMER
 70
     1
  9
$ANGBASE
 50
0.0
  9
$ANGDIR
 70
     0
  9
$PDMODE
 70
     0
  9
$PDSIZE
 40
-1.0
  9
$PLINEWID
 40
0.0
  9
$SPLFRAME
 70
     0
  9
$SPLINETYPE
 70
     6
  9
$SPLINESEGS
 70
     8
  9
$HANDSEED
  5
FD
  9
$SURFTAB1
 70
     6
  9
$SURFTAB2
 70
     6
  9
$SURFTYPE
 70
     6
  9
$SURFU
 70
     6
  9
$SURFV
 70
     6
  9
$UCSBASE
  2

  9
$UCSNAME
  2

  9
$UCSORG
 10
0.0
 20
0.0
 30
0.0
  9
$UCSXDIR
 10
1.0
 20
0.0
 30
0.0
  9
$UCSYDIR
 10
0.0
 20
1.0
 30
0.0
  9
$UCSORTHOREF
  2

  9
$UCSORTHOVIEW
 70
     0
  9
$UCSORGTOP
 10
0.0
 20
0.0
 30
0.0
  9
$UCSORGBOTTOM
 10
0.0
 20
0.0
 30
0.0
  9
$UCSORGLEFT
 10
0.0
 20
0.0
 30
0.0
  9
$UCSORGRIGHT
 10
0.0
 20
0.0
 30
0.0
  9
$UCSORGFRONT
 10
0.0
 20
0.0
 30
0.0
  9
$UCSORGBACK
 10
0.0
 20
0.0
 30
0.0
  9
$PUCSBASE
  2

  9
$PUCSNAME
  2

  9
$PUCSORG
 10
0.0
 20
0.0
 30
0.0
  9
$PUCSXDIR
 10
1.0
 20
0.0
 30
0.0
  9
$PUCSYDIR
 10
0.0
 20
1.0
 30
0.0
  9
$PUCSORTHOREF
  2

  9
$PUCSORTHOVIEW
 70
     0
  9
$PUCSORGTOP
 10
0.0
 20
0.0
 30
0.0
  9
$PUCSORGBOTTOM
 10
0.0
 20
0.0
 30
0.0
  9
$PUCSORGLEFT
 10
0.0
 20
0.0
 30
0.0
  9
$PUCSORGRIGHT
 10
0.0
 20
0.0
 30
0.0
  9
$PUCSORGFRONT
 10
0.0
 20
0.0
 30
0.0
  9
$PUCSORGBACK
 10
0.0
 20
0.0
 30
0.0
  9
$USERI1
 70
     0
  9
$USERI2
 70
     0
  9
$USERI3
 70
     0
  9
$USERI4
 70
     0
  9
$USERI5
 70
     0
  9
$USERR1
 40
0.0
  9
$USERR2
 40
0.0
  9
$USERR3
 40
0.0
  9
$USERR4
 40
0.0
  9
$USERR5
 40
0.0
  9
$WORLDVIEW
 70
     1
  9
$SHADEDGE
 70
     3
  9
$SHADEDIF
 70
    70
  9
$TILEMODE
 70
     1
  9
$MAXACTVP
 70
    64
  9
$PINSBASE
 10
0.0
 20
0.0
 30
0.0
  9
$PLIMCHECK
 70
     0
  9
$PEXTMIN
 10
1.0000000000E+20
 20
1.0000000000E+20
 30
1.0000000000E+20
  9
$PEXTMAX
 10
-1.0000000000E+20
 20
-1.0000000000E+20
 30
-1.0000000000E+20
  9
$PLIMMIN
 10
0.0
 20
0.0
  9
$PLIMMAX
 10
420.0
 20
297.0
  9
$UNITMODE
 70
     0
  9
$VISRETAIN
 70
     1
  9
$PLINEGEN
 70
     0
  9
$PSLTSCALE
 70
     1
  9
$TREEDEPTH
 70
  3020
  9
$CMLSTYLE
  2
Standard
  9
$CMLJUST
 70
     0
  9
$CMLSCALE
 40
20.0
  9
$PROXYGRAPHICS
 70
     1
  9
$MEASUREMENT
 70
     1
  9
$CELWEIGHT
370
    -1
  9
$ENDCAPS
280
     0
  9
$JOINSTYLE
280
     0
  9
$LWDISPLAY
290
     1
  9
$INSUNITS
 70
     4
  9
$HYPERLINKBASE
  1

  9
$STYLESHEET
  1

  9
$XEDIT
290
     1
  9
$CEPSNTYPE
380
     0
  9
$PSTYLEMODE
290
     1
  9
$FINGERPRINTGUID
  2
{A42F814B-E2A1-40DF-B78E-BACC6148E36B}
  9
$VERSIONGUID
  2
{FAEB1C32-E019-11D5-929B-00C0DF256EC4}
  9
$EXTNAMES
290
     1
  9
$PSVPSCALE
 40
0.0
  9
$OLESTARTUP
290
     0
  0
ENDSEC
  0
SECTION
  2
CLASSES
  0
CLASS
  1
ACDBDICTIONARYWDFLT
  2
AcDbDictionaryWithDefault
  3
ObjectDBX Classes
 90
        0
280
     0
281
     0
  0
CLASS
  1
VISUALSTYLE
  2
AcDbVisualStyle
  3
ObjectDBX Classes
 90
     4095
280
     0
281
     0
  0
CLASS
  1
MATERIAL
  2
AcDbMaterial
  3
ObjectDBX Classes
 90
     1153
280
     0
281
     0
  0
CLASS
  1
ACDBPLACEHOLDER
  2
AcDbPlaceHolder
  3
ObjectDBX Classes
 90
        0
280
     0
281
     0
  0
CLASS
  1
LAYOUT
  2
AcDbLayout
  3
ObjectDBX Classes
 90
        0
280
     0
281
     0
  0
ENDSEC
  0
SECTION
  2
TABLES
  0
TABLE
  2
VPORT
  5
8
330
0
100
AcDbSymbolTable
 70
     1
  0
VPORT
  5
29
330
8
100
AcDbSymbolTableRecord
100
AcDbViewportTableRecord
  2
*Active
 70
     0
 10
0.0
 20
0.0
 11
1.0
 21
1.0
 12
210.0
 22
148.5
 13
0.0
 23
0.0
 14
10.0
 24
10.0
 15
10.0
 25
10.0
 16
0.0
 26
0.0
 36
1.0
 17
0.0
 27
0.0
 37
0.0
 40
297.0
 41
1.4141414141
 42
50.0
 43
0.0
 44
0.0
 50
0.0
 51
0.0
 71
     0
 72
  2000
 73
     1
 74
     3
 75
     0
 76
     0
 77
     0
 78
     0
281
     0
 65
     1
110
0.0
120
0.0
130
0.0
111
1.0
121
0.0
131
0.0
112
0.0
122
1.0
132
0.0
 79
     0
146
0.0
  0
ENDTAB
  0
TABLE
  2
LTYPE
  5
5
330
0
100
AcDbSymbolTable
 70
     6
  0
LTYPE
  5
14
330
5
100
AcDbSymbolTableRecord
100
AcDbLinetypeTableRecord
  2
ByBlock
 70
     0
  3

 72
    65
 73
     0
 40
0.0
  0
LTYPE
  5
15
330
5
100
AcDbSymbolTableRecord
100
AcDbLinetypeTableRecord
  2
ByLayer
 70
     0
  3

 72
    65
 73
     0
 40
0.0
  0
LTYPE
  5
16
330
5
100
AcDbSymbolTableRecord
100
AcDbLinetypeTableRecord
  2
Continuous
 70
     0
  3
Solid line
 72
    65
 73
     0
 40
0.0
  0
LTYPE
  5
3F
330
5
100
AcDbSymbolTableRecord
100
AcDbLinetypeTableRecord
  2
HIDDEN
 70
     0
  3
Hidden __ __ __ __ __ __ __ __ __ __ __ __ __ __
 72
    65
 73
     2
 40
1.905
 49
1.27
 74
     0
 49
-0.635
 74
     0
  0
LTYPE
  5
40
330
5
100
AcDbSymbolTableRecord
100
AcDbLinetypeTableRecord
  2
PHANTOM
 70
     0
  3
Phantom ______  __  __  ______  __  __  ______
 72
    65
 73
     6
 40
12.7
 49
6.35
 74
     0
 49
-1.27
 74
     0
 49
1.27
 74
     0
 49
-1.27
 74
     0
 49
1.27
 74
     0
 49
-1.27
 74
     0
  0
LTYPE
  5
41
330
5
100
AcDbSymbolTableRecord
100
AcDbLinetypeTableRecord
  2
CENTER
 70
     0
  3
Center ____ _ ____ _ ____ _ ____ _ ____ _ ____
 72
    65
 73
     4
 40
10.16
 49
6.35
 74
     0
 49
-1.27
 74
     0
 49
1.27
 74
     0
 49
-1.27
 74
     0
  0
LTYPE
  5
42
330
5
100
AcDbSymbolTableRecord
100
AcDbLinetypeTableRecord
  2
CENTERX2
 70
     0
  3
Center (2x) ________  __  ________  __  _____
 72
    65
 73
     4
 40
20.32
 49
12.7
 74
     0
 49
-2.54
 74
     0
 49
2.54
 74
     0
 49
-2.54
 74
     0
  0
LTYPE
  5
43
330
5
100
AcDbSymbolTableRecord
100
AcDbLinetypeTableRecord
  2
DOT2
 70
     0
  3
Dot (.5x) ........................................
 72
    65
 73
     2
 40
0.635
 49
0.0
 74
     0
 49
-0.635
 74
     0
  0
ENDTAB
  0
TABLE
  2
LAYER
  5
2
330
0
100
AcDbSymbolTable
 70
     4
  0
LAYER
  5
10
330
2
100
AcDbSymbolTableRecord
100
AcDbLayerTableRecord
  2
0
 70
     0
 62
     7
  6
Continuous
370
    -3
390
F
  0
LAYER
  5
44
330
2
100
AcDbSymbolTableRecord
100
AcDbLayerTableRecord
  2
FORMAT
 70
     0
 62
     7
  6
Continuous
370
    -3
390
F
  0
LAYER
  5
45
330
2
100
AcDbSymbolTableRecord
100
AcDbLayerTableRecord
  2
SLD-0
 70
     0
 62
     1
  6
Continuous
370
    -3
390
F
  0
LAYER
  5
46
330
2
100
AcDbSymbolTableRecord
100
AcDbLayerTableRecord
  2
WATERMARK
 70
     0
 62
    20
  6
Continuous
370
    -3
390
F
  0
ENDTAB
  0
TABLE
  2
STYLE
  5
3
330
0
100
AcDbSymbolTable
 70
     1
  0
STYLE
  5
11
330
3
100
AcDbSymbolTableRecord
100
AcDbTextStyleTableRecord
  2
Standard
 70
     0
 40
0.0
 41
1.0
 50
0.0
 71
     0
 42
2.5
  3
txt
  4

  0
ENDTAB
  0
TABLE
  2
VIEW
  5
6
330
0
100
AcDbSymbolTable
 70
     0
  0
ENDTAB
  0
TABLE
  2
UCS
  5
7
330
0
100
AcDbSymbolTable
 70
     0
  0
ENDTAB
  0
TABLE
  2
APPID
  5
9
330
0
100
AcDbSymbolTable
 70
     1
  0
APPID
  5
12
330
9
100
AcDbSymbolTableRecord
100
AcDbRegAppTableRecord
  2
ACAD
 70
     0
  0
ENDTAB
  0
TABLE
  2
DIMSTYLE
  5
A
330
0
100
AcDbSymbolTable
 70
     1
100
AcDbDimStyleTable
  0
DIMSTYLE
105
27
330
A
100
AcDbSymbolTableRecord
100
AcDbDimStyleTableRecord
  2
ISO-25
 70
     0
 41
2.5
 42
0.625
 43
3.75
 44
1.25
 73
     0
 74
     0
 77
     1
 78
     8
140
2.5
141
2.5
143
0.0393700787
147
0.625
171
     3
172
     1
178
     0
271
     2
272
     2
274
     3
278
    44
283
     0
284
     8
340
11
  0
ENDTAB
  0
TABLE
  2
BLOCK_RECORD
  5
1
330
0
100
AcDbSymbolTable
 70
     1
  0
BLOCK_RECORD
  5
1F
330
1
100
AcDbSymbolTableRecord
100
AcDbBlockTableRecord
  2
*Model_Space
340
22
  0
BLOCK_RECORD
  5
1B
330
1
100
AcDbSymbolTableRecord
100
AcDbBlockTableRecord
  2
*Paper_Space
340
1E
  0
BLOCK_RECORD
  5
23
330
1
100
AcDbSymbolTableRecord
100
AcDbBlockTableRecord
  2
*Paper_Space0
340
26
  0
ENDTAB
  0
ENDSEC
  0
SECTION
  2
BLOCKS
  0
BLOCK
  5
20
330
1F
100
AcDbEntity
  8
0
100
AcDbBlockBegin
  2
*Model_Space
 70
     0
 10
0.0
 20
0.0
 30
0.0
  3
*Model_Space
  1

  0
ENDBLK
  5
21
330
1F
100
AcDbEntity
  8
0
100
AcDbBlockEnd
  0
BLOCK
  5
1C
330
1B
100
AcDbEntity
 67
     1
  8
0
100
AcDbBlockBegin
  2
*Paper_Space
 70
     0
 10
0.0
 20
0.0
 30
0.0
  3
*Paper_Space
  1

  0
ENDBLK
  5
1D
330
1B
100
AcDbEntity
 67
     1
  8
0
100
AcDbBlockEnd
  0
BLOCK
  5
24
330
23
100
AcDbEntity
  8
0
100
AcDbBlockBegin
  2
*Paper_Space0
 70
     0
 10
0.0
 20
0.0
 30
0.0
  3
*Paper_Space0
  1

  0
ENDBLK
  5
25
330
23
100
AcDbEntity
  8
0
100
AcDbBlockEnd
  0
ENDSEC
  0
SECTION
  2
ENTITIES
  0
LINE
  5
47
330
1F
100
AcDbEntity
  8
0
  6
Continuous
 62
     7
370
    15
100
AcDbLine
 10
130.4021974844
 20
110.7194079727
 30
0.0
 11
190.1622017664
 21
110.7194079727
 31
0.0
  0
LINE
  5
48
330
1F
100
AcDbEntity
  8
0
  6
Continuous
 62
     7
370
    15
100
AcDbLine
 10
130.2812000555
 20
110.8394040435
 30
0.0
 11
130.4012020868
 21
110.8394040435
 31
0.0
  0
LINE
  5
49
330
1F
100
AcDbEntity
  8
0
  6
Continuous
 62
     7
370
    15
100
AcDbLine
 10
190.1632031244
 20
110.8394040435
 30
0.0
 11
190.2831991953
 21
110.8394040435
 31
0.0
  0
SPLINE
  5
4A
330
1F
100
AcDbEntity
  8
0
  6
Continuous
 62
     7
370
    15
100
AcDbSpline
210
0.0
220
0.0
230
1.0
 70
     8
 71
     3
 72
    13
 73
     9
 74
     0
 42
0.00000001
 43
0.00000001
 40
0.0
 40
0.0
 40
0.0
 40
0.0
 40
0.0634921401040024
 40
0.2470685467517013
 40
0.431139489800151
 40
0.6187674623122256
 40
0.8315755647191664
 40
1.0
 40
1.0
 40
1.0
 40
1.0
 10
183.0931147379087
 20
188.5167791217229
 30
0.0
 10
183.0931635427104
 20
188.5157565250134
 30
0.0
 10
183.0933534580513
 20
188.5117772689587
 30
0.0
 10
183.0920210125834
 20
188.5050207761718
 30
0.0
 10
183.089410932913
 20
188.4980131413408
 30
0.0
 10
183.086227368081
 20
188.493364656931
 30
0.0
 10
183.0839196496729
 20
188.4917601212587
 30
0.0
 10
183.0839968734227
 20
188.4918324334558
 30
0.0
 10
183.0840309900449
 20
188.4918643802068
 30
0.0
  0
ARC
  5
4B
330
1F
100
AcDbEntity
  8
0
  6
Continuous
 62
     7
370
    15
100
AcDbCircle
 10
183.1182951824
 20
189.026790267
 30
0.0
 40
0.0250000000000057
100
AcDbArc
 50
90.0
 51
180.0
  0
LINE
  5
4C
330
1F
100
AcDbEntity
  8
0
  6
Continuous
 62
     7
370
    15
100
AcDbLine
 10
183.0932935518
 20
189.026789245
 30
0.0
 11
183.0932935518
 21
188.5167910427
 31
0.0
  0
ARC
  5
4D
330
1F
100
AcDbEntity
  8
0
  6
Continuous
 62
     7
370
    15
100
AcDbCircle
 10
183.6239645996
 20
189.026790267
 30
0.0
 40
0.0250000000000057
100
AcDbArc
 50
0.0
 51
90.0
  0
LINE
  5
4E
330
1F
100
AcDbEntity
  8
0
  6
Continuous
 62
     7
370
    15
100
AcDbLine
 10
183.6489638132
 20
188.5167910427
 30
0.0
 11
183.6489638132
 21
189.026789245
 31
0.0
  0
ARC
  5
4F
330
1F
100
AcDbEntity
  8
0
  6
Continuous
 62
     7
370
    15
100
AcDbCircle
 10
183.6272
 20
188.466790267
 30
0.0
 40
0.0250000000000013
100
AcDbArc
 50
0.0
 51
52.7089330724
  0
ARC
  5
50
330
1F
100
AcDbEntity
  8
0
  6
Continuous
 62
     7
370
    15
100
AcDbCircle
 10
183.6272
 20
188.396790267
 30
0.0
 40
0.0249999999999773
100
AcDbArc
 50
270.0
 51
0.0
  0
LINE
  5
51
330
1F
100
AcDbEntity
  8
0
  6
Continuous
 62
     7
370
    15
100
AcDbLine
 10
183.652194385
 20
188.3967890113
 30
0.0
 11
183.652194385
 21
188.4667916864
 31
0.0
  0
LINE
  5
52
330
1F
100
AcDbEntity
  8
0
  6
Continuous
 62
     7
370
    15
100
AcDbLine
 10
181.9154342455
 20
189.026789245
 30
0.0
 11
181.9154342455
 21
188.5990901559
 31
0.0
  0
ARC
  5
53
330
1F
100
AcDbEntity
  8
0
  6
Continuous
 62
     7
370
    15
100
AcDbCircle
 10
181.9404354004
 20
189.026790267
 30
0.0
 40
0.0250000000000057
100
AcDbArc
 50
90.0
 51
180.0
  0
ARC
  5
54
330
1F
100
AcDbEntity
  8
0
  6
Continuous
 62
     7
370
    15
100
AcDbCircle
 10
183.6272
 20
188.586790267
 30
0.0
 40
0.0249999999999983
100
AcDbArc
 50
0.0
 51
29.4734267883
  0
LINE
  5
55
330
1F
100
AcDbEntity
  8
0
  6
Continuous
 62
     7
370
    15
100
AcDbLine
 10
183.652194385
 20
188.5167910427
 30
0.0
 11
183.652194385
 21
188.5867907375
 31
0.0
  0
SPLINE
  5
56
330
1F
100
AcDbEntity
  8
0
  6
Continuous
 62
     7
370
    15
100
AcDbSpline
210
0.0
220
0.0
230
1.0
 70
     8
 71
     3
 72
    13
 73
     9
 74
     0
 42
0.00000001
 43
0.00000001
 40
0.0
 40
0.0
 40
0.0
 40
0.0
 40
0.0546581507342336
 40
0.2134490898004693
 40
0.3745378360707942
 40
0.5444993021930478
 40
0.7475383319212566
 40
1.0
 40
1.0
 40
1.0
 40
1.0
 10
182.3867758554624
 20
188.4668006270787
 30
0.0
 10
182.3867263507093
 20
188.4677585078279
 30
0.0
 10
182.3865330264867
 20
188.471499190074
 30
0.0
 10
182.3879349908572
 20
188.4778847548039
 30
0.0
 10
182.390693532967
 20
188.4846235953305
 30
0.0
 10
182.3943959644567
 20
188.4893833921141
 30
0.0
 10
182.3978666869894
 20
188.4916695579229
 30
0.0
 10
182.3990527093998
 20
188.4917143721355
 30
0.0
 10
182.3997100633786
 20
188.4917392104527
 30
0.0
  0
LINE
  5
57
330
1F
100
AcDbEntity
  8
0
  6
Continuous
 62
     7
370
    15
100
AcDbLine
 10
182.3865851206
 20
187.9567905038
 30
0.0
 11
182.3865851206
 21
188.4667916864
 31
0.0
  0
ARC
  5
58
330
1F
100
AcDbEntity
  8
0
  6
Continuous
 62
     7
370
    15
100
AcDbCircle
 10
182.361585025
 20
187.956790267
 30
0.0
 40
0.0250000000000341
100
AcDbArc
 50
270.0
 51
0.0
  0
ARC
  5
59
330
1F
100
AcDbEntity
  8
0
  6
Continuous
 62
     7
370
    15
100
AcDbCircle
 10
181.8915879851
 20
187.956790267
 30
0.0
 40
0.0250000000000341
100
AcDbArc
 50
180.0
 51
270.0
  0
LINE
  5
5A
330
1F
100
AcDbEntity
  8
0
  6
Continuous
 62
     7
370
    15
100
AcDbLine
 10
181.8665822786
 20
188.4667916864
 30
0.0
 11
181.8665822786
 21
187.9567905038
 31
0.0
  0
ARC
  5
5B
330
1F
100
AcDbEntity
  8
0
  6
Continuous
 62
     7
370
    15
100
AcDbCircle
 10
181.9372
 20
188.586790267
 30
0.0
 40
0.0250000000000341
100
AcDbArc
 50
90.0
 51
180.0
  0
LINE
  5
5C
330
1F
100
AcDbEntity
  8
0
  6
Continuous
 62
     7
370
    15
100
AcDbLine
 10
183.6978157801
 20
187.9567905038
 30
0.0
 11
183.6978157801
 21
188.4667916864
 31
0.0
  0
ARC
  5
5D
330
1F
100
AcDbEntity
  8
0
  6
Continuous
 62
     7
370
    15
100
AcDbCircle
 10
183.6728120149
 20
187.956790267
 30
0.0
 40
0.0250000000000057
100
AcDbArc
 50
270.0
 51
0.0
  0
LINE
  5
5E
330
1F
100
AcDbEntity
  8
0
  6
Continuous
 62
     7
370
    15
100
AcDbLine
 10
183.3283742708
 20
189.1051335901
 30
0.0
 11
183.282204513
 21
189.1317887872
 31
0.0
  0
LINE
  5
5F
330
1F
100
AcDbEntity
  8
0
  6
Continuous
 62
     7
370
    15
100
AcDbLine
 10
182.2360357088
 20
188.6384471029
 30
0.0
 11
182.2822054667
 21
188.6117889255
 31
0.0
  0
LINE
  5
60
330
1F
100
AcDbEntity
  8
0
  6
Continuous
 62
     7
370
    15
100
AcDbLine
 10
182.2822054667
 20
189.1317887872
 30
0.0
 11
182.2360357088
 21
189.1051335901
 31
0.0
  0
LINE
  5
61
330
1F
100
AcDbEntity
  8
0
  6
Continuous
 62
     7
370
    15
100
AcDbLine
 10
182.2822054667
 20
187.8267897933
 30
0.0
 11
182.2732766909
 21
187.8216369718
 31
0.0
  0
LINE
  5
62
330
1F
100
AcDbEntity
  8
0
  6
Continuous
 62
     7
370
    15
100
AcDbLine
 10
182.2574576182
 20
187.8660722345
 30
0.0
 11
182.2822054667
 21
187.8517909616
 31
0.0
  0
LINE
  5
63
330
1F
100
AcDbEntity
  8
0
  6
Continuous
 62
     7
370
    15
100
AcDbLine
 10
183.282204513
 20
187.8517909616
 30
0.0
 11
183.3069404406
 21
187.8660722345
 31
0.0
  0
LINE
  5
64
330
1F
100
AcDbEntity
  8
0
  6
Continuous
 62
     7
370
    15
100
AcDbLine
 10
183.3069404406
 20
188.3575065702
 30
0.0
 11
183.282204513
 21
188.3717908233
 31
0.0
  0
LINE
  5
65
330
1F
100
AcDbEntity
  8
0
  6
Continuous
 62
     7
370
    15
100
AcDbLine
 10
183.082195167
 20
187.8267897933
 30
0.0
 11
183.082195167
 21
187.8517909616
 31
0.0
  0
LINE
  5
66
330
1F
100
AcDbEntity
  8
0
  6
Continuous
 62
     7
370
    15
100
AcDbLine
 10
182.4822028917
 20
187.8517909616
 30
0.0
 11
182.4822028917
 21
187.8267897933
 31
0.0
  0
LINE
  5
67
330
1F
100
AcDbEntity
  8
0
  6
Continuous
 62
     7
370
    15
100
AcDbLine
 10
190.0422056956
 20
181.9517924159
 30
0.0
 11
190.0382002634
 21
181.9517924159
 31
0.0
  0
LINE
  5
68
330
1F
100
AcDbEntity
  8
0
  6
Continuous
 62
     7
370
    15
100
AcDbLine
 10
130.5221995157
 20
181.9517924159
 30
0.0
 11
130.5261989874
 21
181.9517924159
 31
0.0
  0
LINE
  5
69
330
1F
100
AcDbEntity
  8
0
  6
Continuous
 62
     7
370
    15
100
AcDbLine
 10
190.0422056956
 20
181.9967879623
 30
0.0
 11
190.0422056956
 21
181.9517924159
 31
0.0
  0
LINE
  5
6A
330
1F
100
AcDbEntity
  8
0
  6
Continuous
 62
     7
370
    15
100
AcDbLine
 10
130.5221995157
 20
181.9517924159
 30
0.0
 11
130.5221995157
 21
181.9967879623
 31
0.0
  0
LINE
  5
6B
330
1F
100
AcDbEntity
  8
0
  6
Continuous
 62
     7
370
    15
100
AcDbLine
 10
190.1622017664
 20
110.7194079727
 30
0.0
 11
190.1622017664
 21
113.0494131416
 31
0.0
  0
LINE
  5
6C
330
1F
100
AcDbEntity
  8
0
  6
Continuous
 62
     7
370
    15
100
AcDbLine
 10
130.4021974844
 20
110.7194079727
 30
0.0
 11
130.4021974844
 21
113.0494131416
 31
0.0
  0
SPLINE
  5
6D
330
1F
100
AcDbEntity
  8
0
  6
Continuous
 62
     7
370
    15
100
AcDbSpline
210
0.0
220
0.0
230
1.0
 70
     8
 71
     3
 72
    11
 73
     7
 74
     0
 42
0.00000001
 43
0.00000001
 40
0.0
 40
0.0
 40
0.0
 40
0.0
 40
0.2708376423817263
 40
0.5189885930999811
 40
0.7564212428750298
 40
1.0
 40
1.0
 40
1.0
 40
1.0
 10
130.5261989874051
 20
113.1285681098363
 30
0.0
 10
130.4914141082471
 20
113.0552548132956
 30
0.0
 10
130.4247581023219
 20
112.914769302151
 30
0.0
 10
130.3448589001761
 20
112.710070034679
 30
0.0
 10
130.2915811629625
 20
112.5127801892575
 30
0.0
 10
130.2846897761568
 20
112.3826099738609
 30
0.0
 10
130.2812000555204
 20
112.3166932433507
 30
0.0
  0
LINE
  5
6E
330
1F
100
AcDbEntity
  8
0
  6
Continuous
 62
     7
370
    15
100
AcDbLine
 10
130.5261989874
 20
113.1285681098
 30
0.0
 11
130.5121978563
 21
113.0685700744
 31
0.0
  0
LINE
  5
6F
330
1F
100
AcDbEntity
  8
0
  6
Continuous
 62
     7
370
    15
100
AcDbLine
 10
130.4012020868
 20
112.3166932434
 30
0.0
 11
130.2812000555
 21
112.3166932434
 31
0.0
  0
LINE
  5
70
330
1F
100
AcDbEntity
  8
0
  6
Continuous
 62
     7
370
    15
100
AcDbLine
 10
189.978202228
 20
113.0685700744
 30
0.0
 11
189.978202228
 21
113.1285681098
 31
0.0
  0
LINE
  5
71
330
1F
100
AcDbEntity
  8
0
  6
Continuous
 62
     7
370
    15
100
AcDbLine
 10
190.1622017664
 20
113.0685700744
 30
0.0
 11
189.978202228
 21
113.0685700744
 31
0.0
  0
LINE
  5
72
330
1F
100
AcDbEntity
  8
0
  6
Continuous
 62
     7
370
    15
100
AcDbLine
 10
190.1622017664
 20
113.0494131416
 30
0.0
 11
190.1622017664
 21
113.0685700744
 31
0.0
  0
LINE
  5
73
330
1F
100
AcDbEntity
  8
0
  6
Continuous
 62
     7
370
    15
100
AcDbLine
 10
130.4021974844
 20
113.0494131416
 30
0.0
 11
130.4021974844
 21
113.0685700744
 31
0.0
  0
LINE
  5
74
330
1F
100
AcDbEntity
  8
0
  6
Continuous
 62
     7
370
    15
100
AcDbLine
 10
130.5861970228
 20
113.0685700744
 30
0.0
 11
130.4021974844
 21
113.0685700744
 31
0.0
  0
LINE
  5
75
330
1F
100
AcDbEntity
  8
0
  6
Continuous
 62
     7
370
    15
100
AcDbLine
 10
130.5261989874
 20
113.1285681098
 30
0.0
 11
130.5861970228
 21
113.1285681098
 31
0.0
  0
LINE
  5
76
330
1F
100
AcDbEntity
  8
0
  6
Continuous
 62
     7
370
    15
100
AcDbLine
 10
130.5861970228
 20
113.1285681098
 30
0.0
 11
130.5861970228
 21
113.0685700744
 31
0.0
  0
LINE
  5
77
330
1F
100
AcDbEntity
  8
0
  6
Continuous
 62
     7
370
    15
100
AcDbLine
 10
189.978202228
 20
113.1285681098
 30
0.0
 11
190.0382002634
 21
113.1285681098
 31
0.0
  0
SPLINE
  5
78
330
1F
100
AcDbEntity
  8
0
  6
Continuous
 62
     7
370
    15
100
AcDbSpline
210
0.0
220
0.0
230
1.0
 70
     8
 71
     3
 72
    11
 73
     7
 74
     0
 42
0.00000001
 43
0.00000001
 40
0.0
 40
0.0
 40
0.0
 40
0.0
 40
0.2708352140851832
 40
0.5189864719840191
 40
0.7564209413542661
 40
1.0
 40
1.0
 40
1.0
 40
1.0
 10
190.2831991953061
 20
112.3166932433507
 30
0.0
 10
190.2788872651742
 20
112.3900067040391
 30
0.0
 10
190.2706245530518
 20
112.5304932151456
 30
0.0
 10
190.2108678871305
 20
112.735192059004
 30
0.0
 10
190.1312350725263
 20
112.9324803551212
 30
0.0
 10
190.0694748467392
 20
113.0626512462295
 30
0.0
 10
190.0382002634214
 20
113.1285681098363
 30
0.0
  0
LINE
  5
79
330
1F
100
AcDbEntity
  8
0
  6
Continuous
 62
     7
370
    15
100
AcDbLine
 10
190.1632031244
 20
112.3166932434
 30
0.0
 11
190.2831991953
 21
112.3166932434
 31
0.0
  0
LINE
  5
7A
330
1F
100
AcDbEntity
  8
0
  6
Continuous
 62
     7
370
    15
100
AcDbLine
 10
190.1632031244
 20
112.3166932434
 30
0.0
 11
190.1622017664
 21
112.3349680274
 31
0.0
  0
LINE
  5
7B
330
1F
100
AcDbEntity
  8
0
  6
Continuous
 62
     7
370
    15
100
AcDbLine
 10
190.0517066759
 20
113.0685700744
 30
0.0
 11
190.0382002634
 21
113.1285681098
 31
0.0
  0
LINE
  5
7C
330
1F
100
AcDbEntity
  8
0
  6
Continuous
 62
     7
370
    15
100
AcDbLine
 10
190.0422056956
 20
181.9517924159
 30
0.0
 11
190.2831991953
 21
181.9517924159
 31
0.0
  0
LINE
  5
7D
330
1F
100
AcDbEntity
  8
0
  6
Continuous
 62
     7
370
    15
100
AcDbLine
 10
190.2831991953
 20
181.9517924159
 30
0.0
 11
190.2831991953
 21
112.3166932434
 31
0.0
  0
LINE
  5
7E
330
1F
100
AcDbEntity
  8
0
  6
Continuous
 62
     7
370
    15
100
AcDbLine
 10
130.2812000555
 20
112.3166932434
 30
0.0
 11
130.2812000555
 21
181.9517924159
 31
0.0
  0
LINE
  5
7F
330
1F
100
AcDbEntity
  8
0
  6
Continuous
 62
     7
370
    15
100
AcDbLine
 10
130.2812000555
 20
181.9517924159
 30
0.0
 11
130.5221995157
 21
181.9517924159
 31
0.0
  0
LINE
  5
80
330
1F
100
AcDbEntity
  8
0
  6
Continuous
 62
     7
370
    15
100
AcDbLine
 10
190.2831991953
 20
187.1267898649
 30
0.0
 11
190.2821978373
 21
187.1489031881
 31
0.0
  0
LINE
  5
81
330
1F
100
AcDbEntity
  8
0
  6
Continuous
 62
     7
370
    15
100
AcDbLine
 10
130.3622027678
 20
182.001788792
 30
0.0
 11
130.2812000555
 21
182.001788792
 31
0.0
  0
LINE
  5
82
330
1F
100
AcDbEntity
  8
0
  6
Continuous
 62
     7
370
    15
100
AcDbLine
 10
130.2812000555
 20
187.1267898649
 30
0.0
 11
130.2812000555
 21
182.001788792
 31
0.0
  0
LINE
  5
83
330
1F
100
AcDbEntity
  8
0
  6
Continuous
 62
     7
370
    15
100
AcDbLine
 10
190.2831991953
 20
187.1267898649
 30
0.0
 11
190.2831991953
 21
182.001788792
 31
0.0
  0
LINE
  5
84
330
1F
100
AcDbEntity
  8
0
  6
Continuous
 62
     7
370
    15
100
AcDbLine
 10
190.2021964831
 20
182.001788792
 30
0.0
 11
190.2831991953
 21
182.001788792
 31
0.0
  0
LINE
  5
85
330
1F
100
AcDbEntity
  8
0
  6
Continuous
 62
     7
370
    15
100
AcDbLine
 10
130.2822014136
 20
187.1489031881
 30
0.0
 11
130.2812000555
 21
187.1267898649
 31
0.0
  0
LINE
  5
86
330
1F
100
AcDbEntity
  8
0
  6
Continuous
 62
     7
370
    15
100
AcDbLine
 10
130.2812000555
 20
112.3166932434
 30
0.0
 11
130.2812000555
 21
110.8394040435
 31
0.0
  0
LINE
  5
87
330
1F
100
AcDbEntity
  8
0
  6
Continuous
 62
     7
370
    15
100
AcDbLine
 10
130.4012020868
 20
112.3166932434
 30
0.0
 11
130.4012020868
 21
110.8394040435
 31
0.0
  0
LINE
  5
88
330
1F
100
AcDbEntity
  8
0
  6
Continuous
 62
     7
370
    15
100
AcDbLine
 10
130.2812000555
 20
182.001788792
 30
0.0
 11
130.2812000555
 21
181.9517924159
 31
0.0
  0
LINE
  5
89
330
1F
100
AcDbEntity
  8
0
  6
Continuous
 62
     7
370
    15
100
AcDbLine
 10
130.4012020868
 20
181.9967879623
 30
0.0
 11
130.4012020868
 21
181.9517924159
 31
0.0
  0
LINE
  5
8A
330
1F
100
AcDbEntity
  8
0
  6
Continuous
 62
     7
370
    15
100
AcDbLine
 10
190.2831991953
 20
182.001788792
 30
0.0
 11
190.2831991953
 21
181.9517924159
 31
0.0
  0
LINE
  5
8B
330
1F
100
AcDbEntity
  8
0
  6
Continuous
 62
     7
370
    15
100
AcDbLine
 10
190.1632031244
 20
181.9967879623
 30
0.0
 11
190.1632031244
 21
181.9517924159
 31
0.0
  0
LINE
  5
8C
330
1F
100
AcDbEntity
  8
0
  6
Continuous
 62
     7
370
    15
100
AcDbLine
 10
190.2831991953
 20
112.3166932434
 30
0.0
 11
190.2831991953
 21
110.8394040435
 31
0.0
  0
LINE
  5
8D
330
1F
100
AcDbEntity
  8
0
  6
Continuous
 62
     7
370
    15
100
AcDbLine
 10
190.1632031244
 20
112.3166932434
 30
0.0
 11
190.1632031244
 21
110.8394040435
 31
0.0
  0
LINE
  5
8E
330
1F
100
AcDbEntity
  8
0
  6
Continuous
 62
     7
370
    15
100
AcDbLine
 10
130.4871996683
 20
187.4967916578
 30
0.0
 11
130.3622027678
 21
187.4967916578
 31
0.0
  0
LINE
  5
8F
330
1F
100
AcDbEntity
  8
0
  6
Continuous
 62
     7
370
    15
100
AcDbLine
 10
190.077205543
 20
187.4967916578
 30
0.0
 11
130.4871996683
 21
187.4967916578
 31
0.0
  0
LINE
  5
90
330
1F
100
AcDbEntity
  8
0
  6
Continuous
 62
     7
370
    15
100
AcDbLine
 10
190.2021964831
 20
187.4967916578
 30
0.0
 11
190.077205543
 21
187.4967916578
 31
0.0
  0
LINE
  5
91
330
1F
100
AcDbEntity
  8
0
  6
Continuous
 62
     7
370
    15
100
AcDbLine
 10
190.2021964831
 20
187.4967916578
 30
0.0
 11
190.2021964831
 21
187.2387333482
 31
0.0
  0
LINE
  5
92
330
1F
100
AcDbEntity
  8
0
  6
Continuous
 62
     7
370
    15
100
AcDbLine
 10
130.3622027678
 20
187.4967916578
 30
0.0
 11
130.3622027678
 21
187.2387333482
 31
0.0
  0
LINE
  5
93
330
1F
100
AcDbEntity
  8
0
  6
Continuous
 62
     7
370
    15
100
AcDbLine
 10
190.2021964831
 20
187.2387333482
 30
0.0
 11
190.2021964831
 21
183.9090360969
 31
0.0
  0
LINE
  5
94
330
1F
100
AcDbEntity
  8
0
  6
Continuous
 62
     7
370
    15
100
AcDbLine
 10
130.3622027678
 20
187.2387333482
 30
0.0
 11
130.3622027678
 21
183.9090360969
 31
0.0
  0
LINE
  5
95
330
1F
100
AcDbEntity
  8
0
  6
Continuous
 62
     7
370
    15
100
AcDbLine
 10
190.2821978373
 20
187.2494383424
 30
0.0
 11
190.2021964831
 21
187.2494383424
 31
0.0
  0
LINE
  5
96
330
1F
100
AcDbEntity
  8
0
  6
Continuous
 62
     7
370
    15
100
AcDbLine
 10
190.2821978373
 20
187.2494383424
 30
0.0
 11
190.2821978373
 21
183.9323295921
 31
0.0
  0
LINE
  5
97
330
1F
100
AcDbEntity
  8
0
  6
Continuous
 62
     7
370
    15
100
AcDbLine
 10
130.2822014136
 20
187.2494383424
 30
0.0
 11
130.2822014136
 21
183.9323295921
 31
0.0
  0
LINE
  5
98
330
1F
100
AcDbEntity
  8
0
  6
Continuous
 62
     7
370
    15
100
AcDbLine
 10
130.2822014136
 20
187.2494383424
 30
0.0
 11
130.3622027678
 21
187.2494383424
 31
0.0
  0
ARC
  5
99
330
1F
100
AcDbEntity
  8
0
  6
Continuous
 62
     7
370
    15
100
AcDbCircle
 10
130.4872
 20
187.291790267
 30
0.0
 40
0.2050000000000125
100
AcDbArc
 50
127.5718693197
 51
180.0
  0
ARC
  5
9A
330
1F
100
AcDbEntity
  8
0
  6
Continuous
 62
     7
370
    15
100
AcDbCircle
 10
190.0772
 20
187.291790267
 30
0.0
 40
0.2050000000000125
100
AcDbArc
 50
0.0
 51
52.4281306803
  0
LINE
  5
9B
330
1F
100
AcDbEntity
  8
0
  6
Continuous
 62
     7
370
    15
100
AcDbLine
 10
130.2822014136
 20
187.2917904228
 30
0.0
 11
130.2822014136
 21
187.2494383424
 31
0.0
  0
LINE
  5
9C
330
1F
100
AcDbEntity
  8
0
  6
Continuous
 62
     7
370
    15
100
AcDbLine
 10
190.2821978373
 20
187.2917904228
 30
0.0
 11
190.2821978373
 21
187.2494383424
 31
0.0
  0
LINE
  5
9D
330
1F
100
AcDbEntity
  8
0
  6
Continuous
 62
     7
370
    15
100
AcDbLine
 10
190.2021964831
 20
183.9090360969
 30
0.0
 11
190.2021964831
 21
181.9967879623
 31
0.0
  0
LINE
  5
9E
330
1F
100
AcDbEntity
  8
0
  6
Continuous
 62
     7
370
    15
100
AcDbLine
 10
190.2021964831
 20
181.9967879623
 30
0.0
 11
130.3622027678
 21
181.9967879623
 31
0.0
  0
LINE
  5
9F
330
1F
100
AcDbEntity
  8
0
  6
Continuous
 62
     7
370
    15
100
AcDbLine
 10
130.3622027678
 20
183.9090360969
 30
0.0
 11
130.3622027678
 21
181.9967879623
 31
0.0
  0
LINE
  5
A0
330
1F
100
AcDbEntity
  8
0
  6
Continuous
 62
     7
370
    15
100
AcDbLine
 10
190.2821978373
 20
182.0867909759
 30
0.0
 11
190.2021964831
 21
182.0867909759
 31
0.0
  0
LINE
  5
A1
330
1F
100
AcDbEntity
  8
0
  6
Continuous
 62
     7
370
    15
100
AcDbLine
 10
190.2821978373
 20
183.9323295921
 30
0.0
 11
190.2821978373
 21
182.0867909759
 31
0.0
  0
LINE
  5
A2
330
1F
100
AcDbEntity
  8
0
  6
Continuous
 62
     7
370
    15
100
AcDbLine
 10
130.2822014136
 20
182.0867909759
 30
0.0
 11
130.3622027678
 21
182.0867909759
 31
0.0
  0
LINE
  5
A3
330
1F
100
AcDbEntity
  8
0
  6
Continuous
 62
     7
370
    15
100
AcDbLine
 10
130.2822014136
 20
183.9323295921
 30
0.0
 11
130.2822014136
 21
182.0867909759
 31
0.0
  0
SPLINE
  5
A4
330
1F
100
AcDbEntity
  8
0
  6
Continuous
 62
     7
370
    15
100
AcDbSpline
210
0.0
220
0.0
230
1.0
 70
     8
 71
     3
 72
    13
 73
     9
 74
     0
 42
0.00000001
 43
0.00000001
 40
0.0
 40
0.0
 40
0.0
 40
0.0
 40
0.0075478373262478
 40
0.2722798192692541
 40
0.4815381004993664
 40
0.6613240349249855
 40
0.8304820350874411
 40
0.9999999999999999
 40
0.9999999999999999
 40
0.9999999999999999
 40
0.9999999999999999
 10
183.0633720201658
 20
188.3717908233068
 30
0.0
 10
183.0633401813859
 20
188.3717906503943
 30
0.0
 10
183.0621916328881
 20
188.3717844127684
 30
0.0
 10
183.0605030812212
 20
188.372967228341
 30
0.0
 10
183.0581568937805
 20
188.3772289560919
 30
0.0
 10
183.0565881547824
 20
188.3828009124659
 30
0.0
 10
183.0555032363807
 20
188.3894112126626
 30
0.0
 10
183.055368827255
 20
188.3943280031531
 30
0.0
 10
183.0553015512632
 20
188.3967890113256
 30
0.0
  0
LINE
  5
A5
330
1F
100
AcDbEntity
  8
0
  6
Continuous
 62
     7
370
    15
100
AcDbLine
 10
183.0633720202
 20
188.3717908233
 30
0.0
 11
182.3865851206
 21
188.3717908233
 31
0.0
  0
SPLINE
  5
A6
330
1F
100
AcDbEntity
  8
0
  6
Continuous
 62
     7
370
    15
100
AcDbSpline
210
0.0
220
0.0
230
1.0
 70
     8
 71
     3
 72
    13
 73
     9
 74
     0
 42
0.00000001
 43
0.00000001
 40
0.0
 40
0.0
 40
0.0
 40
0.0
 40
0.1695179649125587
 40
0.3386759650750144
 40
0.5184618995006335
 40
0.7277201807307458
 40
0.9924521626737521
 40
0.9999999999999999
 40
0.9999999999999999
 40
0.9999999999999999
 40
0.9999999999999999
 10
183.0553015512632
 20
188.466791686382
 30
0.0
 10
183.055368827255
 20
188.4692526945545
 30
0.0
 10
183.0555032363807
 20
188.474169485045
 30
0.0
 10
183.0565881547824
 20
188.4807797852418
 30
0.0
 10
183.0581568937806
 20
188.4863517416157
 30
0.0
 10
183.0605030812213
 20
188.4906134693666
 30
0.0
 10
183.0621916328877
 20
188.4917962849392
 30
0.0
 10
183.0633401813859
 20
188.4917900473133
 30
0.0
 10
183.0633720201658
 20
188.4917898744008
 30
0.0
  0
LINE
  5
A7
330
1F
100
AcDbEntity
  8
0
  6
Continuous
 62
     7
370
    15
100
AcDbLine
 10
182.4211081309
 20
188.4917898744
 30
0.0
 11
183.0633720202
 21
188.4917898744
 31
0.0
  0
LINE
  5
A8
330
1F
100
AcDbEntity
  8
0
  6
Continuous
 62
     7
370
    15
100
AcDbLine
 10
183.0553015513
 20
188.4667916864
 30
0.0
 11
183.0553015513
 21
188.3967890113
 31
0.0
  0
SPLINE
  5
A9
330
1F
100
AcDbEntity
  8
0
  6
Continuous
 62
     7
370
    15
100
AcDbSpline
210
0.0
220
0.0
230
1.0
 70
     8
 71
     3
 72
    12
 73
     8
 74
     0
 42
0.00000001
 43
0.00000001
 40
0.0
 40
0.0
 40
0.0
 40
0.0
 40
0.2289552968275059
 40
0.4594211491006227
 40
0.6825383533536697
 40
0.8947217436903951
 40
1.0
 40
1.0
 40
1.0
 40
1.0
 10
183.5421165270017
 20
188.3717908233068
 30
0.0
 10
183.5542981792117
 20
188.3735237651472
 30
0.0
 10
183.5787418532991
 20
188.3770010820848
 30
0.0
 10
183.6107342742388
 20
188.4043900774386
 30
0.0
 10
183.6336740200396
 20
188.4440945907544
 30
0.0
 10
183.6439603920316
 20
188.4841811654988
 30
0.0
 10
183.6448262221557
 20
188.508669947432
 30
0.0
 10
183.6451133531736
 20
188.5167910426519
 30
0.0
  0
LINE
  5
AA
330
1F
100
AcDbEntity
  8
0
  6
Continuous
 62
     7
370
    15
100
AcDbLine
 10
183.542116527
 20
188.3717908233
 30
0.0
 11
183.084042911
 21
188.3717908233
 31
0.0
  0
LINE
  5
AB
330
1F
100
AcDbEntity
  8
0
  6
Continuous
 62
     7
370
    15
100
AcDbLine
 10
183.1658920092
 20
189.0517904132
 30
0.0
 11
183.6239656252
 21
189.0517904132
 31
0.0
  0
LINE
  5
AC
330
1F
100
AcDbEntity
  8
0
  6
Continuous
 62
     7
370
    15
100
AcDbLine
 10
183.1182917399
 20
189.0517904132
 30
0.0
 11
183.1658920092
 21
189.0517904132
 31
0.0
  0
LINE
  5
AD
330
1F
100
AcDbEntity
  8
0
  6
Continuous
 62
     7
370
    15
100
AcDbLine
 10
183.084042911
 20
188.3717908233
 30
0.0
 11
183.0633720202
 21
188.3717908233
 31
0.0
  0
LINE
  5
AE
330
1F
100
AcDbEntity
  8
0
  6
Continuous
 62
     7
370
    15
100
AcDbLine
 10
183.0633720202
 20
188.4917898744
 30
0.0
 11
183.084042911
 21
188.4917898744
 31
0.0
  0
LINE
  5
AF
330
1F
100
AcDbEntity
  8
0
  6
Continuous
 62
     7
370
    15
100
AcDbLine
 10
183.6451133532
 20
188.5167910427
 30
0.0
 11
183.6489638132
 21
188.5167910427
 31
0.0
  0
LINE
  5
B0
330
1F
100
AcDbEntity
  8
0
  6
Continuous
 62
     7
370
    15
100
AcDbLine
 10
183.627196197
 20
188.3717908233
 30
0.0
 11
183.542116527
 21
188.3717908233
 31
0.0
  0
ARC
  5
B1
330
1F
100
AcDbEntity
  8
0
  6
Continuous
 62
     7
370
    15
100
AcDbCircle
 10
181.9861176937
 20
189.0284268895
 30
0.0
 40
0.0234418749098795
100
AcDbArc
 50
355.99406569
 51
85.3141824571
  0
LINE
  5
B2
330
1F
100
AcDbEntity
  8
0
  6
Continuous
 62
     7
370
    15
100
AcDbLine
 10
181.9880327028
 20
189.0517904132
 30
0.0
 11
182.2092255396
 21
189.0517904132
 31
0.0
  0
LINE
  5
B3
330
1F
100
AcDbEntity
  8
0
  6
Continuous
 62
     7
370
    15
100
AcDbLine
 10
181.9404324335
 20
189.0517904132
 30
0.0
 11
181.9880327028
 21
189.0517904132
 31
0.0
  0
SPLINE
  5
B4
330
1F
100
AcDbEntity
  8
0
  6
Continuous
 62
     7
370
    15
100
AcDbSpline
210
0.0
220
0.0
230
1.0
 70
     8
 71
     3
 72
    13
 73
     9
 74
     0
 42
0.00000001
 43
0.00000001
 40
0.0
 40
0.0
 40
0.0
 40
0.0
 40
0.1695269106257906
 40
0.3386360736557811
 40
0.5184528626085974
 40
0.7277031723948358
 40
0.9924475395574047
 40
1.0
 40
1.0
 40
1.0
 40
1.0
 10
182.4278434557126
 20
188.5867907374761
 30
0.0
 10
182.4277976310117
 20
188.5892514936464
 30
0.0
 10
182.427706094531
 20
188.5941669422005
 30
0.0
 10
182.4270221132139
 20
188.6007807823859
 30
0.0
 10
182.4260189655924
 20
188.606349782669
 30
0.0
 10
182.4245262006204
 20
188.6106130033741
 30
0.0
 10
182.4234666993383
 20
188.6117953373558
 30
0.0
 10
182.4227492757456
 20
188.6117890985356
 30
0.0
 10
182.4227293771909
 20
188.6117889254949
 30
0.0
  0
LINE
  5
B5
330
1F
100
AcDbEntity
  8
0
  6
Continuous
 62
     7
370
    15
100
AcDbLine
 10
182.4227293772
 20
188.6117889255
 30
0.0
 11
183.082195167
 21
188.6117889255
 31
0.0
  0
SPLINE
  5
B6
330
1F
100
AcDbEntity
  8
0
  6
Continuous
 62
     7
370
    15
100
AcDbSpline
210
0.0
220
0.0
230
1.0
 70
     8
 71
     3
 72
    13
 73
     9
 74
     0
 42
0.00000001
 43
0.00000001
 40
0.0
 40
0.0
 40
0.0
 40
0.0
 40
0.0075525640764532
 40
0.2722781355379643
 40
0.4815537890776354
 40
0.6613655931946396
 40
0.830410101616705
 40
0.9999999999999999
 40
0.9999999999999999
 40
0.9999999999999999
 40
0.9999999999999999
 10
182.422729377191
 20
188.4917898744008
 30
0.0
 10
182.4227492757059
 20
188.4917907116076
 30
0.0
 10
182.423466638776
 20
188.4918208938201
 30
0.0
 10
182.4245264285924
 20
188.4929514390905
 30
0.0
 10
182.4260188593151
 20
188.4972350984285
 30
0.0
 10
182.4270219495573
 20
188.5027998079624
 30
0.0
 10
182.4277062916647
 20
188.5094135210299
 30
0.0
 10
182.4277976852985
 20
188.5143292297684
 30
0.0
 10
182.4278434557126
 20
188.5167910426519
 30
0.0
  0
LINE
  5
B7
330
1F
100
AcDbEntity
  8
0
  6
Continuous
 62
     7
370
    15
100
AcDbLine
 10
183.0645283503
 20
188.4917898744
 30
0.0
 11
182.4227293772
 21
188.4917898744
 31
0.0
  0
LINE
  5
B8
330
1F
100
AcDbEntity
  8
0
  6
Continuous
 62
     7
370
    15
100
AcDbLine
 10
182.4278434557
 20
188.5167910427
 30
0.0
 11
182.4278434557
 21
188.5867907375
 31
0.0
  0
SPLINE
  5
B9
330
1F
100
AcDbEntity
  8
0
  6
Continuous
 62
     7
370
    15
100
AcDbSpline
210
0.0
220
0.0
230
1.0
 70
     8
 71
     3
 72
    12
 73
     8
 74
     0
 42
0.00000001
 43
0.00000001
 40
0.0
 40
0.0
 40
0.0
 40
0.0
 40
0.2289349608841539
 40
0.4594058421397901
 40
0.6825167208511728
 40
0.8947177736275055
 40
1.0
 40
1.0
 40
1.0
 40
1.0
 10
181.9827040476011
 20
188.6117889254949
 30
0.0
 10
181.969296711893
 20
188.6100556945041
 30
0.0
 10
181.9423920909122
 20
188.6065776043081
 30
0.0
 10
181.9071329088461
 20
188.5791901380959
 30
0.0
 10
181.8818377387092
 20
188.5394857939724
 30
0.0
 10
181.8704877248801
 20
188.499402595513
 30
0.0
 10
181.869524351958
 20
188.4749128530158
 30
0.0
 10
181.8692048830198
 20
188.466791686382
 30
0.0
  0
LINE
  5
BA
330
1F
100
AcDbEntity
  8
0
  6
Continuous
 62
     7
370
    15
100
AcDbLine
 10
181.9827040476
 20
188.6117889255
 30
0.0
 11
182.3997219843
 21
188.6117889255
 31
0.0
  0
LINE
  5
BB
330
1F
100
AcDbEntity
  8
0
  6
Continuous
 62
     7
370
    15
100
AcDbLine
 10
182.3085984034
 20
187.9317893356
 30
0.0
 11
181.8915923876
 21
187.9317893356
 31
0.0
  0
LINE
  5
BC
330
1F
100
AcDbEntity
  8
0
  6
Continuous
 62
     7
370
    15
100
AcDbLine
 10
182.3615869326
 20
187.9317893356
 30
0.0
 11
182.3085984034
 21
187.9317893356
 31
0.0
  0
LINE
  5
BD
330
1F
100
AcDbEntity
  8
0
  6
Continuous
 62
     7
370
    15
100
AcDbLine
 10
182.3997219843
 20
188.6117889255
 30
0.0
 11
182.4227293772
 21
188.6117889255
 31
0.0
  0
LINE
  5
BE
330
1F
100
AcDbEntity
  8
0
  6
Continuous
 62
     7
370
    15
100
AcDbLine
 10
182.4227293772
 20
188.4917898744
 30
0.0
 11
182.3997219843
 21
188.4917898744
 31
0.0
  0
LINE
  5
BF
330
1F
100
AcDbEntity
  8
0
  6
Continuous
 62
     7
370
    15
100
AcDbLine
 10
181.869204883
 20
188.4667916864
 30
0.0
 11
181.8665822786
 21
188.4667916864
 31
0.0
  0
LINE
  5
C0
330
1F
100
AcDbEntity
  8
0
  6
Continuous
 62
     7
370
    15
100
AcDbLine
 10
181.9372018618
 20
188.6117889255
 30
0.0
 11
181.9827040476
 21
188.6117889255
 31
0.0
  0
SPLINE
  5
C1
330
1F
100
AcDbEntity
  8
0
  6
Continuous
 62
     7
370
    15
100
AcDbSpline
210
0.0
220
0.0
230
1.0
 70
     8
 71
     3
 72
    11
 73
     7
 74
     0
 42
0.00000001
 43
0.00000001
 40
0.0
 40
0.0
 40
0.0
 40
0.0
 40
0.0449622299577568
 40
0.4391373148965347
 40
0.8140000640520773
 40
1.0
 40
1.0
 40
1.0
 40
1.0
 10
183.6521943849729
 20
188.5795070498845
 30
0.0
 10
183.6534963264281
 20
188.5785676675928
 30
0.0
 10
183.6662121342367
 20
188.5693929042943
 30
0.0
 10
183.6821009752314
 20
188.538481396708
 30
0.0
 10
183.6939599159752
 20
188.4995092713076
 30
0.0
 10
183.6948860426134
 20
188.4749397293139
 30
0.0
 10
183.6951931757139
 20
188.466791686382
 30
0.0
  0
ARC
  5
C2
330
1F
100
AcDbEntity
  8
0
  6
Continuous
 62
     7
370
    15
100
AcDbCircle
 10
183.621063777
 20
187.9556568788
 30
0.0
 40
0.0238994589985349
100
AcDbArc
 50
177.281264491
 51
267.0386185264
  0
LINE
  5
C3
330
1F
100
AcDbEntity
  8
0
  6
Continuous
 62
     7
370
    15
100
AcDbLine
 10
183.6728175921
 20
187.9317893356
 30
0.0
 11
183.6198290629
 21
187.9317893356
 31
0.0
  0
LINE
  5
C4
330
1F
100
AcDbEntity
  8
0
  6
Continuous
 62
     7
370
    15
100
AcDbLine
 10
183.6198290629
 20
187.9317893356
 30
0.0
 11
183.3462199015
 21
187.9317893356
 31
0.0
  0
LINE
  5
C5
330
1F
100
AcDbEntity
  8
0
  6
Continuous
 62
     7
370
    15
100
AcDbLine
 10
183.0072721285
 20
188.6564477056
 30
0.0
 11
182.7207883639
 21
188.6117889255
 31
0.0
  0
SPLINE
  5
C6
330
1F
100
AcDbEntity
  8
0
  6
Continuous
 62
     7
370
    15
100
AcDbSpline
210
0.0
220
0.0
230
1.0
 70
     8
 71
     3
 72
     9
 73
     5
 74
     0
 42
0.00000001
 43
0.00000001
 40
0.0
 40
0.0
 40
0.0
 40
0.0
 40
0.0701860814864965
 40
1.0
 40
1.0
 40
1.0
 40
1.0
 10
182.7207883638548
 20
188.6117889254949
 30
0.0
 10
182.7139981995184
 20
188.61183402647
 30
0.0
 10
182.6172530302117
 20
188.6124766179101
 30
0.0
 10
182.5224457795337
 20
188.635261761732
 30
0.0
 10
182.4342926782774
 20
188.6564477055928
 30
0.0
  0
LINE
  5
C7
330
1F
100
AcDbEntity
  8
0
  6
Continuous
 62
     7
370
    15
100
AcDbLine
 10
182.4342926783
 20
188.6564477056
 30
0.0
 11
182.4342926783
 21
189.0871329873
 31
0.0
  0
SPLINE
  5
C8
330
1F
100
AcDbEntity
  8
0
  6
Continuous
 62
     7
370
    15
100
AcDbSpline
210
0.0
220
0.0
230
1.0
 70
     8
 71
     3
 72
     9
 73
     5
 74
     0
 42
0.00000001
 43
0.00000001
 40
0.0
 40
0.0
 40
0.0
 40
0.0
 40
0.0701859692745817
 40
1.0
 40
1.0
 40
1.0
 40
1.0
 10
182.7207883638548
 20
189.1317887872121
 30
0.0
 10
182.7139981991194
 20
189.1317447143839
 30
0.0
 10
182.617252869454
 20
189.1311167708119
 30
0.0
 10
182.5224457075909
 20
189.1083250495552
 30
0.0
 10
182.4342926782774
 20
189.0871329873464
 30
0.0
  0
LINE
  5
C9
330
1F
100
AcDbEntity
  8
0
  6
Continuous
 62
     7
370
    15
100
AcDbLine
 10
183.0072721285
 20
189.0871329873
 30
0.0
 11
182.7207883639
 21
189.1317887872
 31
0.0
  0
LINE
  5
CA
330
1F
100
AcDbEntity
  8
0
  6
Continuous
 62
     7
370
    15
100
AcDbLine
 10
183.0072721285
 20
188.6564477056
 30
0.0
 11
183.0072721285
 21
189.0871329873
 31
0.0
  0
LINE
  5
CB
330
1F
100
AcDbEntity
  8
0
  6
Continuous
 62
     7
370
    15
100
AcDbLine
 10
183.0932935518
 20
188.6285139888
 30
0.0
 11
183.0072721285
 21
188.6564477056
 31
0.0
  0
SPLINE
  5
CC
330
1F
100
AcDbEntity
  8
0
  6
Continuous
 62
     7
370
    15
100
AcDbSpline
210
0.0
220
0.0
230
1.0
 70
     8
 71
     3
 72
     9
 73
     5
 74
     0
 42
0.00000001
 43
0.00000001
 40
0.0
 40
0.0
 40
0.0
 40
0.0
 40
0.2686323656189538
 40
1.0
 40
1.0
 40
1.0
 40
1.0
 10
183.1812223238157
 20
189.1317887872121
 30
0.0
 10
183.1654056846102
 20
189.1311262333697
 30
0.0
 10
183.1065273019957
 20
189.1286598371823
 30
0.0
 10
183.0491996891182
 20
189.1046748388427
 30
0.0
 10
183.0072721285032
 20
189.0871329873464
 30
0.0
  0
LINE
  5
CD
330
1F
100
AcDbEntity
  8
0
  6
Continuous
 62
     7
370
    15
100
AcDbLine
 10
182.7207883639
 20
189.1317887872
 30
0.0
 11
183.1812223238
 21
189.1317887872
 31
0.0
  0
LINE
  5
CE
330
1F
100
AcDbEntity
  8
0
  6
Continuous
 62
     7
370
    15
100
AcDbLine
 10
182.4342926783
 20
188.6564477056
 30
0.0
 11
182.3217591089
 21
188.6117889255
 31
0.0
  0
LINE
  5
CF
330
1F
100
AcDbEntity
  8
0
  6
Continuous
 62
     7
370
    15
100
AcDbLine
 10
182.4342926783
 20
189.0871329873
 30
0.0
 11
182.3217591089
 21
189.1317887872
 31
0.0
  0
LINE
  5
D0
330
1F
100
AcDbEntity
  8
0
  6
Continuous
 62
     7
370
    15
100
AcDbLine
 10
182.3217591089
 20
189.1317887872
 30
0.0
 11
182.7207883639
 21
189.1317887872
 31
0.0
  0
SPLINE
  5
D1
330
1F
100
AcDbEntity
  8
0
  6
Continuous
 62
     7
370
    15
100
AcDbSpline
210
0.0
220
0.0
230
1.0
 70
     8
 71
     3
 72
     9
 73
     5
 74
     0
 42
0.00000001
 43
0.00000001
 40
0.0
 40
0.0
 40
0.0
 40
0.0
 40
0.2575573316126437
 40
1.0
 40
1.0
 40
1.0
 40
1.0
 10
183.3551844400571
 20
189.0871329873464
 30
0.0
 10
183.3405782596086
 20
189.0938738251418
 30
0.0
 10
183.2838678551441
 20
189.1200460088384
 30
0.0
 10
183.2249588688166
 20
189.1267852712467
 30
0.0
 10
183.1812223238157
 20
189.1317887872121
 30
0.0
  0
LINE
  5
D2
330
1F
100
AcDbEntity
  8
0
  6
Continuous
 62
     7
370
    15
100
AcDbLine
 10
183.3551844401
 20
189.0517904132
 30
0.0
 11
183.3551844401
 21
189.0871329873
 31
0.0
  0
LINE
  5
D3
330
1F
100
AcDbEntity
  8
0
  6
Continuous
 62
     7
370
    15
100
AcDbLine
 10
182.2390993876
 20
188.6437548965
 30
0.0
 11
182.2092255396
 21
188.6564477056
 31
0.0
  0
LINE
  5
D4
330
1F
100
AcDbEntity
  8
0
  6
Continuous
 62
     7
370
    15
100
AcDbLine
 10
182.2092255396
 20
188.6564477056
 30
0.0
 11
182.2092255396
 21
189.0871329873
 31
0.0
  0
SPLINE
  5
D5
330
1F
100
AcDbEntity
  8
0
  6
Continuous
 62
     7
370
    15
100
AcDbSpline
210
0.0
220
0.0
230
1.0
 70
     8
 71
     3
 72
     9
 73
     5
 74
     0
 42
0.00000001
 43
0.00000001
 40
0.0
 40
0.0
 40
0.0
 40
0.0
 40
0.0702031698647527
 40
1.0
 40
1.0
 40
1.0
 40
1.0
 10
182.3217591089414
 20
189.1317887872121
 30
0.0
 10
182.3190915520833
 20
189.1317447336421
 30
0.0
 10
182.281093882416
 20
189.1311172182451
 30
0.0
 10
182.2438524787157
 20
189.1083250619871
 30
0.0
 10
182.2092255396055
 20
189.0871329873464
 30
0.0
  0
LINE
  5
D6
330
1F
100
AcDbEntity
  8
0
  6
Continuous
 62
     7
370
    15
100
AcDbLine
 10
183.3252986712
 20
189.0998257965
 30
0.0
 11
183.3551844401
 21
189.0871329873
 31
0.0
  0
LINE
  5
D7
330
1F
100
AcDbEntity
  8
0
  6
Continuous
 62
     7
370
    15
100
AcDbLine
 10
183.1812223238
 20
189.1317887872
 30
0.0
 11
183.282204513
 21
189.1317887872
 31
0.0
  0
LINE
  5
D8
330
1F
100
AcDbEntity
  8
0
  6
Continuous
 62
     7
370
    15
100
AcDbLine
 10
182.2822054667
 20
189.1317887872
 30
0.0
 11
182.3217591089
 21
189.1317887872
 31
0.0
  0
LINE
  5
D9
330
1F
100
AcDbEntity
  8
0
  6
Continuous
 62
     7
370
    15
100
AcDbLine
 10
182.3447903437
 20
187.4967916578
 30
0.0
 11
182.3447903437
 21
187.7821310132
 31
0.0
  0
SPLINE
  5
DA
330
1F
100
AcDbEntity
  8
0
  6
Continuous
 62
     7
370
    15
100
AcDbSpline
210
0.0
220
0.0
230
1.0
 70
     8
 71
     3
 72
     9
 73
     5
 74
     0
 42
0.00000001
 43
0.00000001
 40
0.0
 40
0.0
 40
0.0
 40
0.0
 40
0.0701937250745232
 40
1.0
 40
1.0
 40
1.0
 40
1.0
 10
182.6173266214536
 20
187.8267897933385
 30
0.0
 10
182.6108664171302
 20
187.8267457318253
 30
0.0
 10
182.518832487935
 20
187.8261180188328
 30
0.0
 10
182.4286461586056
 20
187.803324536314
 30
0.0
 10
182.3447903436826
 20
187.7821310132405
 30
0.0
  0
LINE
  5
DB
330
1F
100
AcDbEntity
  8
0
  6
Continuous
 62
     7
370
    15
100
AcDbLine
 10
182.8898509783
 20
187.7821310132
 30
0.0
 11
182.6173266215
 21
187.8267897933
 31
0.0
  0
LINE
  5
DC
330
1F
100
AcDbEntity
  8
0
  6
Continuous
 62
     7
370
    15
100
AcDbLine
 10
182.8898509783
 20
187.4967916578
 30
0.0
 11
182.8898509783
 21
187.7821310132
 31
0.0
  0
SPLINE
  5
DD
330
1F
100
AcDbEntity
  8
0
  6
Continuous
 62
     7
370
    15
100
AcDbSpline
210
0.0
220
0.0
230
1.0
 70
     8
 71
     3
 72
     9
 73
     5
 74
     0
 42
0.00000001
 43
0.00000001
 40
0.0
 40
0.0
 40
0.0
 40
0.0
 40
0.0701957760035947
 40
1.0
 40
1.0
 40
1.0
 40
1.0
 10
183.1085523409055
 20
187.8267897933385
 30
0.0
 10
183.1033682822814
 20
187.8267457341217
 30
0.0
 10
183.0295168496275
 20
187.8261180721842
 30
0.0
 10
182.957143771781
 20
187.8033245377952
 30
0.0
 10
182.8898509782957
 20
187.7821310132405
 30
0.0
  0
LINE
  5
DE
330
1F
100
AcDbEntity
  8
0
  6
Continuous
 62
     7
370
    15
100
AcDbLine
 10
182.6173266215
 20
187.8267897933
 30
0.0
 11
183.1085523409
 21
187.8267897933
 31
0.0
  0
LINE
  5
DF
330
1F
100
AcDbEntity
  8
0
  6
Continuous
 62
     7
370
    15
100
AcDbLine
 10
183.3272537035
 20
187.7821310132
 30
0.0
 11
183.1085523409
 21
187.8267897933
 31
0.0
  0
LINE
  5
E0
330
1F
100
AcDbEntity
  8
0
  6
Continuous
 62
     7
370
    15
100
AcDbLine
 10
183.3272537035
 20
187.4967916578
 30
0.0
 11
183.3272537035
 21
187.7821310132
 31
0.0
  0
SPLINE
  5
E1
330
1F
100
AcDbEntity
  8
0
  6
Continuous
 62
     7
370
    15
100
AcDbSpline
210
0.0
220
0.0
230
1.0
 70
     8
 71
     3
 72
     9
 73
     5
 74
     0
 42
0.00000001
 43
0.00000001
 40
0.0
 40
0.0
 40
0.0
 40
0.0
 40
0.2686360334923805
 40
0.9999999999999999
 40
0.9999999999999999
 40
0.9999999999999999
 40
0.9999999999999999
 10
182.2909673494504
 20
187.8267897933385
 30
0.0
 10
182.2958627121357
 20
187.8261273081976
 30
0.0
 10
182.3140857428346
 20
187.8236612014275
 30
0.0
 10
182.3318200849152
 20
187.7996742241135
 30
0.0
 10
182.3447903436826
 20
187.7821310132405
 30
0.0
  0
LINE
  5
E2
330
1F
100
AcDbEntity
  8
0
  6
Continuous
 62
     7
370
    15
100
AcDbLine
 10
182.2909673495
 20
187.8267897933
 30
0.0
 11
182.6173266215
 21
187.8267897933
 31
0.0
  0
SPLINE
  5
E3
330
1F
100
AcDbEntity
  8
0
  6
Continuous
 62
     7
370
    15
100
AcDbSpline
210
0.0
220
0.0
230
1.0
 70
     8
 71
     3
 72
     9
 73
     5
 74
     0
 42
0.00000001
 43
0.00000001
 40
0.0
 40
0.0
 40
0.0
 40
0.0
 40
0.2686333966243868
 40
1.0
 40
1.0
 40
1.0
 40
1.0
 10
183.2734307092832
 20
187.8267897933385
 30
0.0
 10
183.2783260804988
 20
187.8261272940408
 30
0.0
 10
183.2965493218275
 20
187.8236611103642
 30
0.0
 10
183.3142835103165
 20
187.7996742221785
 30
0.0
 10
183.3272537035154
 20
187.7821310132405
 30
0.0
  0
LINE
  5
E4
330
1F
100
AcDbEntity
  8
0
  6
Continuous
 62
     7
370
    15
100
AcDbLine
 10
183.1085523409
 20
187.8267897933
 30
0.0
 11
183.2813938898
 21
187.8267897933
 31
0.0
  0
LINE
  5
E5
330
1F
100
AcDbEntity
  8
0
  6
Continuous
 62
     7
370
    15
100
AcDbLine
 10
182.2371443552
 20
187.4967916578
 30
0.0
 11
182.2371443552
 21
187.7821310132
 31
0.0
  0
SPLINE
  5
E6
330
1F
100
AcDbEntity
  8
0
  6
Continuous
 62
     7
370
    15
100
AcDbSpline
210
0.0
220
0.0
230
1.0
 70
     8
 71
     3
 72
     9
 73
     5
 74
     0
 42
0.00000001
 43
0.00000001
 40
0.0
 40
0.0
 40
0.0
 40
0.0
 40
0.2575533787144113
 40
1.0
 40
1.0
 40
1.0
 40
1.0
 10
182.2371443552182
 20
187.7821310132405
 30
0.0
 10
182.2416632198877
 20
187.7888729736979
 30
0.0
 10
182.2592085718143
 20
187.8150499180309
 30
0.0
 10
182.2774351144516
 20
187.8217874990645
 30
0.0
 10
182.2909673494504
 20
187.8267897933385
 30
0.0
  0
LINE
  5
E7
330
1F
100
AcDbEntity
  8
0
  6
Continuous
 62
     7
370
    15
100
AcDbLine
 10
182.2371443552
 20
187.7821310132
 30
0.0
 11
182.4558457178
 21
187.8267897933
 31
0.0
  0
LINE
  5
E8
330
1F
100
AcDbEntity
  8
0
  6
Continuous
 62
     7
370
    15
100
AcDbLine
 10
183.1710418505
 20
187.8964497417
 30
0.0
 11
182.8890284342
 21
187.8517909616
 31
0.0
  0
SPLINE
  5
E9
330
1F
100
AcDbEntity
  8
0
  6
Continuous
 62
     7
370
    15
100
AcDbSpline
210
0.0
220
0.0
230
1.0
 70
     8
 71
     3
 72
     9
 73
     5
 74
     0
 42
0.00000001
 43
0.00000001
 40
0.0
 40
0.0
 40
0.0
 40
0.0
 40
0.0702142970728428
 40
1.0
 40
1.0
 40
1.0
 40
1.0
 10
182.8890284341977
 20
187.8517909615896
 30
0.0
 10
182.8823416248431
 20
187.8518350000646
 30
0.0
 10
182.787107325941
 20
187.8524622010325
 30
0.0
 10
182.6937848872058
 20
187.8752562038009
 30
0.0
 10
182.6070150179075
 20
187.8964497416875
 30
0.0
  0
LINE
  5
EA
330
1F
100
AcDbEntity
  8
0
  6
Continuous
 62
     7
370
    15
100
AcDbLine
 10
182.6070150179
 20
187.8964497417
 30
0.0
 11
182.6070150179
 21
188.3271320432
 31
0.0
  0
SPLINE
  5
EB
330
1F
100
AcDbEntity
  8
0
  6
Continuous
 62
     7
370
    15
100
AcDbSpline
210
0.0
220
0.0
230
1.0
 70
     8
 71
     3
 72
     9
 73
     5
 74
     0
 42
0.00000001
 43
0.00000001
 40
0.0
 40
0.0
 40
0.0
 40
0.0
 40
0.0702145262063661
 40
1.0
 40
1.0
 40
1.0
 40
1.0
 10
182.8890284341977
 20
188.3717908233068
 30
0.0
 10
182.8823416256454
 20
188.3717457541679
 30
0.0
 10
182.7871076489507
 20
188.3711038764644
 30
0.0
 10
182.6937850317537
 20
188.3483180104432
 30
0.0
 10
182.6070150179075
 20
188.3271320432088
 30
0.0
  0
LINE
  5
EC
330
1F
100
AcDbEntity
  8
0
  6
Continuous
 62
     7
370
    15
100
AcDbLine
 10
183.1710418505
 20
188.3271320432
 30
0.0
 11
182.8890284342
 21
188.3717908233
 31
0.0
  0
LINE
  5
ED
330
1F
100
AcDbEntity
  8
0
  6
Continuous
 62
     7
370
    15
100
AcDbLine
 10
183.1710418505
 20
187.8964497417
 30
0.0
 11
183.1710418505
 21
188.3271320432
 31
0.0
  0
LINE
  5
EE
330
1F
100
AcDbEntity
  8
0
  6
Continuous
 62
     7
370
    15
100
AcDbLine
 10
182.6070150179
 20
187.8964497417
 30
0.0
 11
182.4125965876
 21
187.8517909616
 31
0.0
  0
LINE
  5
EF
330
1F
100
AcDbEntity
  8
0
  6
Continuous
 62
     7
370
    15
100
AcDbLine
 10
182.8890284342
 20
187.8517909616
 30
0.0
 11
182.4125965876
 21
187.8517909616
 31
0.0
  0
LINE
  5
F0
330
1F
100
AcDbEntity
  8
0
  6
Continuous
 62
     7
370
    15
100
AcDbLine
 10
182.6070150179
 20
188.3271320432
 30
0.0
 11
182.4125965876
 21
188.3717908233
 31
0.0
  0
SPLINE
  5
F1
330
1F
100
AcDbEntity
  8
0
  6
Continuous
 62
     7
370
    15
100
AcDbSpline
210
0.0
220
0.0
230
1.0
 70
     8
 71
     3
 72
     9
 73
     5
 74
     0
 42
0.00000001
 43
0.00000001
 40
0.0
 40
0.0
 40
0.0
 40
0.0
 40
0.268621314871935
 40
0.9999999999999999
 40
0.9999999999999999
 40
0.9999999999999999
 40
0.9999999999999999
 10
183.258624915521
 20
187.8517909615896
 30
0.0
 10
183.2506630396682
 20
187.8524535257488
 30
0.0
 10
183.2210232627332
 20
187.8549200618073
 30
0.0
 10
183.1921552786957
 20
187.8789065416207
 30
0.0
 10
183.1710418504881
 20
187.8964497416875
 30
0.0
  0
LINE
  5
F2
330
1F
100
AcDbEntity
  8
0
  6
Continuous
 62
     7
370
    15
100
AcDbLine
 10
183.2586249155
 20
187.8517909616
 30
0.0
 11
182.8890284342
 21
187.8517909616
 31
0.0
  0
SPLINE
  5
F3
330
1F
100
AcDbEntity
  8
0
  6
Continuous
 62
     7
370
    15
100
AcDbSpline
210
0.0
220
0.0
230
1.0
 70
     8
 71
     3
 72
     9
 73
     5
 74
     0
 42
0.00000001
 43
0.00000001
 40
0.0
 40
0.0
 40
0.0
 40
0.0
 40
0.2686221754353654
 40
1.0
 40
1.0
 40
1.0
 40
1.0
 10
183.258624915521
 20
188.3717908233068
 30
0.0
 10
183.2506630442006
 20
188.3711270879255
 30
0.0
 10
183.2210233790931
 20
188.3686561996594
 30
0.0
 10
183.1921553135006
 20
188.3446728981168
 30
0.0
 10
183.1710418504881
 20
188.3271320432088
 30
0.0
  0
SPLINE
  5
F4
330
1F
100
AcDbEntity
  8
0
  6
Continuous
 62
     7
370
    15
100
AcDbSpline
210
0.0
220
0.0
230
1.0
 70
     8
 71
     3
 72
     9
 73
     5
 74
     0
 42
0.00000001
 43
0.00000001
 40
0.0
 40
0.0
 40
0.0
 40
0.0
 40
0.0701864060784426
 40
1.0
 40
1.0
 40
1.0
 40
1.0
 10
182.4125965875791
 20
187.8517909615896
 30
0.0
 10
182.4079889862466
 20
187.8518350312973
 30
0.0
 10
182.3423409271715
 20
187.8524629265007
 30
0.0
 10
182.2780016716539
 20
187.8752562239079
 30
0.0
 10
182.2181781572507
 20
187.8964497416875
 30
0.0
  0
LINE
  5
F5
330
1F
100
AcDbEntity
  8
0
  6
Continuous
 62
     7
370
    15
100
AcDbLine
 10
182.2181781573
 20
187.8964497417
 30
0.0
 11
182.2181781573
 21
187.9317893356
 31
0.0
  0
SPLINE
  5
F6
330
1F
100
AcDbEntity
  8
0
  6
Continuous
 62
     7
370
    15
100
AcDbSpline
210
0.0
220
0.0
230
1.0
 70
     8
 71
     3
 72
     9
 73
     5
 74
     0
 42
0.00000001
 43
0.00000001
 40
0.0
 40
0.0
 40
0.0
 40
0.0
 40
0.5278086776090865
 40
1.0
 40
1.0
 40
1.0
 40
1.0
 10
182.4125965875791
 20
188.3717908233068
 30
0.0
 10
182.4079748755523
 20
188.3719826690559
 30
0.0
 10
182.3992184601637
 20
188.3723461449842
 30
0.0
 10
182.3906371437461
 20
188.3697664433548
 30
0.0
 10
182.3865851205991
 20
188.368548330631
 30
0.0
  0
SPLINE
  5
F7
330
1F
100
AcDbEntity
  8
0
  6
Continuous
 62
     7
370
    15
100
AcDbSpline
210
0.0
220
0.0
230
1.0
 70
     8
 71
     3
 72
     9
 73
     5
 74
     0
 42
0.00000001
 43
0.00000001
 40
0.0
 40
0.0
 40
0.0
 40
0.0
 40
0.2575524608466386
 40
1.0
 40
1.0
 40
1.0
 40
1.0
 10
183.3462199014829
 20
187.8964497416875
 30
0.0
 10
183.3388653107073
 20
187.8897077809234
 30
0.0
 10
183.3103096108259
 20
187.8635307421099
 30
0.0
 10
183.2806474866337
 20
187.8567932190244
 30
0.0
 10
183.258624915521
 20
187.8517909615896
 30
0.0
  0
SPLINE
  5
F8
330
1F
100
AcDbEntity
  8
0
  6
Continuous
 62
     7
370
    15
100
AcDbSpline
210
0.0
220
0.0
230
1.0
 70
     8
 71
     3
 72
     9
 73
     5
 74
     0
 42
0.00000001
 43
0.00000001
 40
0.0
 40
0.0
 40
0.0
 40
0.0
 40
0.5569377595571303
 40
1.0
 40
1.0
 40
1.0
 40
1.0
 10
183.3462199014829
 20
188.3271320432088
 30
0.0
 10
183.3388932787172
 20
188.3343736044449
 30
0.0
 10
183.3257380874234
 20
188.3473760649745
 30
0.0
 10
183.312075781097
 20
188.3513892578292
 30
0.0
 10
183.3060225290464
 20
188.3531673520467
 30
0.0
  0
LINE
  5
F9
330
1F
100
AcDbEntity
  8
0
  6
Continuous
 62
     7
370
    15
100
AcDbLine
 10
183.3462199015
 20
187.8964497417
 30
0.0
 11
183.3462199015
 21
188.3271320432
 31
0.0
  0
LINE
  5
FA
330
1F
100
AcDbEntity
  8
0
  6
Continuous
 62
     7
370
    15
100
AcDbLine
 10
182.2585781855
 20
187.8703995317
 30
0.0
 11
182.2181781573
 21
187.8964497417
 31
0.0
  0
LINE
  5
FB
330
1F
100
AcDbEntity
  8
0
  6
Continuous
 62
     7
370
    15
100
AcDbLine
 10
182.2822054667
 20
187.8517909616
 30
0.0
 11
182.4125965876
 21
187.8517909616
 31
0.0
  0
LINE
  5
FC
330
1F
100
AcDbEntity
  8
0
  6
Continuous
 62
     7
370
    15
100
AcDbLine
 10
183.282204513
 20
187.8517909616
 30
0.0
 11
183.2586249155
 21
187.8517909616
 31
0.0
  0
ENDSEC
  0
SECTION
  2
OBJECTS
  0
DICTIONARY
  5
C
330
0
100
AcDbDictionary
281
     1
  3
ACAD_GROUP
350
D
  3
ACAD_LAYOUT
350
1A
  3
ACAD_MLINESTYLE
350
17
  3
ACAD_PLOTSETTINGS
350
19
  3
ACAD_PLOTSTYLENAME
350
E
  0
DICTIONARY
  5
D
102
{ACAD_REACTORS
330
C
102
}
330
C
100
AcDbDictionary
281
     1
  0
DICTIONARY
  5
1A
102
{ACAD_REACTORS
330
C
102
}
330
C
100
AcDbDictionary
281
     1
  3
Layout1
350
1E
  3
Layout2
350
26
  3
Model
350
22
  0
DICTIONARY
  5
17
102
{ACAD_REACTORS
330
C
102
}
330
C
100
AcDbDictionary
281
     1
  3
Standard
350
18
  0
DICTIONARY
  5
19
102
{ACAD_REACTORS
330
C
102
}
330
C
100
AcDbDictionary
281
     1
  0
ACDBDICTIONARYWDFLT
  5
E
102
{ACAD_REACTORS
330
C
102
}
330
C
100
AcDbDictionary
281
     1
  3
Normal
350
F
100
AcDbDictionaryWithDefault
340
F
  0
LAYOUT
  5
1E
102
{ACAD_REACTORS
330
1A
102
}
330
1A
100
AcDbPlotSettings
  1

  2
none_device
  4

  6

 40
0.0
 41
0.0
 42
0.0
 43
0.0
 44
0.0
 45
0.0
 46
0.0
 47
0.0
 48
0.0
 49
0.0
140
0.0
141
0.0
142
1.0
143
1.0
 70
   688
 72
     0
 73
     0
 74
     5
  7

 75
    16
147
1.0
148
0.0
149
0.0
100
AcDbLayout
  1
Layout1
 70
     1
 71
     1
 10
0.0
 20
0.0
 11
420.0
 21
297.0
 12
0.0
 22
0.0
 32
0.0
 14
1.0000000000E+20
 24
1.0000000000E+20
 34
1.0000000000E+20
 15
-1.0000000000E+20
 25
-1.0000000000E+20
 35
-1.0000000000E+20
146
0.0
 13
0.0
 23
0.0
 33
0.0
 16
1.0
 26
0.0
 36
0.0
 17
0.0
 27
1.0
 37
0.0
 76
     0
330
1B
  0
LAYOUT
  5
26
102
{ACAD_REACTORS
330
1A
102
}
330
1A
100
AcDbPlotSettings
  1

  2
none_device
  4

  6

 40
0.0
 41
0.0
 42
0.0
 43
0.0
 44
0.0
 45
0.0
 46
0.0
 47
0.0
 48
0.0
 49
0.0
140
0.0
141
0.0
142
1.0
143
1.0
 70
   688
 72
     0
 73
     0
 74
     5
  7

 75
    16
147
1.0
148
0.0
149
0.0
100
AcDbLayout
  1
Layout2
 70
     1
 71
     2
 10
0.0
 20
0.0
 11
0.0
 21
0.0
 12
0.0
 22
0.0
 32
0.0
 14
0.0
 24
0.0
 34
0.0
 15
0.0
 25
0.0
 35
0.0
146
0.0
 13
0.0
 23
0.0
 33
0.0
 16
1.0
 26
0.0
 36
0.0
 17
0.0
 27
1.0
 37
0.0
 76
     0
330
23
  0
LAYOUT
  5
22
102
{ACAD_REACTORS
330
1A
102
}
330
1A
100
AcDbPlotSettings
  1

  2
none_device
  4

  6

 40
0.0
 41
0.0
 42
0.0
 43
0.0
 44
0.0
 45
0.0
 46
0.0
 47
0.0
 48
0.0
 49
0.0
140
0.0
141
0.0
142
1.0
143
1.0
 70
  1712
 72
     0
 73
     0
 74
     0
  7

 75
     0
147
1.0
148
0.0
149
0.0
100
AcDbLayout
  1
Model
 70
     1
 71
     0
 10
0.0
 20
0.0
 11
420.0
 21
297.0
 12
0.0
 22
0.0
 32
0.0
 14
0.0
 24
0.0
 34
0.0
 15
420.0
 25
297.0
 35
0.0
146
0.0
 13
0.0
 23
0.0
 33
0.0
 16
1.0
 26
0.0
 36
0.0
 17
0.0
 27
1.0
 37
0.0
 76
     0
330
1F
331
29
  0
MLINESTYLE
  5
18
102
{ACAD_REACTORS
330
17
102
}
330
17
100
AcDbMlineStyle
  2
Standard
 70
     0
  3

 62
   256
 51
90.0
 52
90.0
 71
     2
 49
0.5
 62
   256
  6
BYLAYER
 49
-0.5
 62
   256
  6
BYLAYER
  0
ACDBPLACEHOLDER
  5
F
102
{ACAD_REACTORS
330
E
102
}
330
E
  0
ENDSEC
  0
EOF
